  0
SECTION
  2
HEADER
  9
$ACADVER
  1
AC1024
  9
$ACADMAINTVER
 70
     6
  9
$DWGCODEPAGE
  3
UNDEFINED
  9
$INSBASE
 10
0.0
 20
0.0
 30
0.0
  9
$EXTMIN
 10
1.000000000000000E+20
 20
1.000000000000000E+20
 30
1.000000000000000E+20
  9
$EXTMAX
 10
-1.000000000000000E+20
 20
-1.000000000000000E+20
 30
-1.000000000000000E+20
  9
$LIMMIN
 10
0.0
 20
0.0
  9
$LIMMAX
 10
12.0
 20
9.0
  9
$ORTHOMODE
 70
     0
  9
$REGENMODE
 70
     1
  9
$FILLMODE
 70
     1
  9
$QTEXTMODE
 70
     0
  9
$MIRRTEXT
 70
     1
  9
$LTSCALE
 40
1.0
  9
$ATTMODE
 70
     1
  9
$TEXTSIZE
 40
0.2
  9
$TRACEWID
 40
0.05
  9
$TEXTSTYLE
  7
Standard
  9
$CLAYER
  8
0
  9
$CELTYPE
  6
ByLayer
  9
$CECOLOR
 62
   256
  9
$CELTSCALE
 40
1.0
  9
$DISPSILH
 70
     0
  9
$DIMSCALE
 40
1.0
  9
$DIMASZ
 40
0.18
  9
$DIMEXO
 40
0.0625
  9
$DIMDLI
 40
0.38
  9
$DIMRND
 40
0.0
  9
$DIMDLE
 40
0.0
  9
$DIMEXE
 40
0.18
  9
$DIMTP
 40
0.0
  9
$DIMTM
 40
0.0
  9
$DIMTXT
 40
0.18
  9
$DIMCEN
 40
0.09
  9
$DIMTSZ
 40
0.0
  9
$DIMTOL
 70
     0
  9
$DIMLIM
 70
     0
  9
$DIMTIH
 70
     1
  9
$DIMTOH
 70
     1
  9
$DIMSE1
 70
     0
  9
$DIMSE2
 70
     0
  9
$DIMTAD
 70
     0
  9
$DIMZIN
 70
     0
  9
$DIMBLK
  1

  9
$DIMASO
 70
     1
  9
$DIMSHO
 70
     1
  9
$DIMPOST
  1

  9
$DIMAPOST
  1

  9
$DIMALT
 70
     0
  9
$DIMALTD
 70
     2
  9
$DIMALTF
 40
25.4
  9
$DIMLFAC
 40
1.0
  9
$DIMTOFL
 70
     0
  9
$DIMTVP
 40
0.0
  9
$DIMTIX
 70
     0
  9
$DIMSOXD
 70
     0
  9
$DIMSAH
 70
     0
  9
$DIMBLK1
  1

  9
$DIMBLK2
  1

  9
$DIMSTYLE
  2
Standard
  9
$DIMCLRD
 70
     0
  9
$DIMCLRE
 70
     0
  9
$DIMCLRT
 70
     0
  9
$DIMTFAC
 40
1.0
  9
$DIMGAP
 40
0.09
  9
$DIMJUST
 70
     0
  9
$DIMSD1
 70
     0
  9
$DIMSD2
 70
     0
  9
$DIMTOLJ
 70
     1
  9
$DIMTZIN
 70
     0
  9
$DIMALTZ
 70
     0
  9
$DIMALTTZ
 70
     0
  9
$DIMUPT
 70
     0
  9
$DIMDEC
 70
     4
  9
$DIMTDEC
 70
     4
  9
$DIMALTU
 70
     2
  9
$DIMALTTD
 70
     2
  9
$DIMTXSTY
  7
Standard
  9
$DIMAUNIT
 70
     0
  9
$DIMADEC
 70
     0
  9
$DIMALTRND
 40
0.0
  9
$DIMAZIN
 70
     0
  9
$DIMDSEP
 70
    46
  9
$DIMATFIT
 70
     3
  9
$DIMFRAC
 70
     0
  9
$DIMLDRBLK
  1

  9
$DIMLUNIT
 70
     2
  9
$DIMLWD
 70
    -2
  9
$DIMLWE
 70
    -2
  9
$DIMTMOVE
 70
     0
  9
$DIMFXL
 40
1.0
  9
$DIMFXLON
 70
     0
  9
$DIMJOGANG
 40
0.7853981633974483
  9
$DIMTFILL
 70
     0
  9
$DIMTFILLCLR
 70
     0
  9
$DIMARCSYM
 70
     0
  9
$DIMLTYPE
  6

  9
$DIMLTEX1
  6

  9
$DIMLTEX2
  6

  9
$DIMTXTDIRECTION
 70
     0
  9
$LUNITS
 70
     2
  9
$LUPREC
 70
     4
  9
$SKETCHINC
 40
0.1
  9
$FILLETRAD
 40
0.5
  9
$AUNITS
 70
     0
  9
$AUPREC
 70
     0
  9
$MENU
  1
.
  9
$ELEVATION
 40
0.0
  9
$PELEVATION
 40
0.0
  9
$THICKNESS
 40
0.0
  9
$LIMCHECK
 70
     0
  9
$CHAMFERA
 40
0.5
  9
$CHAMFERB
 40
0.5
  9
$CHAMFERC
 40
1.0
  9
$CHAMFERD
 40
0.0
  9
$SKPOLY
 70
     0
  9
$TDCREATE
 40
2457917.6215625
  9
$TDUCREATE
 40
2457917.2465625
  9
$TDUPDATE
 40
2457917.6215625
  9
$TDUUPDATE
 40
2457917.2465625
  9
$TDINDWG
 40
0.0000000116
  9
$TDUSRTIMER
 40
0.0000000116
  9
$USRTIMER
 70
     1
  9
$ANGBASE
 50
0.0
  9
$ANGDIR
 70
     0
  9
$PDMODE
 70
     0
  9
$PDSIZE
 40
0.0
  9
$PLINEWID
 40
0.0
  9
$SPLFRAME
 70
     0
  9
$SPLINETYPE
 70
     6
  9
$SPLINESEGS
 70
     8
  9
$HANDSEED
  5
C7
  9
$SURFTAB1
 70
     6
  9
$SURFTAB2
 70
     6
  9
$SURFTYPE
 70
     6
  9
$SURFU
 70
     6
  9
$SURFV
 70
     6
  9
$UCSBASE
  2

  9
$UCSNAME
  2

  9
$UCSORG
 10
0.0
 20
0.0
 30
0.0
  9
$UCSXDIR
 10
1.0
 20
0.0
 30
0.0
  9
$UCSYDIR
 10
0.0
 20
1.0
 30
0.0
  9
$UCSORTHOREF
  2

  9
$UCSORTHOVIEW
 70
     0
  9
$UCSORGTOP
 10
0.0
 20
0.0
 30
0.0
  9
$UCSORGBOTTOM
 10
0.0
 20
0.0
 30
0.0
  9
$UCSORGLEFT
 10
0.0
 20
0.0
 30
0.0
  9
$UCSORGRIGHT
 10
0.0
 20
0.0
 30
0.0
  9
$UCSORGFRONT
 10
0.0
 20
0.0
 30
0.0
  9
$UCSORGBACK
 10
0.0
 20
0.0
 30
0.0
  9
$PUCSBASE
  2

  9
$PUCSNAME
  2

  9
$PUCSORG
 10
0.0
 20
0.0
 30
0.0
  9
$PUCSXDIR
 10
1.0
 20
0.0
 30
0.0
  9
$PUCSYDIR
 10
0.0
 20
1.0
 30
0.0
  9
$PUCSORTHOREF
  2

  9
$PUCSORTHOVIEW
 70
     0
  9
$PUCSORGTOP
 10
0.0
 20
0.0
 30
0.0
  9
$PUCSORGBOTTOM
 10
0.0
 20
0.0
 30
0.0
  9
$PUCSORGLEFT
 10
0.0
 20
0.0
 30
0.0
  9
$PUCSORGRIGHT
 10
0.0
 20
0.0
 30
0.0
  9
$PUCSORGFRONT
 10
0.0
 20
0.0
 30
0.0
  9
$PUCSORGBACK
 10
0.0
 20
0.0
 30
0.0
  9
$USERI1
 70
     0
  9
$USERI2
 70
     0
  9
$USERI3
 70
     0
  9
$USERI4
 70
     0
  9
$USERI5
 70
     0
  9
$USERR1
 40
0.0
  9
$USERR2
 40
0.0
  9
$USERR3
 40
0.0
  9
$USERR4
 40
0.0
  9
$USERR5
 40
0.0
  9
$WORLDVIEW
 70
     1
  9
$SHADEDGE
 70
     3
  9
$SHADEDIF
 70
    70
  9
$TILEMODE
 70
     1
  9
$MAXACTVP
 70
    64
  9
$PINSBASE
 10
0.0
 20
0.0
 30
0.0
  9
$PLIMCHECK
 70
     0
  9
$PEXTMIN
 10
1.000000000000000E+20
 20
1.000000000000000E+20
 30
1.000000000000000E+20
  9
$PEXTMAX
 10
-1.000000000000000E+20
 20
-1.000000000000000E+20
 30
-1.000000000000000E+20
  9
$PLIMMIN
 10
0.0
 20
0.0
  9
$PLIMMAX
 10
12.0
 20
9.0
  9
$UNITMODE
 70
     0
  9
$VISRETAIN
 70
     1
  9
$PLINEGEN
 70
     0
  9
$PSLTSCALE
 70
     1
  9
$TREEDEPTH
 70
  3020
  9
$CMLSTYLE
  2
Standard
  9
$CMLJUST
 70
     0
  9
$CMLSCALE
 40
1.0
  9
$PROXYGRAPHICS
 70
     1
  9
$MEASUREMENT
 70
     0
  9
$CELWEIGHT
370
    -1
  9
$ENDCAPS
280
     0
  9
$JOINSTYLE
280
     0
  9
$LWDISPLAY
290
     1
  9
$INSUNITS
 70
     1
  9
$HYPERLINKBASE
  1

  9
$STYLESHEET
  1

  9
$XEDIT
290
     1
  9
$CEPSNTYPE
380
     0
  9
$PSTYLEMODE
290
     1
  9
$FINGERPRINTGUID
  2
{129AB2DD-BE44-9BEF-BB34-B2A9BC80C729}
  9
$VERSIONGUID
  2
{FAEB1C32-E019-11D5-929B-00C0DF256EC4}
  9
$EXTNAMES
290
     1
  9
$PSVPSCALE
 40
0.0
  9
$OLESTARTUP
290
     0
  9
$SORTENTS
280
   127
  9
$INDEXCTL
280
     0
  9
$HIDETEXT
280
     1
  9
$XCLIPFRAME
280
     2
  9
$HALOGAP
280
     0
  9
$OBSCOLOR
 70
   257
  9
$OBSLTYPE
280
     0
  9
$INTERSECTIONDISPLAY
280
     0
  9
$INTERSECTIONCOLOR
 70
   257
  9
$DIMASSOC
280
     2
  9
$PROJECTNAME
  1

  9
$CAMERADISPLAY
290
     0
  9
$LENSLENGTH
 40
50.0
  9
$CAMERAHEIGHT
 40
0.0
  9
$STEPSPERSEC
 40
2.0
  9
$STEPSIZE
 40
6.0
  9
$3DDWFPREC
 40
2.0
  9
$PSOLWIDTH
 40
0.25
  9
$PSOLHEIGHT
 40
4.0
  9
$LOFTANG1
 40
1.570796326794897
  9
$LOFTANG2
 40
1.570796326794897
  9
$LOFTMAG1
 40
0.0
  9
$LOFTMAG2
 40
0.0
  9
$LOFTPARAM
 70
     7
  9
$LOFTNORMALS
280
     1
  9
$LATITUDE
 40
37.795
  9
$LONGITUDE
 40
-122.394
  9
$NORTHDIRECTION
 40
0.0
  9
$TIMEZONE
 70
 -8000
  9
$LIGHTGLYPHDISPLAY
280
     1
  9
$TILEMODELIGHTSYNCH
280
     1
  9
$CMATERIAL
347
3C
  9
$SOLIDHIST
280
     1
  9
$SHOWHIST
280
     1
  9
$DWFFRAME
280
     2
  9
$DGNFRAME
280
     2
  9
$REALWORLDSCALE
290
     1
  9
$INTERFERECOLOR
 62
   256
  9
$CSHADOW
280
     0
  9
$SHADOWPLANELOCATION
 40
0.0
  0
ENDSEC
  0
SECTION
  2
CLASSES
  0
CLASS
  1
ACDBDICTIONARYWDFLT
  2
AcDbDictionaryWithDefault
  3
ObjectDBX Classes
 90
        0
 91
        4
280
     0
281
     0
  0
CLASS
  1
VISUALSTYLE
  2
AcDbVisualStyle
  3
ObjectDBX Classes
 90
     4095
 91
        4
280
     0
281
     0
  0
CLASS
  1
MATERIAL
  2
AcDbMaterial
  3
ObjectDBX Classes
 90
     1153
 91
        4
280
     0
281
     0
  0
CLASS
  1
SUN
  2
AcDbSun
  3
SCENEOE
 90
     1024
 91
        4
280
     0
281
     0
  0
ENDSEC
  0
SECTION
  2
TABLES
  0
TABLE
  2
VPORT
  5
8
330
0
100
AcDbSymbolTable
 70
     1
  0
VPORT
  5
29
330
8
100
AcDbSymbolTableRecord
100
AcDbViewportTableRecord
  2
*Active
 70
     0
 10
0.0
 20
0.0
 11
1.0
 21
1.0
 12
0.0
 22
0.0
 13
0.0
 23
0.0
 14
0.5
 24
0.5
 15
0.5
 25
0.5
 16
0.0
 26
0.0
 36
1.0
 17
91.00082462281999
 27
-128.4993055234307
 37
0.0
 40
256.9986110468615
 41
0.7081814508812795
 42
50.0
 43
0.0
 44
0.0
 50
0.0
 51
0.0
 71
     0
 72
   100
 73
     1
 74
     3
 75
     0
 76
     0
 77
     0
 78
     0
281
     0
 65
     1
110
0.0
120
0.0
130
0.0
111
1.0
121
0.0
131
0.0
112
0.0
122
1.0
132
0.0
 79
     0
146
0.0
 60
     3
 61
     5
292
     1
282
     1
141
0.0
142
0.0
 63
   250
361
3F
  0
ENDTAB
  0
TABLE
  2
LTYPE
  5
5
330
0
100
AcDbSymbolTable
 70
     1
  0
LTYPE
  5
14
330
5
100
AcDbSymbolTableRecord
100
AcDbLinetypeTableRecord
  2
ByBlock
 70
     0
  3

 72
    65
 73
     0
 40
0.0
  0
LTYPE
  5
15
330
5
100
AcDbSymbolTableRecord
100
AcDbLinetypeTableRecord
  2
ByLayer
 70
     0
  3

 72
    65
 73
     0
 40
0.0
  0
LTYPE
  5
16
330
5
100
AcDbSymbolTableRecord
100
AcDbLinetypeTableRecord
  2
Continuous
 70
     0
  3
Solid line
 72
    65
 73
     0
 40
0.0
  0
ENDTAB
  0
TABLE
  2
LAYER
  5
2
330
0
100
AcDbSymbolTable
 70
     2
  0
LAYER
  5
10
330
2
100
AcDbSymbolTableRecord
100
AcDbLayerTableRecord
  2
0
 70
     0
 62
     7
  6
Continuous
370
    -3
390
F
347
3E
  0
LAYER
  5
40
330
2
100
AcDbSymbolTableRecord
100
AcDbLayerTableRecord
  2
_U+30EC_U+30A4_U+30E4_U+30FC 1
 70
     0
 62
     7
  6
Continuous
370
    -3
390
F
347
3E
  0
ENDTAB
  0
TABLE
  2
STYLE
  5
3
330
0
100
AcDbSymbolTable
 70
     1
  0
STYLE
  5
11
330
3
100
AcDbSymbolTableRecord
100
AcDbTextStyleTableRecord
  2
Standard
 70
     0
 40
0.0
 41
1.0
 50
0.0
 71
     0
 42
0.2
  3
txt
  4

  0
ENDTAB
  0
TABLE
  2
VIEW
  5
6
330
0
100
AcDbSymbolTable
 70
     0
  0
ENDTAB
  0
TABLE
  2
UCS
  5
7
330
0
100
AcDbSymbolTable
 70
     0
  0
ENDTAB
  0
TABLE
  2
APPID
  5
9
330
0
100
AcDbSymbolTable
 70
     1
  0
APPID
  5
12
330
9
100
AcDbSymbolTableRecord
100
AcDbRegAppTableRecord
  2
ACAD
 70
     0
  0
ENDTAB
  0
TABLE
  2
DIMSTYLE
  5
A
330
0
100
AcDbSymbolTable
 70
     1
100
AcDbDimStyleTable
  0
DIMSTYLE
105
27
330
A
100
AcDbSymbolTableRecord
100
AcDbDimStyleTableRecord
  2
Standard
 70
     0
178
     0
340
11
  0
ENDTAB
  0
TABLE
  2
BLOCK_RECORD
  5
1
330
0
100
AcDbSymbolTable
 70
     4
  0
BLOCK_RECORD
  5
1F
330
1
100
AcDbSymbolTableRecord
100
AcDbBlockTableRecord
  2
*Model_Space
340
22
 70
     0
280
     1
281
     0
  0
BLOCK_RECORD
  5
1B
330
1
100
AcDbSymbolTableRecord
100
AcDbBlockTableRecord
  2
*Paper_Space
340
1E
 70
     0
280
     1
281
     0
  0
BLOCK_RECORD
  5
23
330
1
100
AcDbSymbolTableRecord
100
AcDbBlockTableRecord
  2
*Paper_Space0
340
26
 70
     0
280
     1
281
     0
  0
BLOCK_RECORD
  5
6F
330
1
100
AcDbSymbolTableRecord
100
AcDbBlockTableRecord
  2
block 2
340
0
102
{BLKREFS
331
70
102
}
 70
     0
280
     1
281
     0
  0
BLOCK_RECORD
  5
91
330
1
100
AcDbSymbolTableRecord
100
AcDbBlockTableRecord
  2
block 3
340
0
102
{BLKREFS
331
92
102
}
 70
     0
280
     1
281
     0
  0
BLOCK_RECORD
  5
A8
330
1
100
AcDbSymbolTableRecord
100
AcDbBlockTableRecord
  2
block 4
340
0
102
{BLKREFS
331
A9
102
}
 70
     0
280
     1
281
     0
  0
ENDTAB
  0
ENDSEC
  0
SECTION
  2
BLOCKS
  0
BLOCK
  5
20
330
1F
100
AcDbEntity
  8
0
100
AcDbBlockBegin
  2
*Model_Space
 70
     0
 10
0.0
 20
0.0
 30
0.0
  3
*Model_Space
  1

  0
ENDBLK
  5
21
330
1F
100
AcDbEntity
  8
0
100
AcDbBlockEnd
  0
BLOCK
  5
1C
330
1B
100
AcDbEntity
 67
     1
  8
0
100
AcDbBlockBegin
  2
*Paper_Space
 70
     0
 10
0.0
 20
0.0
 30
0.0
  3
*Paper_Space
  1

  0
ENDBLK
  5
1D
330
1B
100
AcDbEntity
 67
     1
  8
0
100
AcDbBlockEnd
  0
BLOCK
  5
24
330
23
100
AcDbEntity
  8
0
100
AcDbBlockBegin
  2
*Paper_Space0
 70
     0
 10
0.0
 20
0.0
 30
0.0
  3
*Paper_Space0
  1

  0
ENDBLK
  5
25
330
23
100
AcDbEntity
  8
0
100
AcDbBlockEnd
  0
BLOCK
  5
71
330
6F
100
AcDbEntity
  8
0
100
AcDbBlockBegin
  2
block 2
 70
     0
 10
0.0
 20
0.0
 30
0.0
  3
block 2
  1

  0
SPLINE
  5
73
330
6F
100
AcDbEntity
  8
_U+30EC_U+30A4_U+30E4_U+30FC 1
370
     0
100
AcDbSpline
210
0.0
220
0.0
230
1.0
 70
    11
 71
     3
 72
    29
 73
    25
 74
     0
 42
0.0000000001
 43
0.0000000001
 12
1.0
 22
0.0
 32
0.0
 13
1.0
 23
0.0
 33
0.0
 40
0.0
 40
0.0
 40
0.0
 40
0.0
 40
1.0
 40
1.0
 40
1.0
 40
2.0
 40
2.0
 40
2.0
 40
3.0
 40
3.0
 40
3.0
 40
4.0
 40
4.0
 40
4.0
 40
5.0
 40
5.0
 40
5.0
 40
6.0
 40
6.0
 40
6.0
 40
7.0
 40
7.0
 40
7.0
 40
8.0
 40
8.0
 40
8.0
 40
8.0
 10
107.3581325686466
 20
-138.2599500522406
 30
0.0
 10
107.5675943741498
 20
-138.3677815409289
 30
0.0
 10
107.5865423993186
 20
-138.5414143533855
 30
0.0
 10
107.5865423993186
 20
-138.6578585807869
 30
0.0
 10
107.5865423993186
 20
-138.8184000303996
 30
0.0
 10
107.5400336102678
 20
-138.9603379643919
 30
0.0
 10
107.3581325686466
 20
-139.0554225997847
 30
0.0
 10
107.16348467373
 20
-139.1591199738908
 30
0.0
 10
106.9264621043448
 20
-139.1780679990597
 30
0.0
 10
106.7635090878925
 20
-139.1780679990597
 30
0.0
 10
106.6198486061575
 20
-139.1780679990597
 30
0.0
 10
106.3680121261858
 20
-139.1611870311819
 30
0.0
 10
106.1692301166869
 20
-139.0554225997847
 30
0.0
 10
105.9659694830571
 20
-138.9475911110964
 30
0.0
 10
105.942887343306
 20
-138.7867051519353
 30
0.0
 10
105.942887343306
 20
-138.6578585807869
 30
0.0
 10
105.942887343306
 20
-138.4990396789169
 30
0.0
 10
105.9873290750657
 20
-138.3550346876335
 30
0.0
 10
106.1692301166869
 20
-138.2599500522406
 30
0.0
 10
106.3618109543123
 20
-138.1607313022654
 30
0.0
 10
106.5902207849844
 20
-138.1373046529657
 30
0.0
 10
106.7635090878925
 20
-138.1373046529657
 30
0.0
 10
106.9350748430579
 20
-138.1373046529657
 30
0.0
 10
107.1655517310211
 20
-138.1583197354257
 30
0.0
 10
107.3581325686466
 20
-138.2599500522406
 30
0.0
  0
SPLINE
  5
74
330
6F
100
AcDbEntity
  8
_U+30EC_U+30A4_U+30E4_U+30FC 1
370
     0
100
AcDbSpline
210
0.0
220
0.0
230
1.0
 70
    11
 71
     3
 72
    17
 73
    13
 74
     0
 42
0.0000000001
 43
0.0000000001
 12
1.0
 22
0.0
 32
0.0
 13
1.0
 23
0.0
 33
0.0
 40
0.0
 40
0.0
 40
0.0
 40
0.0
 40
1.0
 40
1.0
 40
1.0
 40
2.0
 40
2.0
 40
2.0
 40
3.0
 40
3.0
 40
3.0
 40
4.0
 40
4.0
 40
4.0
 40
4.0
 10
106.1351236713829
 20
-138.6578585807869
 30
0.0
 10
106.1351236713829
 20
-138.907283493919
 30
0.0
 10
106.418655029819
 20
-138.9537922829699
 30
0.0
 10
106.7635090878925
 20
-138.9537922829699
 30
0.0
 10
107.0832139489236
 20
-138.9537922829699
 30
0.0
 10
107.391894504402
 20
-138.9179632899233
 30
0.0
 10
107.391894504402
 20
-138.6578585807869
 30
0.0
 10
107.391894504402
 20
-138.4101562153975
 30
0.0
 10
107.1104302032571
 20
-138.3615803690554
 30
0.0
 10
106.7635090878925
 20
-138.3615803690554
 30
0.0
 10
106.4441487364098
 20
-138.3615803690554
 30
0.0
 10
106.1351236713829
 20
-138.3994764193932
 30
0.0
 10
106.1351236713829
 20
-138.6578585807869
 30
0.0
  0
HATCH
  5
75
330
6F
100
AcDbEntity
  8
_U+30EC_U+30A4_U+30E4_U+30FC 1
 62
   179
420
  2234388
100
AcDbHatch
 10
0.0
 20
0.0
 30
0.0
210
0.0
220
0.0
230
1.0
  2
SOLID
 70
     1
 71
     0
 91
        2
 92
        1
 93
        1
 72
     4
 94
        3
 73
     0
 74
     1
 95
       29
 96
       25
 40
0.0
 40
0.0
 40
0.0
 40
0.0
 40
1.0
 40
1.0
 40
1.0
 40
2.0
 40
2.0
 40
2.0
 40
3.0
 40
3.0
 40
3.0
 40
4.0
 40
4.0
 40
4.0
 40
5.0
 40
5.0
 40
5.0
 40
6.0
 40
6.0
 40
6.0
 40
7.0
 40
7.0
 40
7.0
 40
8.0
 40
8.0
 40
8.0
 40
8.0
 10
107.3581325686466
 20
-138.2599500522406
 10
107.5675943741498
 20
-138.3677815409289
 10
107.5865423993186
 20
-138.5414143533855
 10
107.5865423993186
 20
-138.6578585807869
 10
107.5865423993186
 20
-138.8184000303996
 10
107.5400336102678
 20
-138.9603379643919
 10
107.3581325686466
 20
-139.0554225997847
 10
107.16348467373
 20
-139.1591199738908
 10
106.9264621043448
 20
-139.1780679990597
 10
106.7635090878925
 20
-139.1780679990597
 10
106.6198486061575
 20
-139.1780679990597
 10
106.3680121261858
 20
-139.1611870311819
 10
106.1692301166869
 20
-139.0554225997847
 10
105.9659694830571
 20
-138.9475911110964
 10
105.942887343306
 20
-138.7867051519353
 10
105.942887343306
 20
-138.6578585807869
 10
105.942887343306
 20
-138.4990396789169
 10
105.9873290750657
 20
-138.3550346876335
 10
106.1692301166869
 20
-138.2599500522406
 10
106.3618109543123
 20
-138.1607313022654
 10
106.5902207849844
 20
-138.1373046529657
 10
106.7635090878925
 20
-138.1373046529657
 10
106.9350748430579
 20
-138.1373046529657
 10
107.1655517310211
 20
-138.1583197354257
 10
107.3581325686466
 20
-138.2599500522406
 97
        0
 97
        0
 92
        1
 93
        1
 72
     4
 94
        3
 73
     0
 74
     1
 95
       17
 96
       13
 40
0.0
 40
0.0
 40
0.0
 40
0.0
 40
1.0
 40
1.0
 40
1.0
 40
2.0
 40
2.0
 40
2.0
 40
3.0
 40
3.0
 40
3.0
 40
4.0
 40
4.0
 40
4.0
 40
4.0
 10
106.1351236713829
 20
-138.6578585807869
 10
106.1351236713829
 20
-138.907283493919
 10
106.418655029819
 20
-138.9537922829699
 10
106.7635090878925
 20
-138.9537922829699
 10
107.0832139489236
 20
-138.9537922829699
 10
107.391894504402
 20
-138.9179632899233
 10
107.391894504402
 20
-138.6578585807869
 10
107.391894504402
 20
-138.4101562153975
 10
107.1104302032571
 20
-138.3615803690554
 10
106.7635090878925
 20
-138.3615803690554
 10
106.4441487364098
 20
-138.3615803690554
 10
106.1351236713829
 20
-138.3994764193932
 10
106.1351236713829
 20
-138.6578585807869
 97
        0
 97
        0
 75
     2
 76
     1
 98
        0
  0
POLYLINE
  5
76
330
6F
100
AcDbEntity
  8
_U+30EC_U+30A4_U+30E4_U+30FC 1
370
     0
100
AcDb2dPolyline
 66
     1
 10
0.0
 20
0.0
 30
0.0
  0
VERTEX
  5
77
330
76
100
AcDbEntity
  8
_U+30EC_U+30A4_U+30E4_U+30FC 1
370
     0
100
AcDbVertex
100
AcDb2dVertex
 10
107.5358994956855
 20
-137.920952656492
 30
0.0
  0
VERTEX
  5
78
330
76
100
AcDbEntity
  8
_U+30EC_U+30A4_U+30E4_U+30FC 1
370
     0
100
AcDbVertex
100
AcDb2dVertex
 10
107.2840630157137
 20
-137.920952656492
 30
0.0
  0
VERTEX
  5
79
330
76
100
AcDbEntity
  8
_U+30EC_U+30A4_U+30E4_U+30FC 1
370
     0
100
AcDbVertex
100
AcDb2dVertex
 10
107.2840630157137
 20
-137.6691161765202
 30
0.0
  0
VERTEX
  5
7A
330
76
100
AcDbEntity
  8
_U+30EC_U+30A4_U+30E4_U+30FC 1
370
     0
100
AcDbVertex
100
AcDb2dVertex
 10
107.5358994956855
 20
-137.6691161765202
 30
0.0
  0
VERTEX
  5
7B
330
76
100
AcDbEntity
  8
_U+30EC_U+30A4_U+30E4_U+30FC 1
370
     0
100
AcDbVertex
100
AcDb2dVertex
 10
107.5358994956855
 20
-137.920952656492
 30
0.0
  0
SEQEND
  5
7C
330
76
100
AcDbEntity
  8
_U+30EC_U+30A4_U+30E4_U+30FC 1
370
     0
  0
HATCH
  5
7D
330
6F
100
AcDbEntity
  8
_U+30EC_U+30A4_U+30E4_U+30FC 1
 62
   179
420
  2234388
100
AcDbHatch
 10
0.0
 20
0.0
 30
0.0
210
0.0
220
0.0
230
1.0
  2
SOLID
 70
     1
 71
     0
 91
        1
 92
        1
 93
        4
 72
     1
 10
107.5358994956855
 20
-137.920952656492
 11
107.2840630157137
 21
-137.920952656492
 72
     1
 10
107.2840630157137
 20
-137.920952656492
 11
107.2840630157137
 21
-137.6691161765202
 72
     1
 10
107.2840630157137
 20
-137.6691161765202
 11
107.5358994956855
 21
-137.6691161765202
 72
     1
 10
107.5358994956855
 20
-137.6691161765202
 11
107.5358994956855
 21
-137.920952656492
 97
        0
 75
     2
 76
     1
 98
        0
  0
SPLINE
  5
7E
330
6F
100
AcDbEntity
  8
_U+30EC_U+30A4_U+30E4_U+30FC 1
370
     0
100
AcDbSpline
210
0.0
220
0.0
230
1.0
 70
    11
 71
     3
 72
    29
 73
    25
 74
     0
 42
0.0000000001
 43
0.0000000001
 12
1.0
 22
0.0
 32
0.0
 13
1.0
 23
0.0
 33
0.0
 40
0.0
 40
0.0
 40
0.0
 40
0.0
 40
1.0
 40
1.0
 40
1.0
 40
2.0
 40
2.0
 40
2.0
 40
3.0
 40
3.0
 40
3.0
 40
4.0
 40
4.0
 40
4.0
 40
5.0
 40
5.0
 40
5.0
 40
6.0
 40
6.0
 40
6.0
 40
7.0
 40
7.0
 40
7.0
 40
8.0
 40
8.0
 40
8.0
 40
8.0
 10
107.5865423993186
 20
-136.9325547617738
 30
0.0
 10
107.5865423993186
 20
-137.1992051523322
 30
0.0
 10
107.4490830894572
 20
-137.4531086895951
 30
0.0
 10
107.1000949168014
 20
-137.4531086895951
 30
0.0
 10
106.8441243222473
 20
-137.4531086895951
 30
0.0
 10
106.7486951773059
 20
-137.3111707556028
 30
0.0
 10
106.6873724776684
 20
-137.2054063242056
 30
0.0
 10
106.6281168353221
 20
-137.3304632903202
 30
0.0
 10
106.5140841747604
 20
-137.4065999005442
 30
0.0
 10
106.3531982155992
 20
-137.4065999005442
 30
0.0
 10
106.0782795958763
 20
-137.4065999005442
 30
0.0
 10
105.942887343306
 20
-137.2078178910453
 30
0.0
 10
105.942887343306
 20
-136.9325547617738
 30
0.0
 10
105.942887343306
 20
-136.6490234033377
 30
0.0
 10
106.0865478250409
 20
-136.4588541325519
 30
0.0
 10
106.3531982155992
 20
-136.4588541325519
 30
0.0
 10
106.5140841747604
 20
-136.4588541325519
 30
0.0
 10
106.6281168353221
 20
-136.5370578000671
 30
0.0
 10
106.6873724776684
 20
-136.6617702566332
 30
0.0
 10
106.7383598908501
 20
-136.5728867931137
 30
0.0
 10
106.833444526243
 20
-136.4144124007922
 30
0.0
 10
107.0956162926705
 20
-136.4144124007922
 30
0.0
 10
107.4700981719172
 20
-136.4144124007922
 30
0.0
 10
107.5865423993186
 20
-136.6934651350975
 30
0.0
 10
107.5865423993186
 20
-136.9325547617738
 30
0.0
  0
SPLINE
  5
7F
330
6F
100
AcDbEntity
  8
_U+30EC_U+30A4_U+30E4_U+30FC 1
370
     0
100
AcDbSpline
210
0.0
220
0.0
230
1.0
 70
    11
 71
     3
 72
    17
 73
    13
 74
     0
 42
0.0000000001
 43
0.0000000001
 12
1.0
 22
0.0
 32
0.0
 13
1.0
 23
0.0
 33
0.0
 40
0.0
 40
0.0
 40
0.0
 40
0.0
 40
1.0
 40
1.0
 40
1.0
 40
2.0
 40
2.0
 40
2.0
 40
3.0
 40
3.0
 40
3.0
 40
4.0
 40
4.0
 40
4.0
 40
4.0
 10
106.1351236713829
 20
-136.9325547617738
 30
0.0
 10
106.1351236713829
 20
-137.0975748355173
 30
0.0
 10
106.2305528163243
 20
-137.1823241844544
 30
0.0
 10
106.3659450688946
 20
-137.1823241844544
 30
0.0
 10
106.4885904681695
 20
-137.1823241844544
 30
0.0
 10
106.6071017528621
 20
-137.1103216888127
 30
0.0
 10
106.6071017528621
 20
-136.9325547617738
 30
0.0
 10
106.6071017528621
 20
-136.7547878347349
 30
0.0
 10
106.4885904681695
 20
-136.6831298486417
 30
0.0
 10
106.3659450688946
 20
-136.6831298486417
 30
0.0
 10
106.2305528163243
 20
-136.6831298486417
 30
0.0
 10
106.1351236713829
 20
-136.7696017453215
 30
0.0
 10
106.1351236713829
 20
-136.9325547617738
 30
0.0
  0
SPLINE
  5
80
330
6F
100
AcDbEntity
  8
_U+30EC_U+30A4_U+30E4_U+30FC 1
370
     0
100
AcDbSpline
210
0.0
220
0.0
230
1.0
 70
    11
 71
     3
 72
    17
 73
    13
 74
     0
 42
0.0000000001
 43
0.0000000001
 12
1.0
 22
0.0
 32
0.0
 13
1.0
 23
0.0
 33
0.0
 40
0.0
 40
0.0
 40
0.0
 40
0.0
 40
1.0
 40
1.0
 40
1.0
 40
2.0
 40
2.0
 40
2.0
 40
3.0
 40
3.0
 40
3.0
 40
4.0
 40
4.0
 40
4.0
 40
4.0
 10
106.7952039663568
 20
-136.9325547617738
 30
0.0
 10
106.7952039663568
 20
-137.0765597530573
 30
0.0
 10
106.8820203725851
 20
-137.2288329735053
 30
0.0
 10
107.0852810062148
 20
-137.2288329735053
 30
0.0
 10
107.2902641875872
 20
-137.2288329735053
 30
0.0
 10
107.391894504402
 20
-137.1020534596481
 30
0.0
 10
107.391894504402
 20
-136.9325547617738
 30
0.0
 10
107.391894504402
 20
-136.7465196055703
 30
0.0
 10
107.2692491051271
 20
-136.6366210595909
 30
0.0
 10
107.0914821780882
 20
-136.6366210595909
 30
0.0
 10
106.8692735192896
 20
-136.6366210595909
 30
0.0
 10
106.7952039663568
 20
-136.7992295664946
 30
0.0
 10
106.7952039663568
 20
-136.9325547617738
 30
0.0
  0
HATCH
  5
81
330
6F
100
AcDbEntity
  8
_U+30EC_U+30A4_U+30E4_U+30FC 1
 62
   179
420
  2234388
100
AcDbHatch
 10
0.0
 20
0.0
 30
0.0
210
0.0
220
0.0
230
1.0
  2
SOLID
 70
     1
 71
     0
 91
        3
 92
        1
 93
        1
 72
     4
 94
        3
 73
     0
 74
     1
 95
       29
 96
       25
 40
0.0
 40
0.0
 40
0.0
 40
0.0
 40
1.0
 40
1.0
 40
1.0
 40
2.0
 40
2.0
 40
2.0
 40
3.0
 40
3.0
 40
3.0
 40
4.0
 40
4.0
 40
4.0
 40
5.0
 40
5.0
 40
5.0
 40
6.0
 40
6.0
 40
6.0
 40
7.0
 40
7.0
 40
7.0
 40
8.0
 40
8.0
 40
8.0
 40
8.0
 10
107.5865423993186
 20
-136.9325547617738
 10
107.5865423993186
 20
-137.1992051523322
 10
107.4490830894572
 20
-137.4531086895951
 10
107.1000949168014
 20
-137.4531086895951
 10
106.8441243222473
 20
-137.4531086895951
 10
106.7486951773059
 20
-137.3111707556028
 10
106.6873724776684
 20
-137.2054063242056
 10
106.6281168353221
 20
-137.3304632903202
 10
106.5140841747604
 20
-137.4065999005442
 10
106.3531982155992
 20
-137.4065999005442
 10
106.0782795958763
 20
-137.4065999005442
 10
105.942887343306
 20
-137.2078178910453
 10
105.942887343306
 20
-136.9325547617738
 10
105.942887343306
 20
-136.6490234033377
 10
106.0865478250409
 20
-136.4588541325519
 10
106.3531982155992
 20
-136.4588541325519
 10
106.5140841747604
 20
-136.4588541325519
 10
106.6281168353221
 20
-136.5370578000671
 10
106.6873724776684
 20
-136.6617702566332
 10
106.7383598908501
 20
-136.5728867931137
 10
106.833444526243
 20
-136.4144124007922
 10
107.0956162926705
 20
-136.4144124007922
 10
107.4700981719172
 20
-136.4144124007922
 10
107.5865423993186
 20
-136.6934651350975
 10
107.5865423993186
 20
-136.9325547617738
 97
        0
 97
        0
 92
        1
 93
        1
 72
     4
 94
        3
 73
     0
 74
     1
 95
       17
 96
       13
 40
0.0
 40
0.0
 40
0.0
 40
0.0
 40
1.0
 40
1.0
 40
1.0
 40
2.0
 40
2.0
 40
2.0
 40
3.0
 40
3.0
 40
3.0
 40
4.0
 40
4.0
 40
4.0
 40
4.0
 10
106.1351236713829
 20
-136.9325547617738
 10
106.1351236713829
 20
-137.0975748355173
 10
106.2305528163243
 20
-137.1823241844544
 10
106.3659450688946
 20
-137.1823241844544
 10
106.4885904681695
 20
-137.1823241844544
 10
106.6071017528621
 20
-137.1103216888127
 10
106.6071017528621
 20
-136.9325547617738
 10
106.6071017528621
 20
-136.7547878347349
 10
106.4885904681695
 20
-136.6831298486417
 10
106.3659450688946
 20
-136.6831298486417
 10
106.2305528163243
 20
-136.6831298486417
 10
106.1351236713829
 20
-136.7696017453215
 10
106.1351236713829
 20
-136.9325547617738
 97
        0
 97
        0
 92
        1
 93
        1
 72
     4
 94
        3
 73
     0
 74
     1
 95
       17
 96
       13
 40
0.0
 40
0.0
 40
0.0
 40
0.0
 40
1.0
 40
1.0
 40
1.0
 40
2.0
 40
2.0
 40
2.0
 40
3.0
 40
3.0
 40
3.0
 40
4.0
 40
4.0
 40
4.0
 40
4.0
 10
106.7952039663568
 20
-136.9325547617738
 10
106.7952039663568
 20
-137.0765597530573
 10
106.8820203725851
 20
-137.2288329735053
 10
107.0852810062148
 20
-137.2288329735053
 10
107.2902641875872
 20
-137.2288329735053
 10
107.391894504402
 20
-137.1020534596481
 10
107.391894504402
 20
-136.9325547617738
 10
107.391894504402
 20
-136.7465196055703
 10
107.2692491051271
 20
-136.6366210595909
 10
107.0914821780882
 20
-136.6366210595909
 10
106.8692735192896
 20
-136.6366210595909
 10
106.7952039663568
 20
-136.7992295664946
 10
106.7952039663568
 20
-136.9325547617738
 97
        0
 97
        0
 75
     2
 76
     1
 98
        0
  0
ENDBLK
  5
72
330
6F
100
AcDbEntity
  8
0
100
AcDbBlockEnd
  0
BLOCK
  5
93
330
91
100
AcDbEntity
  8
0
100
AcDbBlockBegin
  2
block 3
 70
     0
 10
0.0
 20
0.0
 30
0.0
  3
block 3
  1

  0
SPLINE
  5
95
330
91
100
AcDbEntity
  8
_U+30EC_U+30A4_U+30E4_U+30FC 1
370
     0
100
AcDbSpline
210
0.0
220
0.0
230
1.0
 70
    11
 71
     3
 72
    44
 73
    40
 74
     0
 42
0.0000000001
 43
0.0000000001
 12
1.0
 22
0.0
 32
0.0
 13
1.0
 23
0.0
 33
0.0
 40
0.0
 40
0.0
 40
0.0
 40
0.0
 40
1.0
 40
1.0
 40
1.0
 40
2.0
 40
2.0
 40
2.0
 40
3.0
 40
3.0
 40
3.0
 40
4.0
 40
4.0
 40
4.0
 40
5.0
 40
5.0
 40
5.0
 40
6.0
 40
6.0
 40
6.0
 40
7.0
 40
7.0
 40
7.0
 40
8.0
 40
8.0
 40
8.0
 40
9.0
 40
9.0
 40
9.0
 40
10.0
 40
10.0
 40
10.0
 40
11.0
 40
11.0
 40
11.0
 40
12.0
 40
12.0
 40
12.0
 40
13.0
 40
13.0
 40
13.0
 40
13.0
 10
75.13029783277993
 20
-126.0625894867135
 30
0.0
 10
75.28894447987568
 20
-126.2804917761556
 30
0.0
 10
75.36301403280855
 20
-126.3735093542573
 30
0.0
 10
75.50684676931773
 20
-126.4222574553736
 30
0.0
 10
75.50684676931773
 20
-126.4222574553736
 30
0.0
 10
75.50684676931773
 20
-125.6436658757071
 30
0.0
 10
75.50684676931773
 20
-125.6436658757071
 30
0.0
 10
75.50684676931773
 20
-125.6436658757071
 30
0.0
 10
75.71200220546436
 20
-125.6436658757071
 30
0.0
 10
75.71200220546436
 20
-125.6436658757071
 30
0.0
 10
75.71200220546436
 20
-125.6436658757071
 30
0.0
 10
75.71200220546436
 20
-126.67185462328
 30
0.0
 10
75.71200220546436
 20
-126.67185462328
 30
0.0
 10
75.3545735488697
 20
-126.6401597448157
 30
0.0
 10
75.27619762658026
 20
-126.5745306758216
 30
0.0
 10
74.9780246123319
 20
-126.189541255345
 30
0.0
 10
74.77907034805871
 20
-125.9335706607909
 30
0.0
 10
74.71137422177355
 20
-125.8679415917969
 30
0.0
 10
74.57391491191208
 20
-125.8679415917969
 30
0.0
 10
74.45540362721948
 20
-125.8679415917969
 30
0.0
 10
74.32431774400573
 20
-125.9399440874386
 30
0.0
 10
74.32431774400573
 20
-126.1366590396464
 30
0.0
 10
74.32431774400573
 20
-126.396936003557
 30
0.0
 10
74.55479463196895
 20
-126.4053764874959
 30
0.0
 10
74.67123885937039
 20
-126.4095106020782
 30
0.0
 10
74.67123885937039
 20
-126.4095106020782
 30
0.0
 10
74.67123885937039
 20
-126.6337863181679
 30
0.0
 10
74.67123885937039
 20
-126.6337863181679
 30
0.0
 10
74.54428709073893
 20
-126.6253458342291
 30
0.0
 10
74.43214923269404
 20
-126.6148382929991
 30
0.0
 10
74.31363794800146
 20
-126.5343953134185
 30
0.0
 10
74.15292424361455
 20
-126.4243245126648
 30
0.0
 10
74.11899005308484
 20
-126.238117101687
 30
0.0
 10
74.11899005308484
 20
-126.1218451290598
 30
0.0
 10
74.11899005308484
 20
-125.8446871972715
 30
0.0
 10
74.30313040677144
 20
-125.6374647038337
 30
0.0
 10
74.57598196920323
 20
-125.6374647038337
 30
0.0
 10
74.80456405464956
 20
-125.6374647038337
 30
0.0
 10
74.90395505939901
 20
-125.7537366764609
 30
0.0
 10
75.13029783277993
 20
-126.0625894867135
 30
0.0
  0
HATCH
  5
96
330
91
100
AcDbEntity
  8
_U+30EC_U+30A4_U+30E4_U+30FC 1
 62
   179
420
  2234388
100
AcDbHatch
 10
0.0
 20
0.0
 30
0.0
210
0.0
220
0.0
230
1.0
  2
SOLID
 70
     1
 71
     0
 91
        1
 92
        1
 93
        1
 72
     4
 94
        3
 73
     0
 74
     1
 95
       44
 96
       40
 40
0.0
 40
0.0
 40
0.0
 40
0.0
 40
1.0
 40
1.0
 40
1.0
 40
2.0
 40
2.0
 40
2.0
 40
3.0
 40
3.0
 40
3.0
 40
4.0
 40
4.0
 40
4.0
 40
5.0
 40
5.0
 40
5.0
 40
6.0
 40
6.0
 40
6.0
 40
7.0
 40
7.0
 40
7.0
 40
8.0
 40
8.0
 40
8.0
 40
9.0
 40
9.0
 40
9.0
 40
10.0
 40
10.0
 40
10.0
 40
11.0
 40
11.0
 40
11.0
 40
12.0
 40
12.0
 40
12.0
 40
13.0
 40
13.0
 40
13.0
 40
13.0
 10
75.13029783277993
 20
-126.0625894867135
 10
75.28894447987568
 20
-126.2804917761556
 10
75.36301403280855
 20
-126.3735093542573
 10
75.50684676931773
 20
-126.4222574553736
 10
75.50684676931773
 20
-126.4222574553736
 10
75.50684676931773
 20
-125.6436658757071
 10
75.50684676931773
 20
-125.6436658757071
 10
75.50684676931773
 20
-125.6436658757071
 10
75.71200220546436
 20
-125.6436658757071
 10
75.71200220546436
 20
-125.6436658757071
 10
75.71200220546436
 20
-125.6436658757071
 10
75.71200220546436
 20
-126.67185462328
 10
75.71200220546436
 20
-126.67185462328
 10
75.3545735488697
 20
-126.6401597448157
 10
75.27619762658026
 20
-126.5745306758216
 10
74.9780246123319
 20
-126.189541255345
 10
74.77907034805871
 20
-125.9335706607909
 10
74.71137422177355
 20
-125.8679415917969
 10
74.57391491191208
 20
-125.8679415917969
 10
74.45540362721948
 20
-125.8679415917969
 10
74.32431774400573
 20
-125.9399440874386
 10
74.32431774400573
 20
-126.1366590396464
 10
74.32431774400573
 20
-126.396936003557
 10
74.55479463196895
 20
-126.4053764874959
 10
74.67123885937039
 20
-126.4095106020782
 10
74.67123885937039
 20
-126.4095106020782
 10
74.67123885937039
 20
-126.6337863181679
 10
74.67123885937039
 20
-126.6337863181679
 10
74.54428709073893
 20
-126.6253458342291
 10
74.43214923269404
 20
-126.6148382929991
 10
74.31363794800146
 20
-126.5343953134185
 10
74.15292424361455
 20
-126.4243245126648
 10
74.11899005308484
 20
-126.238117101687
 10
74.11899005308484
 20
-126.1218451290598
 10
74.11899005308484
 20
-125.8446871972715
 10
74.30313040677144
 20
-125.6374647038337
 10
74.57598196920323
 20
-125.6374647038337
 10
74.80456405464956
 20
-125.6374647038337
 10
74.90395505939901
 20
-125.7537366764609
 10
75.13029783277993
 20
-126.0625894867135
 97
        0
 97
        0
 75
     2
 76
     1
 98
        0
  0
SPLINE
  5
97
330
91
100
AcDbEntity
  8
_U+30EC_U+30A4_U+30E4_U+30FC 1
370
     0
100
AcDbSpline
210
0.0
220
0.0
230
1.0
 70
    11
 71
     3
 72
    53
 73
    49
 74
     0
 42
0.0000000001
 43
0.0000000001
 12
1.0
 22
0.0
 32
0.0
 13
1.0
 23
0.0
 33
0.0
 40
0.0
 40
0.0
 40
0.0
 40
0.0
 40
1.0
 40
1.0
 40
1.0
 40
2.0
 40
2.0
 40
2.0
 40
3.0
 40
3.0
 40
3.0
 40
4.0
 40
4.0
 40
4.0
 40
5.0
 40
5.0
 40
5.0
 40
6.0
 40
6.0
 40
6.0
 40
7.0
 40
7.0
 40
7.0
 40
8.0
 40
8.0
 40
8.0
 40
9.0
 40
9.0
 40
9.0
 40
10.0
 40
10.0
 40
10.0
 40
11.0
 40
11.0
 40
11.0
 40
12.0
 40
12.0
 40
12.0
 40
13.0
 40
13.0
 40
13.0
 40
14.0
 40
14.0
 40
14.0
 40
15.0
 40
15.0
 40
15.0
 40
16.0
 40
16.0
 40
16.0
 40
16.0
 10
75.7628173638718
 20
-124.9978827269971
 30
0.0
 10
75.7628173638718
 20
-125.0760863945122
 30
0.0
 10
75.74593639599408
 20
-125.1777167113271
 30
0.0
 10
75.68237438429122
 20
-125.2791747733677
 30
0.0
 10
75.57247583831175
 20
-125.45263533105
 30
0.0
 10
75.44121770032373
 20
-125.4738226682843
 30
0.0
 10
75.3333862116354
 20
-125.4929429482275
 30
0.0
 10
75.3333862116354
 20
-125.4929429482275
 30
0.0
 10
75.3333862116354
 20
-125.2707342894288
 30
0.0
 10
75.3333862116354
 20
-125.2707342894288
 30
0.0
 10
75.53216822113433
 20
-125.2157850164391
 30
0.0
 10
75.56179604230748
 20
-125.0888332478077
 30
0.0
 10
75.56179604230748
 20
-124.9958156697059
 30
0.0
 10
75.56179604230748
 20
-124.856117047779
 30
0.0
 10
75.46240503755801
 20
-124.703843827331
 30
0.0
 10
75.22968883752938
 20
-124.703843827331
 30
0.0
 10
74.97371824297532
 20
-124.703843827331
 30
0.0
 10
74.90395505939901
 20
-124.883677811661
 30
0.0
 10
74.90395505939901
 20
-125.0042561536448
 30
0.0
 10
74.90395505939901
 20
-125.0359510321091
 30
0.0
 10
74.90395505939901
 20
-125.1777167113271
 30
0.0
 10
75.03297388532162
 20
-125.2666001748465
 30
0.0
 10
75.03297388532162
 20
-125.2666001748465
 30
0.0
 10
75.01385360537849
 20
-125.44212778982
 30
0.0
 10
75.01385360537849
 20
-125.44212778982
 30
0.0
 10
75.01385360537849
 20
-125.44212778982
 30
0.0
 10
74.16773815420112
 20
-125.3215494478363
 30
0.0
 10
74.16773815420112
 20
-125.3215494478363
 30
0.0
 10
74.16773815420112
 20
-125.3215494478363
 30
0.0
 10
74.16773815420112
 20
-124.5429578681698
 30
0.0
 10
74.16773815420112
 20
-124.5429578681698
 30
0.0
 10
74.16773815420112
 20
-124.5429578681698
 30
0.0
 10
74.36238604911775
 20
-124.5429578681698
 30
0.0
 10
74.36238604911775
 20
-124.5429578681698
 30
0.0
 10
74.36238604911775
 20
-124.5429578681698
 30
0.0
 10
74.36238604911775
 20
-125.158596431384
 30
0.0
 10
74.36238604911775
 20
-125.158596431384
 30
0.0
 10
74.36238604911775
 20
-125.158596431384
 30
0.0
 10
74.78544377470642
 20
-125.224225500378
 30
0.0
 10
74.78544377470642
 20
-125.224225500378
 30
0.0
 10
74.75168183895097
 20
-125.1629028007405
 30
0.0
 10
74.71137422177355
 20
-125.0803927638688
 30
0.0
 10
74.71137422177355
 20
-124.9618814791762
 30
0.0
 10
74.71137422177355
 20
-124.7079779419133
 30
0.0
 10
74.8975816327513
 20
-124.4711276273024
 30
0.0
 10
75.21074081236051
 20
-124.4711276273024
 30
0.0
 10
75.52803410655203
 20
-124.4711276273024
 30
0.0
 10
75.7628173638718
 20
-124.6954033433921
 30
0.0
 10
75.7628173638718
 20
-124.9978827269971
 30
0.0
  0
HATCH
  5
98
330
91
100
AcDbEntity
  8
_U+30EC_U+30A4_U+30E4_U+30FC 1
 62
   179
420
  2234388
100
AcDbHatch
 10
0.0
 20
0.0
 30
0.0
210
0.0
220
0.0
230
1.0
  2
SOLID
 70
     1
 71
     0
 91
        1
 92
        1
 93
        1
 72
     4
 94
        3
 73
     0
 74
     1
 95
       53
 96
       49
 40
0.0
 40
0.0
 40
0.0
 40
0.0
 40
1.0
 40
1.0
 40
1.0
 40
2.0
 40
2.0
 40
2.0
 40
3.0
 40
3.0
 40
3.0
 40
4.0
 40
4.0
 40
4.0
 40
5.0
 40
5.0
 40
5.0
 40
6.0
 40
6.0
 40
6.0
 40
7.0
 40
7.0
 40
7.0
 40
8.0
 40
8.0
 40
8.0
 40
9.0
 40
9.0
 40
9.0
 40
10.0
 40
10.0
 40
10.0
 40
11.0
 40
11.0
 40
11.0
 40
12.0
 40
12.0
 40
12.0
 40
13.0
 40
13.0
 40
13.0
 40
14.0
 40
14.0
 40
14.0
 40
15.0
 40
15.0
 40
15.0
 40
16.0
 40
16.0
 40
16.0
 40
16.0
 10
75.7628173638718
 20
-124.9978827269971
 10
75.7628173638718
 20
-125.0760863945122
 10
75.74593639599408
 20
-125.1777167113271
 10
75.68237438429122
 20
-125.2791747733677
 10
75.57247583831175
 20
-125.45263533105
 10
75.44121770032373
 20
-125.4738226682843
 10
75.3333862116354
 20
-125.4929429482275
 10
75.3333862116354
 20
-125.4929429482275
 10
75.3333862116354
 20
-125.2707342894288
 10
75.3333862116354
 20
-125.2707342894288
 10
75.53216822113433
 20
-125.2157850164391
 10
75.56179604230748
 20
-125.0888332478077
 10
75.56179604230748
 20
-124.9958156697059
 10
75.56179604230748
 20
-124.856117047779
 10
75.46240503755801
 20
-124.703843827331
 10
75.22968883752938
 20
-124.703843827331
 10
74.97371824297532
 20
-124.703843827331
 10
74.90395505939901
 20
-124.883677811661
 10
74.90395505939901
 20
-125.0042561536448
 10
74.90395505939901
 20
-125.0359510321091
 10
74.90395505939901
 20
-125.1777167113271
 10
75.03297388532162
 20
-125.2666001748465
 10
75.03297388532162
 20
-125.2666001748465
 10
75.01385360537849
 20
-125.44212778982
 10
75.01385360537849
 20
-125.44212778982
 10
75.01385360537849
 20
-125.44212778982
 10
74.16773815420112
 20
-125.3215494478363
 10
74.16773815420112
 20
-125.3215494478363
 10
74.16773815420112
 20
-125.3215494478363
 10
74.16773815420112
 20
-124.5429578681698
 10
74.16773815420112
 20
-124.5429578681698
 10
74.16773815420112
 20
-124.5429578681698
 10
74.36238604911775
 20
-124.5429578681698
 10
74.36238604911775
 20
-124.5429578681698
 10
74.36238604911775
 20
-124.5429578681698
 10
74.36238604911775
 20
-125.158596431384
 10
74.36238604911775
 20
-125.158596431384
 10
74.36238604911775
 20
-125.158596431384
 10
74.78544377470642
 20
-125.224225500378
 10
74.78544377470642
 20
-125.224225500378
 10
74.75168183895097
 20
-125.1629028007405
 10
74.71137422177355
 20
-125.0803927638688
 10
74.71137422177355
 20
-124.9618814791762
 10
74.71137422177355
 20
-124.7079779419133
 10
74.8975816327513
 20
-124.4711276273024
 10
75.21074081236051
 20
-124.4711276273024
 10
75.52803410655203
 20
-124.4711276273024
 10
75.7628173638718
 20
-124.6954033433921
 10
75.7628173638718
 20
-124.9978827269971
 97
        0
 97
        0
 75
     2
 76
     1
 98
        0
  0
ENDBLK
  5
94
330
91
100
AcDbEntity
  8
0
100
AcDbBlockEnd
  0
BLOCK
  5
AA
330
A8
100
AcDbEntity
  8
0
100
AcDbBlockBegin
  2
block 4
 70
     0
 10
0.0
 20
0.0
 30
0.0
  3
block 4
  1

  0
SPLINE
  5
AC
330
A8
100
AcDbEntity
  8
_U+30EC_U+30A4_U+30E4_U+30FC 1
370
     0
100
AcDbSpline
210
0.0
220
0.0
230
1.0
 70
    11
 71
     3
 72
    44
 73
    40
 74
     0
 42
0.0000000001
 43
0.0000000001
 12
1.0
 22
0.0
 32
0.0
 13
1.0
 23
0.0
 33
0.0
 40
0.0
 40
0.0
 40
0.0
 40
0.0
 40
1.0
 40
1.0
 40
1.0
 40
2.0
 40
2.0
 40
2.0
 40
3.0
 40
3.0
 40
3.0
 40
4.0
 40
4.0
 40
4.0
 40
5.0
 40
5.0
 40
5.0
 40
6.0
 40
6.0
 40
6.0
 40
7.0
 40
7.0
 40
7.0
 40
8.0
 40
8.0
 40
8.0
 40
9.0
 40
9.0
 40
9.0
 40
10.0
 40
10.0
 40
10.0
 40
11.0
 40
11.0
 40
11.0
 40
12.0
 40
12.0
 40
12.0
 40
13.0
 40
13.0
 40
13.0
 40
13.0
 10
92.08878035892225
 20
-141.112833623576
 30
0.0
 10
91.87105032425447
 20
-141.2713080158975
 30
0.0
 10
91.77803274615272
 20
-141.3453775688303
 30
0.0
 10
91.72911239026217
 20
-141.4893825601138
 30
0.0
 10
91.72911239026217
 20
-141.4893825601138
 30
0.0
 10
92.50770396992863
 20
-141.4893825601138
 30
0.0
 10
92.50770396992863
 20
-141.4893825601138
 30
0.0
 10
92.50770396992863
 20
-141.4893825601138
 30
0.0
 10
92.50770396992863
 20
-141.6947102510346
 30
0.0
 10
92.50770396992863
 20
-141.6947102510346
 30
0.0
 10
92.50770396992863
 20
-141.6947102510346
 30
0.0
 10
91.47968747713008
 20
-141.6947102510346
 30
0.0
 10
91.47968747713008
 20
-141.6947102510346
 30
0.0
 10
91.51138235559438
 20
-141.3371093396657
 30
0.0
 10
91.57683916981412
 20
-141.2589056721505
 30
0.0
 10
91.96200084506506
 20
-140.9605604031279
 30
0.0
 10
92.21797143961912
 20
-140.761778393629
 30
0.0
 10
92.28342825383886
 20
-140.6939100125696
 30
0.0
 10
92.28342825383886
 20
-140.5564507027081
 30
0.0
 10
92.28342825383886
 20
-140.4379394180155
 30
0.0
 10
92.21142575819715
 20
-140.3066812800275
 30
0.0
 10
92.01471080598938
 20
-140.3066812800275
 30
0.0
 10
91.75460609685302
 20
-140.3066812800275
 30
0.0
 10
91.7459933581399
 20
-140.5375026775392
 30
0.0
 10
91.7418592435576
 20
-140.6536023953922
 30
0.0
 10
91.7418592435576
 20
-140.6536023953922
 30
0.0
 10
91.51758352746783
 20
-140.6536023953922
 30
0.0
 10
91.51758352746783
 20
-140.6536023953922
 30
0.0
 10
91.52619626618096
 20
-140.526822881535
 30
0.0
 10
91.53687606218523
 20
-140.4148572782643
 30
0.0
 10
91.61714678699155
 20
-140.2963459935717
 30
0.0
 10
91.72704533297102
 20
-140.1354600344106
 30
0.0
 10
91.91342499872303
 20
-140.1016980986551
 30
0.0
 10
92.02952471657596
 20
-140.1016980986551
 30
0.0
 10
92.30685490313857
 20
-140.1016980986551
 30
0.0
 10
92.51390514180208
 20
-140.2856661975675
 30
0.0
 10
92.51390514180208
 20
-140.5585177599993
 30
0.0
 10
92.51390514180208
 20
-140.7869275906713
 30
0.0
 10
92.39780542394917
 20
-140.8864908501951
 30
0.0
 10
92.08878035892225
 20
-141.112833623576
 30
0.0
  0
HATCH
  5
AD
330
A8
100
AcDbEntity
  8
_U+30EC_U+30A4_U+30E4_U+30FC 1
 62
   179
420
  2234388
100
AcDbHatch
 10
0.0
 20
0.0
 30
0.0
210
0.0
220
0.0
230
1.0
  2
SOLID
 70
     1
 71
     0
 91
        1
 92
        1
 93
        1
 72
     4
 94
        3
 73
     0
 74
     1
 95
       44
 96
       40
 40
0.0
 40
0.0
 40
0.0
 40
0.0
 40
1.0
 40
1.0
 40
1.0
 40
2.0
 40
2.0
 40
2.0
 40
3.0
 40
3.0
 40
3.0
 40
4.0
 40
4.0
 40
4.0
 40
5.0
 40
5.0
 40
5.0
 40
6.0
 40
6.0
 40
6.0
 40
7.0
 40
7.0
 40
7.0
 40
8.0
 40
8.0
 40
8.0
 40
9.0
 40
9.0
 40
9.0
 40
10.0
 40
10.0
 40
10.0
 40
11.0
 40
11.0
 40
11.0
 40
12.0
 40
12.0
 40
12.0
 40
13.0
 40
13.0
 40
13.0
 40
13.0
 10
92.08878035892225
 20
-141.112833623576
 10
91.87105032425447
 20
-141.2713080158975
 10
91.77803274615272
 20
-141.3453775688303
 10
91.72911239026217
 20
-141.4893825601138
 10
91.72911239026217
 20
-141.4893825601138
 10
92.50770396992863
 20
-141.4893825601138
 10
92.50770396992863
 20
-141.4893825601138
 10
92.50770396992863
 20
-141.4893825601138
 10
92.50770396992863
 20
-141.6947102510346
 10
92.50770396992863
 20
-141.6947102510346
 10
92.50770396992863
 20
-141.6947102510346
 10
91.47968747713008
 20
-141.6947102510346
 10
91.47968747713008
 20
-141.6947102510346
 10
91.51138235559438
 20
-141.3371093396657
 10
91.57683916981412
 20
-141.2589056721505
 10
91.96200084506506
 20
-140.9605604031279
 10
92.21797143961912
 20
-140.761778393629
 10
92.28342825383886
 20
-140.6939100125696
 10
92.28342825383886
 20
-140.5564507027081
 10
92.28342825383886
 20
-140.4379394180155
 10
92.21142575819715
 20
-140.3066812800275
 10
92.01471080598938
 20
-140.3066812800275
 10
91.75460609685302
 20
-140.3066812800275
 10
91.7459933581399
 20
-140.5375026775392
 10
91.7418592435576
 20
-140.6536023953922
 10
91.7418592435576
 20
-140.6536023953922
 10
91.51758352746783
 20
-140.6536023953922
 10
91.51758352746783
 20
-140.6536023953922
 10
91.52619626618096
 20
-140.526822881535
 10
91.53687606218523
 20
-140.4148572782643
 10
91.61714678699155
 20
-140.2963459935717
 10
91.72704533297102
 20
-140.1354600344106
 10
91.91342499872303
 20
-140.1016980986551
 10
92.02952471657596
 20
-140.1016980986551
 10
92.30685490313857
 20
-140.1016980986551
 10
92.51390514180208
 20
-140.2856661975675
 10
92.51390514180208
 20
-140.5585177599993
 10
92.51390514180208
 20
-140.7869275906713
 10
92.39780542394917
 20
-140.8864908501951
 10
92.08878035892225
 20
-141.112833623576
 97
        0
 97
        0
 75
     2
 76
     1
 98
        0
  0
SPLINE
  5
AE
330
A8
100
AcDbEntity
  8
_U+30EC_U+30A4_U+30E4_U+30FC 1
370
     0
100
AcDbSpline
210
0.0
220
0.0
230
1.0
 70
    11
 71
     3
 72
    53
 73
    49
 74
     0
 42
0.0000000001
 43
0.0000000001
 12
1.0
 22
0.0
 32
0.0
 13
1.0
 23
0.0
 33
0.0
 40
0.0
 40
0.0
 40
0.0
 40
0.0
 40
1.0
 40
1.0
 40
1.0
 40
2.0
 40
2.0
 40
2.0
 40
3.0
 40
3.0
 40
3.0
 40
4.0
 40
4.0
 40
4.0
 40
5.0
 40
5.0
 40
5.0
 40
6.0
 40
6.0
 40
6.0
 40
7.0
 40
7.0
 40
7.0
 40
8.0
 40
8.0
 40
8.0
 40
9.0
 40
9.0
 40
9.0
 40
10.0
 40
10.0
 40
10.0
 40
11.0
 40
11.0
 40
11.0
 40
12.0
 40
12.0
 40
12.0
 40
13.0
 40
13.0
 40
13.0
 40
14.0
 40
14.0
 40
14.0
 40
15.0
 40
15.0
 40
15.0
 40
16.0
 40
16.0
 40
16.0
 40
16.0
 10
93.15365937341298
 20
-141.7453531546678
 30
0.0
 10
93.07545570589781
 20
-141.7453531546678
 30
0.0
 10
92.97382538908293
 20
-141.7284721867901
 30
0.0
 10
92.87219507226807
 20
-141.6650824298615
 30
0.0
 10
92.69890676936
 20
-141.5548393743335
 30
0.0
 10
92.67754717735146
 20
-141.423925745894
 30
0.0
 10
92.65859915218257
 20
-141.3157497476572
 30
0.0
 10
92.65859915218257
 20
-141.3157497476572
 30
0.0
 10
92.8808078109812
 20
-141.3157497476572
 30
0.0
 10
92.8808078109812
 20
-141.3157497476572
 30
0.0
 10
92.93558482919666
 20
-141.5148762667046
 30
0.0
 10
93.06270885260238
 20
-141.5445040878778
 30
0.0
 10
93.15572643070414
 20
-141.5445040878778
 30
0.0
 10
93.29525279785675
 20
-141.5445040878778
 30
0.0
 10
93.44752601830479
 20
-141.444940828354
 30
0.0
 10
93.44752601830479
 20
-141.2123968830997
 30
0.0
 10
93.44752601830479
 20
-140.9564262885456
 30
0.0
 10
93.26769203397475
 20
-140.8864908501951
 30
0.0
 10
93.14711369199101
 20
-140.8864908501951
 30
0.0
 10
93.1154188135267
 20
-140.8864908501951
 30
0.0
 10
92.97382538908293
 20
-140.8864908501951
 30
0.0
 10
92.8849419255635
 20
-141.0153374213434
 30
0.0
 10
92.8849419255635
 20
-141.0153374213434
 30
0.0
 10
92.70924205581575
 20
-140.9963893961745
 30
0.0
 10
92.70924205581575
 20
-140.9963893961745
 30
0.0
 10
92.70924205581575
 20
-140.9963893961745
 30
0.0
 10
92.8298203977995
 20
-140.1502739449972
 30
0.0
 10
92.8298203977995
 20
-140.1502739449972
 30
0.0
 10
92.8298203977995
 20
-140.1502739449972
 30
0.0
 10
93.60841197746596
 20
-140.1502739449972
 30
0.0
 10
93.60841197746596
 20
-140.1502739449972
 30
0.0
 10
93.60841197746596
 20
-140.1502739449972
 30
0.0
 10
93.60841197746596
 20
-140.3449218399138
 30
0.0
 10
93.60841197746596
 20
-140.3449218399138
 30
0.0
 10
93.60841197746596
 20
-140.3449218399138
 30
0.0
 10
92.99277341425181
 20
-140.3449218399138
 30
0.0
 10
92.99277341425181
 20
-140.3449218399138
 30
0.0
 10
92.99277341425181
 20
-140.3449218399138
 30
0.0
 10
92.92731660003206
 20
-140.7679795655025
 30
0.0
 10
92.92731660003206
 20
-140.7679795655025
 30
0.0
 10
92.98863929966952
 20
-140.734217629747
 30
0.0
 10
93.07097708176698
 20
-140.6939100125696
 30
0.0
 10
93.18948836645957
 20
-140.6939100125696
 30
0.0
 10
93.44339190372249
 20
-140.6939100125696
 30
0.0
 10
93.68041447310767
 20
-140.8799451687731
 30
0.0
 10
93.68041447310767
 20
-141.1931043483823
 30
0.0
 10
93.68041447310767
 20
-141.5103976425738
 30
0.0
 10
93.45613875701791
 20
-141.7453531546678
 30
0.0
 10
93.15365937341298
 20
-141.7453531546678
 30
0.0
  0
HATCH
  5
AF
330
A8
100
AcDbEntity
  8
_U+30EC_U+30A4_U+30E4_U+30FC 1
 62
   179
420
  2234388
100
AcDbHatch
 10
0.0
 20
0.0
 30
0.0
210
0.0
220
0.0
230
1.0
  2
SOLID
 70
     1
 71
     0
 91
        1
 92
        1
 93
        1
 72
     4
 94
        3
 73
     0
 74
     1
 95
       53
 96
       49
 40
0.0
 40
0.0
 40
0.0
 40
0.0
 40
1.0
 40
1.0
 40
1.0
 40
2.0
 40
2.0
 40
2.0
 40
3.0
 40
3.0
 40
3.0
 40
4.0
 40
4.0
 40
4.0
 40
5.0
 40
5.0
 40
5.0
 40
6.0
 40
6.0
 40
6.0
 40
7.0
 40
7.0
 40
7.0
 40
8.0
 40
8.0
 40
8.0
 40
9.0
 40
9.0
 40
9.0
 40
10.0
 40
10.0
 40
10.0
 40
11.0
 40
11.0
 40
11.0
 40
12.0
 40
12.0
 40
12.0
 40
13.0
 40
13.0
 40
13.0
 40
14.0
 40
14.0
 40
14.0
 40
15.0
 40
15.0
 40
15.0
 40
16.0
 40
16.0
 40
16.0
 40
16.0
 10
93.15365937341298
 20
-141.7453531546678
 10
93.07545570589781
 20
-141.7453531546678
 10
92.97382538908293
 20
-141.7284721867901
 10
92.87219507226807
 20
-141.6650824298615
 10
92.69890676936
 20
-141.5548393743335
 10
92.67754717735146
 20
-141.423925745894
 10
92.65859915218257
 20
-141.3157497476572
 10
92.65859915218257
 20
-141.3157497476572
 10
92.8808078109812
 20
-141.3157497476572
 10
92.8808078109812
 20
-141.3157497476572
 10
92.93558482919666
 20
-141.5148762667046
 10
93.06270885260238
 20
-141.5445040878778
 10
93.15572643070414
 20
-141.5445040878778
 10
93.29525279785675
 20
-141.5445040878778
 10
93.44752601830479
 20
-141.444940828354
 10
93.44752601830479
 20
-141.2123968830997
 10
93.44752601830479
 20
-140.9564262885456
 10
93.26769203397475
 20
-140.8864908501951
 10
93.14711369199101
 20
-140.8864908501951
 10
93.1154188135267
 20
-140.8864908501951
 10
92.97382538908293
 20
-140.8864908501951
 10
92.8849419255635
 20
-141.0153374213434
 10
92.8849419255635
 20
-141.0153374213434
 10
92.70924205581575
 20
-140.9963893961745
 10
92.70924205581575
 20
-140.9963893961745
 10
92.70924205581575
 20
-140.9963893961745
 10
92.8298203977995
 20
-140.1502739449972
 10
92.8298203977995
 20
-140.1502739449972
 10
92.8298203977995
 20
-140.1502739449972
 10
93.60841197746596
 20
-140.1502739449972
 10
93.60841197746596
 20
-140.1502739449972
 10
93.60841197746596
 20
-140.1502739449972
 10
93.60841197746596
 20
-140.3449218399138
 10
93.60841197746596
 20
-140.3449218399138
 10
93.60841197746596
 20
-140.3449218399138
 10
92.99277341425181
 20
-140.3449218399138
 10
92.99277341425181
 20
-140.3449218399138
 10
92.99277341425181
 20
-140.3449218399138
 10
92.92731660003206
 20
-140.7679795655025
 10
92.92731660003206
 20
-140.7679795655025
 10
92.98863929966952
 20
-140.734217629747
 10
93.07097708176698
 20
-140.6939100125696
 10
93.18948836645957
 20
-140.6939100125696
 10
93.44339190372249
 20
-140.6939100125696
 10
93.68041447310767
 20
-140.8799451687731
 10
93.68041447310767
 20
-141.1931043483823
 10
93.68041447310767
 20
-141.5103976425738
 10
93.45613875701791
 20
-141.7453531546678
 10
93.15365937341298
 20
-141.7453531546678
 97
        0
 97
        0
 75
     2
 76
     1
 98
        0
  0
ENDBLK
  5
AB
330
A8
100
AcDbEntity
  8
0
100
AcDbBlockEnd
  0
ENDSEC
  0
SECTION
  2
ENTITIES
  0
POLYLINE
  5
41
330
1F
100
AcDbEntity
  8
_U+30EC_U+30A4_U+30E4_U+30FC 1
 62
   179
420
  2234388
370
    25
100
AcDb2dPolyline
 66
     1
 10
0.0
 20
0.0
 30
0.0
  0
VERTEX
  5
42
330
41
100
AcDbEntity
  8
_U+30EC_U+30A4_U+30E4_U+30FC 1
 62
   179
420
  2234388
370
    25
100
AcDbVertex
100
AcDb2dVertex
 10
80.08468101242512
 20
-138.0670269099278
 30
0.0
  0
VERTEX
  5
43
330
41
100
AcDbEntity
  8
_U+30EC_U+30A4_U+30E4_U+30FC 1
 62
   179
420
  2234388
370
    25
100
AcDbVertex
100
AcDb2dVertex
 10
105.084700930177
 20
-138.0670269099278
 30
0.0
  0
SEQEND
  5
44
330
41
100
AcDbEntity
  8
_U+30EC_U+30A4_U+30E4_U+30FC 1
 62
   179
420
  2234388
370
    25
  0
POLYLINE
  5
45
330
1F
100
AcDbEntity
  8
_U+30EC_U+30A4_U+30E4_U+30FC 1
 62
   179
420
  2234388
370
    25
100
AcDb2dPolyline
 66
     1
 10
0.0
 20
0.0
 30
0.0
  0
VERTEX
  5
46
330
45
100
AcDbEntity
  8
_U+30EC_U+30A4_U+30E4_U+30FC 1
 62
   179
420
  2234388
370
    25
100
AcDbVertex
100
AcDb2dVertex
 10
80.08468101242512
 20
-113.067182749511
 30
0.0
  0
VERTEX
  5
47
330
45
100
AcDbEntity
  8
_U+30EC_U+30A4_U+30E4_U+30FC 1
 62
   179
420
  2234388
370
    25
100
AcDbVertex
100
AcDb2dVertex
 10
80.08468101242512
 20
-138.0670269099278
 30
0.0
  0
SEQEND
  5
48
330
45
100
AcDbEntity
  8
_U+30EC_U+30A4_U+30E4_U+30FC 1
 62
   179
420
  2234388
370
    25
  0
POLYLINE
  5
49
330
1F
100
AcDbEntity
  8
_U+30EC_U+30A4_U+30E4_U+30FC 1
 62
   179
420
  2234388
370
    25
100
AcDb2dPolyline
 66
     1
 10
0.0
 20
0.0
 30
0.0
  0
VERTEX
  5
4A
330
49
100
AcDbEntity
  8
_U+30EC_U+30A4_U+30E4_U+30FC 1
 62
   179
420
  2234388
370
    25
100
AcDbVertex
100
AcDb2dVertex
 10
80.88463988090537
 20
-113.067182749511
 30
0.0
  0
VERTEX
  5
4B
330
49
100
AcDbEntity
  8
_U+30EC_U+30A4_U+30E4_U+30FC 1
 62
   179
420
  2234388
370
    25
100
AcDbVertex
100
AcDb2dVertex
 10
80.88463988090537
 20
-137.2670680212385
 30
0.0
  0
SEQEND
  5
4C
330
49
100
AcDbEntity
  8
_U+30EC_U+30A4_U+30E4_U+30FC 1
 62
   179
420
  2234388
370
    25
  0
POLYLINE
  5
4D
330
1F
100
AcDbEntity
  8
_U+30EC_U+30A4_U+30E4_U+30FC 1
 62
   179
420
  2234388
370
    25
100
AcDb2dPolyline
 66
     1
 10
0.0
 20
0.0
 30
0.0
  0
VERTEX
  5
4E
330
4D
100
AcDbEntity
  8
_U+30EC_U+30A4_U+30E4_U+30FC 1
 62
   179
420
  2234388
370
    25
100
AcDbVertex
100
AcDb2dVertex
 10
80.88463988090537
 20
-137.2670680212385
 30
0.0
  0
VERTEX
  5
4F
330
4D
100
AcDbEntity
  8
_U+30EC_U+30A4_U+30E4_U+30FC 1
 62
   179
420
  2234388
370
    25
100
AcDbVertex
100
AcDb2dVertex
 10
105.084700930177
 20
-137.2670680212385
 30
0.0
  0
SEQEND
  5
50
330
4D
100
AcDbEntity
  8
_U+30EC_U+30A4_U+30E4_U+30FC 1
 62
   179
420
  2234388
370
    25
  0
POLYLINE
  5
51
330
1F
100
AcDbEntity
  8
_U+30EC_U+30A4_U+30E4_U+30FC 1
 62
   179
420
  2234388
370
    25
100
AcDb2dPolyline
 66
     1
 10
0.0
 20
0.0
 30
0.0
  0
VERTEX
  5
52
330
51
100
AcDbEntity
  8
_U+30EC_U+30A4_U+30E4_U+30FC 1
 62
   179
420
  2234388
370
    25
100
AcDbVertex
100
AcDb2dVertex
 10
80.08468101242512
 20
-113.067182749511
 30
0.0
  0
VERTEX
  5
53
330
51
100
AcDbEntity
  8
_U+30EC_U+30A4_U+30E4_U+30FC 1
 62
   179
420
  2234388
370
    25
100
AcDbVertex
100
AcDb2dVertex
 10
80.88463988090537
 20
-113.067182749511
 30
0.0
  0
SEQEND
  5
54
330
51
100
AcDbEntity
  8
_U+30EC_U+30A4_U+30E4_U+30FC 1
 62
   179
420
  2234388
370
    25
  0
POLYLINE
  5
55
330
1F
100
AcDbEntity
  8
_U+30EC_U+30A4_U+30E4_U+30FC 1
 62
   179
420
  2234388
370
    25
100
AcDb2dPolyline
 66
     1
 10
0.0
 20
0.0
 30
0.0
  0
VERTEX
  5
56
330
55
100
AcDbEntity
  8
_U+30EC_U+30A4_U+30E4_U+30FC 1
 62
   179
420
  2234388
370
    25
100
AcDbVertex
100
AcDb2dVertex
 10
105.084700930177
 20
-137.2670680212385
 30
0.0
  0
VERTEX
  5
57
330
55
100
AcDbEntity
  8
_U+30EC_U+30A4_U+30E4_U+30FC 1
 62
   179
420
  2234388
370
    25
100
AcDbVertex
100
AcDb2dVertex
 10
105.084700930177
 20
-138.0670269099278
 30
0.0
  0
SEQEND
  5
58
330
55
100
AcDbEntity
  8
_U+30EC_U+30A4_U+30E4_U+30FC 1
 62
   179
420
  2234388
370
    25
  0
SPLINE
  5
59
330
1F
100
AcDbEntity
  8
_U+30EC_U+30A4_U+30E4_U+30FC 1
 62
   179
420
  2234388
370
     9
100
AcDbSpline
210
0.0
220
0.0
230
1.0
 70
    11
 71
     3
 72
    17
 73
    13
 74
     0
 42
0.0000000001
 43
0.0000000001
 12
1.0
 22
0.0
 32
0.0
 13
1.0
 23
0.0
 33
0.0
 40
0.0
 40
0.0
 40
0.0
 40
0.0
 40
1.0
 40
1.0
 40
1.0
 40
2.0
 40
2.0
 40
2.0
 40
3.0
 40
3.0
 40
3.0
 40
4.0
 40
4.0
 40
4.0
 40
4.0
 10
109.1847221949261
 20
-138.0670269099278
 30
0.0
 10
109.1847221949261
 20
-138.0118877432747
 30
0.0
 10
109.1399194171593
 20
-137.9671202432862
 30
0.0
 10
109.0848127725701
 20
-137.9671202432862
 30
0.0
 10
109.0293561073183
 20
-137.9671202432862
 30
0.0
 10
108.9849061084523
 20
-138.0118877432747
 30
0.0
 10
108.9849061084523
 20
-138.0670269099278
 30
0.0
 10
108.9849061084523
 20
-138.1221307988027
 30
0.0
 10
109.0293561073183
 20
-138.1669335765694
 30
0.0
 10
109.0848127725701
 20
-138.1669335765694
 30
0.0
 10
109.1399194171593
 20
-138.1669335765694
 30
0.0
 10
109.1847221949261
 20
-138.1221307988027
 30
0.0
 10
109.1847221949261
 20
-138.0670269099278
 30
0.0
  0
SPLINE
  5
5A
330
1F
100
AcDbEntity
  8
_U+30EC_U+30A4_U+30E4_U+30FC 1
 62
   179
420
  2234388
370
     9
100
AcDbSpline
210
0.0
220
0.0
230
1.0
 70
    11
 71
     3
 72
    17
 73
    13
 74
     0
 42
0.0000000001
 43
0.0000000001
 12
1.0
 22
0.0
 32
0.0
 13
1.0
 23
0.0
 33
0.0
 40
0.0
 40
0.0
 40
0.0
 40
0.0
 40
1.0
 40
1.0
 40
1.0
 40
2.0
 40
2.0
 40
2.0
 40
3.0
 40
3.0
 40
3.0
 40
4.0
 40
4.0
 40
4.0
 40
4.0
 10
109.1847221949261
 20
-137.2670680212385
 30
0.0
 10
109.1847221949261
 20
-137.2119641323636
 30
0.0
 10
109.1399194171593
 20
-137.1671613545969
 30
0.0
 10
109.0848127725701
 20
-137.1671613545969
 30
0.0
 10
109.0293561073183
 20
-137.1671613545969
 30
0.0
 10
108.9849061084523
 20
-137.2119641323636
 30
0.0
 10
108.9849061084523
 20
-137.2670680212385
 30
0.0
 10
108.9849061084523
 20
-137.3222071878916
 30
0.0
 10
109.0293561073183
 20
-137.3669746878802
 30
0.0
 10
109.0848127725701
 20
-137.3669746878802
 30
0.0
 10
109.1399194171593
 20
-137.3669746878802
 30
0.0
 10
109.1847221949261
 20
-137.3222071878916
 30
0.0
 10
109.1847221949261
 20
-137.2670680212385
 30
0.0
  0
SPLINE
  5
5B
330
1F
100
AcDbEntity
  8
_U+30EC_U+30A4_U+30E4_U+30FC 1
 62
   179
420
  2234388
370
     9
100
AcDbSpline
210
0.0
220
0.0
230
1.0
 70
    11
 71
     3
 72
    17
 73
    13
 74
     0
 42
0.0000000001
 43
0.0000000001
 12
1.0
 22
0.0
 32
0.0
 13
1.0
 23
0.0
 33
0.0
 40
0.0
 40
0.0
 40
0.0
 40
0.0
 40
1.0
 40
1.0
 40
1.0
 40
2.0
 40
2.0
 40
2.0
 40
3.0
 40
3.0
 40
3.0
 40
4.0
 40
4.0
 40
4.0
 40
4.0
 10
105.1846075942949
 20
-142.0667860755947
 30
0.0
 10
105.1846075942949
 20
-142.0116469089416
 30
0.0
 10
105.139840095437
 20
-141.966879408953
 30
0.0
 10
105.084700930177
 20
-141.966879408953
 30
0.0
 10
105.0292442649252
 20
-141.966879408953
 30
0.0
 10
104.9844767660673
 20
-142.0116469089416
 30
0.0
 10
104.9844767660673
 20
-142.0667860755947
 30
0.0
 10
104.9844767660673
 20
-142.1225955200251
 30
0.0
 10
105.0292442649252
 20
-142.1673630200137
 30
0.0
 10
105.084700930177
 20
-142.1673630200137
 30
0.0
 10
105.139840095437
 20
-142.1673630200137
 30
0.0
 10
105.1846075942949
 20
-142.1225955200251
 30
0.0
 10
105.1846075942949
 20
-142.0667860755947
 30
0.0
  0
SPLINE
  5
5C
330
1F
100
AcDbEntity
  8
_U+30EC_U+30A4_U+30E4_U+30FC 1
 62
   179
420
  2234388
370
     9
100
AcDbSpline
210
0.0
220
0.0
230
1.0
 70
    11
 71
     3
 72
    17
 73
    13
 74
     0
 42
0.0000000001
 43
0.0000000001
 12
1.0
 22
0.0
 32
0.0
 13
1.0
 23
0.0
 33
0.0
 40
0.0
 40
0.0
 40
0.0
 40
0.0
 40
1.0
 40
1.0
 40
1.0
 40
2.0
 40
2.0
 40
2.0
 40
3.0
 40
3.0
 40
3.0
 40
4.0
 40
4.0
 40
4.0
 40
4.0
 10
80.18458767654296
 20
-142.0667860755947
 30
0.0
 10
80.18458767654296
 20
-142.0116469089416
 30
0.0
 10
80.13982220218715
 20
-141.966879408953
 30
0.0
 10
80.08468101242512
 20
-141.966879408953
 30
0.0
 10
80.02957712494205
 20
-141.966879408953
 30
0.0
 10
79.9847743483073
 20
-142.0116469089416
 30
0.0
 10
79.9847743483073
 20
-142.0667860755947
 30
0.0
 10
79.9847743483073
 20
-142.1225955200251
 30
0.0
 10
80.02957712494205
 20
-142.1673630200137
 30
0.0
 10
80.08468101242512
 20
-142.1673630200137
 30
0.0
 10
80.13982220218715
 20
-142.1673630200137
 30
0.0
 10
80.18458767654296
 20
-142.1225955200251
 30
0.0
 10
80.18458767654296
 20
-142.0667860755947
 30
0.0
  0
SPLINE
  5
5D
330
1F
100
AcDbEntity
  8
_U+30EC_U+30A4_U+30E4_U+30FC 1
 62
   179
420
  2234388
370
     9
100
AcDbSpline
210
0.0
220
0.0
230
1.0
 70
    11
 71
     3
 72
    17
 73
    13
 74
     0
 42
0.0000000001
 43
0.0000000001
 12
1.0
 22
0.0
 32
0.0
 13
1.0
 23
0.0
 33
0.0
 40
0.0
 40
0.0
 40
0.0
 40
0.0
 40
1.0
 40
1.0
 40
1.0
 40
2.0
 40
2.0
 40
2.0
 40
3.0
 40
3.0
 40
3.0
 40
4.0
 40
4.0
 40
4.0
 40
4.0
 10
76.18483053650947
 20
-138.0670269099278
 30
0.0
 10
76.18483053650947
 20
-138.0118877432747
 30
0.0
 10
76.14006111306077
 20
-137.9671202432862
 30
0.0
 10
76.08460444780891
 20
-137.9671202432862
 30
0.0
 10
76.02946528254897
 20
-137.9671202432862
 30
0.0
 10
75.9846625059142
 20
-138.0118877432747
 30
0.0
 10
75.9846625059142
 20
-138.0670269099278
 30
0.0
 10
75.9846625059142
 20
-138.1221307988027
 30
0.0
 10
76.02946528254897
 20
-138.1669335765694
 30
0.0
 10
76.08460444780891
 20
-138.1669335765694
 30
0.0
 10
76.14006111306077
 20
-138.1669335765694
 30
0.0
 10
76.18483053650947
 20
-138.1221307988027
 30
0.0
 10
76.18483053650947
 20
-138.0670269099278
 30
0.0
  0
SPLINE
  5
5E
330
1F
100
AcDbEntity
  8
_U+30EC_U+30A4_U+30E4_U+30FC 1
 62
   179
420
  2234388
370
     9
100
AcDbSpline
210
0.0
220
0.0
230
1.0
 70
    11
 71
     3
 72
    17
 73
    13
 74
     0
 42
0.0000000001
 43
0.0000000001
 12
1.0
 22
0.0
 32
0.0
 13
1.0
 23
0.0
 33
0.0
 40
0.0
 40
0.0
 40
0.0
 40
0.0
 40
1.0
 40
1.0
 40
1.0
 40
2.0
 40
2.0
 40
2.0
 40
3.0
 40
3.0
 40
3.0
 40
4.0
 40
4.0
 40
4.0
 40
4.0
 10
76.18483053650947
 20
-113.067182749511
 30
0.0
 10
76.18483053650947
 20
-113.0116908050805
 30
0.0
 10
76.14006111306077
 20
-112.9669233050916
 30
0.0
 10
76.08460444780891
 20
-112.9669233050916
 30
0.0
 10
76.02946528254897
 20
-112.9669233050916
 30
0.0
 10
75.9846625059142
 20
-113.0116908050805
 30
0.0
 10
75.9846625059142
 20
-113.067182749511
 30
0.0
 10
75.9846625059142
 20
-113.1222866383862
 30
0.0
 10
76.02946528254897
 20
-113.1670894161526
 30
0.0
 10
76.08460444780891
 20
-113.1670894161526
 30
0.0
 10
76.14006111306077
 20
-113.1670894161526
 30
0.0
 10
76.18483053650947
 20
-113.1222866383862
 30
0.0
 10
76.18483053650947
 20
-113.067182749511
 30
0.0
  0
POLYLINE
  5
5F
330
1F
100
AcDbEntity
  8
_U+30EC_U+30A4_U+30E4_U+30FC 1
 62
   179
420
  2234388
370
     9
100
AcDb2dPolyline
 66
     1
 10
0.0
 20
0.0
 30
0.0
  0
VERTEX
  5
60
330
5F
100
AcDbEntity
  8
_U+30EC_U+30A4_U+30E4_U+30FC 1
 62
   179
420
  2234388
370
     9
100
AcDbVertex
100
AcDb2dVertex
 10
109.0848127725701
 20
-137.2670680212385
 30
0.0
  0
VERTEX
  5
61
330
5F
100
AcDbEntity
  8
_U+30EC_U+30A4_U+30E4_U+30FC 1
 62
   179
420
  2234388
370
     9
100
AcDbVertex
100
AcDb2dVertex
 10
109.0848127725701
 20
-132.0091621892196
 30
0.0
  0
SEQEND
  5
62
330
5F
100
AcDbEntity
  8
_U+30EC_U+30A4_U+30E4_U+30FC 1
 62
   179
420
  2234388
370
     9
  0
POLYLINE
  5
63
330
1F
100
AcDbEntity
  8
_U+30EC_U+30A4_U+30E4_U+30FC 1
 62
   179
420
  2234388
370
     9
100
AcDb2dPolyline
 66
     1
 10
0.0
 20
0.0
 30
0.0
  0
VERTEX
  5
64
330
63
100
AcDbEntity
  8
_U+30EC_U+30A4_U+30E4_U+30FC 1
 62
   179
420
  2234388
370
     9
100
AcDbVertex
100
AcDb2dVertex
 10
109.0848127725701
 20
-139.0667991318997
 30
0.0
  0
VERTEX
  5
65
330
63
100
AcDbEntity
  8
_U+30EC_U+30A4_U+30E4_U+30FC 1
 62
   179
420
  2234388
370
     9
100
AcDbVertex
100
AcDb2dVertex
 10
109.0848127725701
 20
-137.2670680212385
 30
0.0
  0
SEQEND
  5
66
330
63
100
AcDbEntity
  8
_U+30EC_U+30A4_U+30E4_U+30FC 1
 62
   179
420
  2234388
370
     9
  0
POLYLINE
  5
67
330
1F
100
AcDbEntity
  8
_U+30EC_U+30A4_U+30E4_U+30FC 1
 62
   179
420
  2234388
370
     9
100
AcDb2dPolyline
 66
     1
 10
0.0
 20
0.0
 30
0.0
  0
VERTEX
  5
68
330
67
100
AcDbEntity
  8
_U+30EC_U+30A4_U+30E4_U+30FC 1
 62
   179
420
  2234388
370
     9
100
AcDbVertex
100
AcDb2dVertex
 10
107.62477142093
 20
-138.0670269099278
 30
0.0
  0
VERTEX
  5
69
330
67
100
AcDbEntity
  8
_U+30EC_U+30A4_U+30E4_U+30FC 1
 62
   179
420
  2234388
370
     9
100
AcDbVertex
100
AcDb2dVertex
 10
110.084584969286
 20
-138.0670269099278
 30
0.0
  0
SEQEND
  5
6A
330
67
100
AcDbEntity
  8
_U+30EC_U+30A4_U+30E4_U+30FC 1
 62
   179
420
  2234388
370
     9
  0
POLYLINE
  5
6B
330
1F
100
AcDbEntity
  8
_U+30EC_U+30A4_U+30E4_U+30FC 1
 62
   179
420
  2234388
370
     9
100
AcDb2dPolyline
 66
     1
 10
0.0
 20
0.0
 30
0.0
  0
VERTEX
  5
6C
330
6B
100
AcDbEntity
  8
_U+30EC_U+30A4_U+30E4_U+30FC 1
 62
   179
420
  2234388
370
     9
100
AcDbVertex
100
AcDb2dVertex
 10
107.62477142093
 20
-137.2670680212385
 30
0.0
  0
VERTEX
  5
6D
330
6B
100
AcDbEntity
  8
_U+30EC_U+30A4_U+30E4_U+30FC 1
 62
   179
420
  2234388
370
     9
100
AcDbVertex
100
AcDb2dVertex
 10
110.084584969286
 20
-137.2670680212385
 30
0.0
  0
SEQEND
  5
6E
330
6B
100
AcDbEntity
  8
_U+30EC_U+30A4_U+30E4_U+30FC 1
 62
   179
420
  2234388
370
     9
  0
INSERT
  5
70
330
1F
100
AcDbEntity
  8
_U+30EC_U+30A4_U+30E4_U+30FC 1
100
AcDbBlockReference
  2
block 2
 10
0.0
 20
0.0
 30
0.0
  0
SPLINE
  5
82
330
1F
100
AcDbEntity
  8
_U+30EC_U+30A4_U+30E4_U+30FC 1
 62
   179
420
  2234388
370
    25
100
AcDbSpline
210
0.0
220
0.0
230
1.0
 70
    11
 71
     3
 72
    17
 73
    13
 74
     0
 42
0.0000000001
 43
0.0000000001
 12
1.0
 22
0.0
 32
0.0
 13
1.0
 23
0.0
 33
0.0
 40
0.0
 40
0.0
 40
0.0
 40
0.0
 40
1.0
 40
1.0
 40
1.0
 40
2.0
 40
2.0
 40
2.0
 40
3.0
 40
3.0
 40
3.0
 40
4.0
 40
4.0
 40
4.0
 40
4.0
 10
105.1198375959473
 20
-138.0670269099278
 30
0.0
 10
105.1198375959473
 20
-138.0863238543676
 30
0.0
 10
105.104350651898
 20
-138.1021635765855
 30
0.0
 10
105.084700930177
 20
-138.1021635765855
 30
0.0
 10
105.065086486233
 20
-138.1021635765855
 30
0.0
 10
105.049211486638
 20
-138.0863238543676
 30
0.0
 10
105.049211486638
 20
-138.0670269099278
 30
0.0
 10
105.049211486638
 20
-138.047729965488
 30
0.0
 10
105.065086486233
 20
-138.0318902432701
 30
0.0
 10
105.084700930177
 20
-138.0318902432701
 30
0.0
 10
105.104350651898
 20
-138.0318902432701
 30
0.0
 10
105.1198375959473
 20
-138.047729965488
 30
0.0
 10
105.1198375959473
 20
-138.0670269099278
 30
0.0
  0
SPLINE
  5
83
330
1F
100
AcDbEntity
  8
_U+30EC_U+30A4_U+30E4_U+30FC 1
 62
   179
420
  2234388
370
    25
100
AcDbSpline
210
0.0
220
0.0
230
1.0
 70
    11
 71
     3
 72
    17
 73
    13
 74
     0
 42
0.0000000001
 43
0.0000000001
 12
1.0
 22
0.0
 32
0.0
 13
1.0
 23
0.0
 33
0.0
 40
0.0
 40
0.0
 40
0.0
 40
0.0
 40
1.0
 40
1.0
 40
1.0
 40
2.0
 40
2.0
 40
2.0
 40
3.0
 40
3.0
 40
3.0
 40
4.0
 40
4.0
 40
4.0
 40
4.0
 10
105.1198375959473
 20
-137.2670680212385
 30
0.0
 10
105.1198375959473
 20
-137.2863649656784
 30
0.0
 10
105.104350651898
 20
-137.3022046878969
 30
0.0
 10
105.084700930177
 20
-137.3022046878969
 30
0.0
 10
105.065086486233
 20
-137.3022046878969
 30
0.0
 10
105.049211486638
 20
-137.2863649656784
 30
0.0
 10
105.049211486638
 20
-137.2670680212385
 30
0.0
 10
105.049211486638
 20
-137.2477710767994
 30
0.0
 10
105.065086486233
 20
-137.2319313545808
 30
0.0
 10
105.084700930177
 20
-137.2319313545808
 30
0.0
 10
105.104350651898
 20
-137.2319313545808
 30
0.0
 10
105.1198375959473
 20
-137.2477710767994
 30
0.0
 10
105.1198375959473
 20
-137.2670680212385
 30
0.0
  0
SPLINE
  5
84
330
1F
100
AcDbEntity
  8
_U+30EC_U+30A4_U+30E4_U+30FC 1
 62
   179
420
  2234388
370
     9
100
AcDbSpline
210
0.0
220
0.0
230
1.0
 70
    11
 71
     3
 72
    17
 73
    13
 74
     0
 42
0.0000000001
 43
0.0000000001
 12
1.0
 22
0.0
 32
0.0
 13
1.0
 23
0.0
 33
0.0
 40
0.0
 40
0.0
 40
0.0
 40
0.0
 40
1.0
 40
1.0
 40
1.0
 40
2.0
 40
2.0
 40
2.0
 40
3.0
 40
3.0
 40
3.0
 40
4.0
 40
4.0
 40
4.0
 40
4.0
 10
109.1199494383404
 20
-137.2670680212385
 30
0.0
 10
109.1199494383404
 20
-137.2863649656784
 30
0.0
 10
109.1041097165223
 20
-137.3022046878969
 30
0.0
 10
109.0848127725701
 20
-137.3022046878969
 30
0.0
 10
109.0651630508492
 20
-137.3022046878969
 30
0.0
 10
109.0493233290311
 20
-137.2863649656784
 30
0.0
 10
109.0493233290311
 20
-137.2670680212385
 30
0.0
 10
109.0493233290311
 20
-137.2477710767994
 30
0.0
 10
109.0651630508492
 20
-137.2319313545808
 30
0.0
 10
109.0848127725701
 20
-137.2319313545808
 30
0.0
 10
109.1041097165223
 20
-137.2319313545808
 30
0.0
 10
109.1199494383404
 20
-137.2477710767994
 30
0.0
 10
109.1199494383404
 20
-137.2670680212385
 30
0.0
  0
POLYLINE
  5
85
330
1F
100
AcDbEntity
  8
_U+30EC_U+30A4_U+30E4_U+30FC 1
 62
   179
420
  2234388
370
     9
100
AcDb2dPolyline
 66
     1
 10
0.0
 20
0.0
 30
0.0
  0
VERTEX
  5
86
330
85
100
AcDbEntity
  8
_U+30EC_U+30A4_U+30E4_U+30FC 1
 62
   179
420
  2234388
370
     9
100
AcDbVertex
100
AcDb2dVertex
 10
76.08460444780891
 20
-113.067182749511
 30
0.0
  0
VERTEX
  5
87
330
85
100
AcDbEntity
  8
_U+30EC_U+30A4_U+30E4_U+30FC 1
 62
   179
420
  2234388
370
     9
100
AcDbVertex
100
AcDb2dVertex
 10
76.08460444780891
 20
-138.0670269099278
 30
0.0
  0
SEQEND
  5
88
330
85
100
AcDbEntity
  8
_U+30EC_U+30A4_U+30E4_U+30FC 1
 62
   179
420
  2234388
370
     9
  0
POLYLINE
  5
89
330
1F
100
AcDbEntity
  8
_U+30EC_U+30A4_U+30E4_U+30FC 1
 62
   179
420
  2234388
370
     9
100
AcDb2dPolyline
 66
     1
 10
0.0
 20
0.0
 30
0.0
  0
VERTEX
  5
8A
330
89
100
AcDbEntity
  8
_U+30EC_U+30A4_U+30E4_U+30FC 1
 62
   179
420
  2234388
370
     9
100
AcDbVertex
100
AcDb2dVertex
 10
77.54461052167217
 20
-113.067182749511
 30
0.0
  0
VERTEX
  5
8B
330
89
100
AcDbEntity
  8
_U+30EC_U+30A4_U+30E4_U+30FC 1
 62
   179
420
  2234388
370
     9
100
AcDbVertex
100
AcDb2dVertex
 10
75.08447947332424
 20
-113.067182749511
 30
0.0
  0
SEQEND
  5
8C
330
89
100
AcDbEntity
  8
_U+30EC_U+30A4_U+30E4_U+30FC 1
 62
   179
420
  2234388
370
     9
  0
POLYLINE
  5
8D
330
1F
100
AcDbEntity
  8
_U+30EC_U+30A4_U+30E4_U+30FC 1
 62
   179
420
  2234388
370
     9
100
AcDb2dPolyline
 66
     1
 10
0.0
 20
0.0
 30
0.0
  0
VERTEX
  5
8E
330
8D
100
AcDbEntity
  8
_U+30EC_U+30A4_U+30E4_U+30FC 1
 62
   179
420
  2234388
370
     9
100
AcDbVertex
100
AcDb2dVertex
 10
77.54461052167217
 20
-138.0670269099278
 30
0.0
  0
VERTEX
  5
8F
330
8D
100
AcDbEntity
  8
_U+30EC_U+30A4_U+30E4_U+30FC 1
 62
   179
420
  2234388
370
     9
100
AcDbVertex
100
AcDb2dVertex
 10
75.08447947332424
 20
-138.0670269099278
 30
0.0
  0
SEQEND
  5
90
330
8D
100
AcDbEntity
  8
_U+30EC_U+30A4_U+30E4_U+30FC 1
 62
   179
420
  2234388
370
     9
  0
INSERT
  5
92
330
1F
100
AcDbEntity
  8
_U+30EC_U+30A4_U+30E4_U+30FC 1
100
AcDbBlockReference
  2
block 3
 10
0.0
 20
0.0
 30
0.0
  0
SPLINE
  5
99
330
1F
100
AcDbEntity
  8
_U+30EC_U+30A4_U+30E4_U+30FC 1
 62
   179
420
  2234388
370
    25
100
AcDbSpline
210
0.0
220
0.0
230
1.0
 70
    11
 71
     3
 72
    17
 73
    13
 74
     0
 42
0.0000000001
 43
0.0000000001
 12
1.0
 22
0.0
 32
0.0
 13
1.0
 23
0.0
 33
0.0
 40
0.0
 40
0.0
 40
0.0
 40
0.0
 40
1.0
 40
1.0
 40
1.0
 40
2.0
 40
2.0
 40
2.0
 40
3.0
 40
3.0
 40
3.0
 40
4.0
 40
4.0
 40
4.0
 40
4.0
 10
80.11981767819539
 20
-113.067182749511
 30
0.0
 10
80.11981767819539
 20
-113.0864796939505
 30
0.0
 10
80.10397795637726
 20
-113.1023194161687
 30
0.0
 10
80.08468101242512
 20
-113.1023194161687
 30
0.0
 10
80.06538609109488
 20
-113.1023194161687
 30
0.0
 10
80.04954434665487
 20
-113.0864796939505
 30
0.0
 10
80.04954434665487
 20
-113.067182749511
 30
0.0
 10
80.04954434665487
 20
-113.0475330272937
 30
0.0
 10
80.06538609109488
 20
-113.0316933050755
 30
0.0
 10
80.08468101242512
 20
-113.0316933050755
 30
0.0
 10
80.10397795637726
 20
-113.0316933050755
 30
0.0
 10
80.11981767819539
 20
-113.0475330272937
 30
0.0
 10
80.11981767819539
 20
-113.067182749511
 30
0.0
  0
SPLINE
  5
9A
330
1F
100
AcDbEntity
  8
_U+30EC_U+30A4_U+30E4_U+30FC 1
 62
   179
420
  2234388
370
    25
100
AcDbSpline
210
0.0
220
0.0
230
1.0
 70
    11
 71
     3
 72
    17
 73
    13
 74
     0
 42
0.0000000001
 43
0.0000000001
 12
1.0
 22
0.0
 32
0.0
 13
1.0
 23
0.0
 33
0.0
 40
0.0
 40
0.0
 40
0.0
 40
0.0
 40
1.0
 40
1.0
 40
1.0
 40
2.0
 40
2.0
 40
2.0
 40
3.0
 40
3.0
 40
3.0
 40
4.0
 40
4.0
 40
4.0
 40
4.0
 10
80.11981767819539
 20
-138.0670269099278
 30
0.0
 10
80.11981767819539
 20
-138.0863238543676
 30
0.0
 10
80.10397795637726
 20
-138.1021635765855
 30
0.0
 10
80.08468101242512
 20
-138.1021635765855
 30
0.0
 10
80.06538609109488
 20
-138.1021635765855
 30
0.0
 10
80.04954434665487
 20
-138.0863238543676
 30
0.0
 10
80.04954434665487
 20
-138.0670269099278
 30
0.0
 10
80.04954434665487
 20
-138.047729965488
 30
0.0
 10
80.06538609109488
 20
-138.0318902432701
 30
0.0
 10
80.08468101242512
 20
-138.0318902432701
 30
0.0
 10
80.10397795637726
 20
-138.0318902432701
 30
0.0
 10
80.11981767819539
 20
-138.047729965488
 30
0.0
 10
80.11981767819539
 20
-138.0670269099278
 30
0.0
  0
SPLINE
  5
9B
330
1F
100
AcDbEntity
  8
_U+30EC_U+30A4_U+30E4_U+30FC 1
 62
   179
420
  2234388
370
     9
100
AcDbSpline
210
0.0
220
0.0
230
1.0
 70
    11
 71
     3
 72
    17
 73
    13
 74
     0
 42
0.0000000001
 43
0.0000000001
 12
1.0
 22
0.0
 32
0.0
 13
1.0
 23
0.0
 33
0.0
 40
0.0
 40
0.0
 40
0.0
 40
0.0
 40
1.0
 40
1.0
 40
1.0
 40
2.0
 40
2.0
 40
2.0
 40
3.0
 40
3.0
 40
3.0
 40
4.0
 40
4.0
 40
4.0
 40
4.0
 10
76.12005861357108
 20
-138.0670269099278
 30
0.0
 10
76.12005861357108
 20
-138.0863238543676
 30
0.0
 10
76.10421889175295
 20
-138.1021635765855
 30
0.0
 10
76.08460444780891
 20
-138.1021635765855
 30
0.0
 10
76.064954726088
 20
-138.1021635765855
 30
0.0
 10
76.04943250426179
 20
-138.0863238543676
 30
0.0
 10
76.04943250426179
 20
-138.0670269099278
 30
0.0
 10
76.04943250426179
 20
-138.047729965488
 30
0.0
 10
76.064954726088
 20
-138.0318902432701
 30
0.0
 10
76.08460444780891
 20
-138.0318902432701
 30
0.0
 10
76.10421889175295
 20
-138.0318902432701
 30
0.0
 10
76.12005861357108
 20
-138.047729965488
 30
0.0
 10
76.12005861357108
 20
-138.0670269099278
 30
0.0
  0
POLYLINE
  5
9C
330
1F
100
AcDbEntity
  8
_U+30EC_U+30A4_U+30E4_U+30FC 1
 62
   179
420
  2234388
370
     9
100
AcDb2dPolyline
 66
     1
 10
0.0
 20
0.0
 30
0.0
  0
VERTEX
  5
9D
330
9C
100
AcDbEntity
  8
_U+30EC_U+30A4_U+30E4_U+30FC 1
 62
   179
420
  2234388
370
     9
100
AcDbVertex
100
AcDb2dVertex
 10
80.08468101242512
 20
-142.0667860755947
 30
0.0
  0
VERTEX
  5
9E
330
9C
100
AcDbEntity
  8
_U+30EC_U+30A4_U+30E4_U+30FC 1
 62
   179
420
  2234388
370
     9
100
AcDbVertex
100
AcDb2dVertex
 10
105.084700930177
 20
-142.0667860755947
 30
0.0
  0
SEQEND
  5
9F
330
9C
100
AcDbEntity
  8
_U+30EC_U+30A4_U+30E4_U+30FC 1
 62
   179
420
  2234388
370
     9
  0
POLYLINE
  5
A0
330
1F
100
AcDbEntity
  8
_U+30EC_U+30A4_U+30E4_U+30FC 1
 62
   179
420
  2234388
370
     9
100
AcDb2dPolyline
 66
     1
 10
0.0
 20
0.0
 30
0.0
  0
VERTEX
  5
A1
330
A0
100
AcDbEntity
  8
_U+30EC_U+30A4_U+30E4_U+30FC 1
 62
   179
420
  2234388
370
     9
100
AcDbVertex
100
AcDb2dVertex
 10
80.08468101242512
 20
-140.6067446870703
 30
0.0
  0
VERTEX
  5
A2
330
A0
100
AcDbEntity
  8
_U+30EC_U+30A4_U+30E4_U+30FC 1
 62
   179
420
  2234388
370
     9
100
AcDbVertex
100
AcDb2dVertex
 10
80.08468101242512
 20
-143.0672285753446
 30
0.0
  0
SEQEND
  5
A3
330
A0
100
AcDbEntity
  8
_U+30EC_U+30A4_U+30E4_U+30FC 1
 62
   179
420
  2234388
370
     9
  0
POLYLINE
  5
A4
330
1F
100
AcDbEntity
  8
_U+30EC_U+30A4_U+30E4_U+30FC 1
 62
   179
420
  2234388
370
     9
100
AcDb2dPolyline
 66
     1
 10
0.0
 20
0.0
 30
0.0
  0
VERTEX
  5
A5
330
A4
100
AcDbEntity
  8
_U+30EC_U+30A4_U+30E4_U+30FC 1
 62
   179
420
  2234388
370
     9
100
AcDbVertex
100
AcDb2dVertex
 10
105.084700930177
 20
-140.6067446870703
 30
0.0
  0
VERTEX
  5
A6
330
A4
100
AcDbEntity
  8
_U+30EC_U+30A4_U+30E4_U+30FC 1
 62
   179
420
  2234388
370
     9
100
AcDbVertex
100
AcDb2dVertex
 10
105.084700930177
 20
-143.0672285753446
 30
0.0
  0
SEQEND
  5
A7
330
A4
100
AcDbEntity
  8
_U+30EC_U+30A4_U+30E4_U+30FC 1
 62
   179
420
  2234388
370
     9
  0
INSERT
  5
A9
330
1F
100
AcDbEntity
  8
_U+30EC_U+30A4_U+30E4_U+30FC 1
100
AcDbBlockReference
  2
block 4
 10
0.0
 20
0.0
 30
0.0
  0
SPLINE
  5
B0
330
1F
100
AcDbEntity
  8
_U+30EC_U+30A4_U+30E4_U+30FC 1
 62
   179
420
  2234388
370
    25
100
AcDbSpline
210
0.0
220
0.0
230
1.0
 70
    11
 71
     3
 72
    17
 73
    13
 74
     0
 42
0.0000000001
 43
0.0000000001
 12
1.0
 22
0.0
 32
0.0
 13
1.0
 23
0.0
 33
0.0
 40
0.0
 40
0.0
 40
0.0
 40
0.0
 40
1.0
 40
1.0
 40
1.0
 40
2.0
 40
2.0
 40
2.0
 40
3.0
 40
3.0
 40
3.0
 40
4.0
 40
4.0
 40
4.0
 40
4.0
 10
80.11981767819539
 20
-138.0670269099278
 30
0.0
 10
80.11981767819539
 20
-138.0863238543676
 30
0.0
 10
80.10397795637726
 20
-138.1021635765855
 30
0.0
 10
80.08468101242512
 20
-138.1021635765855
 30
0.0
 10
80.06538609109488
 20
-138.1021635765855
 30
0.0
 10
80.04954434665487
 20
-138.0863238543676
 30
0.0
 10
80.04954434665487
 20
-138.0670269099278
 30
0.0
 10
80.04954434665487
 20
-138.047729965488
 30
0.0
 10
80.06538609109488
 20
-138.0318902432701
 30
0.0
 10
80.08468101242512
 20
-138.0318902432701
 30
0.0
 10
80.10397795637726
 20
-138.0318902432701
 30
0.0
 10
80.11981767819539
 20
-138.047729965488
 30
0.0
 10
80.11981767819539
 20
-138.0670269099278
 30
0.0
  0
SPLINE
  5
B1
330
1F
100
AcDbEntity
  8
_U+30EC_U+30A4_U+30E4_U+30FC 1
 62
   179
420
  2234388
370
    25
100
AcDbSpline
210
0.0
220
0.0
230
1.0
 70
    11
 71
     3
 72
    17
 73
    13
 74
     0
 42
0.0000000001
 43
0.0000000001
 12
1.0
 22
0.0
 32
0.0
 13
1.0
 23
0.0
 33
0.0
 40
0.0
 40
0.0
 40
0.0
 40
0.0
 40
1.0
 40
1.0
 40
1.0
 40
2.0
 40
2.0
 40
2.0
 40
3.0
 40
3.0
 40
3.0
 40
4.0
 40
4.0
 40
4.0
 40
4.0
 10
105.1198375959473
 20
-138.0670269099278
 30
0.0
 10
105.1198375959473
 20
-138.0863238543676
 30
0.0
 10
105.104350651898
 20
-138.1021635765855
 30
0.0
 10
105.084700930177
 20
-138.1021635765855
 30
0.0
 10
105.065086486233
 20
-138.1021635765855
 30
0.0
 10
105.049211486638
 20
-138.0863238543676
 30
0.0
 10
105.049211486638
 20
-138.0670269099278
 30
0.0
 10
105.049211486638
 20
-138.047729965488
 30
0.0
 10
105.065086486233
 20
-138.0318902432701
 30
0.0
 10
105.084700930177
 20
-138.0318902432701
 30
0.0
 10
105.104350651898
 20
-138.0318902432701
 30
0.0
 10
105.1198375959473
 20
-138.047729965488
 30
0.0
 10
105.1198375959473
 20
-138.0670269099278
 30
0.0
  0
SPLINE
  5
B2
330
1F
100
AcDbEntity
  8
_U+30EC_U+30A4_U+30E4_U+30FC 1
 62
   179
420
  2234388
370
     9
100
AcDbSpline
210
0.0
220
0.0
230
1.0
 70
    11
 71
     3
 72
    17
 73
    13
 74
     0
 42
0.0000000001
 43
0.0000000001
 12
1.0
 22
0.0
 32
0.0
 13
1.0
 23
0.0
 33
0.0
 40
0.0
 40
0.0
 40
0.0
 40
0.0
 40
1.0
 40
1.0
 40
1.0
 40
2.0
 40
2.0
 40
2.0
 40
3.0
 40
3.0
 40
3.0
 40
4.0
 40
4.0
 40
4.0
 40
4.0
 10
105.1198375959473
 20
-142.0667860755947
 30
0.0
 10
105.1198375959473
 20
-142.0867532978119
 30
0.0
 10
105.104350651898
 20
-142.1025930200298
 30
0.0
 10
105.084700930177
 20
-142.1025930200298
 30
0.0
 10
105.065086486233
 20
-142.1025930200298
 30
0.0
 10
105.049211486638
 20
-142.0867532978119
 30
0.0
 10
105.049211486638
 20
-142.0667860755947
 30
0.0
 10
105.049211486638
 20
-142.0474891311549
 30
0.0
 10
105.065086486233
 20
-142.0316494089363
 30
0.0
 10
105.084700930177
 20
-142.0316494089363
 30
0.0
 10
105.104350651898
 20
-142.0316494089363
 30
0.0
 10
105.1198375959473
 20
-142.0474891311549
 30
0.0
 10
105.1198375959473
 20
-142.0667860755947
 30
0.0
  0
SPLINE
  5
B3
330
1F
100
AcDbEntity
  8
_U+30EC_U+30A4_U+30E4_U+30FC 1
370
     0
100
AcDbSpline
210
0.0
220
0.0
230
1.0
 70
    11
 71
     3
 72
    35
 73
    31
 74
     0
 42
0.0000000001
 43
0.0000000001
 12
1.0
 22
0.0
 32
0.0
 13
1.0
 23
0.0
 33
0.0
 40
0.0
 40
0.0
 40
0.0
 40
0.0
 40
1.0
 40
1.0
 40
1.0
 40
2.0
 40
2.0
 40
2.0
 40
3.0
 40
3.0
 40
3.0
 40
4.0
 40
4.0
 40
4.0
 40
5.0
 40
5.0
 40
5.0
 40
6.0
 40
6.0
 40
6.0
 40
7.0
 40
7.0
 40
7.0
 40
8.0
 40
8.0
 40
8.0
 40
9.0
 40
9.0
 40
9.0
 40
10.0
 40
10.0
 40
10.0
 40
10.0
 10
105.049211486638
 20
-137.2670680212385
 30
0.0
 10
105.049211486638
 20
-137.2670680212385
 30
0.0
 10
80.88463988090537
 20
-137.2670680212385
 30
0.0
 10
80.88463988090537
 20
-137.2670680212385
 30
0.0
 10
80.88463988090537
 20
-137.2670680212385
 30
0.0
 10
80.88463988090537
 20
-113.067182749511
 30
0.0
 10
80.88463988090537
 20
-113.067182749511
 30
0.0
 10
80.88463988090537
 20
-113.067182749511
 30
0.0
 10
80.11981767819539
 20
-113.067182749511
 30
0.0
 10
80.11981767819539
 20
-113.067182749511
 30
0.0
 10
80.11981767819539
 20
-113.0864796939505
 30
0.0
 10
80.10397795637726
 20
-113.1023194161687
 30
0.0
 10
80.08468101242512
 20
-113.1023194161687
 30
0.0
 10
80.08468101242512
 20
-113.1023194161687
 30
0.0
 10
80.08468101242512
 20
-138.0318902432701
 30
0.0
 10
80.08468101242512
 20
-138.0318902432701
 30
0.0
 10
80.10397795637726
 20
-138.0318902432701
 30
0.0
 10
80.11981767819539
 20
-138.047729965488
 30
0.0
 10
80.11981767819539
 20
-138.0670269099278
 30
0.0
 10
80.11981767819539
 20
-138.0670269099278
 30
0.0
 10
105.049211486638
 20
-138.0670269099278
 30
0.0
 10
105.049211486638
 20
-138.0670269099278
 30
0.0
 10
105.049211486638
 20
-138.047729965488
 30
0.0
 10
105.065086486233
 20
-138.0318902432701
 30
0.0
 10
105.084700930177
 20
-138.0318902432701
 30
0.0
 10
105.084700930177
 20
-138.0318902432701
 30
0.0
 10
105.084700930177
 20
-137.3022046878969
 30
0.0
 10
105.084700930177
 20
-137.3022046878969
 30
0.0
 10
105.065086486233
 20
-137.3022046878969
 30
0.0
 10
105.049211486638
 20
-137.2863649656784
 30
0.0
 10
105.049211486638
 20
-137.2670680212385
 30
0.0
  0
HATCH
  5
B4
330
1F
100
AcDbEntity
  8
_U+30EC_U+30A4_U+30E4_U+30FC 1
 62
    54
420
 10196235
100
AcDbHatch
 10
0.0
 20
0.0
 30
0.0
210
0.0
220
0.0
230
1.0
  2
SOLID
 70
     1
 71
     0
 91
        1
 92
        1
 93
        1
 72
     4
 94
        3
 73
     0
 74
     1
 95
       35
 96
       31
 40
0.0
 40
0.0
 40
0.0
 40
0.0
 40
1.0
 40
1.0
 40
1.0
 40
2.0
 40
2.0
 40
2.0
 40
3.0
 40
3.0
 40
3.0
 40
4.0
 40
4.0
 40
4.0
 40
5.0
 40
5.0
 40
5.0
 40
6.0
 40
6.0
 40
6.0
 40
7.0
 40
7.0
 40
7.0
 40
8.0
 40
8.0
 40
8.0
 40
9.0
 40
9.0
 40
9.0
 40
10.0
 40
10.0
 40
10.0
 40
10.0
 10
105.049211486638
 20
-137.2670680212385
 10
105.049211486638
 20
-137.2670680212385
 10
80.88463988090537
 20
-137.2670680212385
 10
80.88463988090537
 20
-137.2670680212385
 10
80.88463988090537
 20
-137.2670680212385
 10
80.88463988090537
 20
-113.067182749511
 10
80.88463988090537
 20
-113.067182749511
 10
80.88463988090537
 20
-113.067182749511
 10
80.11981767819539
 20
-113.067182749511
 10
80.11981767819539
 20
-113.067182749511
 10
80.11981767819539
 20
-113.0864796939505
 10
80.10397795637726
 20
-113.1023194161687
 10
80.08468101242512
 20
-113.1023194161687
 10
80.08468101242512
 20
-113.1023194161687
 10
80.08468101242512
 20
-138.0318902432701
 10
80.08468101242512
 20
-138.0318902432701
 10
80.10397795637726
 20
-138.0318902432701
 10
80.11981767819539
 20
-138.047729965488
 10
80.11981767819539
 20
-138.0670269099278
 10
80.11981767819539
 20
-138.0670269099278
 10
105.049211486638
 20
-138.0670269099278
 10
105.049211486638
 20
-138.0670269099278
 10
105.049211486638
 20
-138.047729965488
 10
105.065086486233
 20
-138.0318902432701
 10
105.084700930177
 20
-138.0318902432701
 10
105.084700930177
 20
-138.0318902432701
 10
105.084700930177
 20
-137.3022046878969
 10
105.084700930177
 20
-137.3022046878969
 10
105.065086486233
 20
-137.3022046878969
 10
105.049211486638
 20
-137.2863649656784
 10
105.049211486638
 20
-137.2670680212385
 97
        0
 97
        0
 75
     2
 76
     1
 98
        0
  0
SPLINE
  5
B5
330
1F
100
AcDbEntity
  8
_U+30EC_U+30A4_U+30E4_U+30FC 1
370
     0
100
AcDbSpline
210
0.0
220
0.0
230
1.0
 70
    11
 71
     3
 72
    20
 73
    16
 74
     0
 42
0.0000000001
 43
0.0000000001
 12
1.0
 22
0.0
 32
0.0
 13
1.0
 23
0.0
 33
0.0
 40
0.0
 40
0.0
 40
0.0
 40
0.0
 40
1.0
 40
1.0
 40
1.0
 40
2.0
 40
2.0
 40
2.0
 40
3.0
 40
3.0
 40
3.0
 40
4.0
 40
4.0
 40
4.0
 40
5.0
 40
5.0
 40
5.0
 40
5.0
 10
105.084700930177
 20
-137.3022046878969
 30
0.0
 10
105.104350651898
 20
-137.3022046878969
 30
0.0
 10
105.1198375959473
 20
-137.2863649656784
 30
0.0
 10
105.1198375959473
 20
-137.2670680212385
 30
0.0
 10
105.1198375959473
 20
-137.2477710767994
 30
0.0
 10
105.104350651898
 20
-137.2319313545808
 30
0.0
 10
105.084700930177
 20
-137.2319313545808
 30
0.0
 10
105.065086486233
 20
-137.2319313545808
 30
0.0
 10
105.049211486638
 20
-137.2477710767994
 30
0.0
 10
105.049211486638
 20
-137.2670680212385
 30
0.0
 10
105.049211486638
 20
-137.2670680212385
 30
0.0
 10
105.084700930177
 20
-137.2670680212385
 30
0.0
 10
105.084700930177
 20
-137.2670680212385
 30
0.0
 10
105.084700930177
 20
-137.2670680212385
 30
0.0
 10
105.084700930177
 20
-137.3022046878969
 30
0.0
 10
105.084700930177
 20
-137.3022046878969
 30
0.0
  0
HATCH
  5
B6
330
1F
100
AcDbEntity
  8
_U+30EC_U+30A4_U+30E4_U+30FC 1
 62
    52
420
 14268416
100
AcDbHatch
 10
0.0
 20
0.0
 30
0.0
210
0.0
220
0.0
230
1.0
  2
SOLID
 70
     1
 71
     0
 91
        1
 92
        1
 93
        1
 72
     4
 94
        3
 73
     0
 74
     1
 95
       20
 96
       16
 40
0.0
 40
0.0
 40
0.0
 40
0.0
 40
1.0
 40
1.0
 40
1.0
 40
2.0
 40
2.0
 40
2.0
 40
3.0
 40
3.0
 40
3.0
 40
4.0
 40
4.0
 40
4.0
 40
5.0
 40
5.0
 40
5.0
 40
5.0
 10
105.084700930177
 20
-137.3022046878969
 10
105.104350651898
 20
-137.3022046878969
 10
105.1198375959473
 20
-137.2863649656784
 10
105.1198375959473
 20
-137.2670680212385
 10
105.1198375959473
 20
-137.2477710767994
 10
105.104350651898
 20
-137.2319313545808
 10
105.084700930177
 20
-137.2319313545808
 10
105.065086486233
 20
-137.2319313545808
 10
105.049211486638
 20
-137.2477710767994
 10
105.049211486638
 20
-137.2670680212385
 10
105.049211486638
 20
-137.2670680212385
 10
105.084700930177
 20
-137.2670680212385
 10
105.084700930177
 20
-137.2670680212385
 10
105.084700930177
 20
-137.2670680212385
 10
105.084700930177
 20
-137.3022046878969
 10
105.084700930177
 20
-137.3022046878969
 97
        0
 97
        0
 75
     2
 76
     1
 98
        0
  0
SPLINE
  5
B7
330
1F
100
AcDbEntity
  8
_U+30EC_U+30A4_U+30E4_U+30FC 1
370
     0
100
AcDbSpline
210
0.0
220
0.0
230
1.0
 70
    11
 71
     3
 72
    14
 73
    10
 74
     0
 42
0.0000000001
 43
0.0000000001
 12
1.0
 22
0.0
 32
0.0
 13
1.0
 23
0.0
 33
0.0
 40
0.0
 40
0.0
 40
0.0
 40
0.0
 40
1.0
 40
1.0
 40
1.0
 40
2.0
 40
2.0
 40
2.0
 40
3.0
 40
3.0
 40
3.0
 40
3.0
 10
105.084700930177
 20
-137.3022046878969
 30
0.0
 10
105.084700930177
 20
-137.3022046878969
 30
0.0
 10
105.084700930177
 20
-137.2670680212385
 30
0.0
 10
105.084700930177
 20
-137.2670680212385
 30
0.0
 10
105.084700930177
 20
-137.2670680212385
 30
0.0
 10
105.049211486638
 20
-137.2670680212385
 30
0.0
 10
105.049211486638
 20
-137.2670680212385
 30
0.0
 10
105.049211486638
 20
-137.2863649656784
 30
0.0
 10
105.065086486233
 20
-137.3022046878969
 30
0.0
 10
105.084700930177
 20
-137.3022046878969
 30
0.0
  0
HATCH
  5
B8
330
1F
100
AcDbEntity
  8
_U+30EC_U+30A4_U+30E4_U+30FC 1
 62
    52
420
 14268416
100
AcDbHatch
 10
0.0
 20
0.0
 30
0.0
210
0.0
220
0.0
230
1.0
  2
SOLID
 70
     1
 71
     0
 91
        1
 92
        1
 93
        1
 72
     4
 94
        3
 73
     0
 74
     1
 95
       14
 96
       10
 40
0.0
 40
0.0
 40
0.0
 40
0.0
 40
1.0
 40
1.0
 40
1.0
 40
2.0
 40
2.0
 40
2.0
 40
3.0
 40
3.0
 40
3.0
 40
3.0
 10
105.084700930177
 20
-137.3022046878969
 10
105.084700930177
 20
-137.3022046878969
 10
105.084700930177
 20
-137.2670680212385
 10
105.084700930177
 20
-137.2670680212385
 10
105.084700930177
 20
-137.2670680212385
 10
105.049211486638
 20
-137.2670680212385
 10
105.049211486638
 20
-137.2670680212385
 10
105.049211486638
 20
-137.2863649656784
 10
105.065086486233
 20
-137.3022046878969
 10
105.084700930177
 20
-137.3022046878969
 97
        0
 97
        0
 75
     2
 76
     1
 98
        0
  0
SPLINE
  5
B9
330
1F
100
AcDbEntity
  8
_U+30EC_U+30A4_U+30E4_U+30FC 1
370
     0
100
AcDbSpline
210
0.0
220
0.0
230
1.0
 70
    11
 71
     3
 72
    14
 73
    10
 74
     0
 42
0.0000000001
 43
0.0000000001
 12
1.0
 22
0.0
 32
0.0
 13
1.0
 23
0.0
 33
0.0
 40
0.0
 40
0.0
 40
0.0
 40
0.0
 40
1.0
 40
1.0
 40
1.0
 40
2.0
 40
2.0
 40
2.0
 40
3.0
 40
3.0
 40
3.0
 40
3.0
 10
80.11981767819539
 20
-113.067182749511
 30
0.0
 10
80.11981767819539
 20
-113.067182749511
 30
0.0
 10
80.08468101242512
 20
-113.067182749511
 30
0.0
 10
80.08468101242512
 20
-113.067182749511
 30
0.0
 10
80.08468101242512
 20
-113.067182749511
 30
0.0
 10
80.08468101242512
 20
-113.1023194161687
 30
0.0
 10
80.08468101242512
 20
-113.1023194161687
 30
0.0
 10
80.10397795637726
 20
-113.1023194161687
 30
0.0
 10
80.11981767819539
 20
-113.0864796939505
 30
0.0
 10
80.11981767819539
 20
-113.067182749511
 30
0.0
  0
HATCH
  5
BA
330
1F
100
AcDbEntity
  8
_U+30EC_U+30A4_U+30E4_U+30FC 1
 62
    52
420
 14268416
100
AcDbHatch
 10
0.0
 20
0.0
 30
0.0
210
0.0
220
0.0
230
1.0
  2
SOLID
 70
     1
 71
     0
 91
        1
 92
        1
 93
        1
 72
     4
 94
        3
 73
     0
 74
     1
 95
       14
 96
       10
 40
0.0
 40
0.0
 40
0.0
 40
0.0
 40
1.0
 40
1.0
 40
1.0
 40
2.0
 40
2.0
 40
2.0
 40
3.0
 40
3.0
 40
3.0
 40
3.0
 10
80.11981767819539
 20
-113.067182749511
 10
80.11981767819539
 20
-113.067182749511
 10
80.08468101242512
 20
-113.067182749511
 10
80.08468101242512
 20
-113.067182749511
 10
80.08468101242512
 20
-113.067182749511
 10
80.08468101242512
 20
-113.1023194161687
 10
80.08468101242512
 20
-113.1023194161687
 10
80.10397795637726
 20
-113.1023194161687
 10
80.11981767819539
 20
-113.0864796939505
 10
80.11981767819539
 20
-113.067182749511
 97
        0
 97
        0
 75
     2
 76
     1
 98
        0
  0
SPLINE
  5
BB
330
1F
100
AcDbEntity
  8
_U+30EC_U+30A4_U+30E4_U+30FC 1
370
     0
100
AcDbSpline
210
0.0
220
0.0
230
1.0
 70
    11
 71
     3
 72
    20
 73
    16
 74
     0
 42
0.0000000001
 43
0.0000000001
 12
1.0
 22
0.0
 32
0.0
 13
1.0
 23
0.0
 33
0.0
 40
0.0
 40
0.0
 40
0.0
 40
0.0
 40
1.0
 40
1.0
 40
1.0
 40
2.0
 40
2.0
 40
2.0
 40
3.0
 40
3.0
 40
3.0
 40
4.0
 40
4.0
 40
4.0
 40
5.0
 40
5.0
 40
5.0
 40
5.0
 10
80.11981767819539
 20
-113.067182749511
 30
0.0
 10
80.11981767819539
 20
-113.0475330272937
 30
0.0
 10
80.10397795637726
 20
-113.0316933050755
 30
0.0
 10
80.08468101242512
 20
-113.0316933050755
 30
0.0
 10
80.06538609109488
 20
-113.0316933050755
 30
0.0
 10
80.04954434665487
 20
-113.0475330272937
 30
0.0
 10
80.04954434665487
 20
-113.067182749511
 30
0.0
 10
80.04954434665487
 20
-113.0864796939505
 30
0.0
 10
80.06538609109488
 20
-113.1023194161687
 30
0.0
 10
80.08468101242512
 20
-113.1023194161687
 30
0.0
 10
80.08468101242512
 20
-113.1023194161687
 30
0.0
 10
80.08468101242512
 20
-113.067182749511
 30
0.0
 10
80.08468101242512
 20
-113.067182749511
 30
0.0
 10
80.08468101242512
 20
-113.067182749511
 30
0.0
 10
80.11981767819539
 20
-113.067182749511
 30
0.0
 10
80.11981767819539
 20
-113.067182749511
 30
0.0
  0
HATCH
  5
BC
330
1F
100
AcDbEntity
  8
_U+30EC_U+30A4_U+30E4_U+30FC 1
 62
    52
420
 14268416
100
AcDbHatch
 10
0.0
 20
0.0
 30
0.0
210
0.0
220
0.0
230
1.0
  2
SOLID
 70
     1
 71
     0
 91
        1
 92
        1
 93
        1
 72
     4
 94
        3
 73
     0
 74
     1
 95
       20
 96
       16
 40
0.0
 40
0.0
 40
0.0
 40
0.0
 40
1.0
 40
1.0
 40
1.0
 40
2.0
 40
2.0
 40
2.0
 40
3.0
 40
3.0
 40
3.0
 40
4.0
 40
4.0
 40
4.0
 40
5.0
 40
5.0
 40
5.0
 40
5.0
 10
80.11981767819539
 20
-113.067182749511
 10
80.11981767819539
 20
-113.0475330272937
 10
80.10397795637726
 20
-113.0316933050755
 10
80.08468101242512
 20
-113.0316933050755
 10
80.06538609109488
 20
-113.0316933050755
 10
80.04954434665487
 20
-113.0475330272937
 10
80.04954434665487
 20
-113.067182749511
 10
80.04954434665487
 20
-113.0864796939505
 10
80.06538609109488
 20
-113.1023194161687
 10
80.08468101242512
 20
-113.1023194161687
 10
80.08468101242512
 20
-113.1023194161687
 10
80.08468101242512
 20
-113.067182749511
 10
80.08468101242512
 20
-113.067182749511
 10
80.08468101242512
 20
-113.067182749511
 10
80.11981767819539
 20
-113.067182749511
 10
80.11981767819539
 20
-113.067182749511
 97
        0
 97
        0
 75
     2
 76
     1
 98
        0
  0
SPLINE
  5
BD
330
1F
100
AcDbEntity
  8
_U+30EC_U+30A4_U+30E4_U+30FC 1
370
     0
100
AcDbSpline
210
0.0
220
0.0
230
1.0
 70
    11
 71
     3
 72
    14
 73
    10
 74
     0
 42
0.0000000001
 43
0.0000000001
 12
1.0
 22
0.0
 32
0.0
 13
1.0
 23
0.0
 33
0.0
 40
0.0
 40
0.0
 40
0.0
 40
0.0
 40
1.0
 40
1.0
 40
1.0
 40
2.0
 40
2.0
 40
2.0
 40
3.0
 40
3.0
 40
3.0
 40
3.0
 10
80.08468101242512
 20
-138.0318902432701
 30
0.0
 10
80.08468101242512
 20
-138.0318902432701
 30
0.0
 10
80.08468101242512
 20
-138.0670269099278
 30
0.0
 10
80.08468101242512
 20
-138.0670269099278
 30
0.0
 10
80.08468101242512
 20
-138.0670269099278
 30
0.0
 10
80.11981767819539
 20
-138.0670269099278
 30
0.0
 10
80.11981767819539
 20
-138.0670269099278
 30
0.0
 10
80.11981767819539
 20
-138.047729965488
 30
0.0
 10
80.10397795637726
 20
-138.0318902432701
 30
0.0
 10
80.08468101242512
 20
-138.0318902432701
 30
0.0
  0
HATCH
  5
BE
330
1F
100
AcDbEntity
  8
_U+30EC_U+30A4_U+30E4_U+30FC 1
 62
    54
420
 10196235
100
AcDbHatch
 10
0.0
 20
0.0
 30
0.0
210
0.0
220
0.0
230
1.0
  2
SOLID
 70
     1
 71
     0
 91
        1
 92
        1
 93
        1
 72
     4
 94
        3
 73
     0
 74
     1
 95
       14
 96
       10
 40
0.0
 40
0.0
 40
0.0
 40
0.0
 40
1.0
 40
1.0
 40
1.0
 40
2.0
 40
2.0
 40
2.0
 40
3.0
 40
3.0
 40
3.0
 40
3.0
 10
80.08468101242512
 20
-138.0318902432701
 10
80.08468101242512
 20
-138.0318902432701
 10
80.08468101242512
 20
-138.0670269099278
 10
80.08468101242512
 20
-138.0670269099278
 10
80.08468101242512
 20
-138.0670269099278
 10
80.11981767819539
 20
-138.0670269099278
 10
80.11981767819539
 20
-138.0670269099278
 10
80.11981767819539
 20
-138.047729965488
 10
80.10397795637726
 20
-138.0318902432701
 10
80.08468101242512
 20
-138.0318902432701
 97
        0
 97
        0
 75
     2
 76
     1
 98
        0
  0
SPLINE
  5
BF
330
1F
100
AcDbEntity
  8
_U+30EC_U+30A4_U+30E4_U+30FC 1
370
     0
100
AcDbSpline
210
0.0
220
0.0
230
1.0
 70
    11
 71
     3
 72
    20
 73
    16
 74
     0
 42
0.0000000001
 43
0.0000000001
 12
1.0
 22
0.0
 32
0.0
 13
1.0
 23
0.0
 33
0.0
 40
0.0
 40
0.0
 40
0.0
 40
0.0
 40
1.0
 40
1.0
 40
1.0
 40
2.0
 40
2.0
 40
2.0
 40
3.0
 40
3.0
 40
3.0
 40
4.0
 40
4.0
 40
4.0
 40
5.0
 40
5.0
 40
5.0
 40
5.0
 10
80.08468101242512
 20
-138.0318902432701
 30
0.0
 10
80.06538609109488
 20
-138.0318902432701
 30
0.0
 10
80.04954434665487
 20
-138.047729965488
 30
0.0
 10
80.04954434665487
 20
-138.0670269099278
 30
0.0
 10
80.04954434665487
 20
-138.0863238543676
 30
0.0
 10
80.06538609109488
 20
-138.1021635765855
 30
0.0
 10
80.08468101242512
 20
-138.1021635765855
 30
0.0
 10
80.10397795637726
 20
-138.1021635765855
 30
0.0
 10
80.11981767819539
 20
-138.0863238543676
 30
0.0
 10
80.11981767819539
 20
-138.0670269099278
 30
0.0
 10
80.11981767819539
 20
-138.0670269099278
 30
0.0
 10
80.08468101242512
 20
-138.0670269099278
 30
0.0
 10
80.08468101242512
 20
-138.0670269099278
 30
0.0
 10
80.08468101242512
 20
-138.0670269099278
 30
0.0
 10
80.08468101242512
 20
-138.0318902432701
 30
0.0
 10
80.08468101242512
 20
-138.0318902432701
 30
0.0
  0
HATCH
  5
C0
330
1F
100
AcDbEntity
  8
_U+30EC_U+30A4_U+30E4_U+30FC 1
 62
    54
420
 10196235
100
AcDbHatch
 10
0.0
 20
0.0
 30
0.0
210
0.0
220
0.0
230
1.0
  2
SOLID
 70
     1
 71
     0
 91
        1
 92
        1
 93
        1
 72
     4
 94
        3
 73
     0
 74
     1
 95
       20
 96
       16
 40
0.0
 40
0.0
 40
0.0
 40
0.0
 40
1.0
 40
1.0
 40
1.0
 40
2.0
 40
2.0
 40
2.0
 40
3.0
 40
3.0
 40
3.0
 40
4.0
 40
4.0
 40
4.0
 40
5.0
 40
5.0
 40
5.0
 40
5.0
 10
80.08468101242512
 20
-138.0318902432701
 10
80.06538609109488
 20
-138.0318902432701
 10
80.04954434665487
 20
-138.047729965488
 10
80.04954434665487
 20
-138.0670269099278
 10
80.04954434665487
 20
-138.0863238543676
 10
80.06538609109488
 20
-138.1021635765855
 10
80.08468101242512
 20
-138.1021635765855
 10
80.10397795637726
 20
-138.1021635765855
 10
80.11981767819539
 20
-138.0863238543676
 10
80.11981767819539
 20
-138.0670269099278
 10
80.11981767819539
 20
-138.0670269099278
 10
80.08468101242512
 20
-138.0670269099278
 10
80.08468101242512
 20
-138.0670269099278
 10
80.08468101242512
 20
-138.0670269099278
 10
80.08468101242512
 20
-138.0318902432701
 10
80.08468101242512
 20
-138.0318902432701
 97
        0
 97
        0
 75
     2
 76
     1
 98
        0
  0
SPLINE
  5
C1
330
1F
100
AcDbEntity
  8
_U+30EC_U+30A4_U+30E4_U+30FC 1
370
     0
100
AcDbSpline
210
0.0
220
0.0
230
1.0
 70
    11
 71
     3
 72
    14
 73
    10
 74
     0
 42
0.0000000001
 43
0.0000000001
 12
1.0
 22
0.0
 32
0.0
 13
1.0
 23
0.0
 33
0.0
 40
0.0
 40
0.0
 40
0.0
 40
0.0
 40
1.0
 40
1.0
 40
1.0
 40
2.0
 40
2.0
 40
2.0
 40
3.0
 40
3.0
 40
3.0
 40
3.0
 10
105.049211486638
 20
-138.0670269099278
 30
0.0
 10
105.049211486638
 20
-138.0670269099278
 30
0.0
 10
105.084700930177
 20
-138.0670269099278
 30
0.0
 10
105.084700930177
 20
-138.0670269099278
 30
0.0
 10
105.084700930177
 20
-138.0670269099278
 30
0.0
 10
105.084700930177
 20
-138.0318902432701
 30
0.0
 10
105.084700930177
 20
-138.0318902432701
 30
0.0
 10
105.065086486233
 20
-138.0318902432701
 30
0.0
 10
105.049211486638
 20
-138.047729965488
 30
0.0
 10
105.049211486638
 20
-138.0670269099278
 30
0.0
  0
HATCH
  5
C2
330
1F
100
AcDbEntity
  8
_U+30EC_U+30A4_U+30E4_U+30FC 1
 62
    52
420
 14268416
100
AcDbHatch
 10
0.0
 20
0.0
 30
0.0
210
0.0
220
0.0
230
1.0
  2
SOLID
 70
     1
 71
     0
 91
        1
 92
        1
 93
        1
 72
     4
 94
        3
 73
     0
 74
     1
 95
       14
 96
       10
 40
0.0
 40
0.0
 40
0.0
 40
0.0
 40
1.0
 40
1.0
 40
1.0
 40
2.0
 40
2.0
 40
2.0
 40
3.0
 40
3.0
 40
3.0
 40
3.0
 10
105.049211486638
 20
-138.0670269099278
 10
105.049211486638
 20
-138.0670269099278
 10
105.084700930177
 20
-138.0670269099278
 10
105.084700930177
 20
-138.0670269099278
 10
105.084700930177
 20
-138.0670269099278
 10
105.084700930177
 20
-138.0318902432701
 10
105.084700930177
 20
-138.0318902432701
 10
105.065086486233
 20
-138.0318902432701
 10
105.049211486638
 20
-138.047729965488
 10
105.049211486638
 20
-138.0670269099278
 97
        0
 97
        0
 75
     2
 76
     1
 98
        0
  0
SPLINE
  5
C3
330
1F
100
AcDbEntity
  8
_U+30EC_U+30A4_U+30E4_U+30FC 1
370
     0
100
AcDbSpline
210
0.0
220
0.0
230
1.0
 70
    11
 71
     3
 72
    20
 73
    16
 74
     0
 42
0.0000000001
 43
0.0000000001
 12
1.0
 22
0.0
 32
0.0
 13
1.0
 23
0.0
 33
0.0
 40
0.0
 40
0.0
 40
0.0
 40
0.0
 40
1.0
 40
1.0
 40
1.0
 40
2.0
 40
2.0
 40
2.0
 40
3.0
 40
3.0
 40
3.0
 40
4.0
 40
4.0
 40
4.0
 40
5.0
 40
5.0
 40
5.0
 40
5.0
 10
105.049211486638
 20
-138.0670269099278
 30
0.0
 10
105.049211486638
 20
-138.0863238543676
 30
0.0
 10
105.065086486233
 20
-138.1021635765855
 30
0.0
 10
105.084700930177
 20
-138.1021635765855
 30
0.0
 10
105.104350651898
 20
-138.1021635765855
 30
0.0
 10
105.1198375959473
 20
-138.0863238543676
 30
0.0
 10
105.1198375959473
 20
-138.0670269099278
 30
0.0
 10
105.1198375959473
 20
-138.047729965488
 30
0.0
 10
105.104350651898
 20
-138.0318902432701
 30
0.0
 10
105.084700930177
 20
-138.0318902432701
 30
0.0
 10
105.084700930177
 20
-138.0318902432701
 30
0.0
 10
105.084700930177
 20
-138.0670269099278
 30
0.0
 10
105.084700930177
 20
-138.0670269099278
 30
0.0
 10
105.084700930177
 20
-138.0670269099278
 30
0.0
 10
105.049211486638
 20
-138.0670269099278
 30
0.0
 10
105.049211486638
 20
-138.0670269099278
 30
0.0
  0
HATCH
  5
C4
330
1F
100
AcDbEntity
  8
_U+30EC_U+30A4_U+30E4_U+30FC 1
 62
    52
420
 14268416
100
AcDbHatch
 10
0.0
 20
0.0
 30
0.0
210
0.0
220
0.0
230
1.0
  2
SOLID
 70
     1
 71
     0
 91
        1
 92
        1
 93
        1
 72
     4
 94
        3
 73
     0
 74
     1
 95
       20
 96
       16
 40
0.0
 40
0.0
 40
0.0
 40
0.0
 40
1.0
 40
1.0
 40
1.0
 40
2.0
 40
2.0
 40
2.0
 40
3.0
 40
3.0
 40
3.0
 40
4.0
 40
4.0
 40
4.0
 40
5.0
 40
5.0
 40
5.0
 40
5.0
 10
105.049211486638
 20
-138.0670269099278
 10
105.049211486638
 20
-138.0863238543676
 10
105.065086486233
 20
-138.1021635765855
 10
105.084700930177
 20
-138.1021635765855
 10
105.104350651898
 20
-138.1021635765855
 10
105.1198375959473
 20
-138.0863238543676
 10
105.1198375959473
 20
-138.0670269099278
 10
105.1198375959473
 20
-138.047729965488
 10
105.104350651898
 20
-138.0318902432701
 10
105.084700930177
 20
-138.0318902432701
 10
105.084700930177
 20
-138.0318902432701
 10
105.084700930177
 20
-138.0670269099278
 10
105.084700930177
 20
-138.0670269099278
 10
105.084700930177
 20
-138.0670269099278
 10
105.049211486638
 20
-138.0670269099278
 10
105.049211486638
 20
-138.0670269099278
 97
        0
 97
        0
 75
     2
 76
     1
 98
        0
  0
ENDSEC
  0
SECTION
  2
OBJECTS
  0
DICTIONARY
  5
C
330
0
100
AcDbDictionary
281
     1
  3
ACAD_GROUP
350
D
  3
ACAD_LAYOUT
350
1A
  3
ACAD_MATERIAL
350
3B
  3
ACAD_MLEADERSTYLE
350
C6
  3
ACAD_MLINESTYLE
350
17
  3
ACAD_PLOTSETTINGS
350
19
  3
ACAD_PLOTSTYLENAME
350
E
  3
ACAD_TABLESTYLE
350
C5
  3
ACAD_VISUALSTYLE
350
2A
  0
SUN
  5
3F
330
29
100
AcDbSun
 90
        1
290
     0
 63
     7
421
 16777215
 40
1.0
291
     1
 91
  2455826
 92
 54000000
292
     0
 70
     2
 71
   256
280
     1
  0
DICTIONARY
  5
D
102
{ACAD_REACTORS
330
C
102
}
330
C
100
AcDbDictionary
281
     1
  0
DICTIONARY
  5
1A
102
{ACAD_REACTORS
330
C
102
}
330
C
100
AcDbDictionary
281
     1
  3
Layout1
350
1E
  3
Layout2
350
26
  3
Model
350
22
  0
DICTIONARY
  5
3B
102
{ACAD_REACTORS
330
C
102
}
330
C
100
AcDbDictionary
281
     1
  3
ByBlock
350
3D
  3
ByLayer
350
3C
  3
Global
350
3E
  0
DICTIONARY
  5
C6
102
{ACAD_REACTORS
330
C
102
}
330
C
100
AcDbDictionary
281
     1
  0
DICTIONARY
  5
17
102
{ACAD_REACTORS
330
C
102
}
330
C
100
AcDbDictionary
281
     1
  3
Standard
350
18
  0
DICTIONARY
  5
19
102
{ACAD_REACTORS
330
C
102
}
330
C
100
AcDbDictionary
281
     1
  0
ACDBDICTIONARYWDFLT
  5
E
102
{ACAD_REACTORS
330
C
102
}
330
C
100
AcDbDictionary
281
     1
  3
Normal
350
F
100
AcDbDictionaryWithDefault
340
F
  0
DICTIONARY
  5
C5
102
{ACAD_REACTORS
330
C
102
}
330
C
100
AcDbDictionary
281
     1
  0
DICTIONARY
  5
2A
102
{ACAD_REACTORS
330
C
102
}
330
C
100
AcDbDictionary
281
     1
  3
2dWireframe
350
2F
  3
3D Hidden
350
31
  3
3dWireframe
350
30
  3
Basic
350
32
  3
Brighten
350
36
  3
ColorChange
350
3A
  3
Conceptual
350
34
  3
Dim
350
35
  3
Facepattern
350
39
  3
Flat
350
2B
  3
FlatWithEdges
350
2C
  3
Gouraud
350
2D
  3
GouraudWithEdges
350
2E
  3
Linepattern
350
38
  3
Realistic
350
33
  3
Thicken
350
37
  0
LAYOUT
  5
1E
102
{ACAD_REACTORS
330
1A
102
}
330
1A
100
AcDbPlotSettings
  1

  2
none_device
  4

  6

 40
0.0
 41
0.0
 42
0.0
 43
0.0
 44
0.0
 45
0.0
 46
0.0
 47
0.0
 48
0.0
 49
0.0
140
0.0
141
0.0
142
1.0
143
1.0
 70
   688
 72
     0
 73
     0
 74
     5
  7

 75
    16
 76
     0
 77
     2
 78
   300
147
1.0
148
0.0
149
0.0
100
AcDbLayout
  1
Layout1
 70
     1
 71
     1
 10
0.0
 20
0.0
 11
12.0
 21
9.0
 12
0.0
 22
0.0
 32
0.0
 14
1.000000000000000E+20
 24
1.000000000000000E+20
 34
1.000000000000000E+20
 15
-1.000000000000000E+20
 25
-1.000000000000000E+20
 35
-1.000000000000000E+20
146
0.0
 13
0.0
 23
0.0
 33
0.0
 16
1.0
 26
0.0
 36
0.0
 17
0.0
 27
1.0
 37
0.0
 76
     0
330
1B
  0
LAYOUT
  5
26
102
{ACAD_REACTORS
330
1A
102
}
330
1A
100
AcDbPlotSettings
  1

  2
none_device
  4

  6

 40
0.0
 41
0.0
 42
0.0
 43
0.0
 44
0.0
 45
0.0
 46
0.0
 47
0.0
 48
0.0
 49
0.0
140
0.0
141
0.0
142
1.0
143
1.0
 70
   688
 72
     0
 73
     0
 74
     5
  7

 75
    16
 76
     0
 77
     2
 78
   300
147
1.0
148
0.0
149
0.0
100
AcDbLayout
  1
Layout2
 70
     1
 71
     2
 10
0.0
 20
0.0
 11
0.0
 21
0.0
 12
0.0
 22
0.0
 32
0.0
 14
0.0
 24
0.0
 34
0.0
 15
0.0
 25
0.0
 35
0.0
146
0.0
 13
0.0
 23
0.0
 33
0.0
 16
1.0
 26
0.0
 36
0.0
 17
0.0
 27
1.0
 37
0.0
 76
     0
330
23
  0
LAYOUT
  5
22
102
{ACAD_REACTORS
330
1A
102
}
330
1A
100
AcDbPlotSettings
  1

  2
none_device
  4

  6

 40
0.0
 41
0.0
 42
0.0
 43
0.0
 44
0.0
 45
0.0
 46
0.0
 47
0.0
 48
0.0
 49
0.0
140
0.0
141
0.0
142
1.0
143
1.0
 70
  1712
 72
     0
 73
     0
 74
     0
  7

 75
     0
 76
     0
 77
     2
 78
   300
147
1.0
148
0.0
149
0.0
100
AcDbLayout
  1
Model
 70
     1
 71
     0
 10
0.0
 20
0.0
 11
12.0
 21
9.0
 12
0.0
 22
0.0
 32
0.0
 14
1.000000000000000E+20
 24
1.000000000000000E+20
 34
1.000000000000000E+20
 15
-1.000000000000000E+20
 25
-1.000000000000000E+20
 35
-1.000000000000000E+20
146
0.0
 13
0.0
 23
0.0
 33
0.0
 16
1.0
 26
0.0
 36
0.0
 17
0.0
 27
1.0
 37
0.0
 76
     0
330
1F
331
29
  0
MATERIAL
  5
3D
102
{ACAD_REACTORS
330
3B
102
}
330
3B
100
AcDbMaterial
  1
ByBlock
 72
     1
 94
      127
  0
MATERIAL
  5
3C
102
{ACAD_REACTORS
330
3B
102
}
330
3B
100
AcDbMaterial
  1
ByLayer
 72
     1
 94
      127
  0
MATERIAL
  5
3E
102
{ACAD_REACTORS
330
3B
102
}
330
3B
100
AcDbMaterial
  1
Global
 72
     1
 94
      127
  0
MLINESTYLE
  5
18
102
{ACAD_REACTORS
330
17
102
}
330
17
100
AcDbMlineStyle
  2
Standard
 70
     0
  3

 62
   256
 51
90.0
 52
90.0
 71
     2
 49
0.5
 62
   256
  6
BYLAYER
 49
-0.5
 62
   256
  6
BYLAYER
  0
ACDBPLACEHOLDER
  5
F
102
{ACAD_REACTORS
330
E
102
}
330
E
  0
VISUALSTYLE
  5
2F
102
{ACAD_REACTORS
330
2A
102
}
330
2A
100
AcDbVisualStyle
  2
2dWireframe
 70
     4
177
     2
291
     0
 71
     0
176
     1
 72
     2
176
     1
 73
     0
176
     1
 90
        0
176
     1
 40
-0.6
176
     1
 41
-30.0
176
     1
 62
     5
 63
     7
421
 16777215
176
     1
 74
     1
176
     1
 91
        4
176
     1
 64
     7
176
     1
 65
   257
176
     1
 75
     1
176
     1
175
     1
176
     1
 42
1.0
176
     1
 92
        0
176
     1
 66
   257
176
     1
 43
1.0
176
     1
 76
     1
176
     1
 77
     6
176
     1
 78
     2
176
     1
 67
     7
176
     1
 79
     5
176
     1
170
     0
176
     1
171
     0
176
     1
290
     0
176
     1
 93
        1
176
     1
 44
0.0
176
     1
173
     0
176
     1
  0
VISUALSTYLE
  5
31
102
{ACAD_REACTORS
330
2A
102
}
330
2A
100
AcDbVisualStyle
  2
3D Hidden
 70
     6
177
     2
291
     0
 71
     1
176
     1
 72
     2
176
     1
 73
     2
176
     1
 90
        0
176
     1
 40
-0.6
176
     1
 41
-30.0
176
     1
 62
     5
 63
     7
421
 16777215
176
     1
 74
     2
176
     1
 91
        2
176
     1
 64
     7
176
     1
 65
   257
176
     1
 75
     2
176
     1
175
     1
176
     1
 42
40.0
176
     1
 92
        0
176
     1
 66
   257
176
     1
 43
1.0
176
     1
 76
     1
176
     1
 77
     6
176
     1
 78
     2
176
     1
 67
     7
176
     1
 79
     3
176
     1
170
     0
176
     1
171
     0
176
     1
290
     0
176
     1
 93
        1
176
     1
 44
0.0
176
     1
173
     0
176
     1
  0
VISUALSTYLE
  5
30
102
{ACAD_REACTORS
330
2A
102
}
330
2A
100
AcDbVisualStyle
  2
3dWireframe
 70
     5
177
     2
291
     0
 71
     0
176
     1
 72
     2
176
     1
 73
     0
176
     1
 90
        0
176
     1
 40
-0.6
176
     1
 41
-30.0
176
     1
 62
     5
 63
     7
421
 16777215
176
     1
 74
     1
176
     1
 91
        4
176
     1
 64
     7
176
     1
 65
   257
176
     1
 75
     1
176
     1
175
     1
176
     1
 42
1.0
176
     1
 92
        0
176
     1
 66
   257
176
     1
 43
1.0
176
     1
 76
     1
176
     1
 77
     6
176
     1
 78
     2
176
     1
 67
     7
176
     1
 79
     5
176
     1
170
     0
176
     1
171
     0
176
     1
290
     0
176
     1
 93
        1
176
     1
 44
0.0
176
     1
173
     0
176
     1
  0
VISUALSTYLE
  5
32
102
{ACAD_REACTORS
330
2A
102
}
330
2A
100
AcDbVisualStyle
  2
Basic
 70
     7
177
     2
291
     1
 71
     1
176
     1
 72
     0
176
     1
 73
     1
176
     1
 90
        0
176
     1
 40
-0.6
176
     1
 41
-30.0
176
     1
 62
     5
 63
     7
421
 16777215
176
     1
 74
     0
176
     1
 91
        4
176
     1
 64
     7
176
     1
 65
   257
176
     1
 75
     1
176
     1
175
     1
176
     1
 42
1.0
176
     1
 92
        8
176
     1
 66
     7
176
     1
 43
1.0
176
     1
 76
     1
176
     1
 77
     6
176
     1
 78
     2
176
     1
 67
     7
176
     1
 79
     5
176
     1
170
     0
176
     1
171
     0
176
     1
290
     0
176
     1
 93
        1
176
     1
 44
0.0
176
     1
173
     0
176
     1
  0
VISUALSTYLE
  5
36
102
{ACAD_REACTORS
330
2A
102
}
330
2A
100
AcDbVisualStyle
  2
Brighten
 70
    12
177
     2
291
     1
 71
     2
176
     1
 72
     2
176
     1
 73
     0
176
     1
 90
        0
176
     1
 40
-0.6
176
     1
 41
-30.0
176
     1
 62
     5
 63
     7
421
 16777215
176
     1
 74
     1
176
     1
 91
        4
176
     1
 64
     7
176
     1
 65
   257
176
     1
 75
     1
176
     1
175
     1
176
     1
 42
1.0
176
     1
 92
        8
176
     1
 66
     7
176
     1
 43
1.0
176
     1
 76
     1
176
     1
 77
     6
176
     1
 78
     2
176
     1
 67
     7
176
     1
 79
     5
176
     1
170
     0
176
     1
171
     0
176
     1
290
     0
176
     1
 93
        1
176
     1
 44
50.0
176
     1
173
     0
176
     1
  0
VISUALSTYLE
  5
3A
102
{ACAD_REACTORS
330
2A
102
}
330
2A
100
AcDbVisualStyle
  2
ColorChange
 70
    16
177
     2
291
     1
 71
     2
176
     1
 72
     2
176
     1
 73
     3
176
     1
 90
        0
176
     1
 40
-0.6
176
     1
 41
-30.0
176
     1
 62
     5
 63
     8
421
  8421504
176
     1
 74
     1
176
     1
 91
        4
176
     1
 64
     7
176
     1
 65
   257
176
     1
 75
     1
176
     1
175
     1
176
     1
 42
1.0
176
     1
 92
        8
176
     1
 66
     8
424
  8421504
176
     1
 43
1.0
176
     1
 76
     1
176
     1
 77
     6
176
     1
 78
     2
176
     1
 67
     7
176
     1
 79
     5
176
     1
170
     0
176
     1
171
     0
176
     1
290
     0
176
     1
 93
        1
176
     1
 44
0.0
176
     1
173
     0
176
     1
  0
VISUALSTYLE
  5
34
102
{ACAD_REACTORS
330
2A
102
}
330
2A
100
AcDbVisualStyle
  2
Conceptual
 70
     9
177
     2
291
     0
 71
     3
176
     1
 72
     2
176
     1
 73
     0
176
     1
 90
        0
176
     1
 40
-0.6
176
     1
 41
-30.0
176
     1
 62
     5
 63
     7
421
 16777215
176
     1
 74
     2
176
     1
 91
        2
176
     1
 64
     7
176
     1
 65
   257
176
     1
 75
     1
176
     1
175
     1
176
     1
 42
40.0
176
     1
 92
        8
176
     1
 66
     7
176
     1
 43
1.0
176
     1
 76
     1
176
     1
 77
     6
176
     1
 78
     2
176
     1
 67
     7
176
     1
 79
     3
176
     1
170
     0
176
     1
171
     0
176
     1
290
     0
176
     1
 93
        1
176
     1
 44
0.0
176
     1
173
     0
176
     1
  0
VISUALSTYLE
  5
35
102
{ACAD_REACTORS
330
2A
102
}
330
2A
100
AcDbVisualStyle
  2
Dim
 70
    11
177
     2
291
     1
 71
     2
176
     1
 72
     2
176
     1
 73
     0
176
     1
 90
        0
176
     1
 40
-0.6
176
     1
 41
-30.0
176
     1
 62
     5
 63
     7
421
 16777215
176
     1
 74
     1
176
     1
 91
        4
176
     1
 64
     7
176
     1
 65
   257
176
     1
 75
     1
176
     1
175
     1
176
     1
 42
1.0
176
     1
 92
        8
176
     1
 66
     7
176
     1
 43
1.0
176
     1
 76
     1
176
     1
 77
     6
176
     1
 78
     2
176
     1
 67
     7
176
     1
 79
     5
176
     1
170
     0
176
     1
171
     0
176
     1
290
     0
176
     1
 93
        1
176
     1
 44
-50.0
176
     1
173
     0
176
     1
  0
VISUALSTYLE
  5
39
102
{ACAD_REACTORS
330
2A
102
}
330
2A
100
AcDbVisualStyle
  2
Facepattern
 70
    15
177
     2
291
     1
 71
     2
176
     1
 72
     2
176
     1
 73
     0
176
     1
 90
        0
176
     1
 40
-0.6
176
     1
 41
-30.0
176
     1
 62
     5
 63
     7
421
 16777215
176
     1
 74
     1
176
     1
 91
        4
176
     1
 64
     7
176
     1
 65
   257
176
     1
 75
     1
176
     1
175
     1
176
     1
 42
1.0
176
     1
 92
        8
176
     1
 66
     7
176
     1
 43
1.0
176
     1
 76
     1
176
     1
 77
     6
176
     1
 78
     2
176
     1
 67
     7
176
     1
 79
     5
176
     1
170
     0
176
     1
171
     0
176
     1
290
     0
176
     1
 93
        1
176
     1
 44
0.0
176
     1
173
     0
176
     1
  0
VISUALSTYLE
  5
2B
102
{ACAD_REACTORS
330
2A
102
}
330
2A
100
AcDbVisualStyle
  2
Flat
 70
     0
177
     2
291
     1
 71
     2
176
     1
 72
     1
176
     1
 73
     1
176
     1
 90
        2
176
     1
 40
-0.6
176
     1
 41
30.0
176
     1
 62
     5
 63
     7
421
 16777215
176
     1
 74
     0
176
     1
 91
        4
176
     1
 64
     7
176
     1
 65
   257
176
     1
 75
     1
176
     1
175
     1
176
     1
 42
1.0
176
     1
 92
        8
176
     1
 66
     7
176
     1
 43
1.0
176
     1
 76
     1
176
     1
 77
     6
176
     1
 78
     2
176
     1
 67
     7
176
     1
 79
     5
176
     1
170
     0
176
     1
171
     0
176
     1
290
     0
176
     1
 93
       13
176
     1
 44
0.0
176
     1
173
     0
176
     1
  0
VISUALSTYLE
  5
2C
102
{ACAD_REACTORS
330
2A
102
}
330
2A
100
AcDbVisualStyle
  2
FlatWithEdges
 70
     1
177
     2
291
     1
 71
     2
176
     1
 72
     1
176
     1
 73
     1
176
     1
 90
        2
176
     1
 40
-0.6
176
     1
 41
30.0
176
     1
 62
     5
 63
     7
421
 16777215
176
     1
 74
     1
176
     1
 91
        4
176
     1
 64
     7
176
     1
 65
   257
176
     1
 75
     1
176
     1
175
     1
176
     1
 42
1.0
176
     1
 92
        0
176
     1
 66
   257
176
     1
 43
1.0
176
     1
 76
     1
176
     1
 77
     6
176
     1
 78
     2
176
     1
 67
     7
176
     1
 79
     5
176
     1
170
     0
176
     1
171
     0
176
     1
290
     0
176
     1
 93
       13
176
     1
 44
0.0
176
     1
173
     0
176
     1
  0
VISUALSTYLE
  5
2D
102
{ACAD_REACTORS
330
2A
102
}
330
2A
100
AcDbVisualStyle
  2
Gouraud
 70
     2
177
     2
291
     1
 71
     2
176
     1
 72
     2
176
     1
 73
     1
176
     1
 90
        2
176
     1
 40
-0.6
176
     1
 41
30.0
176
     1
 62
     5
 63
     7
421
 16777215
176
     1
 74
     0
176
     1
 91
        4
176
     1
 64
     7
176
     1
 65
   257
176
     1
 75
     1
176
     1
175
     1
176
     1
 42
1.0
176
     1
 92
        0
176
     1
 66
     7
176
     1
 43
1.0
176
     1
 76
     1
176
     1
 77
     6
176
     1
 78
     2
176
     1
 67
     7
176
     1
 79
     5
176
     1
170
     0
176
     1
171
     0
176
     1
290
     0
176
     1
 93
       13
176
     1
 44
0.0
176
     1
173
     0
176
     1
  0
VISUALSTYLE
  5
2E
102
{ACAD_REACTORS
330
2A
102
}
330
2A
100
AcDbVisualStyle
  2
GouraudWithEdges
 70
     3
177
     2
291
     1
 71
     2
176
     1
 72
     2
176
     1
 73
     1
176
     1
 90
        2
176
     1
 40
-0.6
176
     1
 41
30.0
176
     1
 62
     5
 63
     7
421
 16777215
176
     1
 74
     1
176
     1
 91
        4
176
     1
 64
     7
176
     1
 65
   257
176
     1
 75
     1
176
     1
175
     1
176
     1
 42
1.0
176
     1
 92
        0
176
     1
 66
   257
176
     1
 43
1.0
176
     1
 76
     1
176
     1
 77
     6
176
     1
 78
     2
176
     1
 67
     7
176
     1
 79
     5
176
     1
170
     0
176
     1
171
     0
176
     1
290
     0
176
     1
 93
       13
176
     1
 44
0.0
176
     1
173
     0
176
     1
  0
VISUALSTYLE
  5
38
102
{ACAD_REACTORS
330
2A
102
}
330
2A
100
AcDbVisualStyle
  2
Linepattern
 70
    14
177
     2
291
     1
 71
     2
176
     1
 72
     2
176
     1
 73
     0
176
     1
 90
        0
176
     1
 40
-0.6
176
     1
 41
-30.0
176
     1
 62
     5
 63
     7
421
 16777215
176
     1
 74
     1
176
     1
 91
        4
176
     1
 64
     7
176
     1
 65
   257
176
     1
 75
     7
176
     1
175
     7
176
     1
 42
1.0
176
     1
 92
        8
176
     1
 66
     7
176
     1
 43
1.0
176
     1
 76
     1
176
     1
 77
     6
176
     1
 78
     2
176
     1
 67
     7
176
     1
 79
     5
176
     1
170
     0
176
     1
171
     0
176
     1
290
     0
176
     1
 93
        1
176
     1
 44
0.0
176
     1
173
     0
176
     1
  0
VISUALSTYLE
  5
33
102
{ACAD_REACTORS
330
2A
102
}
330
2A
100
AcDbVisualStyle
  2
Realistic
 70
     8
177
     2
291
     0
 71
     2
176
     1
 72
     2
176
     1
 73
     0
176
     1
 90
        0
176
     1
 40
-0.6
176
     1
 41
-30.0
176
     1
 62
     5
 63
     7
421
 16777215
176
     1
 74
     1
176
     1
 91
        0
176
     1
 64
     7
176
     1
 65
   257
176
     1
 75
     1
176
     1
175
     1
176
     1
 42
1.0
176
     1
 92
        8
176
     1
 66
     8
424
  7895160
176
     1
 43
1.0
176
     1
 76
     1
176
     1
 77
     6
176
     1
 78
     2
176
     1
 67
     7
176
     1
 79
     5
176
     1
170
     0
176
     1
171
     0
176
     1
290
     0
176
     1
 93
       13
176
     1
 44
0.0
176
     1
173
     0
176
     1
  0
VISUALSTYLE
  5
37
102
{ACAD_REACTORS
330
2A
102
}
330
2A
100
AcDbVisualStyle
  2
Thicken
 70
    13
177
     2
291
     1
 71
     2
176
     1
 72
     2
176
     1
 73
     0
176
     1
 90
        0
176
     1
 40
-0.6
176
     1
 41
-30.0
176
     1
 62
     5
 63
     7
421
 16777215
176
     1
 74
     1
176
     1
 91
        4
176
     1
 64
     7
176
     1
 65
   257
176
     1
 75
     1
176
     1
175
     1
176
     1
 42
1.0
176
     1
 92
       12
176
     1
 66
     7
176
     1
 43
1.0
176
     1
 76
     1
176
     1
 77
     6
176
     1
 78
     2
176
     1
 67
     7
176
     1
 79
     5
176
     1
170
     0
176
     1
171
     0
176
     1
290
     0
176
     1
 93
        1
176
     1
 44
0.0
176
     1
173
     0
176
     1
  0
ENDSEC
  0
EOF
