  0
SECTION
  2
HEADER
  9
$ACADVER
  1
AC1024
  9
$ACADMAINTVER
 70
     6
  9
$DWGCODEPAGE
  3
UNDEFINED
  9
$INSBASE
 10
0.0
 20
0.0
 30
0.0
  9
$EXTMIN
 10
1.000000000000000E+20
 20
1.000000000000000E+20
 30
1.000000000000000E+20
  9
$EXTMAX
 10
-1.000000000000000E+20
 20
-1.000000000000000E+20
 30
-1.000000000000000E+20
  9
$LIMMIN
 10
0.0
 20
0.0
  9
$LIMMAX
 10
12.0
 20
9.0
  9
$ORTHOMODE
 70
     0
  9
$REGENMODE
 70
     1
  9
$FILLMODE
 70
     1
  9
$QTEXTMODE
 70
     0
  9
$MIRRTEXT
 70
     1
  9
$LTSCALE
 40
1.0
  9
$ATTMODE
 70
     1
  9
$TEXTSIZE
 40
0.2
  9
$TRACEWID
 40
0.05
  9
$TEXTSTYLE
  7
Standard
  9
$CLAYER
  8
0
  9
$CELTYPE
  6
ByLayer
  9
$CECOLOR
 62
   256
  9
$CELTSCALE
 40
1.0
  9
$DISPSILH
 70
     0
  9
$DIMSCALE
 40
1.0
  9
$DIMASZ
 40
0.18
  9
$DIMEXO
 40
0.0625
  9
$DIMDLI
 40
0.38
  9
$DIMRND
 40
0.0
  9
$DIMDLE
 40
0.0
  9
$DIMEXE
 40
0.18
  9
$DIMTP
 40
0.0
  9
$DIMTM
 40
0.0
  9
$DIMTXT
 40
0.18
  9
$DIMCEN
 40
0.09
  9
$DIMTSZ
 40
0.0
  9
$DIMTOL
 70
     0
  9
$DIMLIM
 70
     0
  9
$DIMTIH
 70
     1
  9
$DIMTOH
 70
     1
  9
$DIMSE1
 70
     0
  9
$DIMSE2
 70
     0
  9
$DIMTAD
 70
     0
  9
$DIMZIN
 70
     0
  9
$DIMBLK
  1

  9
$DIMASO
 70
     1
  9
$DIMSHO
 70
     1
  9
$DIMPOST
  1

  9
$DIMAPOST
  1

  9
$DIMALT
 70
     0
  9
$DIMALTD
 70
     2
  9
$DIMALTF
 40
25.4
  9
$DIMLFAC
 40
1.0
  9
$DIMTOFL
 70
     0
  9
$DIMTVP
 40
0.0
  9
$DIMTIX
 70
     0
  9
$DIMSOXD
 70
     0
  9
$DIMSAH
 70
     0
  9
$DIMBLK1
  1

  9
$DIMBLK2
  1

  9
$DIMSTYLE
  2
Standard
  9
$DIMCLRD
 70
     0
  9
$DIMCLRE
 70
     0
  9
$DIMCLRT
 70
     0
  9
$DIMTFAC
 40
1.0
  9
$DIMGAP
 40
0.09
  9
$DIMJUST
 70
     0
  9
$DIMSD1
 70
     0
  9
$DIMSD2
 70
     0
  9
$DIMTOLJ
 70
     1
  9
$DIMTZIN
 70
     0
  9
$DIMALTZ
 70
     0
  9
$DIMALTTZ
 70
     0
  9
$DIMUPT
 70
     0
  9
$DIMDEC
 70
     4
  9
$DIMTDEC
 70
     4
  9
$DIMALTU
 70
     2
  9
$DIMALTTD
 70
     2
  9
$DIMTXSTY
  7
Standard
  9
$DIMAUNIT
 70
     0
  9
$DIMADEC
 70
     0
  9
$DIMALTRND
 40
0.0
  9
$DIMAZIN
 70
     0
  9
$DIMDSEP
 70
    46
  9
$DIMATFIT
 70
     3
  9
$DIMFRAC
 70
     0
  9
$DIMLDRBLK
  1

  9
$DIMLUNIT
 70
     2
  9
$DIMLWD
 70
    -2
  9
$DIMLWE
 70
    -2
  9
$DIMTMOVE
 70
     0
  9
$DIMFXL
 40
1.0
  9
$DIMFXLON
 70
     0
  9
$DIMJOGANG
 40
0.7853981633974483
  9
$DIMTFILL
 70
     0
  9
$DIMTFILLCLR
 70
     0
  9
$DIMARCSYM
 70
     0
  9
$DIMLTYPE
  6

  9
$DIMLTEX1
  6

  9
$DIMLTEX2
  6

  9
$DIMTXTDIRECTION
 70
     0
  9
$LUNITS
 70
     2
  9
$LUPREC
 70
     4
  9
$SKETCHINC
 40
0.1
  9
$FILLETRAD
 40
0.5
  9
$AUNITS
 70
     0
  9
$AUPREC
 70
     0
  9
$MENU
  1
.
  9
$ELEVATION
 40
0.0
  9
$PELEVATION
 40
0.0
  9
$THICKNESS
 40
0.0
  9
$LIMCHECK
 70
     0
  9
$CHAMFERA
 40
0.5
  9
$CHAMFERB
 40
0.5
  9
$CHAMFERC
 40
1.0
  9
$CHAMFERD
 40
0.0
  9
$SKPOLY
 70
     0
  9
$TDCREATE
 40
2457917.621504618
  9
$TDUCREATE
 40
2457917.246504629
  9
$TDUPDATE
 40
2457917.621504618
  9
$TDUUPDATE
 40
2457917.246504629
  9
$TDINDWG
 40
0.0000000116
  9
$TDUSRTIMER
 40
0.0000000116
  9
$USRTIMER
 70
     1
  9
$ANGBASE
 50
0.0
  9
$ANGDIR
 70
     0
  9
$PDMODE
 70
     0
  9
$PDSIZE
 40
0.0
  9
$PLINEWID
 40
0.0
  9
$SPLFRAME
 70
     0
  9
$SPLINETYPE
 70
     6
  9
$SPLINESEGS
 70
     8
  9
$HANDSEED
  5
C9
  9
$SURFTAB1
 70
     6
  9
$SURFTAB2
 70
     6
  9
$SURFTYPE
 70
     6
  9
$SURFU
 70
     6
  9
$SURFV
 70
     6
  9
$UCSBASE
  2

  9
$UCSNAME
  2

  9
$UCSORG
 10
0.0
 20
0.0
 30
0.0
  9
$UCSXDIR
 10
1.0
 20
0.0
 30
0.0
  9
$UCSYDIR
 10
0.0
 20
1.0
 30
0.0
  9
$UCSORTHOREF
  2

  9
$UCSORTHOVIEW
 70
     0
  9
$UCSORGTOP
 10
0.0
 20
0.0
 30
0.0
  9
$UCSORGBOTTOM
 10
0.0
 20
0.0
 30
0.0
  9
$UCSORGLEFT
 10
0.0
 20
0.0
 30
0.0
  9
$UCSORGRIGHT
 10
0.0
 20
0.0
 30
0.0
  9
$UCSORGFRONT
 10
0.0
 20
0.0
 30
0.0
  9
$UCSORGBACK
 10
0.0
 20
0.0
 30
0.0
  9
$PUCSBASE
  2

  9
$PUCSNAME
  2

  9
$PUCSORG
 10
0.0
 20
0.0
 30
0.0
  9
$PUCSXDIR
 10
1.0
 20
0.0
 30
0.0
  9
$PUCSYDIR
 10
0.0
 20
1.0
 30
0.0
  9
$PUCSORTHOREF
  2

  9
$PUCSORTHOVIEW
 70
     0
  9
$PUCSORGTOP
 10
0.0
 20
0.0
 30
0.0
  9
$PUCSORGBOTTOM
 10
0.0
 20
0.0
 30
0.0
  9
$PUCSORGLEFT
 10
0.0
 20
0.0
 30
0.0
  9
$PUCSORGRIGHT
 10
0.0
 20
0.0
 30
0.0
  9
$PUCSORGFRONT
 10
0.0
 20
0.0
 30
0.0
  9
$PUCSORGBACK
 10
0.0
 20
0.0
 30
0.0
  9
$USERI1
 70
     0
  9
$USERI2
 70
     0
  9
$USERI3
 70
     0
  9
$USERI4
 70
     0
  9
$USERI5
 70
     0
  9
$USERR1
 40
0.0
  9
$USERR2
 40
0.0
  9
$USERR3
 40
0.0
  9
$USERR4
 40
0.0
  9
$USERR5
 40
0.0
  9
$WORLDVIEW
 70
     1
  9
$SHADEDGE
 70
     3
  9
$SHADEDIF
 70
    70
  9
$TILEMODE
 70
     1
  9
$MAXACTVP
 70
    64
  9
$PINSBASE
 10
0.0
 20
0.0
 30
0.0
  9
$PLIMCHECK
 70
     0
  9
$PEXTMIN
 10
1.000000000000000E+20
 20
1.000000000000000E+20
 30
1.000000000000000E+20
  9
$PEXTMAX
 10
-1.000000000000000E+20
 20
-1.000000000000000E+20
 30
-1.000000000000000E+20
  9
$PLIMMIN
 10
0.0
 20
0.0
  9
$PLIMMAX
 10
12.0
 20
9.0
  9
$UNITMODE
 70
     0
  9
$VISRETAIN
 70
     1
  9
$PLINEGEN
 70
     0
  9
$PSLTSCALE
 70
     1
  9
$TREEDEPTH
 70
  3020
  9
$CMLSTYLE
  2
Standard
  9
$CMLJUST
 70
     0
  9
$CMLSCALE
 40
1.0
  9
$PROXYGRAPHICS
 70
     1
  9
$MEASUREMENT
 70
     0
  9
$CELWEIGHT
370
    -1
  9
$ENDCAPS
280
     0
  9
$JOINSTYLE
280
     0
  9
$LWDISPLAY
290
     1
  9
$INSUNITS
 70
     1
  9
$HYPERLINKBASE
  1

  9
$STYLESHEET
  1

  9
$XEDIT
290
     1
  9
$CEPSNTYPE
380
     0
  9
$PSTYLEMODE
290
     1
  9
$FINGERPRINTGUID
  2
{99D9D8B1-60C7-955D-6110-983677356A18}
  9
$VERSIONGUID
  2
{FAEB1C32-E019-11D5-929B-00C0DF256EC4}
  9
$EXTNAMES
290
     1
  9
$PSVPSCALE
 40
0.0
  9
$OLESTARTUP
290
     0
  9
$SORTENTS
280
   127
  9
$INDEXCTL
280
     0
  9
$HIDETEXT
280
     1
  9
$XCLIPFRAME
280
     2
  9
$HALOGAP
280
     0
  9
$OBSCOLOR
 70
   257
  9
$OBSLTYPE
280
     0
  9
$INTERSECTIONDISPLAY
280
     0
  9
$INTERSECTIONCOLOR
 70
   257
  9
$DIMASSOC
280
     2
  9
$PROJECTNAME
  1

  9
$CAMERADISPLAY
290
     0
  9
$LENSLENGTH
 40
50.0
  9
$CAMERAHEIGHT
 40
0.0
  9
$STEPSPERSEC
 40
2.0
  9
$STEPSIZE
 40
6.0
  9
$3DDWFPREC
 40
2.0
  9
$PSOLWIDTH
 40
0.25
  9
$PSOLHEIGHT
 40
4.0
  9
$LOFTANG1
 40
1.570796326794897
  9
$LOFTANG2
 40
1.570796326794897
  9
$LOFTMAG1
 40
0.0
  9
$LOFTMAG2
 40
0.0
  9
$LOFTPARAM
 70
     7
  9
$LOFTNORMALS
280
     1
  9
$LATITUDE
 40
37.795
  9
$LONGITUDE
 40
-122.394
  9
$NORTHDIRECTION
 40
0.0
  9
$TIMEZONE
 70
 -8000
  9
$LIGHTGLYPHDISPLAY
280
     1
  9
$TILEMODELIGHTSYNCH
280
     1
  9
$CMATERIAL
347
3C
  9
$SOLIDHIST
280
     1
  9
$SHOWHIST
280
     1
  9
$DWFFRAME
280
     2
  9
$DGNFRAME
280
     2
  9
$REALWORLDSCALE
290
     1
  9
$INTERFERECOLOR
 62
   256
  9
$CSHADOW
280
     0
  9
$SHADOWPLANELOCATION
 40
0.0
  0
ENDSEC
  0
SECTION
  2
CLASSES
  0
CLASS
  1
ACDBDICTIONARYWDFLT
  2
AcDbDictionaryWithDefault
  3
ObjectDBX Classes
 90
        0
 91
        4
280
     0
281
     0
  0
CLASS
  1
VISUALSTYLE
  2
AcDbVisualStyle
  3
ObjectDBX Classes
 90
     4095
 91
        4
280
     0
281
     0
  0
CLASS
  1
MATERIAL
  2
AcDbMaterial
  3
ObjectDBX Classes
 90
     1153
 91
        4
280
     0
281
     0
  0
CLASS
  1
SUN
  2
AcDbSun
  3
SCENEOE
 90
     1024
 91
        4
280
     0
281
     0
  0
ENDSEC
  0
SECTION
  2
TABLES
  0
TABLE
  2
VPORT
  5
8
330
0
100
AcDbSymbolTable
 70
     1
  0
VPORT
  5
29
330
8
100
AcDbSymbolTableRecord
100
AcDbViewportTableRecord
  2
*Active
 70
     0
 10
0.0
 20
0.0
 11
1.0
 21
1.0
 12
0.0
 22
0.0
 13
0.0
 23
0.0
 14
0.5
 24
0.5
 15
0.5
 25
0.5
 16
0.0
 26
0.0
 36
1.0
 17
91.00082462281999
 27
-128.4993055234307
 37
0.0
 40
256.9986110468615
 41
0.7081814508812795
 42
50.0
 43
0.0
 44
0.0
 50
0.0
 51
0.0
 71
     0
 72
   100
 73
     1
 74
     3
 75
     0
 76
     0
 77
     0
 78
     0
281
     0
 65
     1
110
0.0
120
0.0
130
0.0
111
1.0
121
0.0
131
0.0
112
0.0
122
1.0
132
0.0
 79
     0
146
0.0
 60
     3
 61
     5
292
     1
282
     1
141
0.0
142
0.0
 63
   250
361
3F
  0
ENDTAB
  0
TABLE
  2
LTYPE
  5
5
330
0
100
AcDbSymbolTable
 70
     1
  0
LTYPE
  5
14
330
5
100
AcDbSymbolTableRecord
100
AcDbLinetypeTableRecord
  2
ByBlock
 70
     0
  3

 72
    65
 73
     0
 40
0.0
  0
LTYPE
  5
15
330
5
100
AcDbSymbolTableRecord
100
AcDbLinetypeTableRecord
  2
ByLayer
 70
     0
  3

 72
    65
 73
     0
 40
0.0
  0
LTYPE
  5
16
330
5
100
AcDbSymbolTableRecord
100
AcDbLinetypeTableRecord
  2
Continuous
 70
     0
  3
Solid line
 72
    65
 73
     0
 40
0.0
  0
ENDTAB
  0
TABLE
  2
LAYER
  5
2
330
0
100
AcDbSymbolTable
 70
     2
  0
LAYER
  5
10
330
2
100
AcDbSymbolTableRecord
100
AcDbLayerTableRecord
  2
0
 70
     0
 62
     7
  6
Continuous
370
    -3
390
F
347
3E
  0
LAYER
  5
40
330
2
100
AcDbSymbolTableRecord
100
AcDbLayerTableRecord
  2
_U+30EC_U+30A4_U+30E4_U+30FC 1
 70
     0
 62
     7
  6
Continuous
370
    -3
390
F
347
3E
  0
ENDTAB
  0
TABLE
  2
STYLE
  5
3
330
0
100
AcDbSymbolTable
 70
     1
  0
STYLE
  5
11
330
3
100
AcDbSymbolTableRecord
100
AcDbTextStyleTableRecord
  2
Standard
 70
     0
 40
0.0
 41
1.0
 50
0.0
 71
     0
 42
0.2
  3
txt
  4

  0
ENDTAB
  0
TABLE
  2
VIEW
  5
6
330
0
100
AcDbSymbolTable
 70
     0
  0
ENDTAB
  0
TABLE
  2
UCS
  5
7
330
0
100
AcDbSymbolTable
 70
     0
  0
ENDTAB
  0
TABLE
  2
APPID
  5
9
330
0
100
AcDbSymbolTable
 70
     1
  0
APPID
  5
12
330
9
100
AcDbSymbolTableRecord
100
AcDbRegAppTableRecord
  2
ACAD
 70
     0
  0
ENDTAB
  0
TABLE
  2
DIMSTYLE
  5
A
330
0
100
AcDbSymbolTable
 70
     1
100
AcDbDimStyleTable
  0
DIMSTYLE
105
27
330
A
100
AcDbSymbolTableRecord
100
AcDbDimStyleTableRecord
  2
Standard
 70
     0
178
     0
340
11
  0
ENDTAB
  0
TABLE
  2
BLOCK_RECORD
  5
1
330
0
100
AcDbSymbolTable
 70
     4
  0
BLOCK_RECORD
  5
1F
330
1
100
AcDbSymbolTableRecord
100
AcDbBlockTableRecord
  2
*Model_Space
340
22
 70
     0
280
     1
281
     0
  0
BLOCK_RECORD
  5
1B
330
1
100
AcDbSymbolTableRecord
100
AcDbBlockTableRecord
  2
*Paper_Space
340
1E
 70
     0
280
     1
281
     0
  0
BLOCK_RECORD
  5
23
330
1
100
AcDbSymbolTableRecord
100
AcDbBlockTableRecord
  2
*Paper_Space0
340
26
 70
     0
280
     1
281
     0
  0
BLOCK_RECORD
  5
6F
330
1
100
AcDbSymbolTableRecord
100
AcDbBlockTableRecord
  2
block 2
340
0
102
{BLKREFS
331
70
102
}
 70
     0
280
     1
281
     0
  0
BLOCK_RECORD
  5
91
330
1
100
AcDbSymbolTableRecord
100
AcDbBlockTableRecord
  2
block 3
340
0
102
{BLKREFS
331
92
102
}
 70
     0
280
     1
281
     0
  0
BLOCK_RECORD
  5
A9
330
1
100
AcDbSymbolTableRecord
100
AcDbBlockTableRecord
  2
block 4
340
0
102
{BLKREFS
331
AA
102
}
 70
     0
280
     1
281
     0
  0
ENDTAB
  0
ENDSEC
  0
SECTION
  2
BLOCKS
  0
BLOCK
  5
20
330
1F
100
AcDbEntity
  8
0
100
AcDbBlockBegin
  2
*Model_Space
 70
     0
 10
0.0
 20
0.0
 30
0.0
  3
*Model_Space
  1

  0
ENDBLK
  5
21
330
1F
100
AcDbEntity
  8
0
100
AcDbBlockEnd
  0
BLOCK
  5
1C
330
1B
100
AcDbEntity
 67
     1
  8
0
100
AcDbBlockBegin
  2
*Paper_Space
 70
     0
 10
0.0
 20
0.0
 30
0.0
  3
*Paper_Space
  1

  0
ENDBLK
  5
1D
330
1B
100
AcDbEntity
 67
     1
  8
0
100
AcDbBlockEnd
  0
BLOCK
  5
24
330
23
100
AcDbEntity
  8
0
100
AcDbBlockBegin
  2
*Paper_Space0
 70
     0
 10
0.0
 20
0.0
 30
0.0
  3
*Paper_Space0
  1

  0
ENDBLK
  5
25
330
23
100
AcDbEntity
  8
0
100
AcDbBlockEnd
  0
BLOCK
  5
71
330
6F
100
AcDbEntity
  8
0
100
AcDbBlockBegin
  2
block 2
 70
     0
 10
0.0
 20
0.0
 30
0.0
  3
block 2
  1

  0
SPLINE
  5
73
330
6F
100
AcDbEntity
  8
_U+30EC_U+30A4_U+30E4_U+30FC 1
370
     0
100
AcDbSpline
210
0.0
220
0.0
230
1.0
 70
    11
 71
     3
 72
    29
 73
    25
 74
     0
 42
0.0000000001
 43
0.0000000001
 12
1.0
 22
0.0
 32
0.0
 13
1.0
 23
0.0
 33
0.0
 40
0.0
 40
0.0
 40
0.0
 40
0.0
 40
1.0
 40
1.0
 40
1.0
 40
2.0
 40
2.0
 40
2.0
 40
3.0
 40
3.0
 40
3.0
 40
4.0
 40
4.0
 40
4.0
 40
5.0
 40
5.0
 40
5.0
 40
6.0
 40
6.0
 40
6.0
 40
7.0
 40
7.0
 40
7.0
 40
8.0
 40
8.0
 40
8.0
 40
8.0
 10
103.9750488021312
 20
-134.9671277874388
 30
0.0
 10
104.1845106076344
 20
-135.0749592761271
 30
0.0
 10
104.2034586328033
 20
-135.2485920885837
 30
0.0
 10
104.2034586328033
 20
-135.3650363159851
 30
0.0
 10
104.2034586328033
 20
-135.5255777655978
 30
0.0
 10
104.1569498437524
 20
-135.6675156995901
 30
0.0
 10
103.9750488021312
 20
-135.762600334983
 30
0.0
 10
103.7804009072146
 20
-135.866297709089
 30
0.0
 10
103.5433783378294
 20
-135.8852457342579
 30
0.0
 10
103.3804253213771
 20
-135.8852457342579
 30
0.0
 10
103.2367648396422
 20
-135.8852457342579
 30
0.0
 10
102.9849283596704
 20
-135.8683647663801
 30
0.0
 10
102.7861463501715
 20
-135.762600334983
 30
0.0
 10
102.5828857165418
 20
-135.6547688462946
 30
0.0
 10
102.5598035767906
 20
-135.4938828871335
 30
0.0
 10
102.5598035767906
 20
-135.3650363159851
 30
0.0
 10
102.5598035767906
 20
-135.2062174141151
 30
0.0
 10
102.6042453085503
 20
-135.0622124228317
 30
0.0
 10
102.7861463501715
 20
-134.9671277874388
 30
0.0
 10
102.978727187797
 20
-134.8679090374636
 30
0.0
 10
103.2071370184691
 20
-134.8444823881639
 30
0.0
 10
103.3804253213771
 20
-134.8444823881639
 30
0.0
 10
103.5519910765426
 20
-134.8444823881639
 30
0.0
 10
103.7824679645058
 20
-134.8654974706239
 30
0.0
 10
103.9750488021312
 20
-134.9671277874388
 30
0.0
  0
SPLINE
  5
74
330
6F
100
AcDbEntity
  8
_U+30EC_U+30A4_U+30E4_U+30FC 1
370
     0
100
AcDbSpline
210
0.0
220
0.0
230
1.0
 70
    11
 71
     3
 72
    17
 73
    13
 74
     0
 42
0.0000000001
 43
0.0000000001
 12
1.0
 22
0.0
 32
0.0
 13
1.0
 23
0.0
 33
0.0
 40
0.0
 40
0.0
 40
0.0
 40
0.0
 40
1.0
 40
1.0
 40
1.0
 40
2.0
 40
2.0
 40
2.0
 40
3.0
 40
3.0
 40
3.0
 40
4.0
 40
4.0
 40
4.0
 40
4.0
 10
102.7520399048675
 20
-135.3650363159851
 30
0.0
 10
102.7520399048675
 20
-135.6144612291172
 30
0.0
 10
103.0355712633036
 20
-135.6609700181681
 30
0.0
 10
103.3804253213771
 20
-135.6609700181681
 30
0.0
 10
103.7001301824083
 20
-135.6609700181681
 30
0.0
 10
104.0088107378867
 20
-135.6251410251215
 30
0.0
 10
104.0088107378867
 20
-135.3650363159851
 30
0.0
 10
104.0088107378867
 20
-135.1173339505957
 30
0.0
 10
103.7273464367418
 20
-135.0687581042536
 30
0.0
 10
103.3804253213771
 20
-135.0687581042536
 30
0.0
 10
103.0610649698945
 20
-135.0687581042536
 30
0.0
 10
102.7520399048675
 20
-135.1066541545914
 30
0.0
 10
102.7520399048675
 20
-135.3650363159851
 30
0.0
  0
HATCH
  5
75
330
6F
100
AcDbEntity
  8
_U+30EC_U+30A4_U+30E4_U+30FC 1
 62
   179
420
  2234388
100
AcDbHatch
 10
0.0
 20
0.0
 30
0.0
210
0.0
220
0.0
230
1.0
  2
SOLID
 70
     1
 71
     0
 91
        2
 92
        1
 93
        1
 72
     4
 94
        3
 73
     0
 74
     1
 95
       29
 96
       25
 40
0.0
 40
0.0
 40
0.0
 40
0.0
 40
1.0
 40
1.0
 40
1.0
 40
2.0
 40
2.0
 40
2.0
 40
3.0
 40
3.0
 40
3.0
 40
4.0
 40
4.0
 40
4.0
 40
5.0
 40
5.0
 40
5.0
 40
6.0
 40
6.0
 40
6.0
 40
7.0
 40
7.0
 40
7.0
 40
8.0
 40
8.0
 40
8.0
 40
8.0
 10
103.9750488021312
 20
-134.9671277874388
 10
104.1845106076344
 20
-135.0749592761271
 10
104.2034586328033
 20
-135.2485920885837
 10
104.2034586328033
 20
-135.3650363159851
 10
104.2034586328033
 20
-135.5255777655978
 10
104.1569498437524
 20
-135.6675156995901
 10
103.9750488021312
 20
-135.762600334983
 10
103.7804009072146
 20
-135.866297709089
 10
103.5433783378294
 20
-135.8852457342579
 10
103.3804253213771
 20
-135.8852457342579
 10
103.2367648396422
 20
-135.8852457342579
 10
102.9849283596704
 20
-135.8683647663801
 10
102.7861463501715
 20
-135.762600334983
 10
102.5828857165418
 20
-135.6547688462946
 10
102.5598035767906
 20
-135.4938828871335
 10
102.5598035767906
 20
-135.3650363159851
 10
102.5598035767906
 20
-135.2062174141151
 10
102.6042453085503
 20
-135.0622124228317
 10
102.7861463501715
 20
-134.9671277874388
 10
102.978727187797
 20
-134.8679090374636
 10
103.2071370184691
 20
-134.8444823881639
 10
103.3804253213771
 20
-134.8444823881639
 10
103.5519910765426
 20
-134.8444823881639
 10
103.7824679645058
 20
-134.8654974706239
 10
103.9750488021312
 20
-134.9671277874388
 97
        0
 97
        0
 92
        1
 93
        1
 72
     4
 94
        3
 73
     0
 74
     1
 95
       17
 96
       13
 40
0.0
 40
0.0
 40
0.0
 40
0.0
 40
1.0
 40
1.0
 40
1.0
 40
2.0
 40
2.0
 40
2.0
 40
3.0
 40
3.0
 40
3.0
 40
4.0
 40
4.0
 40
4.0
 40
4.0
 10
102.7520399048675
 20
-135.3650363159851
 10
102.7520399048675
 20
-135.6144612291172
 10
103.0355712633036
 20
-135.6609700181681
 10
103.3804253213771
 20
-135.6609700181681
 10
103.7001301824083
 20
-135.6609700181681
 10
104.0088107378867
 20
-135.6251410251215
 10
104.0088107378867
 20
-135.3650363159851
 10
104.0088107378867
 20
-135.1173339505957
 10
103.7273464367418
 20
-135.0687581042536
 10
103.3804253213771
 20
-135.0687581042536
 10
103.0610649698945
 20
-135.0687581042536
 10
102.7520399048675
 20
-135.1066541545914
 10
102.7520399048675
 20
-135.3650363159851
 97
        0
 97
        0
 75
     2
 76
     1
 98
        0
  0
POLYLINE
  5
76
330
6F
100
AcDbEntity
  8
_U+30EC_U+30A4_U+30E4_U+30FC 1
370
     0
100
AcDb2dPolyline
 66
     1
 10
0.0
 20
0.0
 30
0.0
  0
VERTEX
  5
77
330
76
100
AcDbEntity
  8
_U+30EC_U+30A4_U+30E4_U+30FC 1
370
     0
100
AcDbVertex
100
AcDb2dVertex
 10
104.1528157291701
 20
-134.6281303916902
 30
0.0
  0
VERTEX
  5
78
330
76
100
AcDbEntity
  8
_U+30EC_U+30A4_U+30E4_U+30FC 1
370
     0
100
AcDbVertex
100
AcDb2dVertex
 10
103.9009792491984
 20
-134.6281303916902
 30
0.0
  0
VERTEX
  5
79
330
76
100
AcDbEntity
  8
_U+30EC_U+30A4_U+30E4_U+30FC 1
370
     0
100
AcDbVertex
100
AcDb2dVertex
 10
103.9009792491984
 20
-134.3762939117184
 30
0.0
  0
VERTEX
  5
7A
330
76
100
AcDbEntity
  8
_U+30EC_U+30A4_U+30E4_U+30FC 1
370
     0
100
AcDbVertex
100
AcDb2dVertex
 10
104.1528157291701
 20
-134.3762939117184
 30
0.0
  0
VERTEX
  5
7B
330
76
100
AcDbEntity
  8
_U+30EC_U+30A4_U+30E4_U+30FC 1
370
     0
100
AcDbVertex
100
AcDb2dVertex
 10
104.1528157291701
 20
-134.6281303916902
 30
0.0
  0
SEQEND
  5
7C
330
76
100
AcDbEntity
  8
_U+30EC_U+30A4_U+30E4_U+30FC 1
370
     0
  0
HATCH
  5
7D
330
6F
100
AcDbEntity
  8
_U+30EC_U+30A4_U+30E4_U+30FC 1
 62
   179
420
  2234388
100
AcDbHatch
 10
0.0
 20
0.0
 30
0.0
210
0.0
220
0.0
230
1.0
  2
SOLID
 70
     1
 71
     0
 91
        1
 92
        1
 93
        4
 72
     1
 10
104.1528157291701
 20
-134.6281303916902
 11
103.9009792491984
 21
-134.6281303916902
 72
     1
 10
103.9009792491984
 20
-134.6281303916902
 11
103.9009792491984
 21
-134.3762939117184
 72
     1
 10
103.9009792491984
 20
-134.3762939117184
 11
104.1528157291701
 21
-134.3762939117184
 72
     1
 10
104.1528157291701
 20
-134.3762939117184
 11
104.1528157291701
 21
-134.6281303916902
 97
        0
 75
     2
 76
     1
 98
        0
  0
SPLINE
  5
7E
330
6F
100
AcDbEntity
  8
_U+30EC_U+30A4_U+30E4_U+30FC 1
370
     0
100
AcDbSpline
210
0.0
220
0.0
230
1.0
 70
    11
 71
     3
 72
    29
 73
    25
 74
     0
 42
0.0000000001
 43
0.0000000001
 12
1.0
 22
0.0
 32
0.0
 13
1.0
 23
0.0
 33
0.0
 40
0.0
 40
0.0
 40
0.0
 40
0.0
 40
1.0
 40
1.0
 40
1.0
 40
2.0
 40
2.0
 40
2.0
 40
3.0
 40
3.0
 40
3.0
 40
4.0
 40
4.0
 40
4.0
 40
5.0
 40
5.0
 40
5.0
 40
6.0
 40
6.0
 40
6.0
 40
7.0
 40
7.0
 40
7.0
 40
8.0
 40
8.0
 40
8.0
 40
8.0
 10
104.2034586328033
 20
-133.639732496972
 30
0.0
 10
104.2034586328033
 20
-133.9063828875304
 30
0.0
 10
104.0659993229418
 20
-134.1602864247933
 30
0.0
 10
103.717011150286
 20
-134.1602864247933
 30
0.0
 10
103.461040555732
 20
-134.1602864247933
 30
0.0
 10
103.3656114107905
 20
-134.018348490801
 30
0.0
 10
103.3042887111531
 20
-133.9125840594038
 30
0.0
 10
103.2450330688068
 20
-134.0376410255184
 30
0.0
 10
103.131000408245
 20
-134.1137776357424
 30
0.0
 10
102.9701144490839
 20
-134.1137776357424
 30
0.0
 10
102.6951958293609
 20
-134.1137776357424
 30
0.0
 10
102.5598035767906
 20
-133.9149956262435
 30
0.0
 10
102.5598035767906
 20
-133.639732496972
 30
0.0
 10
102.5598035767906
 20
-133.356201138536
 30
0.0
 10
102.7034640585255
 20
-133.1660318677502
 30
0.0
 10
102.9701144490839
 20
-133.1660318677502
 30
0.0
 10
103.131000408245
 20
-133.1660318677502
 30
0.0
 10
103.2450330688068
 20
-133.2442355352653
 30
0.0
 10
103.3042887111531
 20
-133.3689479918314
 30
0.0
 10
103.3552761243348
 20
-133.2800645283119
 30
0.0
 10
103.4503607597277
 20
-133.1215901359904
 30
0.0
 10
103.7125325261552
 20
-133.1215901359904
 30
0.0
 10
104.0870144054019
 20
-133.1215901359904
 30
0.0
 10
104.2034586328033
 20
-133.4006428702957
 30
0.0
 10
104.2034586328033
 20
-133.639732496972
 30
0.0
  0
SPLINE
  5
7F
330
6F
100
AcDbEntity
  8
_U+30EC_U+30A4_U+30E4_U+30FC 1
370
     0
100
AcDbSpline
210
0.0
220
0.0
230
1.0
 70
    11
 71
     3
 72
    17
 73
    13
 74
     0
 42
0.0000000001
 43
0.0000000001
 12
1.0
 22
0.0
 32
0.0
 13
1.0
 23
0.0
 33
0.0
 40
0.0
 40
0.0
 40
0.0
 40
0.0
 40
1.0
 40
1.0
 40
1.0
 40
2.0
 40
2.0
 40
2.0
 40
3.0
 40
3.0
 40
3.0
 40
4.0
 40
4.0
 40
4.0
 40
4.0
 10
102.7520399048675
 20
-133.639732496972
 30
0.0
 10
102.7520399048675
 20
-133.8047525707155
 30
0.0
 10
102.847469049809
 20
-133.8895019196526
 30
0.0
 10
102.9828613023793
 20
-133.8895019196526
 30
0.0
 10
103.1055067016542
 20
-133.8895019196526
 30
0.0
 10
103.2240179863468
 20
-133.8174994240109
 30
0.0
 10
103.2240179863468
 20
-133.639732496972
 30
0.0
 10
103.2240179863468
 20
-133.4619655699331
 30
0.0
 10
103.1055067016542
 20
-133.3903075838399
 30
0.0
 10
102.9828613023793
 20
-133.3903075838399
 30
0.0
 10
102.847469049809
 20
-133.3903075838399
 30
0.0
 10
102.7520399048675
 20
-133.4767794805197
 30
0.0
 10
102.7520399048675
 20
-133.639732496972
 30
0.0
  0
SPLINE
  5
80
330
6F
100
AcDbEntity
  8
_U+30EC_U+30A4_U+30E4_U+30FC 1
370
     0
100
AcDbSpline
210
0.0
220
0.0
230
1.0
 70
    11
 71
     3
 72
    17
 73
    13
 74
     0
 42
0.0000000001
 43
0.0000000001
 12
1.0
 22
0.0
 32
0.0
 13
1.0
 23
0.0
 33
0.0
 40
0.0
 40
0.0
 40
0.0
 40
0.0
 40
1.0
 40
1.0
 40
1.0
 40
2.0
 40
2.0
 40
2.0
 40
3.0
 40
3.0
 40
3.0
 40
4.0
 40
4.0
 40
4.0
 40
4.0
 10
103.4121201998414
 20
-133.639732496972
 30
0.0
 10
103.4121201998414
 20
-133.7837374882555
 30
0.0
 10
103.4989366060697
 20
-133.9360107087035
 30
0.0
 10
103.7021972396995
 20
-133.9360107087035
 30
0.0
 10
103.9071804210718
 20
-133.9360107087035
 30
0.0
 10
104.0088107378867
 20
-133.8092311948463
 30
0.0
 10
104.0088107378867
 20
-133.639732496972
 30
0.0
 10
104.0088107378867
 20
-133.4536973407685
 30
0.0
 10
103.8861653386118
 20
-133.3437987947891
 30
0.0
 10
103.7083984115729
 20
-133.3437987947891
 30
0.0
 10
103.4861897527743
 20
-133.3437987947891
 30
0.0
 10
103.4121201998414
 20
-133.5064073016929
 30
0.0
 10
103.4121201998414
 20
-133.639732496972
 30
0.0
  0
HATCH
  5
81
330
6F
100
AcDbEntity
  8
_U+30EC_U+30A4_U+30E4_U+30FC 1
 62
   179
420
  2234388
100
AcDbHatch
 10
0.0
 20
0.0
 30
0.0
210
0.0
220
0.0
230
1.0
  2
SOLID
 70
     1
 71
     0
 91
        3
 92
        1
 93
        1
 72
     4
 94
        3
 73
     0
 74
     1
 95
       29
 96
       25
 40
0.0
 40
0.0
 40
0.0
 40
0.0
 40
1.0
 40
1.0
 40
1.0
 40
2.0
 40
2.0
 40
2.0
 40
3.0
 40
3.0
 40
3.0
 40
4.0
 40
4.0
 40
4.0
 40
5.0
 40
5.0
 40
5.0
 40
6.0
 40
6.0
 40
6.0
 40
7.0
 40
7.0
 40
7.0
 40
8.0
 40
8.0
 40
8.0
 40
8.0
 10
104.2034586328033
 20
-133.639732496972
 10
104.2034586328033
 20
-133.9063828875304
 10
104.0659993229418
 20
-134.1602864247933
 10
103.717011150286
 20
-134.1602864247933
 10
103.461040555732
 20
-134.1602864247933
 10
103.3656114107905
 20
-134.018348490801
 10
103.3042887111531
 20
-133.9125840594038
 10
103.2450330688068
 20
-134.0376410255184
 10
103.131000408245
 20
-134.1137776357424
 10
102.9701144490839
 20
-134.1137776357424
 10
102.6951958293609
 20
-134.1137776357424
 10
102.5598035767906
 20
-133.9149956262435
 10
102.5598035767906
 20
-133.639732496972
 10
102.5598035767906
 20
-133.356201138536
 10
102.7034640585255
 20
-133.1660318677502
 10
102.9701144490839
 20
-133.1660318677502
 10
103.131000408245
 20
-133.1660318677502
 10
103.2450330688068
 20
-133.2442355352653
 10
103.3042887111531
 20
-133.3689479918314
 10
103.3552761243348
 20
-133.2800645283119
 10
103.4503607597277
 20
-133.1215901359904
 10
103.7125325261552
 20
-133.1215901359904
 10
104.0870144054019
 20
-133.1215901359904
 10
104.2034586328033
 20
-133.4006428702957
 10
104.2034586328033
 20
-133.639732496972
 97
        0
 97
        0
 92
        1
 93
        1
 72
     4
 94
        3
 73
     0
 74
     1
 95
       17
 96
       13
 40
0.0
 40
0.0
 40
0.0
 40
0.0
 40
1.0
 40
1.0
 40
1.0
 40
2.0
 40
2.0
 40
2.0
 40
3.0
 40
3.0
 40
3.0
 40
4.0
 40
4.0
 40
4.0
 40
4.0
 10
102.7520399048675
 20
-133.639732496972
 10
102.7520399048675
 20
-133.8047525707155
 10
102.847469049809
 20
-133.8895019196526
 10
102.9828613023793
 20
-133.8895019196526
 10
103.1055067016542
 20
-133.8895019196526
 10
103.2240179863468
 20
-133.8174994240109
 10
103.2240179863468
 20
-133.639732496972
 10
103.2240179863468
 20
-133.4619655699331
 10
103.1055067016542
 20
-133.3903075838399
 10
102.9828613023793
 20
-133.3903075838399
 10
102.847469049809
 20
-133.3903075838399
 10
102.7520399048675
 20
-133.4767794805197
 10
102.7520399048675
 20
-133.639732496972
 97
        0
 97
        0
 92
        1
 93
        1
 72
     4
 94
        3
 73
     0
 74
     1
 95
       17
 96
       13
 40
0.0
 40
0.0
 40
0.0
 40
0.0
 40
1.0
 40
1.0
 40
1.0
 40
2.0
 40
2.0
 40
2.0
 40
3.0
 40
3.0
 40
3.0
 40
4.0
 40
4.0
 40
4.0
 40
4.0
 10
103.4121201998414
 20
-133.639732496972
 10
103.4121201998414
 20
-133.7837374882555
 10
103.4989366060697
 20
-133.9360107087035
 10
103.7021972396995
 20
-133.9360107087035
 10
103.9071804210718
 20
-133.9360107087035
 10
104.0088107378867
 20
-133.8092311948463
 10
104.0088107378867
 20
-133.639732496972
 10
104.0088107378867
 20
-133.4536973407685
 10
103.8861653386118
 20
-133.3437987947891
 10
103.7083984115729
 20
-133.3437987947891
 10
103.4861897527743
 20
-133.3437987947891
 10
103.4121201998414
 20
-133.5064073016929
 10
103.4121201998414
 20
-133.639732496972
 97
        0
 97
        0
 75
     2
 76
     1
 98
        0
  0
ENDBLK
  5
72
330
6F
100
AcDbEntity
  8
0
100
AcDbBlockEnd
  0
BLOCK
  5
93
330
91
100
AcDbEntity
  8
0
100
AcDbBlockBegin
  2
block 3
 70
     0
 10
0.0
 20
0.0
 30
0.0
  3
block 3
  1

  0
SPLINE
  5
95
330
91
100
AcDbEntity
  8
_U+30EC_U+30A4_U+30E4_U+30FC 1
370
     0
100
AcDbSpline
210
0.0
220
0.0
230
1.0
 70
    11
 71
     3
 72
    26
 73
    22
 74
     0
 42
0.0000000001
 43
0.0000000001
 12
1.0
 22
0.0
 32
0.0
 13
1.0
 23
0.0
 33
0.0
 40
0.0
 40
0.0
 40
0.0
 40
0.0
 40
1.0
 40
1.0
 40
1.0
 40
2.0
 40
2.0
 40
2.0
 40
3.0
 40
3.0
 40
3.0
 40
4.0
 40
4.0
 40
4.0
 40
5.0
 40
5.0
 40
5.0
 40
6.0
 40
6.0
 40
6.0
 40
7.0
 40
7.0
 40
7.0
 40
7.0
 10
91.91652558465977
 20
-138.5197102518284
 30
0.0
 10
91.91652558465977
 20
-138.5197102518284
 30
0.0
 10
91.91652558465977
 20
-137.4152126392573
 30
0.0
 10
91.91652558465977
 20
-137.4152126392573
 30
0.0
 10
91.91652558465977
 20
-137.4152126392573
 30
0.0
 10
91.58648543717283
 20
-137.4152126392573
 30
0.0
 10
91.58648543717283
 20
-137.4152126392573
 30
0.0
 10
91.58648543717283
 20
-137.4152126392573
 30
0.0
 10
91.58648543717283
 20
-137.2670735333916
 30
0.0
 10
91.58648543717283
 20
-137.2670735333916
 30
0.0
 10
91.91859264195091
 20
-137.252259622805
 30
0.0
 10
91.96510143100178
 20
-137.0896511159012
 30
0.0
 10
91.99472925217493
 20
-136.9752739457909
 30
0.0
 10
91.99472925217493
 20
-136.9752739457909
 30
0.0
 10
92.14080130074953
 20
-136.9752739457909
 30
0.0
 10
92.14080130074953
 20
-136.9752739457909
 30
0.0
 10
92.14080130074953
 20
-136.9752739457909
 30
0.0
 10
92.14080130074953
 20
-138.5197102518284
 30
0.0
 10
92.14080130074953
 20
-138.5197102518284
 30
0.0
 10
92.14080130074953
 20
-138.5197102518284
 30
0.0
 10
91.91652558465977
 20
-138.5197102518284
 30
0.0
 10
91.91652558465977
 20
-138.5197102518284
 30
0.0
  0
HATCH
  5
96
330
91
100
AcDbEntity
  8
_U+30EC_U+30A4_U+30E4_U+30FC 1
 62
   179
420
  2234388
100
AcDbHatch
 10
0.0
 20
0.0
 30
0.0
210
0.0
220
0.0
230
1.0
  2
SOLID
 70
     1
 71
     0
 91
        1
 92
        1
 93
        1
 72
     4
 94
        3
 73
     0
 74
     1
 95
       26
 96
       22
 40
0.0
 40
0.0
 40
0.0
 40
0.0
 40
1.0
 40
1.0
 40
1.0
 40
2.0
 40
2.0
 40
2.0
 40
3.0
 40
3.0
 40
3.0
 40
4.0
 40
4.0
 40
4.0
 40
5.0
 40
5.0
 40
5.0
 40
6.0
 40
6.0
 40
6.0
 40
7.0
 40
7.0
 40
7.0
 40
7.0
 10
91.91652558465977
 20
-138.5197102518284
 10
91.91652558465977
 20
-138.5197102518284
 10
91.91652558465977
 20
-137.4152126392573
 10
91.91652558465977
 20
-137.4152126392573
 10
91.91652558465977
 20
-137.4152126392573
 10
91.58648543717283
 20
-137.4152126392573
 10
91.58648543717283
 20
-137.4152126392573
 10
91.58648543717283
 20
-137.4152126392573
 10
91.58648543717283
 20
-137.2670735333916
 10
91.58648543717283
 20
-137.2670735333916
 10
91.91859264195091
 20
-137.252259622805
 10
91.96510143100178
 20
-137.0896511159012
 10
91.99472925217493
 20
-136.9752739457909
 10
91.99472925217493
 20
-136.9752739457909
 10
92.14080130074953
 20
-136.9752739457909
 10
92.14080130074953
 20
-136.9752739457909
 10
92.14080130074953
 20
-136.9752739457909
 10
92.14080130074953
 20
-138.5197102518284
 10
92.14080130074953
 20
-138.5197102518284
 10
92.14080130074953
 20
-138.5197102518284
 10
91.91652558465977
 20
-138.5197102518284
 10
91.91652558465977
 20
-138.5197102518284
 97
        0
 97
        0
 75
     2
 76
     1
 98
        0
  0
SPLINE
  5
97
330
91
100
AcDbEntity
  8
_U+30EC_U+30A4_U+30E4_U+30FC 1
370
     0
100
AcDbSpline
210
0.0
220
0.0
230
1.0
 70
    11
 71
     3
 72
    32
 73
    28
 74
     0
 42
0.0000000001
 43
0.0000000001
 12
1.0
 22
0.0
 32
0.0
 13
1.0
 23
0.0
 33
0.0
 40
0.0
 40
0.0
 40
0.0
 40
0.0
 40
1.0
 40
1.0
 40
1.0
 40
2.0
 40
2.0
 40
2.0
 40
3.0
 40
3.0
 40
3.0
 40
4.0
 40
4.0
 40
4.0
 40
5.0
 40
5.0
 40
5.0
 40
6.0
 40
6.0
 40
6.0
 40
7.0
 40
7.0
 40
7.0
 40
8.0
 40
8.0
 40
8.0
 40
9.0
 40
9.0
 40
9.0
 40
9.0
 10
93.09957137429456
 20
-138.5703531554616
 30
0.0
 10
92.9262830713865
 20
-138.5703531554616
 30
0.0
 10
92.68064776328818
 20
-138.500417717111
 30
0.0
 10
92.64275171295043
 20
-138.1683105123329
 30
0.0
 10
92.64275171295043
 20
-138.1683105123329
 30
0.0
 10
92.85634763303592
 20
-138.1683105123329
 30
0.0
 10
92.85634763303592
 20
-138.1683105123329
 30
0.0
 10
92.86702742904019
 20
-138.2275661546792
 30
0.0
 10
92.89872230750449
 20
-138.375705260545
 30
0.0
 10
93.10163843158571
 20
-138.375705260545
 30
0.0
 10
93.39378252873489
 20
-138.375705260545
 30
0.0
 10
93.43167857907264
 20
-138.045665113058
 30
0.0
 10
93.44442543236806
 20
-137.8403374221371
 30
0.0
 10
93.35347491155747
 20
-137.920952656492
 30
0.0
 10
93.28595104004657
 20
-137.9781412415471
 30
0.0
 10
93.10404999842538
 20
-137.9781412415471
 30
0.0
 10
92.92421601409534
 20
-137.9781412415471
 30
0.0
 10
92.62139212094188
 20
-137.87237681015
 30
0.0
 10
92.62139212094188
 20
-137.466200052439
 30
0.0
 10
92.62139212094188
 20
-137.1464951914078
 30
0.0
 10
92.82051863998932
 20
-136.9266980994489
 30
0.0
 10
93.13781193418083
 20
-136.9266980994489
 30
0.0
 10
93.6518201805801
 20
-136.9266980994489
 30
0.0
 10
93.66249997658439
 20
-137.4810139630256
 30
0.0
 10
93.66249997658439
 20
-137.6946098831111
 30
0.0
 10
93.66249997658439
 20
-137.9250867710743
 30
0.0
 10
93.64320744186698
 20
-138.5703531554616
 30
0.0
 10
93.09957137429456
 20
-138.5703531554616
 30
0.0
  0
SPLINE
  5
98
330
91
100
AcDbEntity
  8
_U+30EC_U+30A4_U+30E4_U+30FC 1
370
     0
100
AcDbSpline
210
0.0
220
0.0
230
1.0
 70
    11
 71
     3
 72
    17
 73
    13
 74
     0
 42
0.0000000001
 43
0.0000000001
 12
1.0
 22
0.0
 32
0.0
 13
1.0
 23
0.0
 33
0.0
 40
0.0
 40
0.0
 40
0.0
 40
0.0
 40
1.0
 40
1.0
 40
1.0
 40
2.0
 40
2.0
 40
2.0
 40
3.0
 40
3.0
 40
3.0
 40
4.0
 40
4.0
 40
4.0
 40
4.0
 10
93.13987899147197
 20
-137.1189344275258
 30
0.0
 10
93.02136770677939
 20
-137.1189344275258
 30
0.0
 10
92.84566783703164
 20
-137.176123012581
 30
0.0
 10
92.84566783703164
 20
-137.4617214283082
 30
0.0
 10
92.84566783703164
 20
-137.6880642016891
 30
0.0
 10
92.98553871373278
 20
-137.7834933466305
 30
0.0
 10
93.1209309663031
 20
-137.7834933466305
 30
0.0
 10
93.38310273273062
 20
-137.7834933466305
 30
0.0
 10
93.4213432926169
 20
-137.5740315411273
 30
0.0
 10
93.4213432926169
 20
-137.4575873137259
 30
0.0
 10
93.4213432926169
 20
-137.2818874439781
 30
0.0
 10
93.32591414767548
 20
-137.1189344275258
 30
0.0
 10
93.13987899147197
 20
-137.1189344275258
 30
0.0
  0
HATCH
  5
99
330
91
100
AcDbEntity
  8
_U+30EC_U+30A4_U+30E4_U+30FC 1
 62
   179
420
  2234388
100
AcDbHatch
 10
0.0
 20
0.0
 30
0.0
210
0.0
220
0.0
230
1.0
  2
SOLID
 70
     1
 71
     0
 91
        2
 92
        1
 93
        1
 72
     4
 94
        3
 73
     0
 74
     1
 95
       32
 96
       28
 40
0.0
 40
0.0
 40
0.0
 40
0.0
 40
1.0
 40
1.0
 40
1.0
 40
2.0
 40
2.0
 40
2.0
 40
3.0
 40
3.0
 40
3.0
 40
4.0
 40
4.0
 40
4.0
 40
5.0
 40
5.0
 40
5.0
 40
6.0
 40
6.0
 40
6.0
 40
7.0
 40
7.0
 40
7.0
 40
8.0
 40
8.0
 40
8.0
 40
9.0
 40
9.0
 40
9.0
 40
9.0
 10
93.09957137429456
 20
-138.5703531554616
 10
92.9262830713865
 20
-138.5703531554616
 10
92.68064776328818
 20
-138.500417717111
 10
92.64275171295043
 20
-138.1683105123329
 10
92.64275171295043
 20
-138.1683105123329
 10
92.85634763303592
 20
-138.1683105123329
 10
92.85634763303592
 20
-138.1683105123329
 10
92.86702742904019
 20
-138.2275661546792
 10
92.89872230750449
 20
-138.375705260545
 10
93.10163843158571
 20
-138.375705260545
 10
93.39378252873489
 20
-138.375705260545
 10
93.43167857907264
 20
-138.045665113058
 10
93.44442543236806
 20
-137.8403374221371
 10
93.35347491155747
 20
-137.920952656492
 10
93.28595104004657
 20
-137.9781412415471
 10
93.10404999842538
 20
-137.9781412415471
 10
92.92421601409534
 20
-137.9781412415471
 10
92.62139212094188
 20
-137.87237681015
 10
92.62139212094188
 20
-137.466200052439
 10
92.62139212094188
 20
-137.1464951914078
 10
92.82051863998932
 20
-136.9266980994489
 10
93.13781193418083
 20
-136.9266980994489
 10
93.6518201805801
 20
-136.9266980994489
 10
93.66249997658439
 20
-137.4810139630256
 10
93.66249997658439
 20
-137.6946098831111
 10
93.66249997658439
 20
-137.9250867710743
 10
93.64320744186698
 20
-138.5703531554616
 10
93.09957137429456
 20
-138.5703531554616
 97
        0
 97
        0
 92
        1
 93
        1
 72
     4
 94
        3
 73
     0
 74
     1
 95
       17
 96
       13
 40
0.0
 40
0.0
 40
0.0
 40
0.0
 40
1.0
 40
1.0
 40
1.0
 40
2.0
 40
2.0
 40
2.0
 40
3.0
 40
3.0
 40
3.0
 40
4.0
 40
4.0
 40
4.0
 40
4.0
 10
93.13987899147197
 20
-137.1189344275258
 10
93.02136770677939
 20
-137.1189344275258
 10
92.84566783703164
 20
-137.176123012581
 10
92.84566783703164
 20
-137.4617214283082
 10
92.84566783703164
 20
-137.6880642016891
 10
92.98553871373278
 20
-137.7834933466305
 10
93.1209309663031
 20
-137.7834933466305
 10
93.38310273273062
 20
-137.7834933466305
 10
93.4213432926169
 20
-137.5740315411273
 10
93.4213432926169
 20
-137.4575873137259
 10
93.4213432926169
 20
-137.2818874439781
 10
93.32591414767548
 20
-137.1189344275258
 10
93.13987899147197
 20
-137.1189344275258
 97
        0
 97
        0
 75
     2
 76
     1
 98
        0
  0
ENDBLK
  5
94
330
91
100
AcDbEntity
  8
0
100
AcDbBlockEnd
  0
BLOCK
  5
AB
330
A9
100
AcDbEntity
  8
0
100
AcDbBlockBegin
  2
block 4
 70
     0
 10
0.0
 20
0.0
 30
0.0
  3
block 4
  1

  0
SPLINE
  5
AD
330
A9
100
AcDbEntity
  8
_U+30EC_U+30A4_U+30E4_U+30FC 1
370
     0
100
AcDbSpline
210
0.0
220
0.0
230
1.0
 70
    11
 71
     3
 72
    26
 73
    22
 74
     0
 42
0.0000000001
 43
0.0000000001
 12
1.0
 22
0.0
 32
0.0
 13
1.0
 23
0.0
 33
0.0
 40
0.0
 40
0.0
 40
0.0
 40
0.0
 40
1.0
 40
1.0
 40
1.0
 40
2.0
 40
2.0
 40
2.0
 40
3.0
 40
3.0
 40
3.0
 40
4.0
 40
4.0
 40
4.0
 40
5.0
 40
5.0
 40
5.0
 40
6.0
 40
6.0
 40
6.0
 40
7.0
 40
7.0
 40
7.0
 40
7.0
 10
78.6813300042012
 20
-126.0293443152809
 30
0.0
 10
78.6813300042012
 20
-126.0293443152809
 30
0.0
 10
77.57700464640436
 20
-126.0293443152809
 30
0.0
 10
77.57700464640436
 20
-126.0293443152809
 30
0.0
 10
77.57700464640436
 20
-126.0293443152809
 30
0.0
 10
77.57700464640436
 20
-126.3593844627678
 30
0.0
 10
77.57700464640436
 20
-126.3593844627678
 30
0.0
 10
77.57700464640436
 20
-126.3593844627678
 30
0.0
 10
77.42903779531288
 20
-126.3593844627678
 30
0.0
 10
77.42903779531288
 20
-126.3593844627678
 30
0.0
 10
77.41422388472631
 20
-126.0272772579897
 30
0.0
 10
77.25127086827399
 20
-125.9805962141646
 30
0.0
 10
77.13706595293796
 20
-125.9511406477657
 30
0.0
 10
77.13706595293796
 20
-125.9511406477657
 30
0.0
 10
77.13706595293796
 20
-125.8050685991911
 30
0.0
 10
77.13706595293796
 20
-125.8050685991911
 30
0.0
 10
77.13706595293796
 20
-125.8050685991911
 30
0.0
 10
78.6813300042012
 20
-125.8050685991911
 30
0.0
 10
78.6813300042012
 20
-125.8050685991911
 30
0.0
 10
78.6813300042012
 20
-125.8050685991911
 30
0.0
 10
78.6813300042012
 20
-126.0293443152809
 30
0.0
 10
78.6813300042012
 20
-126.0293443152809
 30
0.0
  0
HATCH
  5
AE
330
A9
100
AcDbEntity
  8
_U+30EC_U+30A4_U+30E4_U+30FC 1
 62
   179
420
  2234388
100
AcDbHatch
 10
0.0
 20
0.0
 30
0.0
210
0.0
220
0.0
230
1.0
  2
SOLID
 70
     1
 71
     0
 91
        1
 92
        1
 93
        1
 72
     4
 94
        3
 73
     0
 74
     1
 95
       26
 96
       22
 40
0.0
 40
0.0
 40
0.0
 40
0.0
 40
1.0
 40
1.0
 40
1.0
 40
2.0
 40
2.0
 40
2.0
 40
3.0
 40
3.0
 40
3.0
 40
4.0
 40
4.0
 40
4.0
 40
5.0
 40
5.0
 40
5.0
 40
6.0
 40
6.0
 40
6.0
 40
7.0
 40
7.0
 40
7.0
 40
7.0
 10
78.6813300042012
 20
-126.0293443152809
 10
78.6813300042012
 20
-126.0293443152809
 10
77.57700464640436
 20
-126.0293443152809
 10
77.57700464640436
 20
-126.0293443152809
 10
77.57700464640436
 20
-126.0293443152809
 10
77.57700464640436
 20
-126.3593844627678
 10
77.57700464640436
 20
-126.3593844627678
 10
77.57700464640436
 20
-126.3593844627678
 10
77.42903779531288
 20
-126.3593844627678
 10
77.42903779531288
 20
-126.3593844627678
 10
77.41422388472631
 20
-126.0272772579897
 10
77.25127086827399
 20
-125.9805962141646
 10
77.13706595293796
 20
-125.9511406477657
 10
77.13706595293796
 20
-125.9511406477657
 10
77.13706595293796
 20
-125.8050685991911
 10
77.13706595293796
 20
-125.8050685991911
 10
77.13706595293796
 20
-125.8050685991911
 10
78.6813300042012
 20
-125.8050685991911
 10
78.6813300042012
 20
-125.8050685991911
 10
78.6813300042012
 20
-125.8050685991911
 10
78.6813300042012
 20
-126.0293443152809
 10
78.6813300042012
 20
-126.0293443152809
 97
        0
 97
        0
 75
     2
 76
     1
 98
        0
  0
SPLINE
  5
AF
330
A9
100
AcDbEntity
  8
_U+30EC_U+30A4_U+30E4_U+30FC 1
370
     0
100
AcDbSpline
210
0.0
220
0.0
230
1.0
 70
    11
 71
     3
 72
    32
 73
    28
 74
     0
 42
0.0000000001
 43
0.0000000001
 12
1.0
 22
0.0
 32
0.0
 13
1.0
 23
0.0
 33
0.0
 40
0.0
 40
0.0
 40
0.0
 40
0.0
 40
1.0
 40
1.0
 40
1.0
 40
2.0
 40
2.0
 40
2.0
 40
3.0
 40
3.0
 40
3.0
 40
4.0
 40
4.0
 40
4.0
 40
5.0
 40
5.0
 40
5.0
 40
6.0
 40
6.0
 40
6.0
 40
7.0
 40
7.0
 40
7.0
 40
8.0
 40
8.0
 40
8.0
 40
9.0
 40
9.0
 40
9.0
 40
9.0
 10
78.73214516260863
 20
-124.8461262708718
 30
0.0
 10
78.73214516260863
 20
-125.0195868285541
 30
0.0
 10
78.66238197903232
 20
-125.2650498818782
 30
0.0
 10
78.33010251947998
 20
-125.3031181869902
 30
0.0
 10
78.33010251947998
 20
-125.3031181869902
 30
0.0
 10
78.33010251947998
 20
-125.0893500121305
 30
0.0
 10
78.33010251947998
 20
-125.0893500121305
 30
0.0
 10
78.38935816182628
 20
-125.0788424709004
 30
0.0
 10
78.53749726769202
 20
-125.0471475924361
 30
0.0
 10
78.53749726769202
 20
-124.8440592135807
 30
0.0
 10
78.53749726769202
 20
-124.5520873712057
 30
0.0
 10
78.20745712020508
 20
-124.5140190660937
 30
0.0
 10
78.00230168405845
 20
-124.5012722127983
 30
0.0
 10
78.08274466363903
 20
-124.5922227336089
 30
0.0
 10
78.13976099391992
 20
-124.659918859894
 30
0.0
 10
78.13976099391992
 20
-124.8418199015153
 30
0.0
 10
78.13976099391992
 20
-125.0216538858453
 30
0.0
 10
78.03399656252276
 20
-125.3243055242245
 30
0.0
 10
77.62781980481179
 20
-125.3243055242245
 30
0.0
 10
77.30845945332914
 20
-125.3243055242245
 30
0.0
 10
77.08831785182167
 20
-125.1253512599513
 30
0.0
 10
77.08831785182167
 20
-124.8080579657598
 30
0.0
 10
77.08831785182167
 20
-124.2940497193605
 30
0.0
 10
77.64263371539838
 20
-124.2833699233562
 30
0.0
 10
77.85640189025813
 20
-124.2833699233562
 30
0.0
 10
78.08687877822133
 20
-124.2833699233562
 30
0.0
 10
78.73214516260863
 20
-124.3024902032994
 30
0.0
 10
78.73214516260863
 20
-124.8461262708718
 30
0.0
  0
SPLINE
  5
B0
330
A9
100
AcDbEntity
  8
_U+30EC_U+30A4_U+30E4_U+30FC 1
370
     0
100
AcDbSpline
210
0.0
220
0.0
230
1.0
 70
    11
 71
     3
 72
    17
 73
    13
 74
     0
 42
0.0000000001
 43
0.0000000001
 12
1.0
 22
0.0
 32
0.0
 13
1.0
 23
0.0
 33
0.0
 40
0.0
 40
0.0
 40
0.0
 40
0.0
 40
1.0
 40
1.0
 40
1.0
 40
2.0
 40
2.0
 40
2.0
 40
3.0
 40
3.0
 40
3.0
 40
4.0
 40
4.0
 40
4.0
 40
4.0
 10
77.28089868944714
 20
-124.8059909084686
 30
0.0
 10
77.28089868944714
 20
-124.924329938387
 30
0.0
 10
77.33808727450229
 20
-125.1000298081347
 30
0.0
 10
77.6236856902295
 20
-125.1000298081347
 30
0.0
 10
77.85002846361041
 20
-125.1000298081347
 30
0.0
 10
77.94511309900331
 20
-124.9603311862078
 30
0.0
 10
77.94511309900331
 20
-124.8249389336375
 30
0.0
 10
77.94511309900331
 20
-124.5625949124357
 30
0.0
 10
77.73565129350011
 20
-124.5245266073237
 30
0.0
 10
77.61937932087294
 20
-124.5245266073237
 30
0.0
 10
77.44385170589946
 20
-124.5245266073237
 30
0.0
 10
77.28089868944714
 20
-124.6197834974909
 30
0.0
 10
77.28089868944714
 20
-124.8059909084686
 30
0.0
  0
HATCH
  5
B1
330
A9
100
AcDbEntity
  8
_U+30EC_U+30A4_U+30E4_U+30FC 1
 62
   179
420
  2234388
100
AcDbHatch
 10
0.0
 20
0.0
 30
0.0
210
0.0
220
0.0
230
1.0
  2
SOLID
 70
     1
 71
     0
 91
        2
 92
        1
 93
        1
 72
     4
 94
        3
 73
     0
 74
     1
 95
       32
 96
       28
 40
0.0
 40
0.0
 40
0.0
 40
0.0
 40
1.0
 40
1.0
 40
1.0
 40
2.0
 40
2.0
 40
2.0
 40
3.0
 40
3.0
 40
3.0
 40
4.0
 40
4.0
 40
4.0
 40
5.0
 40
5.0
 40
5.0
 40
6.0
 40
6.0
 40
6.0
 40
7.0
 40
7.0
 40
7.0
 40
8.0
 40
8.0
 40
8.0
 40
9.0
 40
9.0
 40
9.0
 40
9.0
 10
78.73214516260863
 20
-124.8461262708718
 10
78.73214516260863
 20
-125.0195868285541
 10
78.66238197903232
 20
-125.2650498818782
 10
78.33010251947998
 20
-125.3031181869902
 10
78.33010251947998
 20
-125.3031181869902
 10
78.33010251947998
 20
-125.0893500121305
 10
78.33010251947998
 20
-125.0893500121305
 10
78.38935816182628
 20
-125.0788424709004
 10
78.53749726769202
 20
-125.0471475924361
 10
78.53749726769202
 20
-124.8440592135807
 10
78.53749726769202
 20
-124.5520873712057
 10
78.20745712020508
 20
-124.5140190660937
 10
78.00230168405845
 20
-124.5012722127983
 10
78.08274466363903
 20
-124.5922227336089
 10
78.13976099391992
 20
-124.659918859894
 10
78.13976099391992
 20
-124.8418199015153
 10
78.13976099391992
 20
-125.0216538858453
 10
78.03399656252276
 20
-125.3243055242245
 10
77.62781980481179
 20
-125.3243055242245
 10
77.30845945332914
 20
-125.3243055242245
 10
77.08831785182167
 20
-125.1253512599513
 10
77.08831785182167
 20
-124.8080579657598
 10
77.08831785182167
 20
-124.2940497193605
 10
77.64263371539838
 20
-124.2833699233562
 10
77.85640189025813
 20
-124.2833699233562
 10
78.08687877822133
 20
-124.2833699233562
 10
78.73214516260863
 20
-124.3024902032994
 10
78.73214516260863
 20
-124.8461262708718
 97
        0
 97
        0
 92
        1
 93
        1
 72
     4
 94
        3
 73
     0
 74
     1
 95
       17
 96
       13
 40
0.0
 40
0.0
 40
0.0
 40
0.0
 40
1.0
 40
1.0
 40
1.0
 40
2.0
 40
2.0
 40
2.0
 40
3.0
 40
3.0
 40
3.0
 40
4.0
 40
4.0
 40
4.0
 40
4.0
 10
77.28089868944714
 20
-124.8059909084686
 10
77.28089868944714
 20
-124.924329938387
 10
77.33808727450229
 20
-125.1000298081347
 10
77.6236856902295
 20
-125.1000298081347
 10
77.85002846361041
 20
-125.1000298081347
 10
77.94511309900331
 20
-124.9603311862078
 10
77.94511309900331
 20
-124.8249389336375
 10
77.94511309900331
 20
-124.5625949124357
 10
77.73565129350011
 20
-124.5245266073237
 10
77.61937932087294
 20
-124.5245266073237
 10
77.44385170589946
 20
-124.5245266073237
 10
77.28089868944714
 20
-124.6197834974909
 10
77.28089868944714
 20
-124.8059909084686
 97
        0
 97
        0
 75
     2
 76
     1
 98
        0
  0
ENDBLK
  5
AC
330
A9
100
AcDbEntity
  8
0
100
AcDbBlockEnd
  0
ENDSEC
  0
SECTION
  2
ENTITIES
  0
POLYLINE
  5
41
330
1F
100
AcDbEntity
  8
_U+30EC_U+30A4_U+30E4_U+30FC 1
 62
   179
420
  2234388
370
    25
100
AcDb2dPolyline
 66
     1
 10
0.0
 20
0.0
 30
0.0
  0
VERTEX
  5
42
330
41
100
AcDbEntity
  8
_U+30EC_U+30A4_U+30E4_U+30FC 1
 62
   179
420
  2234388
370
    25
100
AcDbVertex
100
AcDb2dVertex
 10
83.05401149222675
 20
-134.8920269107215
 30
0.0
  0
VERTEX
  5
43
330
41
100
AcDbEntity
  8
_U+30EC_U+30A4_U+30E4_U+30FC 1
 62
   179
420
  2234388
370
    25
100
AcDbVertex
100
AcDb2dVertex
 10
102.0540576741619
 20
-134.8920269107215
 30
0.0
  0
SEQEND
  5
44
330
41
100
AcDbEntity
  8
_U+30EC_U+30A4_U+30E4_U+30FC 1
 62
   179
420
  2234388
370
    25
  0
POLYLINE
  5
45
330
1F
100
AcDbEntity
  8
_U+30EC_U+30A4_U+30E4_U+30FC 1
 62
   179
420
  2234388
370
    25
100
AcDb2dPolyline
 66
     1
 10
0.0
 20
0.0
 30
0.0
  0
VERTEX
  5
46
330
45
100
AcDbEntity
  8
_U+30EC_U+30A4_U+30E4_U+30FC 1
 62
   179
420
  2234388
370
    25
100
AcDbVertex
100
AcDb2dVertex
 10
83.05401149222675
 20
-115.8921566376937
 30
0.0
  0
VERTEX
  5
47
330
45
100
AcDbEntity
  8
_U+30EC_U+30A4_U+30E4_U+30FC 1
 62
   179
420
  2234388
370
    25
100
AcDbVertex
100
AcDb2dVertex
 10
83.05401149222675
 20
-134.8920269107215
 30
0.0
  0
SEQEND
  5
48
330
45
100
AcDbEntity
  8
_U+30EC_U+30A4_U+30E4_U+30FC 1
 62
   179
420
  2234388
370
    25
  0
POLYLINE
  5
49
330
1F
100
AcDbEntity
  8
_U+30EC_U+30A4_U+30E4_U+30FC 1
 62
   179
420
  2234388
370
    25
100
AcDb2dPolyline
 66
     1
 10
0.0
 20
0.0
 30
0.0
  0
VERTEX
  5
4A
330
49
100
AcDbEntity
  8
_U+30EC_U+30A4_U+30E4_U+30FC 1
 62
   179
420
  2234388
370
    25
100
AcDbVertex
100
AcDb2dVertex
 10
83.853970360707
 20
-115.8921566376937
 30
0.0
  0
VERTEX
  5
4B
330
49
100
AcDbEntity
  8
_U+30EC_U+30A4_U+30E4_U+30FC 1
 62
   179
420
  2234388
370
    25
100
AcDbVertex
100
AcDb2dVertex
 10
83.853970360707
 20
-134.0920680220323
 30
0.0
  0
SEQEND
  5
4C
330
49
100
AcDbEntity
  8
_U+30EC_U+30A4_U+30E4_U+30FC 1
 62
   179
420
  2234388
370
    25
  0
POLYLINE
  5
4D
330
1F
100
AcDbEntity
  8
_U+30EC_U+30A4_U+30E4_U+30FC 1
 62
   179
420
  2234388
370
    25
100
AcDb2dPolyline
 66
     1
 10
0.0
 20
0.0
 30
0.0
  0
VERTEX
  5
4E
330
4D
100
AcDbEntity
  8
_U+30EC_U+30A4_U+30E4_U+30FC 1
 62
   179
420
  2234388
370
    25
100
AcDbVertex
100
AcDb2dVertex
 10
83.853970360707
 20
-134.0920680220323
 30
0.0
  0
VERTEX
  5
4F
330
4D
100
AcDbEntity
  8
_U+30EC_U+30A4_U+30E4_U+30FC 1
 62
   179
420
  2234388
370
    25
100
AcDbVertex
100
AcDb2dVertex
 10
102.0540576741619
 20
-134.0920680220323
 30
0.0
  0
SEQEND
  5
50
330
4D
100
AcDbEntity
  8
_U+30EC_U+30A4_U+30E4_U+30FC 1
 62
   179
420
  2234388
370
    25
  0
POLYLINE
  5
51
330
1F
100
AcDbEntity
  8
_U+30EC_U+30A4_U+30E4_U+30FC 1
 62
   179
420
  2234388
370
    25
100
AcDb2dPolyline
 66
     1
 10
0.0
 20
0.0
 30
0.0
  0
VERTEX
  5
52
330
51
100
AcDbEntity
  8
_U+30EC_U+30A4_U+30E4_U+30FC 1
 62
   179
420
  2234388
370
    25
100
AcDbVertex
100
AcDb2dVertex
 10
83.05401149222675
 20
-115.8921566376937
 30
0.0
  0
VERTEX
  5
53
330
51
100
AcDbEntity
  8
_U+30EC_U+30A4_U+30E4_U+30FC 1
 62
   179
420
  2234388
370
    25
100
AcDbVertex
100
AcDb2dVertex
 10
83.853970360707
 20
-115.8921566376937
 30
0.0
  0
SEQEND
  5
54
330
51
100
AcDbEntity
  8
_U+30EC_U+30A4_U+30E4_U+30FC 1
 62
   179
420
  2234388
370
    25
  0
POLYLINE
  5
55
330
1F
100
AcDbEntity
  8
_U+30EC_U+30A4_U+30E4_U+30FC 1
 62
   179
420
  2234388
370
    25
100
AcDb2dPolyline
 66
     1
 10
0.0
 20
0.0
 30
0.0
  0
VERTEX
  5
56
330
55
100
AcDbEntity
  8
_U+30EC_U+30A4_U+30E4_U+30FC 1
 62
   179
420
  2234388
370
    25
100
AcDbVertex
100
AcDb2dVertex
 10
102.0540576741619
 20
-134.0920680220323
 30
0.0
  0
VERTEX
  5
57
330
55
100
AcDbEntity
  8
_U+30EC_U+30A4_U+30E4_U+30FC 1
 62
   179
420
  2234388
370
    25
100
AcDbVertex
100
AcDb2dVertex
 10
102.0540576741619
 20
-134.8920269107215
 30
0.0
  0
SEQEND
  5
58
330
55
100
AcDbEntity
  8
_U+30EC_U+30A4_U+30E4_U+30FC 1
 62
   179
420
  2234388
370
    25
  0
SPLINE
  5
59
330
1F
100
AcDbEntity
  8
_U+30EC_U+30A4_U+30E4_U+30FC 1
 62
   179
420
  2234388
370
     9
100
AcDbSpline
210
0.0
220
0.0
230
1.0
 70
    11
 71
     3
 72
    17
 73
    13
 74
     0
 42
0.0000000001
 43
0.0000000001
 12
1.0
 22
0.0
 32
0.0
 13
1.0
 23
0.0
 33
0.0
 40
0.0
 40
0.0
 40
0.0
 40
0.0
 40
1.0
 40
1.0
 40
1.0
 40
2.0
 40
2.0
 40
2.0
 40
3.0
 40
3.0
 40
3.0
 40
4.0
 40
4.0
 40
4.0
 40
4.0
 10
106.1540761806728
 20
-134.8920269107215
 30
0.0
 10
106.1540761806728
 20
-134.8368877440685
 30
0.0
 10
106.109273404038
 20
-134.7921202440799
 30
0.0
 10
106.0541721957088
 20
-134.7921202440799
 30
0.0
 10
105.9987128513031
 20
-134.7921202440799
 30
0.0
 10
105.9539100746683
 20
-134.8368877440685
 30
0.0
 10
105.9539100746683
 20
-134.8920269107215
 30
0.0
 10
105.9539100746683
 20
-134.9471307995965
 30
0.0
 10
105.9987128513031
 20
-134.9919335773632
 30
0.0
 10
106.0541721957088
 20
-134.9919335773632
 30
0.0
 10
106.109273404038
 20
-134.9919335773632
 30
0.0
 10
106.1540761806728
 20
-134.9471307995965
 30
0.0
 10
106.1540761806728
 20
-134.8920269107215
 30
0.0
  0
SPLINE
  5
5A
330
1F
100
AcDbEntity
  8
_U+30EC_U+30A4_U+30E4_U+30FC 1
 62
   179
420
  2234388
370
     9
100
AcDbSpline
210
0.0
220
0.0
230
1.0
 70
    11
 71
     3
 72
    17
 73
    13
 74
     0
 42
0.0000000001
 43
0.0000000001
 12
1.0
 22
0.0
 32
0.0
 13
1.0
 23
0.0
 33
0.0
 40
0.0
 40
0.0
 40
0.0
 40
0.0
 40
1.0
 40
1.0
 40
1.0
 40
2.0
 40
2.0
 40
2.0
 40
3.0
 40
3.0
 40
3.0
 40
4.0
 40
4.0
 40
4.0
 40
4.0
 10
106.1540761806728
 20
-134.0920680220323
 30
0.0
 10
106.1540761806728
 20
-134.0369641331574
 30
0.0
 10
106.109273404038
 20
-133.9921613553906
 30
0.0
 10
106.0541721957088
 20
-133.9921613553906
 30
0.0
 10
105.9987128513031
 20
-133.9921613553906
 30
0.0
 10
105.9539100746683
 20
-134.0369641331574
 30
0.0
 10
105.9539100746683
 20
-134.0920680220323
 30
0.0
 10
105.9539100746683
 20
-134.1472071886854
 30
0.0
 10
105.9987128513031
 20
-134.1919746886739
 30
0.0
 10
106.0541721957088
 20
-134.1919746886739
 30
0.0
 10
106.109273404038
 20
-134.1919746886739
 30
0.0
 10
106.1540761806728
 20
-134.1472071886854
 30
0.0
 10
106.1540761806728
 20
-134.0920680220323
 30
0.0
  0
SPLINE
  5
5B
330
1F
100
AcDbEntity
  8
_U+30EC_U+30A4_U+30E4_U+30FC 1
 62
   179
420
  2234388
370
     9
100
AcDbSpline
210
0.0
220
0.0
230
1.0
 70
    11
 71
     3
 72
    17
 73
    13
 74
     0
 42
0.0000000001
 43
0.0000000001
 12
1.0
 22
0.0
 32
0.0
 13
1.0
 23
0.0
 33
0.0
 40
0.0
 40
0.0
 40
0.0
 40
0.0
 40
1.0
 40
1.0
 40
1.0
 40
2.0
 40
2.0
 40
2.0
 40
3.0
 40
3.0
 40
3.0
 40
4.0
 40
4.0
 40
4.0
 40
4.0
 10
102.1539643382797
 20
-138.8917860763884
 30
0.0
 10
102.1539643382797
 20
-138.8366469097354
 30
0.0
 10
102.1091968394218
 20
-138.7918794097468
 30
0.0
 10
102.0540576741619
 20
-138.7918794097468
 30
0.0
 10
101.99860100891
 20
-138.7918794097468
 30
0.0
 10
101.9537982322752
 20
-138.8366469097354
 30
0.0
 10
101.9537982322752
 20
-138.8917860763884
 30
0.0
 10
101.9537982322752
 20
-138.9475955208189
 30
0.0
 10
101.99860100891
 20
-138.9923630208074
 30
0.0
 10
102.0540576741619
 20
-138.9923630208074
 30
0.0
 10
102.1091968394218
 20
-138.9923630208074
 30
0.0
 10
102.1539643382797
 20
-138.9475955208189
 30
0.0
 10
102.1539643382797
 20
-138.8917860763884
 30
0.0
  0
SPLINE
  5
5C
330
1F
100
AcDbEntity
  8
_U+30EC_U+30A4_U+30E4_U+30FC 1
 62
   179
420
  2234388
370
     9
100
AcDbSpline
210
0.0
220
0.0
230
1.0
 70
    11
 71
     3
 72
    17
 73
    13
 74
     0
 42
0.0000000001
 43
0.0000000001
 12
1.0
 22
0.0
 32
0.0
 13
1.0
 23
0.0
 33
0.0
 40
0.0
 40
0.0
 40
0.0
 40
0.0
 40
1.0
 40
1.0
 40
1.0
 40
2.0
 40
2.0
 40
2.0
 40
3.0
 40
3.0
 40
3.0
 40
4.0
 40
4.0
 40
4.0
 40
4.0
 10
83.15391815634459
 20
-138.8917860763884
 30
0.0
 10
83.15391815634459
 20
-138.8366469097354
 30
0.0
 10
83.1091527570005
 20
-138.7918794097468
 30
0.0
 10
83.05401149222675
 20
-138.7918794097468
 30
0.0
 10
82.99890760474368
 20
-138.7918794097468
 30
0.0
 10
82.95410482810891
 20
-138.8366469097354
 30
0.0
 10
82.95410482810891
 20
-138.8917860763884
 30
0.0
 10
82.95410482810891
 20
-138.9475955208189
 30
0.0
 10
82.99890760474368
 20
-138.9923630208074
 30
0.0
 10
83.05401149222675
 20
-138.9923630208074
 30
0.0
 10
83.1091527570005
 20
-138.9923630208074
 30
0.0
 10
83.15391815634459
 20
-138.9475955208189
 30
0.0
 10
83.15391815634459
 20
-138.8917860763884
 30
0.0
  0
SPLINE
  5
5D
330
1F
100
AcDbEntity
  8
_U+30EC_U+30A4_U+30E4_U+30FC 1
 62
   179
420
  2234388
370
     9
100
AcDbSpline
210
0.0
220
0.0
230
1.0
 70
    11
 71
     3
 72
    17
 73
    13
 74
     0
 42
0.0000000001
 43
0.0000000001
 12
1.0
 22
0.0
 32
0.0
 13
1.0
 23
0.0
 33
0.0
 40
0.0
 40
0.0
 40
0.0
 40
0.0
 40
1.0
 40
1.0
 40
1.0
 40
2.0
 40
2.0
 40
2.0
 40
3.0
 40
3.0
 40
3.0
 40
4.0
 40
4.0
 40
4.0
 40
4.0
 10
79.15380831354474
 20
-134.8920269107215
 30
0.0
 10
79.15380831354474
 20
-134.8368877440685
 30
0.0
 10
79.10903881509361
 20
-134.7921202440799
 30
0.0
 10
79.05389964983367
 20
-134.7921202440799
 30
0.0
 10
78.9987957623506
 20
-134.7921202440799
 30
0.0
 10
78.95399298571583
 20
-134.8368877440685
 30
0.0
 10
78.95399298571583
 20
-134.8920269107215
 30
0.0
 10
78.95399298571583
 20
-134.9471307995965
 30
0.0
 10
78.9987957623506
 20
-134.9919335773632
 30
0.0
 10
79.05389964983367
 20
-134.9919335773632
 30
0.0
 10
79.10903881509361
 20
-134.9919335773632
 30
0.0
 10
79.15380831354474
 20
-134.9471307995965
 30
0.0
 10
79.15380831354474
 20
-134.8920269107215
 30
0.0
  0
SPLINE
  5
5E
330
1F
100
AcDbEntity
  8
_U+30EC_U+30A4_U+30E4_U+30FC 1
 62
   179
420
  2234388
370
     9
100
AcDbSpline
210
0.0
220
0.0
230
1.0
 70
    11
 71
     3
 72
    17
 73
    13
 74
     0
 42
0.0000000001
 43
0.0000000001
 12
1.0
 22
0.0
 32
0.0
 13
1.0
 23
0.0
 33
0.0
 40
0.0
 40
0.0
 40
0.0
 40
0.0
 40
1.0
 40
1.0
 40
1.0
 40
2.0
 40
2.0
 40
2.0
 40
3.0
 40
3.0
 40
3.0
 40
4.0
 40
4.0
 40
4.0
 40
4.0
 10
79.15380831354474
 20
-115.8921566376937
 30
0.0
 10
79.15380831354474
 20
-115.8366999710407
 30
0.0
 10
79.10903881509361
 20
-115.7918971932744
 30
0.0
 10
79.05389964983367
 20
-115.7918971932744
 30
0.0
 10
78.9987957623506
 20
-115.7918971932744
 30
0.0
 10
78.95399298571583
 20
-115.8366999710407
 30
0.0
 10
78.95399298571583
 20
-115.8921566376937
 30
0.0
 10
78.95399298571583
 20
-115.9472605265687
 30
0.0
 10
78.9987957623506
 20
-115.9920633043354
 30
0.0
 10
79.05389964983367
 20
-115.9920633043354
 30
0.0
 10
79.10903881509361
 20
-115.9920633043354
 30
0.0
 10
79.15380831354474
 20
-115.9472605265687
 30
0.0
 10
79.15380831354474
 20
-115.8921566376937
 30
0.0
  0
POLYLINE
  5
5F
330
1F
100
AcDbEntity
  8
_U+30EC_U+30A4_U+30E4_U+30FC 1
 62
   179
420
  2234388
370
     9
100
AcDb2dPolyline
 66
     1
 10
0.0
 20
0.0
 30
0.0
  0
VERTEX
  5
60
330
5F
100
AcDbEntity
  8
_U+30EC_U+30A4_U+30E4_U+30FC 1
 62
   179
420
  2234388
370
     9
100
AcDbVertex
100
AcDb2dVertex
 10
106.0541721957088
 20
-134.0920680220323
 30
0.0
  0
VERTEX
  5
61
330
5F
100
AcDbEntity
  8
_U+30EC_U+30A4_U+30E4_U+30FC 1
 62
   179
420
  2234388
370
     9
100
AcDbVertex
100
AcDb2dVertex
 10
106.0541721957088
 20
-128.8341621900134
 30
0.0
  0
SEQEND
  5
62
330
5F
100
AcDbEntity
  8
_U+30EC_U+30A4_U+30E4_U+30FC 1
 62
   179
420
  2234388
370
     9
  0
POLYLINE
  5
63
330
1F
100
AcDbEntity
  8
_U+30EC_U+30A4_U+30E4_U+30FC 1
 62
   179
420
  2234388
370
     9
100
AcDb2dPolyline
 66
     1
 10
0.0
 20
0.0
 30
0.0
  0
VERTEX
  5
64
330
63
100
AcDbEntity
  8
_U+30EC_U+30A4_U+30E4_U+30FC 1
 62
   179
420
  2234388
370
     9
100
AcDbVertex
100
AcDb2dVertex
 10
106.0541721957088
 20
-135.8917991326934
 30
0.0
  0
VERTEX
  5
65
330
63
100
AcDbEntity
  8
_U+30EC_U+30A4_U+30E4_U+30FC 1
 62
   179
420
  2234388
370
     9
100
AcDbVertex
100
AcDb2dVertex
 10
106.0541721957088
 20
-134.0920680220323
 30
0.0
  0
SEQEND
  5
66
330
63
100
AcDbEntity
  8
_U+30EC_U+30A4_U+30E4_U+30FC 1
 62
   179
420
  2234388
370
     9
  0
POLYLINE
  5
67
330
1F
100
AcDbEntity
  8
_U+30EC_U+30A4_U+30E4_U+30FC 1
 62
   179
420
  2234388
370
     9
100
AcDb2dPolyline
 66
     1
 10
0.0
 20
0.0
 30
0.0
  0
VERTEX
  5
68
330
67
100
AcDbEntity
  8
_U+30EC_U+30A4_U+30E4_U+30FC 1
 62
   179
420
  2234388
370
     9
100
AcDbVertex
100
AcDb2dVertex
 10
104.5941281649148
 20
-134.8920269107215
 30
0.0
  0
VERTEX
  5
69
330
67
100
AcDbEntity
  8
_U+30EC_U+30A4_U+30E4_U+30FC 1
 62
   179
420
  2234388
370
     9
100
AcDbVertex
100
AcDb2dVertex
 10
107.0539444176807
 20
-134.8920269107215
 30
0.0
  0
SEQEND
  5
6A
330
67
100
AcDbEntity
  8
_U+30EC_U+30A4_U+30E4_U+30FC 1
 62
   179
420
  2234388
370
     9
  0
POLYLINE
  5
6B
330
1F
100
AcDbEntity
  8
_U+30EC_U+30A4_U+30E4_U+30FC 1
 62
   179
420
  2234388
370
     9
100
AcDb2dPolyline
 66
     1
 10
0.0
 20
0.0
 30
0.0
  0
VERTEX
  5
6C
330
6B
100
AcDbEntity
  8
_U+30EC_U+30A4_U+30E4_U+30FC 1
 62
   179
420
  2234388
370
     9
100
AcDbVertex
100
AcDb2dVertex
 10
104.5941281649148
 20
-134.0920680220323
 30
0.0
  0
VERTEX
  5
6D
330
6B
100
AcDbEntity
  8
_U+30EC_U+30A4_U+30E4_U+30FC 1
 62
   179
420
  2234388
370
     9
100
AcDbVertex
100
AcDb2dVertex
 10
107.0539444176807
 20
-134.0920680220323
 30
0.0
  0
SEQEND
  5
6E
330
6B
100
AcDbEntity
  8
_U+30EC_U+30A4_U+30E4_U+30FC 1
 62
   179
420
  2234388
370
     9
  0
INSERT
  5
70
330
1F
100
AcDbEntity
  8
_U+30EC_U+30A4_U+30E4_U+30FC 1
100
AcDbBlockReference
  2
block 2
 10
0.0
 20
0.0
 30
0.0
  0
SPLINE
  5
82
330
1F
100
AcDbEntity
  8
_U+30EC_U+30A4_U+30E4_U+30FC 1
 62
   179
420
  2234388
370
    25
100
AcDbSpline
210
0.0
220
0.0
230
1.0
 70
    11
 71
     3
 72
    17
 73
    13
 74
     0
 42
0.0000000001
 43
0.0000000001
 12
1.0
 22
0.0
 32
0.0
 13
1.0
 23
0.0
 33
0.0
 40
0.0
 40
0.0
 40
0.0
 40
0.0
 40
1.0
 40
1.0
 40
1.0
 40
2.0
 40
2.0
 40
2.0
 40
3.0
 40
3.0
 40
3.0
 40
4.0
 40
4.0
 40
4.0
 40
4.0
 10
102.0891943399321
 20
-134.8920269107215
 30
0.0
 10
102.0891943399321
 20
-134.9113238551614
 30
0.0
 10
102.0737073958828
 20
-134.9271635773793
 30
0.0
 10
102.0540576741619
 20
-134.9271635773793
 30
0.0
 10
102.0344079524409
 20
-134.9271635773793
 30
0.0
 10
102.0185682306228
 20
-134.9113238551614
 30
0.0
 10
102.0185682306228
 20
-134.8920269107215
 30
0.0
 10
102.0185682306228
 20
-134.8727299662817
 30
0.0
 10
102.0344079524409
 20
-134.8568902440638
 30
0.0
 10
102.0540576741619
 20
-134.8568902440638
 30
0.0
 10
102.0737073958828
 20
-134.8568902440638
 30
0.0
 10
102.0891943399321
 20
-134.8727299662817
 30
0.0
 10
102.0891943399321
 20
-134.8920269107215
 30
0.0
  0
SPLINE
  5
83
330
1F
100
AcDbEntity
  8
_U+30EC_U+30A4_U+30E4_U+30FC 1
 62
   179
420
  2234388
370
    25
100
AcDbSpline
210
0.0
220
0.0
230
1.0
 70
    11
 71
     3
 72
    17
 73
    13
 74
     0
 42
0.0000000001
 43
0.0000000001
 12
1.0
 22
0.0
 32
0.0
 13
1.0
 23
0.0
 33
0.0
 40
0.0
 40
0.0
 40
0.0
 40
0.0
 40
1.0
 40
1.0
 40
1.0
 40
2.0
 40
2.0
 40
2.0
 40
3.0
 40
3.0
 40
3.0
 40
4.0
 40
4.0
 40
4.0
 40
4.0
 10
102.0891943399321
 20
-134.0920680220323
 30
0.0
 10
102.0891943399321
 20
-134.1113649664721
 30
0.0
 10
102.0737073958828
 20
-134.1272046886907
 30
0.0
 10
102.0540576741619
 20
-134.1272046886907
 30
0.0
 10
102.0344079524409
 20
-134.1272046886907
 30
0.0
 10
102.0185682306228
 20
-134.1113649664721
 30
0.0
 10
102.0185682306228
 20
-134.0920680220323
 30
0.0
 10
102.0185682306228
 20
-134.0727710775931
 30
0.0
 10
102.0344079524409
 20
-134.0569313553746
 30
0.0
 10
102.0540576741619
 20
-134.0569313553746
 30
0.0
 10
102.0737073958828
 20
-134.0569313553746
 30
0.0
 10
102.0891943399321
 20
-134.0727710775931
 30
0.0
 10
102.0891943399321
 20
-134.0920680220323
 30
0.0
  0
SPLINE
  5
84
330
1F
100
AcDbEntity
  8
_U+30EC_U+30A4_U+30E4_U+30FC 1
 62
   179
420
  2234388
370
     9
100
AcDbSpline
210
0.0
220
0.0
230
1.0
 70
    11
 71
     3
 72
    17
 73
    13
 74
     0
 42
0.0000000001
 43
0.0000000001
 12
1.0
 22
0.0
 32
0.0
 13
1.0
 23
0.0
 33
0.0
 40
0.0
 40
0.0
 40
0.0
 40
0.0
 40
1.0
 40
1.0
 40
1.0
 40
2.0
 40
2.0
 40
2.0
 40
3.0
 40
3.0
 40
3.0
 40
4.0
 40
4.0
 40
4.0
 40
4.0
 10
106.0893061823252
 20
-134.0920680220323
 30
0.0
 10
106.0893061823252
 20
-134.1113649664721
 30
0.0
 10
106.0734664605071
 20
-134.1272046886907
 30
0.0
 10
106.0541721957088
 20
-134.1272046886907
 30
0.0
 10
106.034519794834
 20
-134.1272046886907
 30
0.0
 10
106.0186800730159
 20
-134.1113649664721
 30
0.0
 10
106.0186800730159
 20
-134.0920680220323
 30
0.0
 10
106.0186800730159
 20
-134.0727710775931
 30
0.0
 10
106.034519794834
 20
-134.0569313553746
 30
0.0
 10
106.0541721957088
 20
-134.0569313553746
 30
0.0
 10
106.0734664605071
 20
-134.0569313553746
 30
0.0
 10
106.0893061823252
 20
-134.0727710775931
 30
0.0
 10
106.0893061823252
 20
-134.0920680220323
 30
0.0
  0
POLYLINE
  5
85
330
1F
100
AcDbEntity
  8
_U+30EC_U+30A4_U+30E4_U+30FC 1
 62
   179
420
  2234388
370
     9
100
AcDb2dPolyline
 66
     1
 10
0.0
 20
0.0
 30
0.0
  0
VERTEX
  5
86
330
85
100
AcDbEntity
  8
_U+30EC_U+30A4_U+30E4_U+30FC 1
 62
   179
420
  2234388
370
     9
100
AcDbVertex
100
AcDb2dVertex
 10
83.05401149222675
 20
-138.8917860763884
 30
0.0
  0
VERTEX
  5
87
330
85
100
AcDbEntity
  8
_U+30EC_U+30A4_U+30E4_U+30FC 1
 62
   179
420
  2234388
370
     9
100
AcDbVertex
100
AcDb2dVertex
 10
102.0540576741619
 20
-138.8917860763884
 30
0.0
  0
SEQEND
  5
88
330
85
100
AcDbEntity
  8
_U+30EC_U+30A4_U+30E4_U+30FC 1
 62
   179
420
  2234388
370
     9
  0
POLYLINE
  5
89
330
1F
100
AcDbEntity
  8
_U+30EC_U+30A4_U+30E4_U+30FC 1
 62
   179
420
  2234388
370
     9
100
AcDb2dPolyline
 66
     1
 10
0.0
 20
0.0
 30
0.0
  0
VERTEX
  5
8A
330
89
100
AcDbEntity
  8
_U+30EC_U+30A4_U+30E4_U+30FC 1
 62
   179
420
  2234388
370
     9
100
AcDbVertex
100
AcDb2dVertex
 10
83.05401149222675
 20
-137.4317446878641
 30
0.0
  0
VERTEX
  5
8B
330
89
100
AcDbEntity
  8
_U+30EC_U+30A4_U+30E4_U+30FC 1
 62
   179
420
  2234388
370
     9
100
AcDbVertex
100
AcDb2dVertex
 10
83.05401149222675
 20
-139.8922285761383
 30
0.0
  0
SEQEND
  5
8C
330
89
100
AcDbEntity
  8
_U+30EC_U+30A4_U+30E4_U+30FC 1
 62
   179
420
  2234388
370
     9
  0
POLYLINE
  5
8D
330
1F
100
AcDbEntity
  8
_U+30EC_U+30A4_U+30E4_U+30FC 1
 62
   179
420
  2234388
370
     9
100
AcDb2dPolyline
 66
     1
 10
0.0
 20
0.0
 30
0.0
  0
VERTEX
  5
8E
330
8D
100
AcDbEntity
  8
_U+30EC_U+30A4_U+30E4_U+30FC 1
 62
   179
420
  2234388
370
     9
100
AcDbVertex
100
AcDb2dVertex
 10
102.0540576741619
 20
-137.4317446878641
 30
0.0
  0
VERTEX
  5
8F
330
8D
100
AcDbEntity
  8
_U+30EC_U+30A4_U+30E4_U+30FC 1
 62
   179
420
  2234388
370
     9
100
AcDbVertex
100
AcDb2dVertex
 10
102.0540576741619
 20
-139.8922285761383
 30
0.0
  0
SEQEND
  5
90
330
8D
100
AcDbEntity
  8
_U+30EC_U+30A4_U+30E4_U+30FC 1
 62
   179
420
  2234388
370
     9
  0
INSERT
  5
92
330
1F
100
AcDbEntity
  8
_U+30EC_U+30A4_U+30E4_U+30FC 1
100
AcDbBlockReference
  2
block 3
 10
0.0
 20
0.0
 30
0.0
  0
SPLINE
  5
9A
330
1F
100
AcDbEntity
  8
_U+30EC_U+30A4_U+30E4_U+30FC 1
 62
   179
420
  2234388
370
    25
100
AcDbSpline
210
0.0
220
0.0
230
1.0
 70
    11
 71
     3
 72
    17
 73
    13
 74
     0
 42
0.0000000001
 43
0.0000000001
 12
1.0
 22
0.0
 32
0.0
 13
1.0
 23
0.0
 33
0.0
 40
0.0
 40
0.0
 40
0.0
 40
0.0
 40
1.0
 40
1.0
 40
1.0
 40
2.0
 40
2.0
 40
2.0
 40
3.0
 40
3.0
 40
3.0
 40
4.0
 40
4.0
 40
4.0
 40
4.0
 10
83.089148157997
 20
-134.8920269107215
 30
0.0
 10
83.089148157997
 20
-134.9113238551614
 30
0.0
 10
83.07330843617889
 20
-134.9271635773793
 30
0.0
 10
83.05401149222675
 20
-134.9271635773793
 30
0.0
 10
83.03471664590792
 20
-134.9271635773793
 30
0.0
 10
83.0188748264565
 20
-134.9113238551614
 30
0.0
 10
83.0188748264565
 20
-134.8920269107215
 30
0.0
 10
83.0188748264565
 20
-134.8727299662817
 30
0.0
 10
83.03471664590792
 20
-134.8568902440638
 30
0.0
 10
83.05401149222675
 20
-134.8568902440638
 30
0.0
 10
83.07330843617889
 20
-134.8568902440638
 30
0.0
 10
83.089148157997
 20
-134.8727299662817
 30
0.0
 10
83.089148157997
 20
-134.8920269107215
 30
0.0
  0
SPLINE
  5
9B
330
1F
100
AcDbEntity
  8
_U+30EC_U+30A4_U+30E4_U+30FC 1
 62
   179
420
  2234388
370
    25
100
AcDbSpline
210
0.0
220
0.0
230
1.0
 70
    11
 71
     3
 72
    17
 73
    13
 74
     0
 42
0.0000000001
 43
0.0000000001
 12
1.0
 22
0.0
 32
0.0
 13
1.0
 23
0.0
 33
0.0
 40
0.0
 40
0.0
 40
0.0
 40
0.0
 40
1.0
 40
1.0
 40
1.0
 40
2.0
 40
2.0
 40
2.0
 40
3.0
 40
3.0
 40
3.0
 40
4.0
 40
4.0
 40
4.0
 40
4.0
 10
102.0891943399321
 20
-134.8920269107215
 30
0.0
 10
102.0891943399321
 20
-134.9113238551614
 30
0.0
 10
102.0737073958828
 20
-134.9271635773793
 30
0.0
 10
102.0540576741619
 20
-134.9271635773793
 30
0.0
 10
102.0344079524409
 20
-134.9271635773793
 30
0.0
 10
102.0185682306228
 20
-134.9113238551614
 30
0.0
 10
102.0185682306228
 20
-134.8920269107215
 30
0.0
 10
102.0185682306228
 20
-134.8727299662817
 30
0.0
 10
102.0344079524409
 20
-134.8568902440638
 30
0.0
 10
102.0540576741619
 20
-134.8568902440638
 30
0.0
 10
102.0737073958828
 20
-134.8568902440638
 30
0.0
 10
102.0891943399321
 20
-134.8727299662817
 30
0.0
 10
102.0891943399321
 20
-134.8920269107215
 30
0.0
  0
SPLINE
  5
9C
330
1F
100
AcDbEntity
  8
_U+30EC_U+30A4_U+30E4_U+30FC 1
 62
   179
420
  2234388
370
     9
100
AcDbSpline
210
0.0
220
0.0
230
1.0
 70
    11
 71
     3
 72
    17
 73
    13
 74
     0
 42
0.0000000001
 43
0.0000000001
 12
1.0
 22
0.0
 32
0.0
 13
1.0
 23
0.0
 33
0.0
 40
0.0
 40
0.0
 40
0.0
 40
0.0
 40
1.0
 40
1.0
 40
1.0
 40
2.0
 40
2.0
 40
2.0
 40
3.0
 40
3.0
 40
3.0
 40
4.0
 40
4.0
 40
4.0
 40
4.0
 10
102.0891943399321
 20
-138.8917860763884
 30
0.0
 10
102.0891943399321
 20
-138.9117532986056
 30
0.0
 10
102.0737073958828
 20
-138.9275930208235
 30
0.0
 10
102.0540576741619
 20
-138.9275930208235
 30
0.0
 10
102.0344079524409
 20
-138.9275930208235
 30
0.0
 10
102.0185682306228
 20
-138.9117532986056
 30
0.0
 10
102.0185682306228
 20
-138.8917860763884
 30
0.0
 10
102.0185682306228
 20
-138.8724891319486
 30
0.0
 10
102.0344079524409
 20
-138.8566494097301
 30
0.0
 10
102.0540576741619
 20
-138.8566494097301
 30
0.0
 10
102.0737073958828
 20
-138.8566494097301
 30
0.0
 10
102.0891943399321
 20
-138.8724891319486
 30
0.0
 10
102.0891943399321
 20
-138.8917860763884
 30
0.0
  0
POLYLINE
  5
9D
330
1F
100
AcDbEntity
  8
_U+30EC_U+30A4_U+30E4_U+30FC 1
 62
   179
420
  2234388
370
     9
100
AcDb2dPolyline
 66
     1
 10
0.0
 20
0.0
 30
0.0
  0
VERTEX
  5
9E
330
9D
100
AcDbEntity
  8
_U+30EC_U+30A4_U+30E4_U+30FC 1
 62
   179
420
  2234388
370
     9
100
AcDbVertex
100
AcDb2dVertex
 10
79.05389964983367
 20
-115.8921566376937
 30
0.0
  0
VERTEX
  5
9F
330
9D
100
AcDbEntity
  8
_U+30EC_U+30A4_U+30E4_U+30FC 1
 62
   179
420
  2234388
370
     9
100
AcDbVertex
100
AcDb2dVertex
 10
79.05389964983367
 20
-134.8920269107215
 30
0.0
  0
SEQEND
  5
A0
330
9D
100
AcDbEntity
  8
_U+30EC_U+30A4_U+30E4_U+30FC 1
 62
   179
420
  2234388
370
     9
  0
POLYLINE
  5
A1
330
1F
100
AcDbEntity
  8
_U+30EC_U+30A4_U+30E4_U+30FC 1
 62
   179
420
  2234388
370
     9
100
AcDb2dPolyline
 66
     1
 10
0.0
 20
0.0
 30
0.0
  0
VERTEX
  5
A2
330
A1
100
AcDbEntity
  8
_U+30EC_U+30A4_U+30E4_U+30FC 1
 62
   179
420
  2234388
370
     9
100
AcDbVertex
100
AcDb2dVertex
 10
80.5139410014738
 20
-115.8921566376937
 30
0.0
  0
VERTEX
  5
A3
330
A1
100
AcDbEntity
  8
_U+30EC_U+30A4_U+30E4_U+30FC 1
 62
   179
420
  2234388
370
     9
100
AcDbVertex
100
AcDb2dVertex
 10
78.05416273089463
 20
-115.8921566376937
 30
0.0
  0
SEQEND
  5
A4
330
A1
100
AcDbEntity
  8
_U+30EC_U+30A4_U+30E4_U+30FC 1
 62
   179
420
  2234388
370
     9
  0
POLYLINE
  5
A5
330
1F
100
AcDbEntity
  8
_U+30EC_U+30A4_U+30E4_U+30FC 1
 62
   179
420
  2234388
370
     9
100
AcDb2dPolyline
 66
     1
 10
0.0
 20
0.0
 30
0.0
  0
VERTEX
  5
A6
330
A5
100
AcDbEntity
  8
_U+30EC_U+30A4_U+30E4_U+30FC 1
 62
   179
420
  2234388
370
     9
100
AcDbVertex
100
AcDb2dVertex
 10
80.5139410014738
 20
-134.8920269107215
 30
0.0
  0
VERTEX
  5
A7
330
A5
100
AcDbEntity
  8
_U+30EC_U+30A4_U+30E4_U+30FC 1
 62
   179
420
  2234388
370
     9
100
AcDbVertex
100
AcDb2dVertex
 10
78.05416273089463
 20
-134.8920269107215
 30
0.0
  0
SEQEND
  5
A8
330
A5
100
AcDbEntity
  8
_U+30EC_U+30A4_U+30E4_U+30FC 1
 62
   179
420
  2234388
370
     9
  0
INSERT
  5
AA
330
1F
100
AcDbEntity
  8
_U+30EC_U+30A4_U+30E4_U+30FC 1
100
AcDbBlockReference
  2
block 4
 10
0.0
 20
0.0
 30
0.0
  0
SPLINE
  5
B2
330
1F
100
AcDbEntity
  8
_U+30EC_U+30A4_U+30E4_U+30FC 1
 62
   179
420
  2234388
370
    25
100
AcDbSpline
210
0.0
220
0.0
230
1.0
 70
    11
 71
     3
 72
    17
 73
    13
 74
     0
 42
0.0000000001
 43
0.0000000001
 12
1.0
 22
0.0
 32
0.0
 13
1.0
 23
0.0
 33
0.0
 40
0.0
 40
0.0
 40
0.0
 40
0.0
 40
1.0
 40
1.0
 40
1.0
 40
2.0
 40
2.0
 40
2.0
 40
3.0
 40
3.0
 40
3.0
 40
4.0
 40
4.0
 40
4.0
 40
4.0
 10
83.089148157997
 20
-115.8921566376937
 30
0.0
 10
83.089148157997
 20
-115.9114535821333
 30
0.0
 10
83.07330843617889
 20
-115.9272933043515
 30
0.0
 10
83.05401149222675
 20
-115.9272933043515
 30
0.0
 10
83.03471664590792
 20
-115.9272933043515
 30
0.0
 10
83.0188748264565
 20
-115.9114535821333
 30
0.0
 10
83.0188748264565
 20
-115.8921566376937
 30
0.0
 10
83.0188748264565
 20
-115.8725069154765
 30
0.0
 10
83.03471664590792
 20
-115.8566671932579
 30
0.0
 10
83.05401149222675
 20
-115.8566671932579
 30
0.0
 10
83.07330843617889
 20
-115.8566671932579
 30
0.0
 10
83.089148157997
 20
-115.8725069154765
 30
0.0
 10
83.089148157997
 20
-115.8921566376937
 30
0.0
  0
SPLINE
  5
B3
330
1F
100
AcDbEntity
  8
_U+30EC_U+30A4_U+30E4_U+30FC 1
 62
   179
420
  2234388
370
    25
100
AcDbSpline
210
0.0
220
0.0
230
1.0
 70
    11
 71
     3
 72
    17
 73
    13
 74
     0
 42
0.0000000001
 43
0.0000000001
 12
1.0
 22
0.0
 32
0.0
 13
1.0
 23
0.0
 33
0.0
 40
0.0
 40
0.0
 40
0.0
 40
0.0
 40
1.0
 40
1.0
 40
1.0
 40
2.0
 40
2.0
 40
2.0
 40
3.0
 40
3.0
 40
3.0
 40
4.0
 40
4.0
 40
4.0
 40
4.0
 10
83.089148157997
 20
-134.8920269107215
 30
0.0
 10
83.089148157997
 20
-134.9113238551614
 30
0.0
 10
83.07330843617889
 20
-134.9271635773793
 30
0.0
 10
83.05401149222675
 20
-134.9271635773793
 30
0.0
 10
83.03471664590792
 20
-134.9271635773793
 30
0.0
 10
83.0188748264565
 20
-134.9113238551614
 30
0.0
 10
83.0188748264565
 20
-134.8920269107215
 30
0.0
 10
83.0188748264565
 20
-134.8727299662817
 30
0.0
 10
83.03471664590792
 20
-134.8568902440638
 30
0.0
 10
83.05401149222675
 20
-134.8568902440638
 30
0.0
 10
83.07330843617889
 20
-134.8568902440638
 30
0.0
 10
83.089148157997
 20
-134.8727299662817
 30
0.0
 10
83.089148157997
 20
-134.8920269107215
 30
0.0
  0
SPLINE
  5
B4
330
1F
100
AcDbEntity
  8
_U+30EC_U+30A4_U+30E4_U+30FC 1
 62
   179
420
  2234388
370
     9
100
AcDbSpline
210
0.0
220
0.0
230
1.0
 70
    11
 71
     3
 72
    17
 73
    13
 74
     0
 42
0.0000000001
 43
0.0000000001
 12
1.0
 22
0.0
 32
0.0
 13
1.0
 23
0.0
 33
0.0
 40
0.0
 40
0.0
 40
0.0
 40
0.0
 40
1.0
 40
1.0
 40
1.0
 40
2.0
 40
2.0
 40
2.0
 40
3.0
 40
3.0
 40
3.0
 40
4.0
 40
4.0
 40
4.0
 40
4.0
 10
79.0890715933808
 20
-134.8920269107215
 30
0.0
 10
79.0890715933808
 20
-134.9113238551614
 30
0.0
 10
79.0731965937858
 20
-134.9271635773793
 30
0.0
 10
79.05389964983367
 20
-134.9271635773793
 30
0.0
 10
79.0346379836584
 20
-134.9271635773793
 30
0.0
 10
79.0187629840634
 20
-134.9113238551614
 30
0.0
 10
79.0187629840634
 20
-134.8920269107215
 30
0.0
 10
79.0187629840634
 20
-134.8727299662817
 30
0.0
 10
79.0346379836584
 20
-134.8568902440638
 30
0.0
 10
79.05389964983367
 20
-134.8568902440638
 30
0.0
 10
79.0731965937858
 20
-134.8568902440638
 30
0.0
 10
79.0890715933808
 20
-134.8727299662817
 30
0.0
 10
79.0890715933808
 20
-134.8920269107215
 30
0.0
  0
SPLINE
  5
B5
330
1F
100
AcDbEntity
  8
_U+30EC_U+30A4_U+30E4_U+30FC 1
370
     0
100
AcDbSpline
210
0.0
220
0.0
230
1.0
 70
    11
 71
     3
 72
    35
 73
    31
 74
     0
 42
0.0000000001
 43
0.0000000001
 12
1.0
 22
0.0
 32
0.0
 13
1.0
 23
0.0
 33
0.0
 40
0.0
 40
0.0
 40
0.0
 40
0.0
 40
1.0
 40
1.0
 40
1.0
 40
2.0
 40
2.0
 40
2.0
 40
3.0
 40
3.0
 40
3.0
 40
4.0
 40
4.0
 40
4.0
 40
5.0
 40
5.0
 40
5.0
 40
6.0
 40
6.0
 40
6.0
 40
7.0
 40
7.0
 40
7.0
 40
8.0
 40
8.0
 40
8.0
 40
9.0
 40
9.0
 40
9.0
 40
10.0
 40
10.0
 40
10.0
 40
10.0
 10
102.0185682306228
 20
-134.0920680220323
 30
0.0
 10
102.0185682306228
 20
-134.0920680220323
 30
0.0
 10
83.853970360707
 20
-134.0920680220323
 30
0.0
 10
83.853970360707
 20
-134.0920680220323
 30
0.0
 10
83.853970360707
 20
-134.0920680220323
 30
0.0
 10
83.853970360707
 20
-115.8921566376937
 30
0.0
 10
83.853970360707
 20
-115.8921566376937
 30
0.0
 10
83.853970360707
 20
-115.8921566376937
 30
0.0
 10
83.089148157997
 20
-115.8921566376937
 30
0.0
 10
83.089148157997
 20
-115.8921566376937
 30
0.0
 10
83.089148157997
 20
-115.9114535821333
 30
0.0
 10
83.07330843617889
 20
-115.9272933043515
 30
0.0
 10
83.05401149222675
 20
-115.9272933043515
 30
0.0
 10
83.05401149222675
 20
-115.9272933043515
 30
0.0
 10
83.05401149222675
 20
-134.8568902440638
 30
0.0
 10
83.05401149222675
 20
-134.8568902440638
 30
0.0
 10
83.07330843617889
 20
-134.8568902440638
 30
0.0
 10
83.089148157997
 20
-134.8727299662817
 30
0.0
 10
83.089148157997
 20
-134.8920269107215
 30
0.0
 10
83.089148157997
 20
-134.8920269107215
 30
0.0
 10
102.0185682306228
 20
-134.8920269107215
 30
0.0
 10
102.0185682306228
 20
-134.8920269107215
 30
0.0
 10
102.0185682306228
 20
-134.8727299662817
 30
0.0
 10
102.0344079524409
 20
-134.8568902440638
 30
0.0
 10
102.0540576741619
 20
-134.8568902440638
 30
0.0
 10
102.0540576741619
 20
-134.8568902440638
 30
0.0
 10
102.0540576741619
 20
-134.1272046886907
 30
0.0
 10
102.0540576741619
 20
-134.1272046886907
 30
0.0
 10
102.0344079524409
 20
-134.1272046886907
 30
0.0
 10
102.0185682306228
 20
-134.1113649664721
 30
0.0
 10
102.0185682306228
 20
-134.0920680220323
 30
0.0
  0
HATCH
  5
B6
330
1F
100
AcDbEntity
  8
_U+30EC_U+30A4_U+30E4_U+30FC 1
 62
    54
420
 10196235
100
AcDbHatch
 10
0.0
 20
0.0
 30
0.0
210
0.0
220
0.0
230
1.0
  2
SOLID
 70
     1
 71
     0
 91
        1
 92
        1
 93
        1
 72
     4
 94
        3
 73
     0
 74
     1
 95
       35
 96
       31
 40
0.0
 40
0.0
 40
0.0
 40
0.0
 40
1.0
 40
1.0
 40
1.0
 40
2.0
 40
2.0
 40
2.0
 40
3.0
 40
3.0
 40
3.0
 40
4.0
 40
4.0
 40
4.0
 40
5.0
 40
5.0
 40
5.0
 40
6.0
 40
6.0
 40
6.0
 40
7.0
 40
7.0
 40
7.0
 40
8.0
 40
8.0
 40
8.0
 40
9.0
 40
9.0
 40
9.0
 40
10.0
 40
10.0
 40
10.0
 40
10.0
 10
102.0185682306228
 20
-134.0920680220323
 10
102.0185682306228
 20
-134.0920680220323
 10
83.853970360707
 20
-134.0920680220323
 10
83.853970360707
 20
-134.0920680220323
 10
83.853970360707
 20
-134.0920680220323
 10
83.853970360707
 20
-115.8921566376937
 10
83.853970360707
 20
-115.8921566376937
 10
83.853970360707
 20
-115.8921566376937
 10
83.089148157997
 20
-115.8921566376937
 10
83.089148157997
 20
-115.8921566376937
 10
83.089148157997
 20
-115.9114535821333
 10
83.07330843617889
 20
-115.9272933043515
 10
83.05401149222675
 20
-115.9272933043515
 10
83.05401149222675
 20
-115.9272933043515
 10
83.05401149222675
 20
-134.8568902440638
 10
83.05401149222675
 20
-134.8568902440638
 10
83.07330843617889
 20
-134.8568902440638
 10
83.089148157997
 20
-134.8727299662817
 10
83.089148157997
 20
-134.8920269107215
 10
83.089148157997
 20
-134.8920269107215
 10
102.0185682306228
 20
-134.8920269107215
 10
102.0185682306228
 20
-134.8920269107215
 10
102.0185682306228
 20
-134.8727299662817
 10
102.0344079524409
 20
-134.8568902440638
 10
102.0540576741619
 20
-134.8568902440638
 10
102.0540576741619
 20
-134.8568902440638
 10
102.0540576741619
 20
-134.1272046886907
 10
102.0540576741619
 20
-134.1272046886907
 10
102.0344079524409
 20
-134.1272046886907
 10
102.0185682306228
 20
-134.1113649664721
 10
102.0185682306228
 20
-134.0920680220323
 97
        0
 97
        0
 75
     2
 76
     1
 98
        0
  0
SPLINE
  5
B7
330
1F
100
AcDbEntity
  8
_U+30EC_U+30A4_U+30E4_U+30FC 1
370
     0
100
AcDbSpline
210
0.0
220
0.0
230
1.0
 70
    11
 71
     3
 72
    20
 73
    16
 74
     0
 42
0.0000000001
 43
0.0000000001
 12
1.0
 22
0.0
 32
0.0
 13
1.0
 23
0.0
 33
0.0
 40
0.0
 40
0.0
 40
0.0
 40
0.0
 40
1.0
 40
1.0
 40
1.0
 40
2.0
 40
2.0
 40
2.0
 40
3.0
 40
3.0
 40
3.0
 40
4.0
 40
4.0
 40
4.0
 40
5.0
 40
5.0
 40
5.0
 40
5.0
 10
102.0540576741619
 20
-134.1272046886907
 30
0.0
 10
102.0737073958828
 20
-134.1272046886907
 30
0.0
 10
102.0891943399321
 20
-134.1113649664721
 30
0.0
 10
102.0891943399321
 20
-134.0920680220323
 30
0.0
 10
102.0891943399321
 20
-134.0727710775931
 30
0.0
 10
102.0737073958828
 20
-134.0569313553746
 30
0.0
 10
102.0540576741619
 20
-134.0569313553746
 30
0.0
 10
102.0344079524409
 20
-134.0569313553746
 30
0.0
 10
102.0185682306228
 20
-134.0727710775931
 30
0.0
 10
102.0185682306228
 20
-134.0920680220323
 30
0.0
 10
102.0185682306228
 20
-134.0920680220323
 30
0.0
 10
102.0540576741619
 20
-134.0920680220323
 30
0.0
 10
102.0540576741619
 20
-134.0920680220323
 30
0.0
 10
102.0540576741619
 20
-134.0920680220323
 30
0.0
 10
102.0540576741619
 20
-134.1272046886907
 30
0.0
 10
102.0540576741619
 20
-134.1272046886907
 30
0.0
  0
HATCH
  5
B8
330
1F
100
AcDbEntity
  8
_U+30EC_U+30A4_U+30E4_U+30FC 1
 62
    54
420
 10196235
100
AcDbHatch
 10
0.0
 20
0.0
 30
0.0
210
0.0
220
0.0
230
1.0
  2
SOLID
 70
     1
 71
     0
 91
        1
 92
        1
 93
        1
 72
     4
 94
        3
 73
     0
 74
     1
 95
       20
 96
       16
 40
0.0
 40
0.0
 40
0.0
 40
0.0
 40
1.0
 40
1.0
 40
1.0
 40
2.0
 40
2.0
 40
2.0
 40
3.0
 40
3.0
 40
3.0
 40
4.0
 40
4.0
 40
4.0
 40
5.0
 40
5.0
 40
5.0
 40
5.0
 10
102.0540576741619
 20
-134.1272046886907
 10
102.0737073958828
 20
-134.1272046886907
 10
102.0891943399321
 20
-134.1113649664721
 10
102.0891943399321
 20
-134.0920680220323
 10
102.0891943399321
 20
-134.0727710775931
 10
102.0737073958828
 20
-134.0569313553746
 10
102.0540576741619
 20
-134.0569313553746
 10
102.0344079524409
 20
-134.0569313553746
 10
102.0185682306228
 20
-134.0727710775931
 10
102.0185682306228
 20
-134.0920680220323
 10
102.0185682306228
 20
-134.0920680220323
 10
102.0540576741619
 20
-134.0920680220323
 10
102.0540576741619
 20
-134.0920680220323
 10
102.0540576741619
 20
-134.0920680220323
 10
102.0540576741619
 20
-134.1272046886907
 10
102.0540576741619
 20
-134.1272046886907
 97
        0
 97
        0
 75
     2
 76
     1
 98
        0
  0
SPLINE
  5
B9
330
1F
100
AcDbEntity
  8
_U+30EC_U+30A4_U+30E4_U+30FC 1
370
     0
100
AcDbSpline
210
0.0
220
0.0
230
1.0
 70
    11
 71
     3
 72
    14
 73
    10
 74
     0
 42
0.0000000001
 43
0.0000000001
 12
1.0
 22
0.0
 32
0.0
 13
1.0
 23
0.0
 33
0.0
 40
0.0
 40
0.0
 40
0.0
 40
0.0
 40
1.0
 40
1.0
 40
1.0
 40
2.0
 40
2.0
 40
2.0
 40
3.0
 40
3.0
 40
3.0
 40
3.0
 10
102.0540576741619
 20
-134.1272046886907
 30
0.0
 10
102.0540576741619
 20
-134.1272046886907
 30
0.0
 10
102.0540576741619
 20
-134.0920680220323
 30
0.0
 10
102.0540576741619
 20
-134.0920680220323
 30
0.0
 10
102.0540576741619
 20
-134.0920680220323
 30
0.0
 10
102.0185682306228
 20
-134.0920680220323
 30
0.0
 10
102.0185682306228
 20
-134.0920680220323
 30
0.0
 10
102.0185682306228
 20
-134.1113649664721
 30
0.0
 10
102.0344079524409
 20
-134.1272046886907
 30
0.0
 10
102.0540576741619
 20
-134.1272046886907
 30
0.0
  0
HATCH
  5
BA
330
1F
100
AcDbEntity
  8
_U+30EC_U+30A4_U+30E4_U+30FC 1
 62
    54
420
 10196235
100
AcDbHatch
 10
0.0
 20
0.0
 30
0.0
210
0.0
220
0.0
230
1.0
  2
SOLID
 70
     1
 71
     0
 91
        1
 92
        1
 93
        1
 72
     4
 94
        3
 73
     0
 74
     1
 95
       14
 96
       10
 40
0.0
 40
0.0
 40
0.0
 40
0.0
 40
1.0
 40
1.0
 40
1.0
 40
2.0
 40
2.0
 40
2.0
 40
3.0
 40
3.0
 40
3.0
 40
3.0
 10
102.0540576741619
 20
-134.1272046886907
 10
102.0540576741619
 20
-134.1272046886907
 10
102.0540576741619
 20
-134.0920680220323
 10
102.0540576741619
 20
-134.0920680220323
 10
102.0540576741619
 20
-134.0920680220323
 10
102.0185682306228
 20
-134.0920680220323
 10
102.0185682306228
 20
-134.0920680220323
 10
102.0185682306228
 20
-134.1113649664721
 10
102.0344079524409
 20
-134.1272046886907
 10
102.0540576741619
 20
-134.1272046886907
 97
        0
 97
        0
 75
     2
 76
     1
 98
        0
  0
SPLINE
  5
BB
330
1F
100
AcDbEntity
  8
_U+30EC_U+30A4_U+30E4_U+30FC 1
370
     0
100
AcDbSpline
210
0.0
220
0.0
230
1.0
 70
    11
 71
     3
 72
    20
 73
    16
 74
     0
 42
0.0000000001
 43
0.0000000001
 12
1.0
 22
0.0
 32
0.0
 13
1.0
 23
0.0
 33
0.0
 40
0.0
 40
0.0
 40
0.0
 40
0.0
 40
1.0
 40
1.0
 40
1.0
 40
2.0
 40
2.0
 40
2.0
 40
3.0
 40
3.0
 40
3.0
 40
4.0
 40
4.0
 40
4.0
 40
5.0
 40
5.0
 40
5.0
 40
5.0
 10
102.0185682306228
 20
-134.8920269107215
 30
0.0
 10
102.0185682306228
 20
-134.9113238551614
 30
0.0
 10
102.0344079524409
 20
-134.9271635773793
 30
0.0
 10
102.0540576741619
 20
-134.9271635773793
 30
0.0
 10
102.0737073958828
 20
-134.9271635773793
 30
0.0
 10
102.0891943399321
 20
-134.9113238551614
 30
0.0
 10
102.0891943399321
 20
-134.8920269107215
 30
0.0
 10
102.0891943399321
 20
-134.8727299662817
 30
0.0
 10
102.0737073958828
 20
-134.8568902440638
 30
0.0
 10
102.0540576741619
 20
-134.8568902440638
 30
0.0
 10
102.0540576741619
 20
-134.8568902440638
 30
0.0
 10
102.0540576741619
 20
-134.8920269107215
 30
0.0
 10
102.0540576741619
 20
-134.8920269107215
 30
0.0
 10
102.0540576741619
 20
-134.8920269107215
 30
0.0
 10
102.0185682306228
 20
-134.8920269107215
 30
0.0
 10
102.0185682306228
 20
-134.8920269107215
 30
0.0
  0
HATCH
  5
BC
330
1F
100
AcDbEntity
  8
_U+30EC_U+30A4_U+30E4_U+30FC 1
 62
    54
420
 10196235
100
AcDbHatch
 10
0.0
 20
0.0
 30
0.0
210
0.0
220
0.0
230
1.0
  2
SOLID
 70
     1
 71
     0
 91
        1
 92
        1
 93
        1
 72
     4
 94
        3
 73
     0
 74
     1
 95
       20
 96
       16
 40
0.0
 40
0.0
 40
0.0
 40
0.0
 40
1.0
 40
1.0
 40
1.0
 40
2.0
 40
2.0
 40
2.0
 40
3.0
 40
3.0
 40
3.0
 40
4.0
 40
4.0
 40
4.0
 40
5.0
 40
5.0
 40
5.0
 40
5.0
 10
102.0185682306228
 20
-134.8920269107215
 10
102.0185682306228
 20
-134.9113238551614
 10
102.0344079524409
 20
-134.9271635773793
 10
102.0540576741619
 20
-134.9271635773793
 10
102.0737073958828
 20
-134.9271635773793
 10
102.0891943399321
 20
-134.9113238551614
 10
102.0891943399321
 20
-134.8920269107215
 10
102.0891943399321
 20
-134.8727299662817
 10
102.0737073958828
 20
-134.8568902440638
 10
102.0540576741619
 20
-134.8568902440638
 10
102.0540576741619
 20
-134.8568902440638
 10
102.0540576741619
 20
-134.8920269107215
 10
102.0540576741619
 20
-134.8920269107215
 10
102.0540576741619
 20
-134.8920269107215
 10
102.0185682306228
 20
-134.8920269107215
 10
102.0185682306228
 20
-134.8920269107215
 97
        0
 97
        0
 75
     2
 76
     1
 98
        0
  0
SPLINE
  5
BD
330
1F
100
AcDbEntity
  8
_U+30EC_U+30A4_U+30E4_U+30FC 1
370
     0
100
AcDbSpline
210
0.0
220
0.0
230
1.0
 70
    11
 71
     3
 72
    14
 73
    10
 74
     0
 42
0.0000000001
 43
0.0000000001
 12
1.0
 22
0.0
 32
0.0
 13
1.0
 23
0.0
 33
0.0
 40
0.0
 40
0.0
 40
0.0
 40
0.0
 40
1.0
 40
1.0
 40
1.0
 40
2.0
 40
2.0
 40
2.0
 40
3.0
 40
3.0
 40
3.0
 40
3.0
 10
102.0185682306228
 20
-134.8920269107215
 30
0.0
 10
102.0185682306228
 20
-134.8920269107215
 30
0.0
 10
102.0540576741619
 20
-134.8920269107215
 30
0.0
 10
102.0540576741619
 20
-134.8920269107215
 30
0.0
 10
102.0540576741619
 20
-134.8920269107215
 30
0.0
 10
102.0540576741619
 20
-134.8568902440638
 30
0.0
 10
102.0540576741619
 20
-134.8568902440638
 30
0.0
 10
102.0344079524409
 20
-134.8568902440638
 30
0.0
 10
102.0185682306228
 20
-134.8727299662817
 30
0.0
 10
102.0185682306228
 20
-134.8920269107215
 30
0.0
  0
HATCH
  5
BE
330
1F
100
AcDbEntity
  8
_U+30EC_U+30A4_U+30E4_U+30FC 1
 62
    54
420
 10196235
100
AcDbHatch
 10
0.0
 20
0.0
 30
0.0
210
0.0
220
0.0
230
1.0
  2
SOLID
 70
     1
 71
     0
 91
        1
 92
        1
 93
        1
 72
     4
 94
        3
 73
     0
 74
     1
 95
       14
 96
       10
 40
0.0
 40
0.0
 40
0.0
 40
0.0
 40
1.0
 40
1.0
 40
1.0
 40
2.0
 40
2.0
 40
2.0
 40
3.0
 40
3.0
 40
3.0
 40
3.0
 10
102.0185682306228
 20
-134.8920269107215
 10
102.0185682306228
 20
-134.8920269107215
 10
102.0540576741619
 20
-134.8920269107215
 10
102.0540576741619
 20
-134.8920269107215
 10
102.0540576741619
 20
-134.8920269107215
 10
102.0540576741619
 20
-134.8568902440638
 10
102.0540576741619
 20
-134.8568902440638
 10
102.0344079524409
 20
-134.8568902440638
 10
102.0185682306228
 20
-134.8727299662817
 10
102.0185682306228
 20
-134.8920269107215
 97
        0
 97
        0
 75
     2
 76
     1
 98
        0
  0
SPLINE
  5
BF
330
1F
100
AcDbEntity
  8
_U+30EC_U+30A4_U+30E4_U+30FC 1
370
     0
100
AcDbSpline
210
0.0
220
0.0
230
1.0
 70
    11
 71
     3
 72
    20
 73
    16
 74
     0
 42
0.0000000001
 43
0.0000000001
 12
1.0
 22
0.0
 32
0.0
 13
1.0
 23
0.0
 33
0.0
 40
0.0
 40
0.0
 40
0.0
 40
0.0
 40
1.0
 40
1.0
 40
1.0
 40
2.0
 40
2.0
 40
2.0
 40
3.0
 40
3.0
 40
3.0
 40
4.0
 40
4.0
 40
4.0
 40
5.0
 40
5.0
 40
5.0
 40
5.0
 10
83.089148157997
 20
-115.8921566376937
 30
0.0
 10
83.089148157997
 20
-115.8725069154765
 30
0.0
 10
83.07330843617889
 20
-115.8566671932579
 30
0.0
 10
83.05401149222675
 20
-115.8566671932579
 30
0.0
 10
83.03471664590792
 20
-115.8566671932579
 30
0.0
 10
83.0188748264565
 20
-115.8725069154765
 30
0.0
 10
83.0188748264565
 20
-115.8921566376937
 30
0.0
 10
83.0188748264565
 20
-115.9114535821333
 30
0.0
 10
83.03471664590792
 20
-115.9272933043515
 30
0.0
 10
83.05401149222675
 20
-115.9272933043515
 30
0.0
 10
83.05401149222675
 20
-115.9272933043515
 30
0.0
 10
83.05401149222675
 20
-115.8921566376937
 30
0.0
 10
83.05401149222675
 20
-115.8921566376937
 30
0.0
 10
83.05401149222675
 20
-115.8921566376937
 30
0.0
 10
83.089148157997
 20
-115.8921566376937
 30
0.0
 10
83.089148157997
 20
-115.8921566376937
 30
0.0
  0
HATCH
  5
C0
330
1F
100
AcDbEntity
  8
_U+30EC_U+30A4_U+30E4_U+30FC 1
 62
    52
420
 14268416
100
AcDbHatch
 10
0.0
 20
0.0
 30
0.0
210
0.0
220
0.0
230
1.0
  2
SOLID
 70
     1
 71
     0
 91
        1
 92
        1
 93
        1
 72
     4
 94
        3
 73
     0
 74
     1
 95
       20
 96
       16
 40
0.0
 40
0.0
 40
0.0
 40
0.0
 40
1.0
 40
1.0
 40
1.0
 40
2.0
 40
2.0
 40
2.0
 40
3.0
 40
3.0
 40
3.0
 40
4.0
 40
4.0
 40
4.0
 40
5.0
 40
5.0
 40
5.0
 40
5.0
 10
83.089148157997
 20
-115.8921566376937
 10
83.089148157997
 20
-115.8725069154765
 10
83.07330843617889
 20
-115.8566671932579
 10
83.05401149222675
 20
-115.8566671932579
 10
83.03471664590792
 20
-115.8566671932579
 10
83.0188748264565
 20
-115.8725069154765
 10
83.0188748264565
 20
-115.8921566376937
 10
83.0188748264565
 20
-115.9114535821333
 10
83.03471664590792
 20
-115.9272933043515
 10
83.05401149222675
 20
-115.9272933043515
 10
83.05401149222675
 20
-115.9272933043515
 10
83.05401149222675
 20
-115.8921566376937
 10
83.05401149222675
 20
-115.8921566376937
 10
83.05401149222675
 20
-115.8921566376937
 10
83.089148157997
 20
-115.8921566376937
 10
83.089148157997
 20
-115.8921566376937
 97
        0
 97
        0
 75
     2
 76
     1
 98
        0
  0
SPLINE
  5
C1
330
1F
100
AcDbEntity
  8
_U+30EC_U+30A4_U+30E4_U+30FC 1
370
     0
100
AcDbSpline
210
0.0
220
0.0
230
1.0
 70
    11
 71
     3
 72
    14
 73
    10
 74
     0
 42
0.0000000001
 43
0.0000000001
 12
1.0
 22
0.0
 32
0.0
 13
1.0
 23
0.0
 33
0.0
 40
0.0
 40
0.0
 40
0.0
 40
0.0
 40
1.0
 40
1.0
 40
1.0
 40
2.0
 40
2.0
 40
2.0
 40
3.0
 40
3.0
 40
3.0
 40
3.0
 10
83.089148157997
 20
-115.8921566376937
 30
0.0
 10
83.089148157997
 20
-115.8921566376937
 30
0.0
 10
83.05401149222675
 20
-115.8921566376937
 30
0.0
 10
83.05401149222675
 20
-115.8921566376937
 30
0.0
 10
83.05401149222675
 20
-115.8921566376937
 30
0.0
 10
83.05401149222675
 20
-115.9272933043515
 30
0.0
 10
83.05401149222675
 20
-115.9272933043515
 30
0.0
 10
83.07330843617889
 20
-115.9272933043515
 30
0.0
 10
83.089148157997
 20
-115.9114535821333
 30
0.0
 10
83.089148157997
 20
-115.8921566376937
 30
0.0
  0
HATCH
  5
C2
330
1F
100
AcDbEntity
  8
_U+30EC_U+30A4_U+30E4_U+30FC 1
 62
    52
420
 14268416
100
AcDbHatch
 10
0.0
 20
0.0
 30
0.0
210
0.0
220
0.0
230
1.0
  2
SOLID
 70
     1
 71
     0
 91
        1
 92
        1
 93
        1
 72
     4
 94
        3
 73
     0
 74
     1
 95
       14
 96
       10
 40
0.0
 40
0.0
 40
0.0
 40
0.0
 40
1.0
 40
1.0
 40
1.0
 40
2.0
 40
2.0
 40
2.0
 40
3.0
 40
3.0
 40
3.0
 40
3.0
 10
83.089148157997
 20
-115.8921566376937
 10
83.089148157997
 20
-115.8921566376937
 10
83.05401149222675
 20
-115.8921566376937
 10
83.05401149222675
 20
-115.8921566376937
 10
83.05401149222675
 20
-115.8921566376937
 10
83.05401149222675
 20
-115.9272933043515
 10
83.05401149222675
 20
-115.9272933043515
 10
83.07330843617889
 20
-115.9272933043515
 10
83.089148157997
 20
-115.9114535821333
 10
83.089148157997
 20
-115.8921566376937
 97
        0
 97
        0
 75
     2
 76
     1
 98
        0
  0
SPLINE
  5
C3
330
1F
100
AcDbEntity
  8
_U+30EC_U+30A4_U+30E4_U+30FC 1
370
     0
100
AcDbSpline
210
0.0
220
0.0
230
1.0
 70
    11
 71
     3
 72
    14
 73
    10
 74
     0
 42
0.0000000001
 43
0.0000000001
 12
1.0
 22
0.0
 32
0.0
 13
1.0
 23
0.0
 33
0.0
 40
0.0
 40
0.0
 40
0.0
 40
0.0
 40
1.0
 40
1.0
 40
1.0
 40
2.0
 40
2.0
 40
2.0
 40
3.0
 40
3.0
 40
3.0
 40
3.0
 10
83.05401149222675
 20
-134.8568902440638
 30
0.0
 10
83.05401149222675
 20
-134.8568902440638
 30
0.0
 10
83.05401149222675
 20
-134.8920269107215
 30
0.0
 10
83.05401149222675
 20
-134.8920269107215
 30
0.0
 10
83.05401149222675
 20
-134.8920269107215
 30
0.0
 10
83.089148157997
 20
-134.8920269107215
 30
0.0
 10
83.089148157997
 20
-134.8920269107215
 30
0.0
 10
83.089148157997
 20
-134.8727299662817
 30
0.0
 10
83.07330843617889
 20
-134.8568902440638
 30
0.0
 10
83.05401149222675
 20
-134.8568902440638
 30
0.0
  0
HATCH
  5
C4
330
1F
100
AcDbEntity
  8
_U+30EC_U+30A4_U+30E4_U+30FC 1
 62
    54
420
 10196235
100
AcDbHatch
 10
0.0
 20
0.0
 30
0.0
210
0.0
220
0.0
230
1.0
  2
SOLID
 70
     1
 71
     0
 91
        1
 92
        1
 93
        1
 72
     4
 94
        3
 73
     0
 74
     1
 95
       14
 96
       10
 40
0.0
 40
0.0
 40
0.0
 40
0.0
 40
1.0
 40
1.0
 40
1.0
 40
2.0
 40
2.0
 40
2.0
 40
3.0
 40
3.0
 40
3.0
 40
3.0
 10
83.05401149222675
 20
-134.8568902440638
 10
83.05401149222675
 20
-134.8568902440638
 10
83.05401149222675
 20
-134.8920269107215
 10
83.05401149222675
 20
-134.8920269107215
 10
83.05401149222675
 20
-134.8920269107215
 10
83.089148157997
 20
-134.8920269107215
 10
83.089148157997
 20
-134.8920269107215
 10
83.089148157997
 20
-134.8727299662817
 10
83.07330843617889
 20
-134.8568902440638
 10
83.05401149222675
 20
-134.8568902440638
 97
        0
 97
        0
 75
     2
 76
     1
 98
        0
  0
SPLINE
  5
C5
330
1F
100
AcDbEntity
  8
_U+30EC_U+30A4_U+30E4_U+30FC 1
370
     0
100
AcDbSpline
210
0.0
220
0.0
230
1.0
 70
    11
 71
     3
 72
    20
 73
    16
 74
     0
 42
0.0000000001
 43
0.0000000001
 12
1.0
 22
0.0
 32
0.0
 13
1.0
 23
0.0
 33
0.0
 40
0.0
 40
0.0
 40
0.0
 40
0.0
 40
1.0
 40
1.0
 40
1.0
 40
2.0
 40
2.0
 40
2.0
 40
3.0
 40
3.0
 40
3.0
 40
4.0
 40
4.0
 40
4.0
 40
5.0
 40
5.0
 40
5.0
 40
5.0
 10
83.05401149222675
 20
-134.8568902440638
 30
0.0
 10
83.03471664590792
 20
-134.8568902440638
 30
0.0
 10
83.0188748264565
 20
-134.8727299662817
 30
0.0
 10
83.0188748264565
 20
-134.8920269107215
 30
0.0
 10
83.0188748264565
 20
-134.9113238551614
 30
0.0
 10
83.03471664590792
 20
-134.9271635773793
 30
0.0
 10
83.05401149222675
 20
-134.9271635773793
 30
0.0
 10
83.07330843617889
 20
-134.9271635773793
 30
0.0
 10
83.089148157997
 20
-134.9113238551614
 30
0.0
 10
83.089148157997
 20
-134.8920269107215
 30
0.0
 10
83.089148157997
 20
-134.8920269107215
 30
0.0
 10
83.05401149222675
 20
-134.8920269107215
 30
0.0
 10
83.05401149222675
 20
-134.8920269107215
 30
0.0
 10
83.05401149222675
 20
-134.8920269107215
 30
0.0
 10
83.05401149222675
 20
-134.8568902440638
 30
0.0
 10
83.05401149222675
 20
-134.8568902440638
 30
0.0
  0
HATCH
  5
C6
330
1F
100
AcDbEntity
  8
_U+30EC_U+30A4_U+30E4_U+30FC 1
 62
    54
420
 10196235
100
AcDbHatch
 10
0.0
 20
0.0
 30
0.0
210
0.0
220
0.0
230
1.0
  2
SOLID
 70
     1
 71
     0
 91
        1
 92
        1
 93
        1
 72
     4
 94
        3
 73
     0
 74
     1
 95
       20
 96
       16
 40
0.0
 40
0.0
 40
0.0
 40
0.0
 40
1.0
 40
1.0
 40
1.0
 40
2.0
 40
2.0
 40
2.0
 40
3.0
 40
3.0
 40
3.0
 40
4.0
 40
4.0
 40
4.0
 40
5.0
 40
5.0
 40
5.0
 40
5.0
 10
83.05401149222675
 20
-134.8568902440638
 10
83.03471664590792
 20
-134.8568902440638
 10
83.0188748264565
 20
-134.8727299662817
 10
83.0188748264565
 20
-134.8920269107215
 10
83.0188748264565
 20
-134.9113238551614
 10
83.03471664590792
 20
-134.9271635773793
 10
83.05401149222675
 20
-134.9271635773793
 10
83.07330843617889
 20
-134.9271635773793
 10
83.089148157997
 20
-134.9113238551614
 10
83.089148157997
 20
-134.8920269107215
 10
83.089148157997
 20
-134.8920269107215
 10
83.05401149222675
 20
-134.8920269107215
 10
83.05401149222675
 20
-134.8920269107215
 10
83.05401149222675
 20
-134.8920269107215
 10
83.05401149222675
 20
-134.8568902440638
 10
83.05401149222675
 20
-134.8568902440638
 97
        0
 97
        0
 75
     2
 76
     1
 98
        0
  0
ENDSEC
  0
SECTION
  2
OBJECTS
  0
DICTIONARY
  5
C
330
0
100
AcDbDictionary
281
     1
  3
ACAD_GROUP
350
D
  3
ACAD_LAYOUT
350
1A
  3
ACAD_MATERIAL
350
3B
  3
ACAD_MLEADERSTYLE
350
C8
  3
ACAD_MLINESTYLE
350
17
  3
ACAD_PLOTSETTINGS
350
19
  3
ACAD_PLOTSTYLENAME
350
E
  3
ACAD_TABLESTYLE
350
C7
  3
ACAD_VISUALSTYLE
350
2A
  0
SUN
  5
3F
330
29
100
AcDbSun
 90
        1
290
     0
 63
     7
421
 16777215
 40
1.0
291
     1
 91
  2455826
 92
 54000000
292
     0
 70
     2
 71
   256
280
     1
  0
DICTIONARY
  5
D
102
{ACAD_REACTORS
330
C
102
}
330
C
100
AcDbDictionary
281
     1
  0
DICTIONARY
  5
1A
102
{ACAD_REACTORS
330
C
102
}
330
C
100
AcDbDictionary
281
     1
  3
Layout1
350
1E
  3
Layout2
350
26
  3
Model
350
22
  0
DICTIONARY
  5
3B
102
{ACAD_REACTORS
330
C
102
}
330
C
100
AcDbDictionary
281
     1
  3
ByBlock
350
3D
  3
ByLayer
350
3C
  3
Global
350
3E
  0
DICTIONARY
  5
C8
102
{ACAD_REACTORS
330
C
102
}
330
C
100
AcDbDictionary
281
     1
  0
DICTIONARY
  5
17
102
{ACAD_REACTORS
330
C
102
}
330
C
100
AcDbDictionary
281
     1
  3
Standard
350
18
  0
DICTIONARY
  5
19
102
{ACAD_REACTORS
330
C
102
}
330
C
100
AcDbDictionary
281
     1
  0
ACDBDICTIONARYWDFLT
  5
E
102
{ACAD_REACTORS
330
C
102
}
330
C
100
AcDbDictionary
281
     1
  3
Normal
350
F
100
AcDbDictionaryWithDefault
340
F
  0
DICTIONARY
  5
C7
102
{ACAD_REACTORS
330
C
102
}
330
C
100
AcDbDictionary
281
     1
  0
DICTIONARY
  5
2A
102
{ACAD_REACTORS
330
C
102
}
330
C
100
AcDbDictionary
281
     1
  3
2dWireframe
350
2F
  3
3D Hidden
350
31
  3
3dWireframe
350
30
  3
Basic
350
32
  3
Brighten
350
36
  3
ColorChange
350
3A
  3
Conceptual
350
34
  3
Dim
350
35
  3
Facepattern
350
39
  3
Flat
350
2B
  3
FlatWithEdges
350
2C
  3
Gouraud
350
2D
  3
GouraudWithEdges
350
2E
  3
Linepattern
350
38
  3
Realistic
350
33
  3
Thicken
350
37
  0
LAYOUT
  5
1E
102
{ACAD_REACTORS
330
1A
102
}
330
1A
100
AcDbPlotSettings
  1

  2
none_device
  4

  6

 40
0.0
 41
0.0
 42
0.0
 43
0.0
 44
0.0
 45
0.0
 46
0.0
 47
0.0
 48
0.0
 49
0.0
140
0.0
141
0.0
142
1.0
143
1.0
 70
   688
 72
     0
 73
     0
 74
     5
  7

 75
    16
 76
     0
 77
     2
 78
   300
147
1.0
148
0.0
149
0.0
100
AcDbLayout
  1
Layout1
 70
     1
 71
     1
 10
0.0
 20
0.0
 11
12.0
 21
9.0
 12
0.0
 22
0.0
 32
0.0
 14
1.000000000000000E+20
 24
1.000000000000000E+20
 34
1.000000000000000E+20
 15
-1.000000000000000E+20
 25
-1.000000000000000E+20
 35
-1.000000000000000E+20
146
0.0
 13
0.0
 23
0.0
 33
0.0
 16
1.0
 26
0.0
 36
0.0
 17
0.0
 27
1.0
 37
0.0
 76
     0
330
1B
  0
LAYOUT
  5
26
102
{ACAD_REACTORS
330
1A
102
}
330
1A
100
AcDbPlotSettings
  1

  2
none_device
  4

  6

 40
0.0
 41
0.0
 42
0.0
 43
0.0
 44
0.0
 45
0.0
 46
0.0
 47
0.0
 48
0.0
 49
0.0
140
0.0
141
0.0
142
1.0
143
1.0
 70
   688
 72
     0
 73
     0
 74
     5
  7

 75
    16
 76
     0
 77
     2
 78
   300
147
1.0
148
0.0
149
0.0
100
AcDbLayout
  1
Layout2
 70
     1
 71
     2
 10
0.0
 20
0.0
 11
0.0
 21
0.0
 12
0.0
 22
0.0
 32
0.0
 14
0.0
 24
0.0
 34
0.0
 15
0.0
 25
0.0
 35
0.0
146
0.0
 13
0.0
 23
0.0
 33
0.0
 16
1.0
 26
0.0
 36
0.0
 17
0.0
 27
1.0
 37
0.0
 76
     0
330
23
  0
LAYOUT
  5
22
102
{ACAD_REACTORS
330
1A
102
}
330
1A
100
AcDbPlotSettings
  1

  2
none_device
  4

  6

 40
0.0
 41
0.0
 42
0.0
 43
0.0
 44
0.0
 45
0.0
 46
0.0
 47
0.0
 48
0.0
 49
0.0
140
0.0
141
0.0
142
1.0
143
1.0
 70
  1712
 72
     0
 73
     0
 74
     0
  7

 75
     0
 76
     0
 77
     2
 78
   300
147
1.0
148
0.0
149
0.0
100
AcDbLayout
  1
Model
 70
     1
 71
     0
 10
0.0
 20
0.0
 11
12.0
 21
9.0
 12
0.0
 22
0.0
 32
0.0
 14
1.000000000000000E+20
 24
1.000000000000000E+20
 34
1.000000000000000E+20
 15
-1.000000000000000E+20
 25
-1.000000000000000E+20
 35
-1.000000000000000E+20
146
0.0
 13
0.0
 23
0.0
 33
0.0
 16
1.0
 26
0.0
 36
0.0
 17
0.0
 27
1.0
 37
0.0
 76
     0
330
1F
331
29
  0
MATERIAL
  5
3D
102
{ACAD_REACTORS
330
3B
102
}
330
3B
100
AcDbMaterial
  1
ByBlock
 72
     1
 94
      127
  0
MATERIAL
  5
3C
102
{ACAD_REACTORS
330
3B
102
}
330
3B
100
AcDbMaterial
  1
ByLayer
 72
     1
 94
      127
  0
MATERIAL
  5
3E
102
{ACAD_REACTORS
330
3B
102
}
330
3B
100
AcDbMaterial
  1
Global
 72
     1
 94
      127
  0
MLINESTYLE
  5
18
102
{ACAD_REACTORS
330
17
102
}
330
17
100
AcDbMlineStyle
  2
Standard
 70
     0
  3

 62
   256
 51
90.0
 52
90.0
 71
     2
 49
0.5
 62
   256
  6
BYLAYER
 49
-0.5
 62
   256
  6
BYLAYER
  0
ACDBPLACEHOLDER
  5
F
102
{ACAD_REACTORS
330
E
102
}
330
E
  0
VISUALSTYLE
  5
2F
102
{ACAD_REACTORS
330
2A
102
}
330
2A
100
AcDbVisualStyle
  2
2dWireframe
 70
     4
177
     2
291
     0
 71
     0
176
     1
 72
     2
176
     1
 73
     0
176
     1
 90
        0
176
     1
 40
-0.6
176
     1
 41
-30.0
176
     1
 62
     5
 63
     7
421
 16777215
176
     1
 74
     1
176
     1
 91
        4
176
     1
 64
     7
176
     1
 65
   257
176
     1
 75
     1
176
     1
175
     1
176
     1
 42
1.0
176
     1
 92
        0
176
     1
 66
   257
176
     1
 43
1.0
176
     1
 76
     1
176
     1
 77
     6
176
     1
 78
     2
176
     1
 67
     7
176
     1
 79
     5
176
     1
170
     0
176
     1
171
     0
176
     1
290
     0
176
     1
 93
        1
176
     1
 44
0.0
176
     1
173
     0
176
     1
  0
VISUALSTYLE
  5
31
102
{ACAD_REACTORS
330
2A
102
}
330
2A
100
AcDbVisualStyle
  2
3D Hidden
 70
     6
177
     2
291
     0
 71
     1
176
     1
 72
     2
176
     1
 73
     2
176
     1
 90
        0
176
     1
 40
-0.6
176
     1
 41
-30.0
176
     1
 62
     5
 63
     7
421
 16777215
176
     1
 74
     2
176
     1
 91
        2
176
     1
 64
     7
176
     1
 65
   257
176
     1
 75
     2
176
     1
175
     1
176
     1
 42
40.0
176
     1
 92
        0
176
     1
 66
   257
176
     1
 43
1.0
176
     1
 76
     1
176
     1
 77
     6
176
     1
 78
     2
176
     1
 67
     7
176
     1
 79
     3
176
     1
170
     0
176
     1
171
     0
176
     1
290
     0
176
     1
 93
        1
176
     1
 44
0.0
176
     1
173
     0
176
     1
  0
VISUALSTYLE
  5
30
102
{ACAD_REACTORS
330
2A
102
}
330
2A
100
AcDbVisualStyle
  2
3dWireframe
 70
     5
177
     2
291
     0
 71
     0
176
     1
 72
     2
176
     1
 73
     0
176
     1
 90
        0
176
     1
 40
-0.6
176
     1
 41
-30.0
176
     1
 62
     5
 63
     7
421
 16777215
176
     1
 74
     1
176
     1
 91
        4
176
     1
 64
     7
176
     1
 65
   257
176
     1
 75
     1
176
     1
175
     1
176
     1
 42
1.0
176
     1
 92
        0
176
     1
 66
   257
176
     1
 43
1.0
176
     1
 76
     1
176
     1
 77
     6
176
     1
 78
     2
176
     1
 67
     7
176
     1
 79
     5
176
     1
170
     0
176
     1
171
     0
176
     1
290
     0
176
     1
 93
        1
176
     1
 44
0.0
176
     1
173
     0
176
     1
  0
VISUALSTYLE
  5
32
102
{ACAD_REACTORS
330
2A
102
}
330
2A
100
AcDbVisualStyle
  2
Basic
 70
     7
177
     2
291
     1
 71
     1
176
     1
 72
     0
176
     1
 73
     1
176
     1
 90
        0
176
     1
 40
-0.6
176
     1
 41
-30.0
176
     1
 62
     5
 63
     7
421
 16777215
176
     1
 74
     0
176
     1
 91
        4
176
     1
 64
     7
176
     1
 65
   257
176
     1
 75
     1
176
     1
175
     1
176
     1
 42
1.0
176
     1
 92
        8
176
     1
 66
     7
176
     1
 43
1.0
176
     1
 76
     1
176
     1
 77
     6
176
     1
 78
     2
176
     1
 67
     7
176
     1
 79
     5
176
     1
170
     0
176
     1
171
     0
176
     1
290
     0
176
     1
 93
        1
176
     1
 44
0.0
176
     1
173
     0
176
     1
  0
VISUALSTYLE
  5
36
102
{ACAD_REACTORS
330
2A
102
}
330
2A
100
AcDbVisualStyle
  2
Brighten
 70
    12
177
     2
291
     1
 71
     2
176
     1
 72
     2
176
     1
 73
     0
176
     1
 90
        0
176
     1
 40
-0.6
176
     1
 41
-30.0
176
     1
 62
     5
 63
     7
421
 16777215
176
     1
 74
     1
176
     1
 91
        4
176
     1
 64
     7
176
     1
 65
   257
176
     1
 75
     1
176
     1
175
     1
176
     1
 42
1.0
176
     1
 92
        8
176
     1
 66
     7
176
     1
 43
1.0
176
     1
 76
     1
176
     1
 77
     6
176
     1
 78
     2
176
     1
 67
     7
176
     1
 79
     5
176
     1
170
     0
176
     1
171
     0
176
     1
290
     0
176
     1
 93
        1
176
     1
 44
50.0
176
     1
173
     0
176
     1
  0
VISUALSTYLE
  5
3A
102
{ACAD_REACTORS
330
2A
102
}
330
2A
100
AcDbVisualStyle
  2
ColorChange
 70
    16
177
     2
291
     1
 71
     2
176
     1
 72
     2
176
     1
 73
     3
176
     1
 90
        0
176
     1
 40
-0.6
176
     1
 41
-30.0
176
     1
 62
     5
 63
     8
421
  8421504
176
     1
 74
     1
176
     1
 91
        4
176
     1
 64
     7
176
     1
 65
   257
176
     1
 75
     1
176
     1
175
     1
176
     1
 42
1.0
176
     1
 92
        8
176
     1
 66
     8
424
  8421504
176
     1
 43
1.0
176
     1
 76
     1
176
     1
 77
     6
176
     1
 78
     2
176
     1
 67
     7
176
     1
 79
     5
176
     1
170
     0
176
     1
171
     0
176
     1
290
     0
176
     1
 93
        1
176
     1
 44
0.0
176
     1
173
     0
176
     1
  0
VISUALSTYLE
  5
34
102
{ACAD_REACTORS
330
2A
102
}
330
2A
100
AcDbVisualStyle
  2
Conceptual
 70
     9
177
     2
291
     0
 71
     3
176
     1
 72
     2
176
     1
 73
     0
176
     1
 90
        0
176
     1
 40
-0.6
176
     1
 41
-30.0
176
     1
 62
     5
 63
     7
421
 16777215
176
     1
 74
     2
176
     1
 91
        2
176
     1
 64
     7
176
     1
 65
   257
176
     1
 75
     1
176
     1
175
     1
176
     1
 42
40.0
176
     1
 92
        8
176
     1
 66
     7
176
     1
 43
1.0
176
     1
 76
     1
176
     1
 77
     6
176
     1
 78
     2
176
     1
 67
     7
176
     1
 79
     3
176
     1
170
     0
176
     1
171
     0
176
     1
290
     0
176
     1
 93
        1
176
     1
 44
0.0
176
     1
173
     0
176
     1
  0
VISUALSTYLE
  5
35
102
{ACAD_REACTORS
330
2A
102
}
330
2A
100
AcDbVisualStyle
  2
Dim
 70
    11
177
     2
291
     1
 71
     2
176
     1
 72
     2
176
     1
 73
     0
176
     1
 90
        0
176
     1
 40
-0.6
176
     1
 41
-30.0
176
     1
 62
     5
 63
     7
421
 16777215
176
     1
 74
     1
176
     1
 91
        4
176
     1
 64
     7
176
     1
 65
   257
176
     1
 75
     1
176
     1
175
     1
176
     1
 42
1.0
176
     1
 92
        8
176
     1
 66
     7
176
     1
 43
1.0
176
     1
 76
     1
176
     1
 77
     6
176
     1
 78
     2
176
     1
 67
     7
176
     1
 79
     5
176
     1
170
     0
176
     1
171
     0
176
     1
290
     0
176
     1
 93
        1
176
     1
 44
-50.0
176
     1
173
     0
176
     1
  0
VISUALSTYLE
  5
39
102
{ACAD_REACTORS
330
2A
102
}
330
2A
100
AcDbVisualStyle
  2
Facepattern
 70
    15
177
     2
291
     1
 71
     2
176
     1
 72
     2
176
     1
 73
     0
176
     1
 90
        0
176
     1
 40
-0.6
176
     1
 41
-30.0
176
     1
 62
     5
 63
     7
421
 16777215
176
     1
 74
     1
176
     1
 91
        4
176
     1
 64
     7
176
     1
 65
   257
176
     1
 75
     1
176
     1
175
     1
176
     1
 42
1.0
176
     1
 92
        8
176
     1
 66
     7
176
     1
 43
1.0
176
     1
 76
     1
176
     1
 77
     6
176
     1
 78
     2
176
     1
 67
     7
176
     1
 79
     5
176
     1
170
     0
176
     1
171
     0
176
     1
290
     0
176
     1
 93
        1
176
     1
 44
0.0
176
     1
173
     0
176
     1
  0
VISUALSTYLE
  5
2B
102
{ACAD_REACTORS
330
2A
102
}
330
2A
100
AcDbVisualStyle
  2
Flat
 70
     0
177
     2
291
     1
 71
     2
176
     1
 72
     1
176
     1
 73
     1
176
     1
 90
        2
176
     1
 40
-0.6
176
     1
 41
30.0
176
     1
 62
     5
 63
     7
421
 16777215
176
     1
 74
     0
176
     1
 91
        4
176
     1
 64
     7
176
     1
 65
   257
176
     1
 75
     1
176
     1
175
     1
176
     1
 42
1.0
176
     1
 92
        8
176
     1
 66
     7
176
     1
 43
1.0
176
     1
 76
     1
176
     1
 77
     6
176
     1
 78
     2
176
     1
 67
     7
176
     1
 79
     5
176
     1
170
     0
176
     1
171
     0
176
     1
290
     0
176
     1
 93
       13
176
     1
 44
0.0
176
     1
173
     0
176
     1
  0
VISUALSTYLE
  5
2C
102
{ACAD_REACTORS
330
2A
102
}
330
2A
100
AcDbVisualStyle
  2
FlatWithEdges
 70
     1
177
     2
291
     1
 71
     2
176
     1
 72
     1
176
     1
 73
     1
176
     1
 90
        2
176
     1
 40
-0.6
176
     1
 41
30.0
176
     1
 62
     5
 63
     7
421
 16777215
176
     1
 74
     1
176
     1
 91
        4
176
     1
 64
     7
176
     1
 65
   257
176
     1
 75
     1
176
     1
175
     1
176
     1
 42
1.0
176
     1
 92
        0
176
     1
 66
   257
176
     1
 43
1.0
176
     1
 76
     1
176
     1
 77
     6
176
     1
 78
     2
176
     1
 67
     7
176
     1
 79
     5
176
     1
170
     0
176
     1
171
     0
176
     1
290
     0
176
     1
 93
       13
176
     1
 44
0.0
176
     1
173
     0
176
     1
  0
VISUALSTYLE
  5
2D
102
{ACAD_REACTORS
330
2A
102
}
330
2A
100
AcDbVisualStyle
  2
Gouraud
 70
     2
177
     2
291
     1
 71
     2
176
     1
 72
     2
176
     1
 73
     1
176
     1
 90
        2
176
     1
 40
-0.6
176
     1
 41
30.0
176
     1
 62
     5
 63
     7
421
 16777215
176
     1
 74
     0
176
     1
 91
        4
176
     1
 64
     7
176
     1
 65
   257
176
     1
 75
     1
176
     1
175
     1
176
     1
 42
1.0
176
     1
 92
        0
176
     1
 66
     7
176
     1
 43
1.0
176
     1
 76
     1
176
     1
 77
     6
176
     1
 78
     2
176
     1
 67
     7
176
     1
 79
     5
176
     1
170
     0
176
     1
171
     0
176
     1
290
     0
176
     1
 93
       13
176
     1
 44
0.0
176
     1
173
     0
176
     1
  0
VISUALSTYLE
  5
2E
102
{ACAD_REACTORS
330
2A
102
}
330
2A
100
AcDbVisualStyle
  2
GouraudWithEdges
 70
     3
177
     2
291
     1
 71
     2
176
     1
 72
     2
176
     1
 73
     1
176
     1
 90
        2
176
     1
 40
-0.6
176
     1
 41
30.0
176
     1
 62
     5
 63
     7
421
 16777215
176
     1
 74
     1
176
     1
 91
        4
176
     1
 64
     7
176
     1
 65
   257
176
     1
 75
     1
176
     1
175
     1
176
     1
 42
1.0
176
     1
 92
        0
176
     1
 66
   257
176
     1
 43
1.0
176
     1
 76
     1
176
     1
 77
     6
176
     1
 78
     2
176
     1
 67
     7
176
     1
 79
     5
176
     1
170
     0
176
     1
171
     0
176
     1
290
     0
176
     1
 93
       13
176
     1
 44
0.0
176
     1
173
     0
176
     1
  0
VISUALSTYLE
  5
38
102
{ACAD_REACTORS
330
2A
102
}
330
2A
100
AcDbVisualStyle
  2
Linepattern
 70
    14
177
     2
291
     1
 71
     2
176
     1
 72
     2
176
     1
 73
     0
176
     1
 90
        0
176
     1
 40
-0.6
176
     1
 41
-30.0
176
     1
 62
     5
 63
     7
421
 16777215
176
     1
 74
     1
176
     1
 91
        4
176
     1
 64
     7
176
     1
 65
   257
176
     1
 75
     7
176
     1
175
     7
176
     1
 42
1.0
176
     1
 92
        8
176
     1
 66
     7
176
     1
 43
1.0
176
     1
 76
     1
176
     1
 77
     6
176
     1
 78
     2
176
     1
 67
     7
176
     1
 79
     5
176
     1
170
     0
176
     1
171
     0
176
     1
290
     0
176
     1
 93
        1
176
     1
 44
0.0
176
     1
173
     0
176
     1
  0
VISUALSTYLE
  5
33
102
{ACAD_REACTORS
330
2A
102
}
330
2A
100
AcDbVisualStyle
  2
Realistic
 70
     8
177
     2
291
     0
 71
     2
176
     1
 72
     2
176
     1
 73
     0
176
     1
 90
        0
176
     1
 40
-0.6
176
     1
 41
-30.0
176
     1
 62
     5
 63
     7
421
 16777215
176
     1
 74
     1
176
     1
 91
        0
176
     1
 64
     7
176
     1
 65
   257
176
     1
 75
     1
176
     1
175
     1
176
     1
 42
1.0
176
     1
 92
        8
176
     1
 66
     8
424
  7895160
176
     1
 43
1.0
176
     1
 76
     1
176
     1
 77
     6
176
     1
 78
     2
176
     1
 67
     7
176
     1
 79
     5
176
     1
170
     0
176
     1
171
     0
176
     1
290
     0
176
     1
 93
       13
176
     1
 44
0.0
176
     1
173
     0
176
     1
  0
VISUALSTYLE
  5
37
102
{ACAD_REACTORS
330
2A
102
}
330
2A
100
AcDbVisualStyle
  2
Thicken
 70
    13
177
     2
291
     1
 71
     2
176
     1
 72
     2
176
     1
 73
     0
176
     1
 90
        0
176
     1
 40
-0.6
176
     1
 41
-30.0
176
     1
 62
     5
 63
     7
421
 16777215
176
     1
 74
     1
176
     1
 91
        4
176
     1
 64
     7
176
     1
 65
   257
176
     1
 75
     1
176
     1
175
     1
176
     1
 42
1.0
176
     1
 92
       12
176
     1
 66
     7
176
     1
 43
1.0
176
     1
 76
     1
176
     1
 77
     6
176
     1
 78
     2
176
     1
 67
     7
176
     1
 79
     5
176
     1
170
     0
176
     1
171
     0
176
     1
290
     0
176
     1
 93
        1
176
     1
 44
0.0
176
     1
173
     0
176
     1
  0
ENDSEC
  0
EOF
