  0
SECTION
  2
HEADER
  9
$ACADVER
  1
AC1024
  9
$ACADMAINTVER
 70
     6
  9
$DWGCODEPAGE
  3
UNDEFINED
  9
$INSBASE
 10
0.0
 20
0.0
 30
0.0
  9
$EXTMIN
 10
1.000000000000000E+20
 20
1.000000000000000E+20
 30
1.000000000000000E+20
  9
$EXTMAX
 10
-1.000000000000000E+20
 20
-1.000000000000000E+20
 30
-1.000000000000000E+20
  9
$LIMMIN
 10
0.0
 20
0.0
  9
$LIMMAX
 10
12.0
 20
9.0
  9
$ORTHOMODE
 70
     0
  9
$REGENMODE
 70
     1
  9
$FILLMODE
 70
     1
  9
$QTEXTMODE
 70
     0
  9
$MIRRTEXT
 70
     1
  9
$LTSCALE
 40
1.0
  9
$ATTMODE
 70
     1
  9
$TEXTSIZE
 40
0.2
  9
$TRACEWID
 40
0.05
  9
$TEXTSTYLE
  7
Standard
  9
$CLAYER
  8
0
  9
$CELTYPE
  6
ByLayer
  9
$CECOLOR
 62
   256
  9
$CELTSCALE
 40
1.0
  9
$DISPSILH
 70
     0
  9
$DIMSCALE
 40
1.0
  9
$DIMASZ
 40
0.18
  9
$DIMEXO
 40
0.0625
  9
$DIMDLI
 40
0.38
  9
$DIMRND
 40
0.0
  9
$DIMDLE
 40
0.0
  9
$DIMEXE
 40
0.18
  9
$DIMTP
 40
0.0
  9
$DIMTM
 40
0.0
  9
$DIMTXT
 40
0.18
  9
$DIMCEN
 40
0.09
  9
$DIMTSZ
 40
0.0
  9
$DIMTOL
 70
     0
  9
$DIMLIM
 70
     0
  9
$DIMTIH
 70
     1
  9
$DIMTOH
 70
     1
  9
$DIMSE1
 70
     0
  9
$DIMSE2
 70
     0
  9
$DIMTAD
 70
     0
  9
$DIMZIN
 70
     0
  9
$DIMBLK
  1

  9
$DIMASO
 70
     1
  9
$DIMSHO
 70
     1
  9
$DIMPOST
  1

  9
$DIMAPOST
  1

  9
$DIMALT
 70
     0
  9
$DIMALTD
 70
     2
  9
$DIMALTF
 40
25.4
  9
$DIMLFAC
 40
1.0
  9
$DIMTOFL
 70
     0
  9
$DIMTVP
 40
0.0
  9
$DIMTIX
 70
     0
  9
$DIMSOXD
 70
     0
  9
$DIMSAH
 70
     0
  9
$DIMBLK1
  1

  9
$DIMBLK2
  1

  9
$DIMSTYLE
  2
Standard
  9
$DIMCLRD
 70
     0
  9
$DIMCLRE
 70
     0
  9
$DIMCLRT
 70
     0
  9
$DIMTFAC
 40
1.0
  9
$DIMGAP
 40
0.09
  9
$DIMJUST
 70
     0
  9
$DIMSD1
 70
     0
  9
$DIMSD2
 70
     0
  9
$DIMTOLJ
 70
     1
  9
$DIMTZIN
 70
     0
  9
$DIMALTZ
 70
     0
  9
$DIMALTTZ
 70
     0
  9
$DIMUPT
 70
     0
  9
$DIMDEC
 70
     4
  9
$DIMTDEC
 70
     4
  9
$DIMALTU
 70
     2
  9
$DIMALTTD
 70
     2
  9
$DIMTXSTY
  7
Standard
  9
$DIMAUNIT
 70
     0
  9
$DIMADEC
 70
     0
  9
$DIMALTRND
 40
0.0
  9
$DIMAZIN
 70
     0
  9
$DIMDSEP
 70
    46
  9
$DIMATFIT
 70
     3
  9
$DIMFRAC
 70
     0
  9
$DIMLDRBLK
  1

  9
$DIMLUNIT
 70
     2
  9
$DIMLWD
 70
    -2
  9
$DIMLWE
 70
    -2
  9
$DIMTMOVE
 70
     0
  9
$DIMFXL
 40
1.0
  9
$DIMFXLON
 70
     0
  9
$DIMJOGANG
 40
0.7853981633974483
  9
$DIMTFILL
 70
     0
  9
$DIMTFILLCLR
 70
     0
  9
$DIMARCSYM
 70
     0
  9
$DIMLTYPE
  6

  9
$DIMLTEX1
  6

  9
$DIMLTEX2
  6

  9
$DIMTXTDIRECTION
 70
     0
  9
$LUNITS
 70
     2
  9
$LUPREC
 70
     4
  9
$SKETCHINC
 40
0.1
  9
$FILLETRAD
 40
0.5
  9
$AUNITS
 70
     0
  9
$AUPREC
 70
     0
  9
$MENU
  1
.
  9
$ELEVATION
 40
0.0
  9
$PELEVATION
 40
0.0
  9
$THICKNESS
 40
0.0
  9
$LIMCHECK
 70
     0
  9
$CHAMFERA
 40
0.5
  9
$CHAMFERB
 40
0.5
  9
$CHAMFERC
 40
1.0
  9
$CHAMFERD
 40
0.0
  9
$SKPOLY
 70
     0
  9
$TDCREATE
 40
2457917.621446759
  9
$TDUCREATE
 40
2457917.246446759
  9
$TDUPDATE
 40
2457917.621446759
  9
$TDUUPDATE
 40
2457917.246446759
  9
$TDINDWG
 40
0.0000000116
  9
$TDUSRTIMER
 40
0.0000000116
  9
$USRTIMER
 70
     1
  9
$ANGBASE
 50
0.0
  9
$ANGDIR
 70
     0
  9
$PDMODE
 70
     0
  9
$PDSIZE
 40
0.0
  9
$PLINEWID
 40
0.0
  9
$SPLFRAME
 70
     0
  9
$SPLINETYPE
 70
     6
  9
$SPLINESEGS
 70
     8
  9
$HANDSEED
  5
C7
  9
$SURFTAB1
 70
     6
  9
$SURFTAB2
 70
     6
  9
$SURFTYPE
 70
     6
  9
$SURFU
 70
     6
  9
$SURFV
 70
     6
  9
$UCSBASE
  2

  9
$UCSNAME
  2

  9
$UCSORG
 10
0.0
 20
0.0
 30
0.0
  9
$UCSXDIR
 10
1.0
 20
0.0
 30
0.0
  9
$UCSYDIR
 10
0.0
 20
1.0
 30
0.0
  9
$UCSORTHOREF
  2

  9
$UCSORTHOVIEW
 70
     0
  9
$UCSORGTOP
 10
0.0
 20
0.0
 30
0.0
  9
$UCSORGBOTTOM
 10
0.0
 20
0.0
 30
0.0
  9
$UCSORGLEFT
 10
0.0
 20
0.0
 30
0.0
  9
$UCSORGRIGHT
 10
0.0
 20
0.0
 30
0.0
  9
$UCSORGFRONT
 10
0.0
 20
0.0
 30
0.0
  9
$UCSORGBACK
 10
0.0
 20
0.0
 30
0.0
  9
$PUCSBASE
  2

  9
$PUCSNAME
  2

  9
$PUCSORG
 10
0.0
 20
0.0
 30
0.0
  9
$PUCSXDIR
 10
1.0
 20
0.0
 30
0.0
  9
$PUCSYDIR
 10
0.0
 20
1.0
 30
0.0
  9
$PUCSORTHOREF
  2

  9
$PUCSORTHOVIEW
 70
     0
  9
$PUCSORGTOP
 10
0.0
 20
0.0
 30
0.0
  9
$PUCSORGBOTTOM
 10
0.0
 20
0.0
 30
0.0
  9
$PUCSORGLEFT
 10
0.0
 20
0.0
 30
0.0
  9
$PUCSORGRIGHT
 10
0.0
 20
0.0
 30
0.0
  9
$PUCSORGFRONT
 10
0.0
 20
0.0
 30
0.0
  9
$PUCSORGBACK
 10
0.0
 20
0.0
 30
0.0
  9
$USERI1
 70
     0
  9
$USERI2
 70
     0
  9
$USERI3
 70
     0
  9
$USERI4
 70
     0
  9
$USERI5
 70
     0
  9
$USERR1
 40
0.0
  9
$USERR2
 40
0.0
  9
$USERR3
 40
0.0
  9
$USERR4
 40
0.0
  9
$USERR5
 40
0.0
  9
$WORLDVIEW
 70
     1
  9
$SHADEDGE
 70
     3
  9
$SHADEDIF
 70
    70
  9
$TILEMODE
 70
     1
  9
$MAXACTVP
 70
    64
  9
$PINSBASE
 10
0.0
 20
0.0
 30
0.0
  9
$PLIMCHECK
 70
     0
  9
$PEXTMIN
 10
1.000000000000000E+20
 20
1.000000000000000E+20
 30
1.000000000000000E+20
  9
$PEXTMAX
 10
-1.000000000000000E+20
 20
-1.000000000000000E+20
 30
-1.000000000000000E+20
  9
$PLIMMIN
 10
0.0
 20
0.0
  9
$PLIMMAX
 10
12.0
 20
9.0
  9
$UNITMODE
 70
     0
  9
$VISRETAIN
 70
     1
  9
$PLINEGEN
 70
     0
  9
$PSLTSCALE
 70
     1
  9
$TREEDEPTH
 70
  3020
  9
$CMLSTYLE
  2
Standard
  9
$CMLJUST
 70
     0
  9
$CMLSCALE
 40
1.0
  9
$PROXYGRAPHICS
 70
     1
  9
$MEASUREMENT
 70
     0
  9
$CELWEIGHT
370
    -1
  9
$ENDCAPS
280
     0
  9
$JOINSTYLE
280
     0
  9
$LWDISPLAY
290
     1
  9
$INSUNITS
 70
     1
  9
$HYPERLINKBASE
  1

  9
$STYLESHEET
  1

  9
$XEDIT
290
     1
  9
$CEPSNTYPE
380
     0
  9
$PSTYLEMODE
290
     1
  9
$FINGERPRINTGUID
  2
{B59FEEFE-7B6F-F4F9-9655-DDDF3A889FC8}
  9
$VERSIONGUID
  2
{FAEB1C32-E019-11D5-929B-00C0DF256EC4}
  9
$EXTNAMES
290
     1
  9
$PSVPSCALE
 40
0.0
  9
$OLESTARTUP
290
     0
  9
$SORTENTS
280
   127
  9
$INDEXCTL
280
     0
  9
$HIDETEXT
280
     1
  9
$XCLIPFRAME
280
     2
  9
$HALOGAP
280
     0
  9
$OBSCOLOR
 70
   257
  9
$OBSLTYPE
280
     0
  9
$INTERSECTIONDISPLAY
280
     0
  9
$INTERSECTIONCOLOR
 70
   257
  9
$DIMASSOC
280
     2
  9
$PROJECTNAME
  1

  9
$CAMERADISPLAY
290
     0
  9
$LENSLENGTH
 40
50.0
  9
$CAMERAHEIGHT
 40
0.0
  9
$STEPSPERSEC
 40
2.0
  9
$STEPSIZE
 40
6.0
  9
$3DDWFPREC
 40
2.0
  9
$PSOLWIDTH
 40
0.25
  9
$PSOLHEIGHT
 40
4.0
  9
$LOFTANG1
 40
1.570796326794897
  9
$LOFTANG2
 40
1.570796326794897
  9
$LOFTMAG1
 40
0.0
  9
$LOFTMAG2
 40
0.0
  9
$LOFTPARAM
 70
     7
  9
$LOFTNORMALS
280
     1
  9
$LATITUDE
 40
37.795
  9
$LONGITUDE
 40
-122.394
  9
$NORTHDIRECTION
 40
0.0
  9
$TIMEZONE
 70
 -8000
  9
$LIGHTGLYPHDISPLAY
280
     1
  9
$TILEMODELIGHTSYNCH
280
     1
  9
$CMATERIAL
347
3C
  9
$SOLIDHIST
280
     1
  9
$SHOWHIST
280
     1
  9
$DWFFRAME
280
     2
  9
$DGNFRAME
280
     2
  9
$REALWORLDSCALE
290
     1
  9
$INTERFERECOLOR
 62
   256
  9
$CSHADOW
280
     0
  9
$SHADOWPLANELOCATION
 40
0.0
  0
ENDSEC
  0
SECTION
  2
CLASSES
  0
CLASS
  1
ACDBDICTIONARYWDFLT
  2
AcDbDictionaryWithDefault
  3
ObjectDBX Classes
 90
        0
 91
        4
280
     0
281
     0
  0
CLASS
  1
VISUALSTYLE
  2
AcDbVisualStyle
  3
ObjectDBX Classes
 90
     4095
 91
        4
280
     0
281
     0
  0
CLASS
  1
MATERIAL
  2
AcDbMaterial
  3
ObjectDBX Classes
 90
     1153
 91
        4
280
     0
281
     0
  0
CLASS
  1
SUN
  2
AcDbSun
  3
SCENEOE
 90
     1024
 91
        4
280
     0
281
     0
  0
ENDSEC
  0
SECTION
  2
TABLES
  0
TABLE
  2
VPORT
  5
8
330
0
100
AcDbSymbolTable
 70
     1
  0
VPORT
  5
29
330
8
100
AcDbSymbolTableRecord
100
AcDbViewportTableRecord
  2
*Active
 70
     0
 10
0.0
 20
0.0
 11
1.0
 21
1.0
 12
0.0
 22
0.0
 13
0.0
 23
0.0
 14
0.5
 24
0.5
 15
0.5
 25
0.5
 16
0.0
 26
0.0
 36
1.0
 17
91.00082462281999
 27
-128.4993055234307
 37
0.0
 40
256.9986110468615
 41
0.7081814508812795
 42
50.0
 43
0.0
 44
0.0
 50
0.0
 51
0.0
 71
     0
 72
   100
 73
     1
 74
     3
 75
     0
 76
     0
 77
     0
 78
     0
281
     0
 65
     1
110
0.0
120
0.0
130
0.0
111
1.0
121
0.0
131
0.0
112
0.0
122
1.0
132
0.0
 79
     0
146
0.0
 60
     3
 61
     5
292
     1
282
     1
141
0.0
142
0.0
 63
   250
361
3F
  0
ENDTAB
  0
TABLE
  2
LTYPE
  5
5
330
0
100
AcDbSymbolTable
 70
     1
  0
LTYPE
  5
14
330
5
100
AcDbSymbolTableRecord
100
AcDbLinetypeTableRecord
  2
ByBlock
 70
     0
  3

 72
    65
 73
     0
 40
0.0
  0
LTYPE
  5
15
330
5
100
AcDbSymbolTableRecord
100
AcDbLinetypeTableRecord
  2
ByLayer
 70
     0
  3

 72
    65
 73
     0
 40
0.0
  0
LTYPE
  5
16
330
5
100
AcDbSymbolTableRecord
100
AcDbLinetypeTableRecord
  2
Continuous
 70
     0
  3
Solid line
 72
    65
 73
     0
 40
0.0
  0
ENDTAB
  0
TABLE
  2
LAYER
  5
2
330
0
100
AcDbSymbolTable
 70
     2
  0
LAYER
  5
10
330
2
100
AcDbSymbolTableRecord
100
AcDbLayerTableRecord
  2
0
 70
     0
 62
     7
  6
Continuous
370
    -3
390
F
347
3E
  0
LAYER
  5
40
330
2
100
AcDbSymbolTableRecord
100
AcDbLayerTableRecord
  2
_U+30EC_U+30A4_U+30E4_U+30FC 1
 70
     0
 62
     7
  6
Continuous
370
    -3
390
F
347
3E
  0
ENDTAB
  0
TABLE
  2
STYLE
  5
3
330
0
100
AcDbSymbolTable
 70
     1
  0
STYLE
  5
11
330
3
100
AcDbSymbolTableRecord
100
AcDbTextStyleTableRecord
  2
Standard
 70
     0
 40
0.0
 41
1.0
 50
0.0
 71
     0
 42
0.2
  3
txt
  4

  0
ENDTAB
  0
TABLE
  2
VIEW
  5
6
330
0
100
AcDbSymbolTable
 70
     0
  0
ENDTAB
  0
TABLE
  2
UCS
  5
7
330
0
100
AcDbSymbolTable
 70
     0
  0
ENDTAB
  0
TABLE
  2
APPID
  5
9
330
0
100
AcDbSymbolTable
 70
     1
  0
APPID
  5
12
330
9
100
AcDbSymbolTableRecord
100
AcDbRegAppTableRecord
  2
ACAD
 70
     0
  0
ENDTAB
  0
TABLE
  2
DIMSTYLE
  5
A
330
0
100
AcDbSymbolTable
 70
     1
100
AcDbDimStyleTable
  0
DIMSTYLE
105
27
330
A
100
AcDbSymbolTableRecord
100
AcDbDimStyleTableRecord
  2
Standard
 70
     0
178
     0
340
11
  0
ENDTAB
  0
TABLE
  2
BLOCK_RECORD
  5
1
330
0
100
AcDbSymbolTable
 70
     4
  0
BLOCK_RECORD
  5
1F
330
1
100
AcDbSymbolTableRecord
100
AcDbBlockTableRecord
  2
*Model_Space
340
22
 70
     0
280
     1
281
     0
  0
BLOCK_RECORD
  5
1B
330
1
100
AcDbSymbolTableRecord
100
AcDbBlockTableRecord
  2
*Paper_Space
340
1E
 70
     0
280
     1
281
     0
  0
BLOCK_RECORD
  5
23
330
1
100
AcDbSymbolTableRecord
100
AcDbBlockTableRecord
  2
*Paper_Space0
340
26
 70
     0
280
     1
281
     0
  0
BLOCK_RECORD
  5
6F
330
1
100
AcDbSymbolTableRecord
100
AcDbBlockTableRecord
  2
block 2
340
0
102
{BLKREFS
331
70
102
}
 70
     0
280
     1
281
     0
  0
BLOCK_RECORD
  5
91
330
1
100
AcDbSymbolTableRecord
100
AcDbBlockTableRecord
  2
block 3
340
0
102
{BLKREFS
331
92
102
}
 70
     0
280
     1
281
     0
  0
BLOCK_RECORD
  5
A8
330
1
100
AcDbSymbolTableRecord
100
AcDbBlockTableRecord
  2
block 4
340
0
102
{BLKREFS
331
A9
102
}
 70
     0
280
     1
281
     0
  0
ENDTAB
  0
ENDSEC
  0
SECTION
  2
BLOCKS
  0
BLOCK
  5
20
330
1F
100
AcDbEntity
  8
0
100
AcDbBlockBegin
  2
*Model_Space
 70
     0
 10
0.0
 20
0.0
 30
0.0
  3
*Model_Space
  1

  0
ENDBLK
  5
21
330
1F
100
AcDbEntity
  8
0
100
AcDbBlockEnd
  0
BLOCK
  5
1C
330
1B
100
AcDbEntity
 67
     1
  8
0
100
AcDbBlockBegin
  2
*Paper_Space
 70
     0
 10
0.0
 20
0.0
 30
0.0
  3
*Paper_Space
  1

  0
ENDBLK
  5
1D
330
1B
100
AcDbEntity
 67
     1
  8
0
100
AcDbBlockEnd
  0
BLOCK
  5
24
330
23
100
AcDbEntity
  8
0
100
AcDbBlockBegin
  2
*Paper_Space0
 70
     0
 10
0.0
 20
0.0
 30
0.0
  3
*Paper_Space0
  1

  0
ENDBLK
  5
25
330
23
100
AcDbEntity
  8
0
100
AcDbBlockEnd
  0
BLOCK
  5
71
330
6F
100
AcDbEntity
  8
0
100
AcDbBlockBegin
  2
block 2
 70
     0
 10
0.0
 20
0.0
 30
0.0
  3
block 2
  1

  0
SPLINE
  5
73
330
6F
100
AcDbEntity
  8
_U+30EC_U+30A4_U+30E4_U+30FC 1
370
     0
100
AcDbSpline
210
0.0
220
0.0
230
1.0
 70
    11
 71
     3
 72
    29
 73
    25
 74
     0
 42
0.0000000001
 43
0.0000000001
 12
1.0
 22
0.0
 32
0.0
 13
1.0
 23
0.0
 33
0.0
 40
0.0
 40
0.0
 40
0.0
 40
0.0
 40
1.0
 40
1.0
 40
1.0
 40
2.0
 40
2.0
 40
2.0
 40
3.0
 40
3.0
 40
3.0
 40
4.0
 40
4.0
 40
4.0
 40
5.0
 40
5.0
 40
5.0
 40
6.0
 40
6.0
 40
6.0
 40
7.0
 40
7.0
 40
7.0
 40
8.0
 40
8.0
 40
8.0
 40
8.0
 10
102.2531900786034
 20
-132.6155056092072
 30
0.0
 10
102.4626518841066
 20
-132.7233370978956
 30
0.0
 10
102.4815999092754
 20
-132.8969699103521
 30
0.0
 10
102.4815999092754
 20
-133.0134141377536
 30
0.0
 10
102.4815999092754
 20
-133.1739555873662
 30
0.0
 10
102.4350911202246
 20
-133.3158935213585
 30
0.0
 10
102.2531900786034
 20
-133.4109781567514
 30
0.0
 10
102.0585421836868
 20
-133.5146755308575
 30
0.0
 10
101.8215196143016
 20
-133.5336235560263
 30
0.0
 10
101.6585665978493
 20
-133.5336235560263
 30
0.0
 10
101.5149061161143
 20
-133.5336235560263
 30
0.0
 10
101.2630696361426
 20
-133.5167425881486
 30
0.0
 10
101.0642876266437
 20
-133.4109781567514
 30
0.0
 10
100.8610269930139
 20
-133.3031466680631
 30
0.0
 10
100.8379448532627
 20
-133.1422607089019
 30
0.0
 10
100.8379448532627
 20
-133.0134141377536
 30
0.0
 10
100.8379448532627
 20
-132.8545952358836
 30
0.0
 10
100.8823865850225
 20
-132.7105902446001
 30
0.0
 10
101.0642876266437
 20
-132.6155056092072
 30
0.0
 10
101.2568684642691
 20
-132.5162868592321
 30
0.0
 10
101.4852782949412
 20
-132.4928602099324
 30
0.0
 10
101.6585665978493
 20
-132.4928602099324
 30
0.0
 10
101.8301323530147
 20
-132.4928602099324
 30
0.0
 10
102.0606092409779
 20
-132.5138752923924
 30
0.0
 10
102.2531900786034
 20
-132.6155056092072
 30
0.0
  0
SPLINE
  5
74
330
6F
100
AcDbEntity
  8
_U+30EC_U+30A4_U+30E4_U+30FC 1
370
     0
100
AcDbSpline
210
0.0
220
0.0
230
1.0
 70
    11
 71
     3
 72
    17
 73
    13
 74
     0
 42
0.0000000001
 43
0.0000000001
 12
1.0
 22
0.0
 32
0.0
 13
1.0
 23
0.0
 33
0.0
 40
0.0
 40
0.0
 40
0.0
 40
0.0
 40
1.0
 40
1.0
 40
1.0
 40
2.0
 40
2.0
 40
2.0
 40
3.0
 40
3.0
 40
3.0
 40
4.0
 40
4.0
 40
4.0
 40
4.0
 10
101.0301811813397
 20
-133.0134141377536
 30
0.0
 10
101.0301811813397
 20
-133.2628390508857
 30
0.0
 10
101.3137125397758
 20
-133.3093478399365
 30
0.0
 10
101.6585665978493
 20
-133.3093478399365
 30
0.0
 10
101.9782714588804
 20
-133.3093478399365
 30
0.0
 10
102.2869520143588
 20
-133.27351884689
 30
0.0
 10
102.2869520143588
 20
-133.0134141377536
 30
0.0
 10
102.2869520143588
 20
-132.7657117723641
 30
0.0
 10
102.0054877132139
 20
-132.7171359260221
 30
0.0
 10
101.6585665978493
 20
-132.7171359260221
 30
0.0
 10
101.3392062463666
 20
-132.7171359260221
 30
0.0
 10
101.0301811813397
 20
-132.7550319763598
 30
0.0
 10
101.0301811813397
 20
-133.0134141377536
 30
0.0
  0
HATCH
  5
75
330
6F
100
AcDbEntity
  8
_U+30EC_U+30A4_U+30E4_U+30FC 1
 62
   179
420
  2234388
100
AcDbHatch
 10
0.0
 20
0.0
 30
0.0
210
0.0
220
0.0
230
1.0
  2
SOLID
 70
     1
 71
     0
 91
        2
 92
        1
 93
        1
 72
     4
 94
        3
 73
     0
 74
     1
 95
       29
 96
       25
 40
0.0
 40
0.0
 40
0.0
 40
0.0
 40
1.0
 40
1.0
 40
1.0
 40
2.0
 40
2.0
 40
2.0
 40
3.0
 40
3.0
 40
3.0
 40
4.0
 40
4.0
 40
4.0
 40
5.0
 40
5.0
 40
5.0
 40
6.0
 40
6.0
 40
6.0
 40
7.0
 40
7.0
 40
7.0
 40
8.0
 40
8.0
 40
8.0
 40
8.0
 10
102.2531900786034
 20
-132.6155056092072
 10
102.4626518841066
 20
-132.7233370978956
 10
102.4815999092754
 20
-132.8969699103521
 10
102.4815999092754
 20
-133.0134141377536
 10
102.4815999092754
 20
-133.1739555873662
 10
102.4350911202246
 20
-133.3158935213585
 10
102.2531900786034
 20
-133.4109781567514
 10
102.0585421836868
 20
-133.5146755308575
 10
101.8215196143016
 20
-133.5336235560263
 10
101.6585665978493
 20
-133.5336235560263
 10
101.5149061161143
 20
-133.5336235560263
 10
101.2630696361426
 20
-133.5167425881486
 10
101.0642876266437
 20
-133.4109781567514
 10
100.8610269930139
 20
-133.3031466680631
 10
100.8379448532627
 20
-133.1422607089019
 10
100.8379448532627
 20
-133.0134141377536
 10
100.8379448532627
 20
-132.8545952358836
 10
100.8823865850225
 20
-132.7105902446001
 10
101.0642876266437
 20
-132.6155056092072
 10
101.2568684642691
 20
-132.5162868592321
 10
101.4852782949412
 20
-132.4928602099324
 10
101.6585665978493
 20
-132.4928602099324
 10
101.8301323530147
 20
-132.4928602099324
 10
102.0606092409779
 20
-132.5138752923924
 10
102.2531900786034
 20
-132.6155056092072
 97
        0
 97
        0
 92
        1
 93
        1
 72
     4
 94
        3
 73
     0
 74
     1
 95
       17
 96
       13
 40
0.0
 40
0.0
 40
0.0
 40
0.0
 40
1.0
 40
1.0
 40
1.0
 40
2.0
 40
2.0
 40
2.0
 40
3.0
 40
3.0
 40
3.0
 40
4.0
 40
4.0
 40
4.0
 40
4.0
 10
101.0301811813397
 20
-133.0134141377536
 10
101.0301811813397
 20
-133.2628390508857
 10
101.3137125397758
 20
-133.3093478399365
 10
101.6585665978493
 20
-133.3093478399365
 10
101.9782714588804
 20
-133.3093478399365
 10
102.2869520143588
 20
-133.27351884689
 10
102.2869520143588
 20
-133.0134141377536
 10
102.2869520143588
 20
-132.7657117723641
 10
102.0054877132139
 20
-132.7171359260221
 10
101.6585665978493
 20
-132.7171359260221
 10
101.3392062463666
 20
-132.7171359260221
 10
101.0301811813397
 20
-132.7550319763598
 10
101.0301811813397
 20
-133.0134141377536
 97
        0
 97
        0
 75
     2
 76
     1
 98
        0
  0
POLYLINE
  5
76
330
6F
100
AcDbEntity
  8
_U+30EC_U+30A4_U+30E4_U+30FC 1
370
     0
100
AcDb2dPolyline
 66
     1
 10
0.0
 20
0.0
 30
0.0
  0
VERTEX
  5
77
330
76
100
AcDbEntity
  8
_U+30EC_U+30A4_U+30E4_U+30FC 1
370
     0
100
AcDbVertex
100
AcDb2dVertex
 10
102.4309570056423
 20
-132.2765082134587
 30
0.0
  0
VERTEX
  5
78
330
76
100
AcDbEntity
  8
_U+30EC_U+30A4_U+30E4_U+30FC 1
370
     0
100
AcDbVertex
100
AcDb2dVertex
 10
102.1791205256705
 20
-132.2765082134587
 30
0.0
  0
VERTEX
  5
79
330
76
100
AcDbEntity
  8
_U+30EC_U+30A4_U+30E4_U+30FC 1
370
     0
100
AcDbVertex
100
AcDb2dVertex
 10
102.1791205256705
 20
-132.0246717334869
 30
0.0
  0
VERTEX
  5
7A
330
76
100
AcDbEntity
  8
_U+30EC_U+30A4_U+30E4_U+30FC 1
370
     0
100
AcDbVertex
100
AcDb2dVertex
 10
102.4309570056423
 20
-132.0246717334869
 30
0.0
  0
VERTEX
  5
7B
330
76
100
AcDbEntity
  8
_U+30EC_U+30A4_U+30E4_U+30FC 1
370
     0
100
AcDbVertex
100
AcDb2dVertex
 10
102.4309570056423
 20
-132.2765082134587
 30
0.0
  0
SEQEND
  5
7C
330
76
100
AcDbEntity
  8
_U+30EC_U+30A4_U+30E4_U+30FC 1
370
     0
  0
HATCH
  5
7D
330
6F
100
AcDbEntity
  8
_U+30EC_U+30A4_U+30E4_U+30FC 1
 62
   179
420
  2234388
100
AcDbHatch
 10
0.0
 20
0.0
 30
0.0
210
0.0
220
0.0
230
1.0
  2
SOLID
 70
     1
 71
     0
 91
        1
 92
        1
 93
        4
 72
     1
 10
102.4309570056423
 20
-132.2765082134587
 11
102.1791205256705
 21
-132.2765082134587
 72
     1
 10
102.1791205256705
 20
-132.2765082134587
 11
102.1791205256705
 21
-132.0246717334869
 72
     1
 10
102.1791205256705
 20
-132.0246717334869
 11
102.4309570056423
 21
-132.0246717334869
 72
     1
 10
102.4309570056423
 20
-132.0246717334869
 11
102.4309570056423
 21
-132.2765082134587
 97
        0
 75
     2
 76
     1
 98
        0
  0
SPLINE
  5
7E
330
6F
100
AcDbEntity
  8
_U+30EC_U+30A4_U+30E4_U+30FC 1
370
     0
100
AcDbSpline
210
0.0
220
0.0
230
1.0
 70
    11
 71
     3
 72
    29
 73
    25
 74
     0
 42
0.0000000001
 43
0.0000000001
 12
1.0
 22
0.0
 32
0.0
 13
1.0
 23
0.0
 33
0.0
 40
0.0
 40
0.0
 40
0.0
 40
0.0
 40
1.0
 40
1.0
 40
1.0
 40
2.0
 40
2.0
 40
2.0
 40
3.0
 40
3.0
 40
3.0
 40
4.0
 40
4.0
 40
4.0
 40
5.0
 40
5.0
 40
5.0
 40
6.0
 40
6.0
 40
6.0
 40
7.0
 40
7.0
 40
7.0
 40
8.0
 40
8.0
 40
8.0
 40
8.0
 10
102.4815999092754
 20
-131.2881103187405
 30
0.0
 10
102.4815999092754
 20
-131.5547607092988
 30
0.0
 10
102.344140599414
 20
-131.8086642465617
 30
0.0
 10
101.9951524267582
 20
-131.8086642465617
 30
0.0
 10
101.7391818322041
 20
-131.8086642465617
 30
0.0
 10
101.6437526872627
 20
-131.6667263125694
 30
0.0
 10
101.5824299876252
 20
-131.5609618811723
 30
0.0
 10
101.5231743452789
 20
-131.6860188472868
 30
0.0
 10
101.4091416847172
 20
-131.7621554575109
 30
0.0
 10
101.248255725556
 20
-131.7621554575109
 30
0.0
 10
100.9733371058331
 20
-131.7621554575109
 30
0.0
 10
100.8379448532627
 20
-131.5633734480119
 30
0.0
 10
100.8379448532627
 20
-131.2881103187405
 30
0.0
 10
100.8379448532627
 20
-131.0045789603044
 30
0.0
 10
100.9816053349977
 20
-130.8144096895186
 30
0.0
 10
101.248255725556
 20
-130.8144096895186
 30
0.0
 10
101.4091416847172
 20
-130.8144096895186
 30
0.0
 10
101.5231743452789
 20
-130.8926133570338
 30
0.0
 10
101.5824299876252
 20
-131.0173258135999
 30
0.0
 10
101.6334174008069
 20
-130.9284423500804
 30
0.0
 10
101.7285020361998
 20
-130.7699679577589
 30
0.0
 10
101.9906738026273
 20
-130.7699679577589
 30
0.0
 10
102.365155681874
 20
-130.7699679577589
 30
0.0
 10
102.4815999092754
 20
-131.0490206920641
 30
0.0
 10
102.4815999092754
 20
-131.2881103187405
 30
0.0
  0
SPLINE
  5
7F
330
6F
100
AcDbEntity
  8
_U+30EC_U+30A4_U+30E4_U+30FC 1
370
     0
100
AcDbSpline
210
0.0
220
0.0
230
1.0
 70
    11
 71
     3
 72
    17
 73
    13
 74
     0
 42
0.0000000001
 43
0.0000000001
 12
1.0
 22
0.0
 32
0.0
 13
1.0
 23
0.0
 33
0.0
 40
0.0
 40
0.0
 40
0.0
 40
0.0
 40
1.0
 40
1.0
 40
1.0
 40
2.0
 40
2.0
 40
2.0
 40
3.0
 40
3.0
 40
3.0
 40
4.0
 40
4.0
 40
4.0
 40
4.0
 10
101.0301811813397
 20
-131.2881103187405
 30
0.0
 10
101.0301811813397
 20
-131.453130392484
 30
0.0
 10
101.1256103262811
 20
-131.5378797414211
 30
0.0
 10
101.2610025788514
 20
-131.5378797414211
 30
0.0
 10
101.3836479781263
 20
-131.5378797414211
 30
0.0
 10
101.5021592628189
 20
-131.4658772457794
 30
0.0
 10
101.5021592628189
 20
-131.2881103187405
 30
0.0
 10
101.5021592628189
 20
-131.1103433917016
 30
0.0
 10
101.3836479781263
 20
-131.0386854056084
 30
0.0
 10
101.2610025788514
 20
-131.0386854056084
 30
0.0
 10
101.1256103262811
 20
-131.0386854056084
 30
0.0
 10
101.0301811813397
 20
-131.1251573022882
 30
0.0
 10
101.0301811813397
 20
-131.2881103187405
 30
0.0
  0
SPLINE
  5
80
330
6F
100
AcDbEntity
  8
_U+30EC_U+30A4_U+30E4_U+30FC 1
370
     0
100
AcDbSpline
210
0.0
220
0.0
230
1.0
 70
    11
 71
     3
 72
    17
 73
    13
 74
     0
 42
0.0000000001
 43
0.0000000001
 12
1.0
 22
0.0
 32
0.0
 13
1.0
 23
0.0
 33
0.0
 40
0.0
 40
0.0
 40
0.0
 40
0.0
 40
1.0
 40
1.0
 40
1.0
 40
2.0
 40
2.0
 40
2.0
 40
3.0
 40
3.0
 40
3.0
 40
4.0
 40
4.0
 40
4.0
 40
4.0
 10
101.6902614763136
 20
-131.2881103187405
 30
0.0
 10
101.6902614763136
 20
-131.4321153100239
 30
0.0
 10
101.7770778825418
 20
-131.584388530472
 30
0.0
 10
101.9803385161716
 20
-131.584388530472
 30
0.0
 10
102.185321697544
 20
-131.584388530472
 30
0.0
 10
102.2869520143588
 20
-131.4576090166148
 30
0.0
 10
102.2869520143588
 20
-131.2881103187405
 30
0.0
 10
102.2869520143588
 20
-131.102075162537
 30
0.0
 10
102.1643066150839
 20
-130.9921766165575
 30
0.0
 10
101.986539688045
 20
-130.9921766165575
 30
0.0
 10
101.7643310292464
 20
-130.9921766165575
 30
0.0
 10
101.6902614763136
 20
-131.1547851234613
 30
0.0
 10
101.6902614763136
 20
-131.2881103187405
 30
0.0
  0
HATCH
  5
81
330
6F
100
AcDbEntity
  8
_U+30EC_U+30A4_U+30E4_U+30FC 1
 62
   179
420
  2234388
100
AcDbHatch
 10
0.0
 20
0.0
 30
0.0
210
0.0
220
0.0
230
1.0
  2
SOLID
 70
     1
 71
     0
 91
        3
 92
        1
 93
        1
 72
     4
 94
        3
 73
     0
 74
     1
 95
       29
 96
       25
 40
0.0
 40
0.0
 40
0.0
 40
0.0
 40
1.0
 40
1.0
 40
1.0
 40
2.0
 40
2.0
 40
2.0
 40
3.0
 40
3.0
 40
3.0
 40
4.0
 40
4.0
 40
4.0
 40
5.0
 40
5.0
 40
5.0
 40
6.0
 40
6.0
 40
6.0
 40
7.0
 40
7.0
 40
7.0
 40
8.0
 40
8.0
 40
8.0
 40
8.0
 10
102.4815999092754
 20
-131.2881103187405
 10
102.4815999092754
 20
-131.5547607092988
 10
102.344140599414
 20
-131.8086642465617
 10
101.9951524267582
 20
-131.8086642465617
 10
101.7391818322041
 20
-131.8086642465617
 10
101.6437526872627
 20
-131.6667263125694
 10
101.5824299876252
 20
-131.5609618811723
 10
101.5231743452789
 20
-131.6860188472868
 10
101.4091416847172
 20
-131.7621554575109
 10
101.248255725556
 20
-131.7621554575109
 10
100.9733371058331
 20
-131.7621554575109
 10
100.8379448532627
 20
-131.5633734480119
 10
100.8379448532627
 20
-131.2881103187405
 10
100.8379448532627
 20
-131.0045789603044
 10
100.9816053349977
 20
-130.8144096895186
 10
101.248255725556
 20
-130.8144096895186
 10
101.4091416847172
 20
-130.8144096895186
 10
101.5231743452789
 20
-130.8926133570338
 10
101.5824299876252
 20
-131.0173258135999
 10
101.6334174008069
 20
-130.9284423500804
 10
101.7285020361998
 20
-130.7699679577589
 10
101.9906738026273
 20
-130.7699679577589
 10
102.365155681874
 20
-130.7699679577589
 10
102.4815999092754
 20
-131.0490206920641
 10
102.4815999092754
 20
-131.2881103187405
 97
        0
 97
        0
 92
        1
 93
        1
 72
     4
 94
        3
 73
     0
 74
     1
 95
       17
 96
       13
 40
0.0
 40
0.0
 40
0.0
 40
0.0
 40
1.0
 40
1.0
 40
1.0
 40
2.0
 40
2.0
 40
2.0
 40
3.0
 40
3.0
 40
3.0
 40
4.0
 40
4.0
 40
4.0
 40
4.0
 10
101.0301811813397
 20
-131.2881103187405
 10
101.0301811813397
 20
-131.453130392484
 10
101.1256103262811
 20
-131.5378797414211
 10
101.2610025788514
 20
-131.5378797414211
 10
101.3836479781263
 20
-131.5378797414211
 10
101.5021592628189
 20
-131.4658772457794
 10
101.5021592628189
 20
-131.2881103187405
 10
101.5021592628189
 20
-131.1103433917016
 10
101.3836479781263
 20
-131.0386854056084
 10
101.2610025788514
 20
-131.0386854056084
 10
101.1256103262811
 20
-131.0386854056084
 10
101.0301811813397
 20
-131.1251573022882
 10
101.0301811813397
 20
-131.2881103187405
 97
        0
 97
        0
 92
        1
 93
        1
 72
     4
 94
        3
 73
     0
 74
     1
 95
       17
 96
       13
 40
0.0
 40
0.0
 40
0.0
 40
0.0
 40
1.0
 40
1.0
 40
1.0
 40
2.0
 40
2.0
 40
2.0
 40
3.0
 40
3.0
 40
3.0
 40
4.0
 40
4.0
 40
4.0
 40
4.0
 10
101.6902614763136
 20
-131.2881103187405
 10
101.6902614763136
 20
-131.4321153100239
 10
101.7770778825418
 20
-131.584388530472
 10
101.9803385161716
 20
-131.584388530472
 10
102.185321697544
 20
-131.584388530472
 10
102.2869520143588
 20
-131.4576090166148
 10
102.2869520143588
 20
-131.2881103187405
 10
102.2869520143588
 20
-131.102075162537
 10
102.1643066150839
 20
-130.9921766165575
 10
101.986539688045
 20
-130.9921766165575
 10
101.7643310292464
 20
-130.9921766165575
 10
101.6902614763136
 20
-131.1547851234613
 10
101.6902614763136
 20
-131.2881103187405
 97
        0
 97
        0
 75
     2
 76
     1
 98
        0
  0
ENDBLK
  5
72
330
6F
100
AcDbEntity
  8
0
100
AcDbBlockEnd
  0
BLOCK
  5
93
330
91
100
AcDbEntity
  8
0
100
AcDbBlockBegin
  2
block 3
 70
     0
 10
0.0
 20
0.0
 30
0.0
  3
block 3
  1

  0
SPLINE
  5
95
330
91
100
AcDbEntity
  8
_U+30EC_U+30A4_U+30E4_U+30FC 1
370
     0
100
AcDbSpline
210
0.0
220
0.0
230
1.0
 70
    11
 71
     3
 72
    26
 73
    22
 74
     0
 42
0.0000000001
 43
0.0000000001
 12
1.0
 22
0.0
 32
0.0
 13
1.0
 23
0.0
 33
0.0
 40
0.0
 40
0.0
 40
0.0
 40
0.0
 40
1.0
 40
1.0
 40
1.0
 40
2.0
 40
2.0
 40
2.0
 40
3.0
 40
3.0
 40
3.0
 40
4.0
 40
4.0
 40
4.0
 40
5.0
 40
5.0
 40
5.0
 40
6.0
 40
6.0
 40
6.0
 40
7.0
 40
7.0
 40
7.0
 40
7.0
 10
80.95939939382265
 20
-125.9125555783309
 30
0.0
 10
80.95939939382265
 20
-125.9125555783309
 30
0.0
 10
79.85507403602581
 20
-125.9125555783309
 30
0.0
 10
79.85507403602581
 20
-125.9125555783309
 30
0.0
 10
79.85507403602581
 20
-125.9125555783309
 30
0.0
 10
79.85507403602581
 20
-126.2425957258178
 30
0.0
 10
79.85507403602581
 20
-126.2425957258178
 30
0.0
 10
79.85507403602581
 20
-126.2425957258178
 30
0.0
 10
79.70710718493434
 20
-126.2425957258178
 30
0.0
 10
79.70710718493434
 20
-126.2425957258178
 30
0.0
 10
79.69229327434776
 20
-125.9104885210397
 30
0.0
 10
79.52934025789544
 20
-125.8638074772146
 30
0.0
 10
79.41513534255941
 20
-125.8343519108157
 30
0.0
 10
79.41513534255941
 20
-125.8343519108157
 30
0.0
 10
79.41513534255941
 20
-125.6882798622411
 30
0.0
 10
79.41513534255941
 20
-125.6882798622411
 30
0.0
 10
79.41513534255941
 20
-125.6882798622411
 30
0.0
 10
80.95939939382265
 20
-125.6882798622411
 30
0.0
 10
80.95939939382265
 20
-125.6882798622411
 30
0.0
 10
80.95939939382265
 20
-125.6882798622411
 30
0.0
 10
80.95939939382265
 20
-125.9125555783309
 30
0.0
 10
80.95939939382265
 20
-125.9125555783309
 30
0.0
  0
HATCH
  5
96
330
91
100
AcDbEntity
  8
_U+30EC_U+30A4_U+30E4_U+30FC 1
 62
   179
420
  2234388
100
AcDbHatch
 10
0.0
 20
0.0
 30
0.0
210
0.0
220
0.0
230
1.0
  2
SOLID
 70
     1
 71
     0
 91
        1
 92
        1
 93
        1
 72
     4
 94
        3
 73
     0
 74
     1
 95
       26
 96
       22
 40
0.0
 40
0.0
 40
0.0
 40
0.0
 40
1.0
 40
1.0
 40
1.0
 40
2.0
 40
2.0
 40
2.0
 40
3.0
 40
3.0
 40
3.0
 40
4.0
 40
4.0
 40
4.0
 40
5.0
 40
5.0
 40
5.0
 40
6.0
 40
6.0
 40
6.0
 40
7.0
 40
7.0
 40
7.0
 40
7.0
 10
80.95939939382265
 20
-125.9125555783309
 10
80.95939939382265
 20
-125.9125555783309
 10
79.85507403602581
 20
-125.9125555783309
 10
79.85507403602581
 20
-125.9125555783309
 10
79.85507403602581
 20
-125.9125555783309
 10
79.85507403602581
 20
-126.2425957258178
 10
79.85507403602581
 20
-126.2425957258178
 10
79.85507403602581
 20
-126.2425957258178
 10
79.70710718493434
 20
-126.2425957258178
 10
79.70710718493434
 20
-126.2425957258178
 10
79.69229327434776
 20
-125.9104885210397
 10
79.52934025789544
 20
-125.8638074772146
 10
79.41513534255941
 20
-125.8343519108157
 10
79.41513534255941
 20
-125.8343519108157
 10
79.41513534255941
 20
-125.6882798622411
 10
79.41513534255941
 20
-125.6882798622411
 10
79.41513534255941
 20
-125.6882798622411
 10
80.95939939382265
 20
-125.6882798622411
 10
80.95939939382265
 20
-125.6882798622411
 10
80.95939939382265
 20
-125.6882798622411
 10
80.95939939382265
 20
-125.9125555783309
 10
80.95939939382265
 20
-125.9125555783309
 97
        0
 97
        0
 75
     2
 76
     1
 98
        0
  0
SPLINE
  5
97
330
91
100
AcDbEntity
  8
_U+30EC_U+30A4_U+30E4_U+30FC 1
370
     0
100
AcDbSpline
210
0.0
220
0.0
230
1.0
 70
    11
 71
     3
 72
    53
 73
    49
 74
     0
 42
0.0000000001
 43
0.0000000001
 12
1.0
 22
0.0
 32
0.0
 13
1.0
 23
0.0
 33
0.0
 40
0.0
 40
0.0
 40
0.0
 40
0.0
 40
1.0
 40
1.0
 40
1.0
 40
2.0
 40
2.0
 40
2.0
 40
3.0
 40
3.0
 40
3.0
 40
4.0
 40
4.0
 40
4.0
 40
5.0
 40
5.0
 40
5.0
 40
6.0
 40
6.0
 40
6.0
 40
7.0
 40
7.0
 40
7.0
 40
8.0
 40
8.0
 40
8.0
 40
9.0
 40
9.0
 40
9.0
 40
10.0
 40
10.0
 40
10.0
 40
11.0
 40
11.0
 40
11.0
 40
12.0
 40
12.0
 40
12.0
 40
13.0
 40
13.0
 40
13.0
 40
14.0
 40
14.0
 40
14.0
 40
15.0
 40
15.0
 40
15.0
 40
16.0
 40
16.0
 40
16.0
 40
16.0
 10
81.0102145522301
 20
-124.7060831393964
 30
0.0
 10
81.0102145522301
 20
-124.7842868069116
 30
0.0
 10
80.99333358435237
 20
-124.8859171237264
 30
0.0
 10
80.9297715726495
 20
-124.987375185767
 30
0.0
 10
80.81987302667004
 20
-125.1608357434494
 30
0.0
 10
80.68861488868201
 20
-125.1820230806837
 30
0.0
 10
80.58078339999369
 20
-125.2011433606268
 30
0.0
 10
80.58078339999369
 20
-125.2011433606268
 30
0.0
 10
80.58078339999369
 20
-124.9789347018282
 30
0.0
 10
80.58078339999369
 20
-124.9789347018282
 30
0.0
 10
80.77956540949262
 20
-124.9239854288384
 30
0.0
 10
80.80919323066576
 20
-124.797033660207
 30
0.0
 10
80.80919323066576
 20
-124.7040160821053
 30
0.0
 10
80.80919323066576
 20
-124.5643174601784
 30
0.0
 10
80.7098022259163
 20
-124.4120442397303
 30
0.0
 10
80.47708602588767
 20
-124.4120442397303
 30
0.0
 10
80.22111543133362
 20
-124.4120442397303
 30
0.0
 10
80.1513522477573
 20
-124.5918782240604
 30
0.0
 10
80.1513522477573
 20
-124.7124565660441
 30
0.0
 10
80.1513522477573
 20
-124.7441514445084
 30
0.0
 10
80.1513522477573
 20
-124.8859171237264
 30
0.0
 10
80.28037107367992
 20
-124.9748005872459
 30
0.0
 10
80.28037107367992
 20
-124.9748005872459
 30
0.0
 10
80.26125079373678
 20
-125.1503282022194
 30
0.0
 10
80.26125079373678
 20
-125.1503282022194
 30
0.0
 10
80.26125079373678
 20
-125.1503282022194
 30
0.0
 10
79.41513534255941
 20
-125.0297498602356
 30
0.0
 10
79.41513534255941
 20
-125.0297498602356
 30
0.0
 10
79.41513534255941
 20
-125.0297498602356
 30
0.0
 10
79.41513534255941
 20
-124.2511582805692
 30
0.0
 10
79.41513534255941
 20
-124.2511582805692
 30
0.0
 10
79.41513534255941
 20
-124.2511582805692
 30
0.0
 10
79.60978323747602
 20
-124.2511582805692
 30
0.0
 10
79.60978323747602
 20
-124.2511582805692
 30
0.0
 10
79.60978323747602
 20
-124.2511582805692
 30
0.0
 10
79.60978323747602
 20
-124.8667968437833
 30
0.0
 10
79.60978323747602
 20
-124.8667968437833
 30
0.0
 10
79.60978323747602
 20
-124.8667968437833
 30
0.0
 10
80.03284096306471
 20
-124.9324259127773
 30
0.0
 10
80.03284096306471
 20
-124.9324259127773
 30
0.0
 10
79.998906772535
 20
-124.8711032131399
 30
0.0
 10
79.95877141013185
 20
-124.7885931762681
 30
0.0
 10
79.95877141013185
 20
-124.6700818915755
 30
0.0
 10
79.95877141013185
 20
-124.4161783543126
 30
0.0
 10
80.14497882110959
 20
-124.1793280397017
 30
0.0
 10
80.4581380007188
 20
-124.1793280397017
 30
0.0
 10
80.77543129491032
 20
-124.1793280397017
 30
0.0
 10
81.0102145522301
 20
-124.4036037557915
 30
0.0
 10
81.0102145522301
 20
-124.7060831393964
 30
0.0
  0
HATCH
  5
98
330
91
100
AcDbEntity
  8
_U+30EC_U+30A4_U+30E4_U+30FC 1
 62
   179
420
  2234388
100
AcDbHatch
 10
0.0
 20
0.0
 30
0.0
210
0.0
220
0.0
230
1.0
  2
SOLID
 70
     1
 71
     0
 91
        1
 92
        1
 93
        1
 72
     4
 94
        3
 73
     0
 74
     1
 95
       53
 96
       49
 40
0.0
 40
0.0
 40
0.0
 40
0.0
 40
1.0
 40
1.0
 40
1.0
 40
2.0
 40
2.0
 40
2.0
 40
3.0
 40
3.0
 40
3.0
 40
4.0
 40
4.0
 40
4.0
 40
5.0
 40
5.0
 40
5.0
 40
6.0
 40
6.0
 40
6.0
 40
7.0
 40
7.0
 40
7.0
 40
8.0
 40
8.0
 40
8.0
 40
9.0
 40
9.0
 40
9.0
 40
10.0
 40
10.0
 40
10.0
 40
11.0
 40
11.0
 40
11.0
 40
12.0
 40
12.0
 40
12.0
 40
13.0
 40
13.0
 40
13.0
 40
14.0
 40
14.0
 40
14.0
 40
15.0
 40
15.0
 40
15.0
 40
16.0
 40
16.0
 40
16.0
 40
16.0
 10
81.0102145522301
 20
-124.7060831393964
 10
81.0102145522301
 20
-124.7842868069116
 10
80.99333358435237
 20
-124.8859171237264
 10
80.9297715726495
 20
-124.987375185767
 10
80.81987302667004
 20
-125.1608357434494
 10
80.68861488868201
 20
-125.1820230806837
 10
80.58078339999369
 20
-125.2011433606268
 10
80.58078339999369
 20
-125.2011433606268
 10
80.58078339999369
 20
-124.9789347018282
 10
80.58078339999369
 20
-124.9789347018282
 10
80.77956540949262
 20
-124.9239854288384
 10
80.80919323066576
 20
-124.797033660207
 10
80.80919323066576
 20
-124.7040160821053
 10
80.80919323066576
 20
-124.5643174601784
 10
80.7098022259163
 20
-124.4120442397303
 10
80.47708602588767
 20
-124.4120442397303
 10
80.22111543133362
 20
-124.4120442397303
 10
80.1513522477573
 20
-124.5918782240604
 10
80.1513522477573
 20
-124.7124565660441
 10
80.1513522477573
 20
-124.7441514445084
 10
80.1513522477573
 20
-124.8859171237264
 10
80.28037107367992
 20
-124.9748005872459
 10
80.28037107367992
 20
-124.9748005872459
 10
80.26125079373678
 20
-125.1503282022194
 10
80.26125079373678
 20
-125.1503282022194
 10
80.26125079373678
 20
-125.1503282022194
 10
79.41513534255941
 20
-125.0297498602356
 10
79.41513534255941
 20
-125.0297498602356
 10
79.41513534255941
 20
-125.0297498602356
 10
79.41513534255941
 20
-124.2511582805692
 10
79.41513534255941
 20
-124.2511582805692
 10
79.41513534255941
 20
-124.2511582805692
 10
79.60978323747602
 20
-124.2511582805692
 10
79.60978323747602
 20
-124.2511582805692
 10
79.60978323747602
 20
-124.2511582805692
 10
79.60978323747602
 20
-124.8667968437833
 10
79.60978323747602
 20
-124.8667968437833
 10
79.60978323747602
 20
-124.8667968437833
 10
80.03284096306471
 20
-124.9324259127773
 10
80.03284096306471
 20
-124.9324259127773
 10
79.998906772535
 20
-124.8711032131399
 10
79.95877141013185
 20
-124.7885931762681
 10
79.95877141013185
 20
-124.6700818915755
 10
79.95877141013185
 20
-124.4161783543126
 10
80.14497882110959
 20
-124.1793280397017
 10
80.4581380007188
 20
-124.1793280397017
 10
80.77543129491032
 20
-124.1793280397017
 10
81.0102145522301
 20
-124.4036037557915
 10
81.0102145522301
 20
-124.7060831393964
 97
        0
 97
        0
 75
     2
 76
     1
 98
        0
  0
ENDBLK
  5
94
330
91
100
AcDbEntity
  8
0
100
AcDbBlockEnd
  0
BLOCK
  5
AA
330
A8
100
AcDbEntity
  8
0
100
AcDbBlockBegin
  2
block 4
 70
     0
 10
0.0
 20
0.0
 30
0.0
  3
block 4
  1

  0
SPLINE
  5
AC
330
A8
100
AcDbEntity
  8
_U+30EC_U+30A4_U+30E4_U+30FC 1
370
     0
100
AcDbSpline
210
0.0
220
0.0
230
1.0
 70
    11
 71
     3
 72
    26
 73
    22
 74
     0
 42
0.0000000001
 43
0.0000000001
 12
1.0
 22
0.0
 32
0.0
 13
1.0
 23
0.0
 33
0.0
 40
0.0
 40
0.0
 40
0.0
 40
0.0
 40
1.0
 40
1.0
 40
1.0
 40
2.0
 40
2.0
 40
2.0
 40
3.0
 40
3.0
 40
3.0
 40
4.0
 40
4.0
 40
4.0
 40
5.0
 40
5.0
 40
5.0
 40
6.0
 40
6.0
 40
6.0
 40
7.0
 40
7.0
 40
7.0
 40
7.0
 10
92.19454479031943
 20
-136.4030435856909
 30
0.0
 10
92.19454479031943
 20
-136.4030435856909
 30
0.0
 10
92.19454479031943
 20
-135.2985459731198
 30
0.0
 10
92.19454479031943
 20
-135.2985459731198
 30
0.0
 10
92.19454479031943
 20
-135.2985459731198
 30
0.0
 10
91.86450464283249
 20
-135.2985459731198
 30
0.0
 10
91.86450464283249
 20
-135.2985459731198
 30
0.0
 10
91.86450464283249
 20
-135.2985459731198
 30
0.0
 10
91.86450464283249
 20
-135.1504068672541
 30
0.0
 10
91.86450464283249
 20
-135.1504068672541
 30
0.0
 10
92.19661184761057
 20
-135.1355929566675
 30
0.0
 10
92.24346514620997
 20
-134.9729844497637
 30
0.0
 10
92.2727484578346
 20
-134.8586072796534
 30
0.0
 10
92.2727484578346
 20
-134.8586072796534
 30
0.0
 10
92.41882050640919
 20
-134.8586072796534
 30
0.0
 10
92.41882050640919
 20
-134.8586072796534
 30
0.0
 10
92.41882050640919
 20
-134.8586072796534
 30
0.0
 10
92.41882050640919
 20
-136.4030435856909
 30
0.0
 10
92.41882050640919
 20
-136.4030435856909
 30
0.0
 10
92.41882050640919
 20
-136.4030435856909
 30
0.0
 10
92.19454479031943
 20
-136.4030435856909
 30
0.0
 10
92.19454479031943
 20
-136.4030435856909
 30
0.0
  0
HATCH
  5
AD
330
A8
100
AcDbEntity
  8
_U+30EC_U+30A4_U+30E4_U+30FC 1
 62
   179
420
  2234388
100
AcDbHatch
 10
0.0
 20
0.0
 30
0.0
210
0.0
220
0.0
230
1.0
  2
SOLID
 70
     1
 71
     0
 91
        1
 92
        1
 93
        1
 72
     4
 94
        3
 73
     0
 74
     1
 95
       26
 96
       22
 40
0.0
 40
0.0
 40
0.0
 40
0.0
 40
1.0
 40
1.0
 40
1.0
 40
2.0
 40
2.0
 40
2.0
 40
3.0
 40
3.0
 40
3.0
 40
4.0
 40
4.0
 40
4.0
 40
5.0
 40
5.0
 40
5.0
 40
6.0
 40
6.0
 40
6.0
 40
7.0
 40
7.0
 40
7.0
 40
7.0
 10
92.19454479031943
 20
-136.4030435856909
 10
92.19454479031943
 20
-136.4030435856909
 10
92.19454479031943
 20
-135.2985459731198
 10
92.19454479031943
 20
-135.2985459731198
 10
92.19454479031943
 20
-135.2985459731198
 10
91.86450464283249
 20
-135.2985459731198
 10
91.86450464283249
 20
-135.2985459731198
 10
91.86450464283249
 20
-135.2985459731198
 10
91.86450464283249
 20
-135.1504068672541
 10
91.86450464283249
 20
-135.1504068672541
 10
92.19661184761057
 20
-135.1355929566675
 10
92.24346514620997
 20
-134.9729844497637
 10
92.2727484578346
 20
-134.8586072796534
 10
92.2727484578346
 20
-134.8586072796534
 10
92.41882050640919
 20
-134.8586072796534
 10
92.41882050640919
 20
-134.8586072796534
 10
92.41882050640919
 20
-134.8586072796534
 10
92.41882050640919
 20
-136.4030435856909
 10
92.41882050640919
 20
-136.4030435856909
 10
92.41882050640919
 20
-136.4030435856909
 10
92.19454479031943
 20
-136.4030435856909
 10
92.19454479031943
 20
-136.4030435856909
 97
        0
 97
        0
 75
     2
 76
     1
 98
        0
  0
SPLINE
  5
AE
330
A8
100
AcDbEntity
  8
_U+30EC_U+30A4_U+30E4_U+30FC 1
370
     0
100
AcDbSpline
210
0.0
220
0.0
230
1.0
 70
    11
 71
     3
 72
    53
 73
    49
 74
     0
 42
0.0000000001
 43
0.0000000001
 12
1.0
 22
0.0
 32
0.0
 13
1.0
 23
0.0
 33
0.0
 40
0.0
 40
0.0
 40
0.0
 40
0.0
 40
1.0
 40
1.0
 40
1.0
 40
2.0
 40
2.0
 40
2.0
 40
3.0
 40
3.0
 40
3.0
 40
4.0
 40
4.0
 40
4.0
 40
5.0
 40
5.0
 40
5.0
 40
6.0
 40
6.0
 40
6.0
 40
7.0
 40
7.0
 40
7.0
 40
8.0
 40
8.0
 40
8.0
 40
9.0
 40
9.0
 40
9.0
 40
10.0
 40
10.0
 40
10.0
 40
11.0
 40
11.0
 40
11.0
 40
12.0
 40
12.0
 40
12.0
 40
13.0
 40
13.0
 40
13.0
 40
14.0
 40
14.0
 40
14.0
 40
15.0
 40
15.0
 40
15.0
 40
16.0
 40
16.0
 40
16.0
 40
16.0
 10
93.40101722925391
 20
-136.4536864893241
 30
0.0
 10
93.32281356173874
 20
-136.4536864893241
 30
0.0
 10
93.22118324492388
 20
-136.4368055214464
 30
0.0
 10
93.11989743765753
 20
-136.3734157645178
 30
0.0
 10
92.94626462520094
 20
-136.2631727089898
 30
0.0
 10
92.92524954274091
 20
-136.1322590805503
 30
0.0
 10
92.90595700802352
 20
-136.0240830823134
 30
0.0
 10
92.90595700802352
 20
-136.0240830823134
 30
0.0
 10
93.12816566682213
 20
-136.0240830823134
 30
0.0
 10
93.12816566682213
 20
-136.0240830823134
 30
0.0
 10
93.18328719458613
 20
-136.2232096013609
 30
0.0
 10
93.31006670844332
 20
-136.252837422534
 30
0.0
 10
93.40308428654507
 20
-136.252837422534
 30
0.0
 10
93.5429551632462
 20
-136.252837422534
 30
0.0
 10
93.69522838369426
 20
-136.1532741630103
 30
0.0
 10
93.69522838369426
 20
-135.9207302177559
 30
0.0
 10
93.69522838369426
 20
-135.6647596232019
 30
0.0
 10
93.51539439936421
 20
-135.5948241848513
 30
0.0
 10
93.39481605738047
 20
-135.5948241848513
 30
0.0
 10
93.36312117891617
 20
-135.5948241848513
 30
0.0
 10
93.22118324492388
 20
-135.5948241848513
 30
0.0
 10
93.13229978140443
 20
-135.7236707559996
 30
0.0
 10
93.13229978140443
 20
-135.7236707559996
 30
0.0
 10
92.95694442120521
 20
-135.7047227308308
 30
0.0
 10
92.95694442120521
 20
-135.7047227308308
 30
0.0
 10
92.95694442120521
 20
-135.7047227308308
 30
0.0
 10
93.07752276318895
 20
-134.8586072796534
 30
0.0
 10
93.07752276318895
 20
-134.8586072796534
 30
0.0
 10
93.07752276318895
 20
-134.8586072796534
 30
0.0
 10
93.85611434285542
 20
-134.8586072796534
 30
0.0
 10
93.85611434285542
 20
-134.8586072796534
 30
0.0
 10
93.85611434285542
 20
-134.8586072796534
 30
0.0
 10
93.85611434285542
 20
-135.05325517457
 30
0.0
 10
93.85611434285542
 20
-135.05325517457
 30
0.0
 10
93.85611434285542
 20
-135.05325517457
 30
0.0
 10
93.24047577964127
 20
-135.05325517457
 30
0.0
 10
93.24047577964127
 20
-135.05325517457
 30
0.0
 10
93.24047577964127
 20
-135.05325517457
 30
0.0
 10
93.174674455873
 20
-135.4763129001587
 30
0.0
 10
93.174674455873
 20
-135.4763129001587
 30
0.0
 10
93.23599715551045
 20
-135.4425509644033
 30
0.0
 10
93.31867944715644
 20
-135.4022433472258
 30
0.0
 10
93.43719073184904
 20
-135.4022433472258
 30
0.0
 10
93.69109426911196
 20
-135.4022433472258
 30
0.0
 10
93.92777232894862
 20
-135.5882785034293
 30
0.0
 10
93.92777232894862
 20
-135.9014376830385
 30
0.0
 10
93.92777232894862
 20
-136.2187309772301
 30
0.0
 10
93.70349661285886
 20
-136.4536864893241
 30
0.0
 10
93.40101722925391
 20
-136.4536864893241
 30
0.0
  0
HATCH
  5
AF
330
A8
100
AcDbEntity
  8
_U+30EC_U+30A4_U+30E4_U+30FC 1
 62
   179
420
  2234388
100
AcDbHatch
 10
0.0
 20
0.0
 30
0.0
210
0.0
220
0.0
230
1.0
  2
SOLID
 70
     1
 71
     0
 91
        1
 92
        1
 93
        1
 72
     4
 94
        3
 73
     0
 74
     1
 95
       53
 96
       49
 40
0.0
 40
0.0
 40
0.0
 40
0.0
 40
1.0
 40
1.0
 40
1.0
 40
2.0
 40
2.0
 40
2.0
 40
3.0
 40
3.0
 40
3.0
 40
4.0
 40
4.0
 40
4.0
 40
5.0
 40
5.0
 40
5.0
 40
6.0
 40
6.0
 40
6.0
 40
7.0
 40
7.0
 40
7.0
 40
8.0
 40
8.0
 40
8.0
 40
9.0
 40
9.0
 40
9.0
 40
10.0
 40
10.0
 40
10.0
 40
11.0
 40
11.0
 40
11.0
 40
12.0
 40
12.0
 40
12.0
 40
13.0
 40
13.0
 40
13.0
 40
14.0
 40
14.0
 40
14.0
 40
15.0
 40
15.0
 40
15.0
 40
16.0
 40
16.0
 40
16.0
 40
16.0
 10
93.40101722925391
 20
-136.4536864893241
 10
93.32281356173874
 20
-136.4536864893241
 10
93.22118324492388
 20
-136.4368055214464
 10
93.11989743765753
 20
-136.3734157645178
 10
92.94626462520094
 20
-136.2631727089898
 10
92.92524954274091
 20
-136.1322590805503
 10
92.90595700802352
 20
-136.0240830823134
 10
92.90595700802352
 20
-136.0240830823134
 10
93.12816566682213
 20
-136.0240830823134
 10
93.12816566682213
 20
-136.0240830823134
 10
93.18328719458613
 20
-136.2232096013609
 10
93.31006670844332
 20
-136.252837422534
 10
93.40308428654507
 20
-136.252837422534
 10
93.5429551632462
 20
-136.252837422534
 10
93.69522838369426
 20
-136.1532741630103
 10
93.69522838369426
 20
-135.9207302177559
 10
93.69522838369426
 20
-135.6647596232019
 10
93.51539439936421
 20
-135.5948241848513
 10
93.39481605738047
 20
-135.5948241848513
 10
93.36312117891617
 20
-135.5948241848513
 10
93.22118324492388
 20
-135.5948241848513
 10
93.13229978140443
 20
-135.7236707559996
 10
93.13229978140443
 20
-135.7236707559996
 10
92.95694442120521
 20
-135.7047227308308
 10
92.95694442120521
 20
-135.7047227308308
 10
92.95694442120521
 20
-135.7047227308308
 10
93.07752276318895
 20
-134.8586072796534
 10
93.07752276318895
 20
-134.8586072796534
 10
93.07752276318895
 20
-134.8586072796534
 10
93.85611434285542
 20
-134.8586072796534
 10
93.85611434285542
 20
-134.8586072796534
 10
93.85611434285542
 20
-134.8586072796534
 10
93.85611434285542
 20
-135.05325517457
 10
93.85611434285542
 20
-135.05325517457
 10
93.85611434285542
 20
-135.05325517457
 10
93.24047577964127
 20
-135.05325517457
 10
93.24047577964127
 20
-135.05325517457
 10
93.24047577964127
 20
-135.05325517457
 10
93.174674455873
 20
-135.4763129001587
 10
93.174674455873
 20
-135.4763129001587
 10
93.23599715551045
 20
-135.4425509644033
 10
93.31867944715644
 20
-135.4022433472258
 10
93.43719073184904
 20
-135.4022433472258
 10
93.69109426911196
 20
-135.4022433472258
 10
93.92777232894862
 20
-135.5882785034293
 10
93.92777232894862
 20
-135.9014376830385
 10
93.92777232894862
 20
-136.2187309772301
 10
93.70349661285886
 20
-136.4536864893241
 10
93.40101722925391
 20
-136.4536864893241
 97
        0
 97
        0
 75
     2
 76
     1
 98
        0
  0
ENDBLK
  5
AB
330
A8
100
AcDbEntity
  8
0
100
AcDbBlockEnd
  0
ENDSEC
  0
SECTION
  2
ENTITIES
  0
POLYLINE
  5
41
330
1F
100
AcDbEntity
  8
_U+30EC_U+30A4_U+30E4_U+30FC 1
 62
   179
420
  2234388
370
    25
100
AcDb2dPolyline
 66
     1
 10
0.0
 20
0.0
 30
0.0
  0
VERTEX
  5
42
330
41
100
AcDbEntity
  8
_U+30EC_U+30A4_U+30E4_U+30FC 1
 62
   179
420
  2234388
370
    25
100
AcDbVertex
100
AcDb2dVertex
 10
85.33207393410854
 20
-132.775360244584
 30
0.0
  0
VERTEX
  5
43
330
41
100
AcDbEntity
  8
_U+30EC_U+30A4_U+30E4_U+30FC 1
 62
   179
420
  2234388
370
    25
100
AcDbVertex
100
AcDb2dVertex
 10
100.3322199403118
 20
-132.775360244584
 30
0.0
  0
SEQEND
  5
44
330
41
100
AcDbEntity
  8
_U+30EC_U+30A4_U+30E4_U+30FC 1
 62
   179
420
  2234388
370
    25
  0
POLYLINE
  5
45
330
1F
100
AcDbEntity
  8
_U+30EC_U+30A4_U+30E4_U+30FC 1
 62
   179
420
  2234388
370
    25
100
AcDb2dPolyline
 66
     1
 10
0.0
 20
0.0
 30
0.0
  0
VERTEX
  5
46
330
45
100
AcDbEntity
  8
_U+30EC_U+30A4_U+30E4_U+30FC 1
 62
   179
420
  2234388
370
    25
100
AcDbVertex
100
AcDb2dVertex
 10
85.33207393410854
 20
-117.7752491372228
 30
0.0
  0
VERTEX
  5
47
330
45
100
AcDbEntity
  8
_U+30EC_U+30A4_U+30E4_U+30FC 1
 62
   179
420
  2234388
370
    25
100
AcDbVertex
100
AcDb2dVertex
 10
85.33207393410854
 20
-132.775360244584
 30
0.0
  0
SEQEND
  5
48
330
45
100
AcDbEntity
  8
_U+30EC_U+30A4_U+30E4_U+30FC 1
 62
   179
420
  2234388
370
    25
  0
POLYLINE
  5
49
330
1F
100
AcDbEntity
  8
_U+30EC_U+30A4_U+30E4_U+30FC 1
 62
   179
420
  2234388
370
    25
100
AcDb2dPolyline
 66
     1
 10
0.0
 20
0.0
 30
0.0
  0
VERTEX
  5
4A
330
49
100
AcDbEntity
  8
_U+30EC_U+30A4_U+30E4_U+30FC 1
 62
   179
420
  2234388
370
    25
100
AcDbVertex
100
AcDb2dVertex
 10
86.13203280258878
 20
-117.7752491372228
 30
0.0
  0
VERTEX
  5
4B
330
49
100
AcDbEntity
  8
_U+30EC_U+30A4_U+30E4_U+30FC 1
 62
   179
420
  2234388
370
    25
100
AcDbVertex
100
AcDb2dVertex
 10
86.13203280258878
 20
-131.9754013558948
 30
0.0
  0
SEQEND
  5
4C
330
49
100
AcDbEntity
  8
_U+30EC_U+30A4_U+30E4_U+30FC 1
 62
   179
420
  2234388
370
    25
  0
POLYLINE
  5
4D
330
1F
100
AcDbEntity
  8
_U+30EC_U+30A4_U+30E4_U+30FC 1
 62
   179
420
  2234388
370
    25
100
AcDb2dPolyline
 66
     1
 10
0.0
 20
0.0
 30
0.0
  0
VERTEX
  5
4E
330
4D
100
AcDbEntity
  8
_U+30EC_U+30A4_U+30E4_U+30FC 1
 62
   179
420
  2234388
370
    25
100
AcDbVertex
100
AcDb2dVertex
 10
86.13203280258878
 20
-131.9754013558948
 30
0.0
  0
VERTEX
  5
4F
330
4D
100
AcDbEntity
  8
_U+30EC_U+30A4_U+30E4_U+30FC 1
 62
   179
420
  2234388
370
    25
100
AcDbVertex
100
AcDb2dVertex
 10
100.3322199403118
 20
-131.9754013558948
 30
0.0
  0
SEQEND
  5
50
330
4D
100
AcDbEntity
  8
_U+30EC_U+30A4_U+30E4_U+30FC 1
 62
   179
420
  2234388
370
    25
  0
POLYLINE
  5
51
330
1F
100
AcDbEntity
  8
_U+30EC_U+30A4_U+30E4_U+30FC 1
 62
   179
420
  2234388
370
    25
100
AcDb2dPolyline
 66
     1
 10
0.0
 20
0.0
 30
0.0
  0
VERTEX
  5
52
330
51
100
AcDbEntity
  8
_U+30EC_U+30A4_U+30E4_U+30FC 1
 62
   179
420
  2234388
370
    25
100
AcDbVertex
100
AcDb2dVertex
 10
85.33207393410854
 20
-117.7752491372228
 30
0.0
  0
VERTEX
  5
53
330
51
100
AcDbEntity
  8
_U+30EC_U+30A4_U+30E4_U+30FC 1
 62
   179
420
  2234388
370
    25
100
AcDbVertex
100
AcDb2dVertex
 10
86.13203280258878
 20
-117.7752491372228
 30
0.0
  0
SEQEND
  5
54
330
51
100
AcDbEntity
  8
_U+30EC_U+30A4_U+30E4_U+30FC 1
 62
   179
420
  2234388
370
    25
  0
POLYLINE
  5
55
330
1F
100
AcDbEntity
  8
_U+30EC_U+30A4_U+30E4_U+30FC 1
 62
   179
420
  2234388
370
    25
100
AcDb2dPolyline
 66
     1
 10
0.0
 20
0.0
 30
0.0
  0
VERTEX
  5
56
330
55
100
AcDbEntity
  8
_U+30EC_U+30A4_U+30E4_U+30FC 1
 62
   179
420
  2234388
370
    25
100
AcDbVertex
100
AcDb2dVertex
 10
100.3322199403118
 20
-131.9754013558948
 30
0.0
  0
VERTEX
  5
57
330
55
100
AcDbEntity
  8
_U+30EC_U+30A4_U+30E4_U+30FC 1
 62
   179
420
  2234388
370
    25
100
AcDbVertex
100
AcDb2dVertex
 10
100.3322199403118
 20
-132.775360244584
 30
0.0
  0
SEQEND
  5
58
330
55
100
AcDbEntity
  8
_U+30EC_U+30A4_U+30E4_U+30FC 1
 62
   179
420
  2234388
370
    25
  0
SPLINE
  5
59
330
1F
100
AcDbEntity
  8
_U+30EC_U+30A4_U+30E4_U+30FC 1
 62
   179
420
  2234388
370
     9
100
AcDbSpline
210
0.0
220
0.0
230
1.0
 70
    11
 71
     3
 72
    17
 73
    13
 74
     0
 42
0.0000000001
 43
0.0000000001
 12
1.0
 22
0.0
 32
0.0
 13
1.0
 23
0.0
 33
0.0
 40
0.0
 40
0.0
 40
0.0
 40
0.0
 40
1.0
 40
1.0
 40
1.0
 40
2.0
 40
2.0
 40
2.0
 40
3.0
 40
3.0
 40
3.0
 40
4.0
 40
4.0
 40
4.0
 40
4.0
 10
104.4318503912771
 20
-132.775360244584
 30
0.0
 10
104.4318503912771
 20
-132.720221077931
 30
0.0
 10
104.3870828924192
 20
-132.6754535779424
 30
0.0
 10
104.3319437271593
 20
-132.6754535779424
 30
0.0
 10
104.2768398396762
 20
-132.6754535779424
 30
0.0
 10
104.2320370630414
 20
-132.720221077931
 30
0.0
 10
104.2320370630414
 20
-132.775360244584
 30
0.0
 10
104.2320370630414
 20
-132.830464133459
 30
0.0
 10
104.2768398396762
 20
-132.8752669112257
 30
0.0
 10
104.3319437271593
 20
-132.8752669112257
 30
0.0
 10
104.3870828924192
 20
-132.8752669112257
 30
0.0
 10
104.4318503912771
 20
-132.830464133459
 30
0.0
 10
104.4318503912771
 20
-132.775360244584
 30
0.0
  0
SPLINE
  5
5A
330
1F
100
AcDbEntity
  8
_U+30EC_U+30A4_U+30E4_U+30FC 1
 62
   179
420
  2234388
370
     9
100
AcDbSpline
210
0.0
220
0.0
230
1.0
 70
    11
 71
     3
 72
    17
 73
    13
 74
     0
 42
0.0000000001
 43
0.0000000001
 12
1.0
 22
0.0
 32
0.0
 13
1.0
 23
0.0
 33
0.0
 40
0.0
 40
0.0
 40
0.0
 40
0.0
 40
1.0
 40
1.0
 40
1.0
 40
2.0
 40
2.0
 40
2.0
 40
3.0
 40
3.0
 40
3.0
 40
4.0
 40
4.0
 40
4.0
 40
4.0
 10
104.4318503912771
 20
-131.9754013558948
 30
0.0
 10
104.4318503912771
 20
-131.9202974670199
 30
0.0
 10
104.3870828924192
 20
-131.8754946892531
 30
0.0
 10
104.3319437271593
 20
-131.8754946892531
 30
0.0
 10
104.2768398396762
 20
-131.8754946892531
 30
0.0
 10
104.2320370630414
 20
-131.9202974670199
 30
0.0
 10
104.2320370630414
 20
-131.9754013558948
 30
0.0
 10
104.2320370630414
 20
-132.0305405225479
 30
0.0
 10
104.2768398396762
 20
-132.0753080225364
 30
0.0
 10
104.3319437271593
 20
-132.0753080225364
 30
0.0
 10
104.3870828924192
 20
-132.0753080225364
 30
0.0
 10
104.4318503912771
 20
-132.0305405225479
 30
0.0
 10
104.4318503912771
 20
-131.9754013558948
 30
0.0
  0
SPLINE
  5
5B
330
1F
100
AcDbEntity
  8
_U+30EC_U+30A4_U+30E4_U+30FC 1
 62
   179
420
  2234388
370
     9
100
AcDbSpline
210
0.0
220
0.0
230
1.0
 70
    11
 71
     3
 72
    17
 73
    13
 74
     0
 42
0.0000000001
 43
0.0000000001
 12
1.0
 22
0.0
 32
0.0
 13
1.0
 23
0.0
 33
0.0
 40
0.0
 40
0.0
 40
0.0
 40
0.0
 40
1.0
 40
1.0
 40
1.0
 40
2.0
 40
2.0
 40
2.0
 40
3.0
 40
3.0
 40
3.0
 40
4.0
 40
4.0
 40
4.0
 40
4.0
 10
100.4321266044297
 20
-136.7751194102509
 30
0.0
 10
100.4321266044297
 20
-136.7199802435979
 30
0.0
 10
100.3873238277949
 20
-136.6752127436093
 30
0.0
 10
100.3322199403118
 20
-136.6752127436093
 30
0.0
 10
100.2770833082641
 20
-136.6752127436093
 30
0.0
 10
100.2322805304973
 20
-136.7199802435979
 30
0.0
 10
100.2322805304973
 20
-136.7751194102509
 30
0.0
 10
100.2322805304973
 20
-136.8309288546814
 30
0.0
 10
100.2770833082641
 20
-136.8756963546699
 30
0.0
 10
100.3322199403118
 20
-136.8756963546699
 30
0.0
 10
100.3873238277949
 20
-136.8756963546699
 30
0.0
 10
100.4321266044297
 20
-136.8309288546814
 30
0.0
 10
100.4321266044297
 20
-136.7751194102509
 30
0.0
  0
SPLINE
  5
5C
330
1F
100
AcDbEntity
  8
_U+30EC_U+30A4_U+30E4_U+30FC 1
 62
   179
420
  2234388
370
     9
100
AcDbSpline
210
0.0
220
0.0
230
1.0
 70
    11
 71
     3
 72
    17
 73
    13
 74
     0
 42
0.0000000001
 43
0.0000000001
 12
1.0
 22
0.0
 32
0.0
 13
1.0
 23
0.0
 33
0.0
 40
0.0
 40
0.0
 40
0.0
 40
0.0
 40
1.0
 40
1.0
 40
1.0
 40
2.0
 40
2.0
 40
2.0
 40
3.0
 40
3.0
 40
3.0
 40
4.0
 40
4.0
 40
4.0
 40
4.0
 10
85.43198059822637
 20
-136.7751194102509
 30
0.0
 10
85.43198059822637
 20
-136.7199802435979
 30
0.0
 10
85.38721309936848
 20
-136.6752127436093
 30
0.0
 10
85.33207393410854
 20
-136.6752127436093
 30
0.0
 10
85.27697220090283
 20
-136.6752127436093
 30
0.0
 10
85.23216942313643
 20
-136.7199802435979
 30
0.0
 10
85.23216942313643
 20
-136.7751194102509
 30
0.0
 10
85.23216942313643
 20
-136.8309288546814
 30
0.0
 10
85.27697220090283
 20
-136.8756963546699
 30
0.0
 10
85.33207393410854
 20
-136.8756963546699
 30
0.0
 10
85.38721309936848
 20
-136.8756963546699
 30
0.0
 10
85.43198059822637
 20
-136.8309288546814
 30
0.0
 10
85.43198059822637
 20
-136.7751194102509
 30
0.0
  0
SPLINE
  5
5D
330
1F
100
AcDbEntity
  8
_U+30EC_U+30A4_U+30E4_U+30FC 1
 62
   179
420
  2234388
370
     9
100
AcDbSpline
210
0.0
220
0.0
230
1.0
 70
    11
 71
     3
 72
    17
 73
    13
 74
     0
 42
0.0000000001
 43
0.0000000001
 12
1.0
 22
0.0
 32
0.0
 13
1.0
 23
0.0
 33
0.0
 40
0.0
 40
0.0
 40
0.0
 40
0.0
 40
1.0
 40
1.0
 40
1.0
 40
2.0
 40
2.0
 40
2.0
 40
3.0
 40
3.0
 40
3.0
 40
4.0
 40
4.0
 40
4.0
 40
4.0
 10
81.43208042249455
 20
-132.775360244584
 30
0.0
 10
81.43208042249455
 20
-132.720221077931
 30
0.0
 10
81.38727764585978
 20
-132.6754535779424
 30
0.0
 10
81.33199736949233
 20
-132.6754535779424
 30
0.0
 10
81.27685820423238
 20
-132.6754535779424
 30
0.0
 10
81.23209070537449
 20
-132.720221077931
 30
0.0
 10
81.23209070537449
 20
-132.775360244584
 30
0.0
 10
81.23209070537449
 20
-132.830464133459
 30
0.0
 10
81.27685820423238
 20
-132.8752669112257
 30
0.0
 10
81.33199736949233
 20
-132.8752669112257
 30
0.0
 10
81.38727764585978
 20
-132.8752669112257
 30
0.0
 10
81.43208042249455
 20
-132.830464133459
 30
0.0
 10
81.43208042249455
 20
-132.775360244584
 30
0.0
  0
SPLINE
  5
5E
330
1F
100
AcDbEntity
  8
_U+30EC_U+30A4_U+30E4_U+30FC 1
 62
   179
420
  2234388
370
     9
100
AcDbSpline
210
0.0
220
0.0
230
1.0
 70
    11
 71
     3
 72
    17
 73
    13
 74
     0
 42
0.0000000001
 43
0.0000000001
 12
1.0
 22
0.0
 32
0.0
 13
1.0
 23
0.0
 33
0.0
 40
0.0
 40
0.0
 40
0.0
 40
0.0
 40
1.0
 40
1.0
 40
1.0
 40
2.0
 40
2.0
 40
2.0
 40
3.0
 40
3.0
 40
3.0
 40
4.0
 40
4.0
 40
4.0
 40
4.0
 10
81.43208042249455
 20
-117.7752491372228
 30
0.0
 10
81.43208042249455
 20
-117.72010997057
 30
0.0
 10
81.38727764585978
 20
-117.6753424705812
 30
0.0
 10
81.33199736949233
 20
-117.6753424705812
 30
0.0
 10
81.27685820423238
 20
-117.6753424705812
 30
0.0
 10
81.23209070537449
 20
-117.72010997057
 30
0.0
 10
81.23209070537449
 20
-117.7752491372228
 30
0.0
 10
81.23209070537449
 20
-117.8307058038758
 30
0.0
 10
81.27685820423238
 20
-117.8755085816422
 30
0.0
 10
81.33199736949233
 20
-117.8755085816422
 30
0.0
 10
81.38727764585978
 20
-117.8755085816422
 30
0.0
 10
81.43208042249455
 20
-117.8307058038758
 30
0.0
 10
81.43208042249455
 20
-117.7752491372228
 30
0.0
  0
POLYLINE
  5
5F
330
1F
100
AcDbEntity
  8
_U+30EC_U+30A4_U+30E4_U+30FC 1
 62
   179
420
  2234388
370
     9
100
AcDb2dPolyline
 66
     1
 10
0.0
 20
0.0
 30
0.0
  0
VERTEX
  5
60
330
5F
100
AcDbEntity
  8
_U+30EC_U+30A4_U+30E4_U+30FC 1
 62
   179
420
  2234388
370
     9
100
AcDbVertex
100
AcDb2dVertex
 10
104.3319437271593
 20
-131.9754013558948
 30
0.0
  0
VERTEX
  5
61
330
5F
100
AcDbEntity
  8
_U+30EC_U+30A4_U+30E4_U+30FC 1
 62
   179
420
  2234388
370
     9
100
AcDbVertex
100
AcDb2dVertex
 10
104.3319437271593
 20
-126.7176719127651
 30
0.0
  0
SEQEND
  5
62
330
5F
100
AcDbEntity
  8
_U+30EC_U+30A4_U+30E4_U+30FC 1
 62
   179
420
  2234388
370
     9
  0
POLYLINE
  5
63
330
1F
100
AcDbEntity
  8
_U+30EC_U+30A4_U+30E4_U+30FC 1
 62
   179
420
  2234388
370
     9
100
AcDb2dPolyline
 66
     1
 10
0.0
 20
0.0
 30
0.0
  0
VERTEX
  5
64
330
63
100
AcDbEntity
  8
_U+30EC_U+30A4_U+30E4_U+30FC 1
 62
   179
420
  2234388
370
     9
100
AcDbVertex
100
AcDb2dVertex
 10
104.3319437271593
 20
-133.775132466556
 30
0.0
  0
VERTEX
  5
65
330
63
100
AcDbEntity
  8
_U+30EC_U+30A4_U+30E4_U+30FC 1
 62
   179
420
  2234388
370
     9
100
AcDbVertex
100
AcDb2dVertex
 10
104.3319437271593
 20
-131.9754013558948
 30
0.0
  0
SEQEND
  5
66
330
63
100
AcDbEntity
  8
_U+30EC_U+30A4_U+30E4_U+30FC 1
 62
   179
420
  2234388
370
     9
  0
POLYLINE
  5
67
330
1F
100
AcDbEntity
  8
_U+30EC_U+30A4_U+30E4_U+30FC 1
 62
   179
420
  2234388
370
     9
100
AcDb2dPolyline
 66
     1
 10
0.0
 20
0.0
 30
0.0
  0
VERTEX
  5
68
330
67
100
AcDbEntity
  8
_U+30EC_U+30A4_U+30E4_U+30FC 1
 62
   179
420
  2234388
370
     9
100
AcDbVertex
100
AcDb2dVertex
 10
102.871937653296
 20
-132.775360244584
 30
0.0
  0
VERTEX
  5
69
330
67
100
AcDbEntity
  8
_U+30EC_U+30A4_U+30E4_U+30FC 1
 62
   179
420
  2234388
370
     9
100
AcDbVertex
100
AcDb2dVertex
 10
105.3324214794127
 20
-132.775360244584
 30
0.0
  0
SEQEND
  5
6A
330
67
100
AcDbEntity
  8
_U+30EC_U+30A4_U+30E4_U+30FC 1
 62
   179
420
  2234388
370
     9
  0
POLYLINE
  5
6B
330
1F
100
AcDbEntity
  8
_U+30EC_U+30A4_U+30E4_U+30FC 1
 62
   179
420
  2234388
370
     9
100
AcDb2dPolyline
 66
     1
 10
0.0
 20
0.0
 30
0.0
  0
VERTEX
  5
6C
330
6B
100
AcDbEntity
  8
_U+30EC_U+30A4_U+30E4_U+30FC 1
 62
   179
420
  2234388
370
     9
100
AcDbVertex
100
AcDb2dVertex
 10
102.871937653296
 20
-131.9754013558948
 30
0.0
  0
VERTEX
  5
6D
330
6B
100
AcDbEntity
  8
_U+30EC_U+30A4_U+30E4_U+30FC 1
 62
   179
420
  2234388
370
     9
100
AcDbVertex
100
AcDb2dVertex
 10
105.3324214794127
 20
-131.9754013558948
 30
0.0
  0
SEQEND
  5
6E
330
6B
100
AcDbEntity
  8
_U+30EC_U+30A4_U+30E4_U+30FC 1
 62
   179
420
  2234388
370
     9
  0
INSERT
  5
70
330
1F
100
AcDbEntity
  8
_U+30EC_U+30A4_U+30E4_U+30FC 1
100
AcDbBlockReference
  2
block 2
 10
0.0
 20
0.0
 30
0.0
  0
SPLINE
  5
82
330
1F
100
AcDbEntity
  8
_U+30EC_U+30A4_U+30E4_U+30FC 1
 62
   179
420
  2234388
370
    25
100
AcDbSpline
210
0.0
220
0.0
230
1.0
 70
    11
 71
     3
 72
    17
 73
    13
 74
     0
 42
0.0000000001
 43
0.0000000001
 12
1.0
 22
0.0
 32
0.0
 13
1.0
 23
0.0
 33
0.0
 40
0.0
 40
0.0
 40
0.0
 40
0.0
 40
1.0
 40
1.0
 40
1.0
 40
2.0
 40
2.0
 40
2.0
 40
3.0
 40
3.0
 40
3.0
 40
4.0
 40
4.0
 40
4.0
 40
4.0
 10
100.3673566060821
 20
-132.775360244584
 30
0.0
 10
100.3673566060821
 20
-132.7946571890239
 30
0.0
 10
100.3514816064871
 20
-132.8104969112418
 30
0.0
 10
100.3322199403118
 20
-132.8104969112418
 30
0.0
 10
100.3129229963597
 20
-132.8104969112418
 30
0.0
 10
100.2970479967647
 20
-132.7946571890239
 30
0.0
 10
100.2970479967647
 20
-132.775360244584
 30
0.0
 10
100.2970479967647
 20
-132.7560633001442
 30
0.0
 10
100.3129229963597
 20
-132.7402235779263
 30
0.0
 10
100.3322199403118
 20
-132.7402235779263
 30
0.0
 10
100.3514816064871
 20
-132.7402235779263
 30
0.0
 10
100.3673566060821
 20
-132.7560633001442
 30
0.0
 10
100.3673566060821
 20
-132.775360244584
 30
0.0
  0
SPLINE
  5
83
330
1F
100
AcDbEntity
  8
_U+30EC_U+30A4_U+30E4_U+30FC 1
 62
   179
420
  2234388
370
    25
100
AcDbSpline
210
0.0
220
0.0
230
1.0
 70
    11
 71
     3
 72
    17
 73
    13
 74
     0
 42
0.0000000001
 43
0.0000000001
 12
1.0
 22
0.0
 32
0.0
 13
1.0
 23
0.0
 33
0.0
 40
0.0
 40
0.0
 40
0.0
 40
0.0
 40
1.0
 40
1.0
 40
1.0
 40
2.0
 40
2.0
 40
2.0
 40
3.0
 40
3.0
 40
3.0
 40
4.0
 40
4.0
 40
4.0
 40
4.0
 10
100.3673566060821
 20
-131.9754013558948
 30
0.0
 10
100.3673566060821
 20
-131.9946983003346
 30
0.0
 10
100.3514816064871
 20
-132.0105380225532
 30
0.0
 10
100.3322199403118
 20
-132.0105380225532
 30
0.0
 10
100.3129229963597
 20
-132.0105380225532
 30
0.0
 10
100.2970479967647
 20
-131.9946983003346
 30
0.0
 10
100.2970479967647
 20
-131.9754013558948
 30
0.0
 10
100.2970479967647
 20
-131.9561044114556
 30
0.0
 10
100.3129229963597
 20
-131.9402646892371
 30
0.0
 10
100.3322199403118
 20
-131.9402646892371
 30
0.0
 10
100.3514816064871
 20
-131.9402646892371
 30
0.0
 10
100.3673566060821
 20
-131.9561044114556
 30
0.0
 10
100.3673566060821
 20
-131.9754013558948
 30
0.0
  0
SPLINE
  5
84
330
1F
100
AcDbEntity
  8
_U+30EC_U+30A4_U+30E4_U+30FC 1
 62
   179
420
  2234388
370
     9
100
AcDbSpline
210
0.0
220
0.0
230
1.0
 70
    11
 71
     3
 72
    17
 73
    13
 74
     0
 42
0.0000000001
 43
0.0000000001
 12
1.0
 22
0.0
 32
0.0
 13
1.0
 23
0.0
 33
0.0
 40
0.0
 40
0.0
 40
0.0
 40
0.0
 40
1.0
 40
1.0
 40
1.0
 40
2.0
 40
2.0
 40
2.0
 40
3.0
 40
3.0
 40
3.0
 40
4.0
 40
4.0
 40
4.0
 40
4.0
 10
104.3671156707064
 20
-131.9754013558948
 30
0.0
 10
104.3671156707064
 20
-131.9946983003346
 30
0.0
 10
104.3519462266489
 20
-132.0105380225532
 30
0.0
 10
104.3319437271593
 20
-132.0105380225532
 30
0.0
 10
104.312682060984
 20
-132.0105380225532
 30
0.0
 10
104.296807061389
 20
-131.9946983003346
 30
0.0
 10
104.296807061389
 20
-131.9754013558948
 30
0.0
 10
104.296807061389
 20
-131.9561044114556
 30
0.0
 10
104.312682060984
 20
-131.9402646892371
 30
0.0
 10
104.3319437271593
 20
-131.9402646892371
 30
0.0
 10
104.3519462266489
 20
-131.9402646892371
 30
0.0
 10
104.3671156707064
 20
-131.9561044114556
 30
0.0
 10
104.3671156707064
 20
-131.9754013558948
 30
0.0
  0
POLYLINE
  5
85
330
1F
100
AcDbEntity
  8
_U+30EC_U+30A4_U+30E4_U+30FC 1
 62
   179
420
  2234388
370
     9
100
AcDb2dPolyline
 66
     1
 10
0.0
 20
0.0
 30
0.0
  0
VERTEX
  5
86
330
85
100
AcDbEntity
  8
_U+30EC_U+30A4_U+30E4_U+30FC 1
 62
   179
420
  2234388
370
     9
100
AcDbVertex
100
AcDb2dVertex
 10
81.33199736949233
 20
-117.7752491372228
 30
0.0
  0
VERTEX
  5
87
330
85
100
AcDbEntity
  8
_U+30EC_U+30A4_U+30E4_U+30FC 1
 62
   179
420
  2234388
370
     9
100
AcDbVertex
100
AcDb2dVertex
 10
81.33199736949233
 20
-132.775360244584
 30
0.0
  0
SEQEND
  5
88
330
85
100
AcDbEntity
  8
_U+30EC_U+30A4_U+30E4_U+30FC 1
 62
   179
420
  2234388
370
     9
  0
POLYLINE
  5
89
330
1F
100
AcDbEntity
  8
_U+30EC_U+30A4_U+30E4_U+30FC 1
 62
   179
420
  2234388
370
     9
100
AcDb2dPolyline
 66
     1
 10
0.0
 20
0.0
 30
0.0
  0
VERTEX
  5
8A
330
89
100
AcDbEntity
  8
_U+30EC_U+30A4_U+30E4_U+30FC 1
 62
   179
420
  2234388
370
     9
100
AcDbVertex
100
AcDb2dVertex
 10
82.79200553485745
 20
-117.7752491372228
 30
0.0
  0
VERTEX
  5
8B
330
89
100
AcDbEntity
  8
_U+30EC_U+30A4_U+30E4_U+30FC 1
 62
   179
420
  2234388
370
     9
100
AcDbVertex
100
AcDb2dVertex
 10
80.33204878389203
 20
-117.7752491372228
 30
0.0
  0
SEQEND
  5
8C
330
89
100
AcDbEntity
  8
_U+30EC_U+30A4_U+30E4_U+30FC 1
 62
   179
420
  2234388
370
     9
  0
POLYLINE
  5
8D
330
1F
100
AcDbEntity
  8
_U+30EC_U+30A4_U+30E4_U+30FC 1
 62
   179
420
  2234388
370
     9
100
AcDb2dPolyline
 66
     1
 10
0.0
 20
0.0
 30
0.0
  0
VERTEX
  5
8E
330
8D
100
AcDbEntity
  8
_U+30EC_U+30A4_U+30E4_U+30FC 1
 62
   179
420
  2234388
370
     9
100
AcDbVertex
100
AcDb2dVertex
 10
82.79200553485745
 20
-132.775360244584
 30
0.0
  0
VERTEX
  5
8F
330
8D
100
AcDbEntity
  8
_U+30EC_U+30A4_U+30E4_U+30FC 1
 62
   179
420
  2234388
370
     9
100
AcDbVertex
100
AcDb2dVertex
 10
80.33204878389203
 20
-132.775360244584
 30
0.0
  0
SEQEND
  5
90
330
8D
100
AcDbEntity
  8
_U+30EC_U+30A4_U+30E4_U+30FC 1
 62
   179
420
  2234388
370
     9
  0
INSERT
  5
92
330
1F
100
AcDbEntity
  8
_U+30EC_U+30A4_U+30E4_U+30FC 1
100
AcDbBlockReference
  2
block 3
 10
0.0
 20
0.0
 30
0.0
  0
SPLINE
  5
99
330
1F
100
AcDbEntity
  8
_U+30EC_U+30A4_U+30E4_U+30FC 1
 62
   179
420
  2234388
370
    25
100
AcDbSpline
210
0.0
220
0.0
230
1.0
 70
    11
 71
     3
 72
    17
 73
    13
 74
     0
 42
0.0000000001
 43
0.0000000001
 12
1.0
 22
0.0
 32
0.0
 13
1.0
 23
0.0
 33
0.0
 40
0.0
 40
0.0
 40
0.0
 40
0.0
 40
1.0
 40
1.0
 40
1.0
 40
2.0
 40
2.0
 40
2.0
 40
3.0
 40
3.0
 40
3.0
 40
4.0
 40
4.0
 40
4.0
 40
4.0
 10
85.36721059987879
 20
-117.7752491372228
 30
0.0
 10
85.36721059987879
 20
-117.7948635816622
 30
0.0
 10
85.35137087806068
 20
-117.8107385816583
 30
0.0
 10
85.33207393410854
 20
-117.8107385816583
 30
0.0
 10
85.3127769901564
 20
-117.8107385816583
 30
0.0
 10
85.29693726833828
 20
-117.7948635816622
 30
0.0
 10
85.29693726833828
 20
-117.7752491372228
 30
0.0
 10
85.29693726833828
 20
-117.7559521927833
 30
0.0
 10
85.3127769901564
 20
-117.7401124705651
 30
0.0
 10
85.33207393410854
 20
-117.7401124705651
 30
0.0
 10
85.35137087806068
 20
-117.7401124705651
 30
0.0
 10
85.36721059987879
 20
-117.7559521927833
 30
0.0
 10
85.36721059987879
 20
-117.7752491372228
 30
0.0
  0
SPLINE
  5
9A
330
1F
100
AcDbEntity
  8
_U+30EC_U+30A4_U+30E4_U+30FC 1
 62
   179
420
  2234388
370
    25
100
AcDbSpline
210
0.0
220
0.0
230
1.0
 70
    11
 71
     3
 72
    17
 73
    13
 74
     0
 42
0.0000000001
 43
0.0000000001
 12
1.0
 22
0.0
 32
0.0
 13
1.0
 23
0.0
 33
0.0
 40
0.0
 40
0.0
 40
0.0
 40
0.0
 40
1.0
 40
1.0
 40
1.0
 40
2.0
 40
2.0
 40
2.0
 40
3.0
 40
3.0
 40
3.0
 40
4.0
 40
4.0
 40
4.0
 40
4.0
 10
85.36721059987879
 20
-132.775360244584
 30
0.0
 10
85.36721059987879
 20
-132.7946571890239
 30
0.0
 10
85.35137087806068
 20
-132.8104969112418
 30
0.0
 10
85.33207393410854
 20
-132.8104969112418
 30
0.0
 10
85.3127769901564
 20
-132.8104969112418
 30
0.0
 10
85.29693726833828
 20
-132.7946571890239
 30
0.0
 10
85.29693726833828
 20
-132.775360244584
 30
0.0
 10
85.29693726833828
 20
-132.7560633001442
 30
0.0
 10
85.3127769901564
 20
-132.7402235779263
 30
0.0
 10
85.33207393410854
 20
-132.7402235779263
 30
0.0
 10
85.35137087806068
 20
-132.7402235779263
 30
0.0
 10
85.36721059987879
 20
-132.7560633001442
 30
0.0
 10
85.36721059987879
 20
-132.775360244584
 30
0.0
  0
SPLINE
  5
9B
330
1F
100
AcDbEntity
  8
_U+30EC_U+30A4_U+30E4_U+30FC 1
 62
   179
420
  2234388
370
     9
100
AcDbSpline
210
0.0
220
0.0
230
1.0
 70
    11
 71
     3
 72
    17
 73
    13
 74
     0
 42
0.0000000001
 43
0.0000000001
 12
1.0
 22
0.0
 32
0.0
 13
1.0
 23
0.0
 33
0.0
 40
0.0
 40
0.0
 40
0.0
 40
0.0
 40
1.0
 40
1.0
 40
1.0
 40
2.0
 40
2.0
 40
2.0
 40
3.0
 40
3.0
 40
3.0
 40
4.0
 40
4.0
 40
4.0
 40
4.0
 10
81.36731042414696
 20
-132.775360244584
 30
0.0
 10
81.36731042414696
 20
-132.7946571890239
 30
0.0
 10
81.35143542455198
 20
-132.8104969112418
 30
0.0
 10
81.33199736949233
 20
-132.8104969112418
 30
0.0
 10
81.3125240366558
 20
-132.8104969112418
 30
0.0
 10
81.29686070372207
 20
-132.7946571890239
 30
0.0
 10
81.29686070372207
 20
-132.775360244584
 30
0.0
 10
81.29686070372207
 20
-132.7560633001442
 30
0.0
 10
81.3125240366558
 20
-132.7402235779263
 30
0.0
 10
81.33199736949233
 20
-132.7402235779263
 30
0.0
 10
81.35143542455198
 20
-132.7402235779263
 30
0.0
 10
81.36731042414696
 20
-132.7560633001442
 30
0.0
 10
81.36731042414696
 20
-132.775360244584
 30
0.0
  0
POLYLINE
  5
9C
330
1F
100
AcDbEntity
  8
_U+30EC_U+30A4_U+30E4_U+30FC 1
 62
   179
420
  2234388
370
     9
100
AcDb2dPolyline
 66
     1
 10
0.0
 20
0.0
 30
0.0
  0
VERTEX
  5
9D
330
9C
100
AcDbEntity
  8
_U+30EC_U+30A4_U+30E4_U+30FC 1
 62
   179
420
  2234388
370
     9
100
AcDbVertex
100
AcDb2dVertex
 10
85.33207393410854
 20
-136.7751194102509
 30
0.0
  0
VERTEX
  5
9E
330
9C
100
AcDbEntity
  8
_U+30EC_U+30A4_U+30E4_U+30FC 1
 62
   179
420
  2234388
370
     9
100
AcDbVertex
100
AcDb2dVertex
 10
100.3322199403118
 20
-136.7751194102509
 30
0.0
  0
SEQEND
  5
9F
330
9C
100
AcDbEntity
  8
_U+30EC_U+30A4_U+30E4_U+30FC 1
 62
   179
420
  2234388
370
     9
  0
POLYLINE
  5
A0
330
1F
100
AcDbEntity
  8
_U+30EC_U+30A4_U+30E4_U+30FC 1
 62
   179
420
  2234388
370
     9
100
AcDb2dPolyline
 66
     1
 10
0.0
 20
0.0
 30
0.0
  0
VERTEX
  5
A1
330
A0
100
AcDbEntity
  8
_U+30EC_U+30A4_U+30E4_U+30FC 1
 62
   179
420
  2234388
370
     9
100
AcDbVertex
100
AcDb2dVertex
 10
85.33207393410854
 20
-135.3150780217266
 30
0.0
  0
VERTEX
  5
A2
330
A0
100
AcDbEntity
  8
_U+30EC_U+30A4_U+30E4_U+30FC 1
 62
   179
420
  2234388
370
     9
100
AcDbVertex
100
AcDb2dVertex
 10
85.33207393410854
 20
-137.7755619100008
 30
0.0
  0
SEQEND
  5
A3
330
A0
100
AcDbEntity
  8
_U+30EC_U+30A4_U+30E4_U+30FC 1
 62
   179
420
  2234388
370
     9
  0
POLYLINE
  5
A4
330
1F
100
AcDbEntity
  8
_U+30EC_U+30A4_U+30E4_U+30FC 1
 62
   179
420
  2234388
370
     9
100
AcDb2dPolyline
 66
     1
 10
0.0
 20
0.0
 30
0.0
  0
VERTEX
  5
A5
330
A4
100
AcDbEntity
  8
_U+30EC_U+30A4_U+30E4_U+30FC 1
 62
   179
420
  2234388
370
     9
100
AcDbVertex
100
AcDb2dVertex
 10
100.3322199403118
 20
-135.3150780217266
 30
0.0
  0
VERTEX
  5
A6
330
A4
100
AcDbEntity
  8
_U+30EC_U+30A4_U+30E4_U+30FC 1
 62
   179
420
  2234388
370
     9
100
AcDbVertex
100
AcDb2dVertex
 10
100.3322199403118
 20
-137.7755619100008
 30
0.0
  0
SEQEND
  5
A7
330
A4
100
AcDbEntity
  8
_U+30EC_U+30A4_U+30E4_U+30FC 1
 62
   179
420
  2234388
370
     9
  0
INSERT
  5
A9
330
1F
100
AcDbEntity
  8
_U+30EC_U+30A4_U+30E4_U+30FC 1
100
AcDbBlockReference
  2
block 4
 10
0.0
 20
0.0
 30
0.0
  0
SPLINE
  5
B0
330
1F
100
AcDbEntity
  8
_U+30EC_U+30A4_U+30E4_U+30FC 1
 62
   179
420
  2234388
370
    25
100
AcDbSpline
210
0.0
220
0.0
230
1.0
 70
    11
 71
     3
 72
    17
 73
    13
 74
     0
 42
0.0000000001
 43
0.0000000001
 12
1.0
 22
0.0
 32
0.0
 13
1.0
 23
0.0
 33
0.0
 40
0.0
 40
0.0
 40
0.0
 40
0.0
 40
1.0
 40
1.0
 40
1.0
 40
2.0
 40
2.0
 40
2.0
 40
3.0
 40
3.0
 40
3.0
 40
4.0
 40
4.0
 40
4.0
 40
4.0
 10
85.36721059987879
 20
-132.775360244584
 30
0.0
 10
85.36721059987879
 20
-132.7946571890239
 30
0.0
 10
85.35137087806068
 20
-132.8104969112418
 30
0.0
 10
85.33207393410854
 20
-132.8104969112418
 30
0.0
 10
85.3127769901564
 20
-132.8104969112418
 30
0.0
 10
85.29693726833828
 20
-132.7946571890239
 30
0.0
 10
85.29693726833828
 20
-132.775360244584
 30
0.0
 10
85.29693726833828
 20
-132.7560633001442
 30
0.0
 10
85.3127769901564
 20
-132.7402235779263
 30
0.0
 10
85.33207393410854
 20
-132.7402235779263
 30
0.0
 10
85.35137087806068
 20
-132.7402235779263
 30
0.0
 10
85.36721059987879
 20
-132.7560633001442
 30
0.0
 10
85.36721059987879
 20
-132.775360244584
 30
0.0
  0
SPLINE
  5
B1
330
1F
100
AcDbEntity
  8
_U+30EC_U+30A4_U+30E4_U+30FC 1
 62
   179
420
  2234388
370
    25
100
AcDbSpline
210
0.0
220
0.0
230
1.0
 70
    11
 71
     3
 72
    17
 73
    13
 74
     0
 42
0.0000000001
 43
0.0000000001
 12
1.0
 22
0.0
 32
0.0
 13
1.0
 23
0.0
 33
0.0
 40
0.0
 40
0.0
 40
0.0
 40
0.0
 40
1.0
 40
1.0
 40
1.0
 40
2.0
 40
2.0
 40
2.0
 40
3.0
 40
3.0
 40
3.0
 40
4.0
 40
4.0
 40
4.0
 40
4.0
 10
100.3673566060821
 20
-132.775360244584
 30
0.0
 10
100.3673566060821
 20
-132.7946571890239
 30
0.0
 10
100.3514816064871
 20
-132.8104969112418
 30
0.0
 10
100.3322199403118
 20
-132.8104969112418
 30
0.0
 10
100.3129229963597
 20
-132.8104969112418
 30
0.0
 10
100.2970479967647
 20
-132.7946571890239
 30
0.0
 10
100.2970479967647
 20
-132.775360244584
 30
0.0
 10
100.2970479967647
 20
-132.7560633001442
 30
0.0
 10
100.3129229963597
 20
-132.7402235779263
 30
0.0
 10
100.3322199403118
 20
-132.7402235779263
 30
0.0
 10
100.3514816064871
 20
-132.7402235779263
 30
0.0
 10
100.3673566060821
 20
-132.7560633001442
 30
0.0
 10
100.3673566060821
 20
-132.775360244584
 30
0.0
  0
SPLINE
  5
B2
330
1F
100
AcDbEntity
  8
_U+30EC_U+30A4_U+30E4_U+30FC 1
 62
   179
420
  2234388
370
     9
100
AcDbSpline
210
0.0
220
0.0
230
1.0
 70
    11
 71
     3
 72
    17
 73
    13
 74
     0
 42
0.0000000001
 43
0.0000000001
 12
1.0
 22
0.0
 32
0.0
 13
1.0
 23
0.0
 33
0.0
 40
0.0
 40
0.0
 40
0.0
 40
0.0
 40
1.0
 40
1.0
 40
1.0
 40
2.0
 40
2.0
 40
2.0
 40
3.0
 40
3.0
 40
3.0
 40
4.0
 40
4.0
 40
4.0
 40
4.0
 10
100.3673566060821
 20
-136.7751194102509
 30
0.0
 10
100.3673566060821
 20
-136.7950866324681
 30
0.0
 10
100.3514816064871
 20
-136.810926354686
 30
0.0
 10
100.3322199403118
 20
-136.810926354686
 30
0.0
 10
100.3129229963597
 20
-136.810926354686
 30
0.0
 10
100.2970479967647
 20
-136.7950866324681
 30
0.0
 10
100.2970479967647
 20
-136.7751194102509
 30
0.0
 10
100.2970479967647
 20
-136.7558224658111
 30
0.0
 10
100.3129229963597
 20
-136.7399827435926
 30
0.0
 10
100.3322199403118
 20
-136.7399827435926
 30
0.0
 10
100.3514816064871
 20
-136.7399827435926
 30
0.0
 10
100.3673566060821
 20
-136.7558224658111
 30
0.0
 10
100.3673566060821
 20
-136.7751194102509
 30
0.0
  0
SPLINE
  5
B3
330
1F
100
AcDbEntity
  8
_U+30EC_U+30A4_U+30E4_U+30FC 1
370
     0
100
AcDbSpline
210
0.0
220
0.0
230
1.0
 70
    11
 71
     3
 72
    35
 73
    31
 74
     0
 42
0.0000000001
 43
0.0000000001
 12
1.0
 22
0.0
 32
0.0
 13
1.0
 23
0.0
 33
0.0
 40
0.0
 40
0.0
 40
0.0
 40
0.0
 40
1.0
 40
1.0
 40
1.0
 40
2.0
 40
2.0
 40
2.0
 40
3.0
 40
3.0
 40
3.0
 40
4.0
 40
4.0
 40
4.0
 40
5.0
 40
5.0
 40
5.0
 40
6.0
 40
6.0
 40
6.0
 40
7.0
 40
7.0
 40
7.0
 40
8.0
 40
8.0
 40
8.0
 40
9.0
 40
9.0
 40
9.0
 40
10.0
 40
10.0
 40
10.0
 40
10.0
 10
100.2970479967647
 20
-131.9754013558948
 30
0.0
 10
100.2970479967647
 20
-131.9754013558948
 30
0.0
 10
86.13203280258878
 20
-131.9754013558948
 30
0.0
 10
86.13203280258878
 20
-131.9754013558948
 30
0.0
 10
86.13203280258878
 20
-131.9754013558948
 30
0.0
 10
86.13203280258878
 20
-117.7752491372228
 30
0.0
 10
86.13203280258878
 20
-117.7752491372228
 30
0.0
 10
86.13203280258878
 20
-117.7752491372228
 30
0.0
 10
85.36721059987879
 20
-117.7752491372228
 30
0.0
 10
85.36721059987879
 20
-117.7752491372228
 30
0.0
 10
85.36721059987879
 20
-117.7948635816622
 30
0.0
 10
85.35137087806068
 20
-117.8107385816583
 30
0.0
 10
85.33207393410854
 20
-117.8107385816583
 30
0.0
 10
85.33207393410854
 20
-117.8107385816583
 30
0.0
 10
85.33207393410854
 20
-132.7402235779263
 30
0.0
 10
85.33207393410854
 20
-132.7402235779263
 30
0.0
 10
85.35137087806068
 20
-132.7402235779263
 30
0.0
 10
85.36721059987879
 20
-132.7560633001442
 30
0.0
 10
85.36721059987879
 20
-132.775360244584
 30
0.0
 10
85.36721059987879
 20
-132.775360244584
 30
0.0
 10
100.2970479967647
 20
-132.775360244584
 30
0.0
 10
100.2970479967647
 20
-132.775360244584
 30
0.0
 10
100.2970479967647
 20
-132.7560633001442
 30
0.0
 10
100.3129229963597
 20
-132.7402235779263
 30
0.0
 10
100.3322199403118
 20
-132.7402235779263
 30
0.0
 10
100.3322199403118
 20
-132.7402235779263
 30
0.0
 10
100.3322199403118
 20
-132.0105380225532
 30
0.0
 10
100.3322199403118
 20
-132.0105380225532
 30
0.0
 10
100.3129229963597
 20
-132.0105380225532
 30
0.0
 10
100.2970479967647
 20
-131.9946983003346
 30
0.0
 10
100.2970479967647
 20
-131.9754013558948
 30
0.0
  0
HATCH
  5
B4
330
1F
100
AcDbEntity
  8
_U+30EC_U+30A4_U+30E4_U+30FC 1
 62
    54
420
 10196235
100
AcDbHatch
 10
0.0
 20
0.0
 30
0.0
210
0.0
220
0.0
230
1.0
  2
SOLID
 70
     1
 71
     0
 91
        1
 92
        1
 93
        1
 72
     4
 94
        3
 73
     0
 74
     1
 95
       35
 96
       31
 40
0.0
 40
0.0
 40
0.0
 40
0.0
 40
1.0
 40
1.0
 40
1.0
 40
2.0
 40
2.0
 40
2.0
 40
3.0
 40
3.0
 40
3.0
 40
4.0
 40
4.0
 40
4.0
 40
5.0
 40
5.0
 40
5.0
 40
6.0
 40
6.0
 40
6.0
 40
7.0
 40
7.0
 40
7.0
 40
8.0
 40
8.0
 40
8.0
 40
9.0
 40
9.0
 40
9.0
 40
10.0
 40
10.0
 40
10.0
 40
10.0
 10
100.2970479967647
 20
-131.9754013558948
 10
100.2970479967647
 20
-131.9754013558948
 10
86.13203280258878
 20
-131.9754013558948
 10
86.13203280258878
 20
-131.9754013558948
 10
86.13203280258878
 20
-131.9754013558948
 10
86.13203280258878
 20
-117.7752491372228
 10
86.13203280258878
 20
-117.7752491372228
 10
86.13203280258878
 20
-117.7752491372228
 10
85.36721059987879
 20
-117.7752491372228
 10
85.36721059987879
 20
-117.7752491372228
 10
85.36721059987879
 20
-117.7948635816622
 10
85.35137087806068
 20
-117.8107385816583
 10
85.33207393410854
 20
-117.8107385816583
 10
85.33207393410854
 20
-117.8107385816583
 10
85.33207393410854
 20
-132.7402235779263
 10
85.33207393410854
 20
-132.7402235779263
 10
85.35137087806068
 20
-132.7402235779263
 10
85.36721059987879
 20
-132.7560633001442
 10
85.36721059987879
 20
-132.775360244584
 10
85.36721059987879
 20
-132.775360244584
 10
100.2970479967647
 20
-132.775360244584
 10
100.2970479967647
 20
-132.775360244584
 10
100.2970479967647
 20
-132.7560633001442
 10
100.3129229963597
 20
-132.7402235779263
 10
100.3322199403118
 20
-132.7402235779263
 10
100.3322199403118
 20
-132.7402235779263
 10
100.3322199403118
 20
-132.0105380225532
 10
100.3322199403118
 20
-132.0105380225532
 10
100.3129229963597
 20
-132.0105380225532
 10
100.2970479967647
 20
-131.9946983003346
 10
100.2970479967647
 20
-131.9754013558948
 97
        0
 97
        0
 75
     2
 76
     1
 98
        0
  0
SPLINE
  5
B5
330
1F
100
AcDbEntity
  8
_U+30EC_U+30A4_U+30E4_U+30FC 1
370
     0
100
AcDbSpline
210
0.0
220
0.0
230
1.0
 70
    11
 71
     3
 72
    14
 73
    10
 74
     0
 42
0.0000000001
 43
0.0000000001
 12
1.0
 22
0.0
 32
0.0
 13
1.0
 23
0.0
 33
0.0
 40
0.0
 40
0.0
 40
0.0
 40
0.0
 40
1.0
 40
1.0
 40
1.0
 40
2.0
 40
2.0
 40
2.0
 40
3.0
 40
3.0
 40
3.0
 40
3.0
 10
100.3322199403118
 20
-132.0105380225532
 30
0.0
 10
100.3322199403118
 20
-132.0105380225532
 30
0.0
 10
100.3322199403118
 20
-131.9754013558948
 30
0.0
 10
100.3322199403118
 20
-131.9754013558948
 30
0.0
 10
100.3322199403118
 20
-131.9754013558948
 30
0.0
 10
100.2970479967647
 20
-131.9754013558948
 30
0.0
 10
100.2970479967647
 20
-131.9754013558948
 30
0.0
 10
100.2970479967647
 20
-131.9946983003346
 30
0.0
 10
100.3129229963597
 20
-132.0105380225532
 30
0.0
 10
100.3322199403118
 20
-132.0105380225532
 30
0.0
  0
HATCH
  5
B6
330
1F
100
AcDbEntity
  8
_U+30EC_U+30A4_U+30E4_U+30FC 1
 62
    54
420
 10196235
100
AcDbHatch
 10
0.0
 20
0.0
 30
0.0
210
0.0
220
0.0
230
1.0
  2
SOLID
 70
     1
 71
     0
 91
        1
 92
        1
 93
        1
 72
     4
 94
        3
 73
     0
 74
     1
 95
       14
 96
       10
 40
0.0
 40
0.0
 40
0.0
 40
0.0
 40
1.0
 40
1.0
 40
1.0
 40
2.0
 40
2.0
 40
2.0
 40
3.0
 40
3.0
 40
3.0
 40
3.0
 10
100.3322199403118
 20
-132.0105380225532
 10
100.3322199403118
 20
-132.0105380225532
 10
100.3322199403118
 20
-131.9754013558948
 10
100.3322199403118
 20
-131.9754013558948
 10
100.3322199403118
 20
-131.9754013558948
 10
100.2970479967647
 20
-131.9754013558948
 10
100.2970479967647
 20
-131.9754013558948
 10
100.2970479967647
 20
-131.9946983003346
 10
100.3129229963597
 20
-132.0105380225532
 10
100.3322199403118
 20
-132.0105380225532
 97
        0
 97
        0
 75
     2
 76
     1
 98
        0
  0
SPLINE
  5
B7
330
1F
100
AcDbEntity
  8
_U+30EC_U+30A4_U+30E4_U+30FC 1
370
     0
100
AcDbSpline
210
0.0
220
0.0
230
1.0
 70
    11
 71
     3
 72
    20
 73
    16
 74
     0
 42
0.0000000001
 43
0.0000000001
 12
1.0
 22
0.0
 32
0.0
 13
1.0
 23
0.0
 33
0.0
 40
0.0
 40
0.0
 40
0.0
 40
0.0
 40
1.0
 40
1.0
 40
1.0
 40
2.0
 40
2.0
 40
2.0
 40
3.0
 40
3.0
 40
3.0
 40
4.0
 40
4.0
 40
4.0
 40
5.0
 40
5.0
 40
5.0
 40
5.0
 10
100.3322199403118
 20
-132.0105380225532
 30
0.0
 10
100.3514816064871
 20
-132.0105380225532
 30
0.0
 10
100.3673566060821
 20
-131.9946983003346
 30
0.0
 10
100.3673566060821
 20
-131.9754013558948
 30
0.0
 10
100.3673566060821
 20
-131.9561044114556
 30
0.0
 10
100.3514816064871
 20
-131.9402646892371
 30
0.0
 10
100.3322199403118
 20
-131.9402646892371
 30
0.0
 10
100.3129229963597
 20
-131.9402646892371
 30
0.0
 10
100.2970479967647
 20
-131.9561044114556
 30
0.0
 10
100.2970479967647
 20
-131.9754013558948
 30
0.0
 10
100.2970479967647
 20
-131.9754013558948
 30
0.0
 10
100.3322199403118
 20
-131.9754013558948
 30
0.0
 10
100.3322199403118
 20
-131.9754013558948
 30
0.0
 10
100.3322199403118
 20
-131.9754013558948
 30
0.0
 10
100.3322199403118
 20
-132.0105380225532
 30
0.0
 10
100.3322199403118
 20
-132.0105380225532
 30
0.0
  0
HATCH
  5
B8
330
1F
100
AcDbEntity
  8
_U+30EC_U+30A4_U+30E4_U+30FC 1
 62
    54
420
 10196235
100
AcDbHatch
 10
0.0
 20
0.0
 30
0.0
210
0.0
220
0.0
230
1.0
  2
SOLID
 70
     1
 71
     0
 91
        1
 92
        1
 93
        1
 72
     4
 94
        3
 73
     0
 74
     1
 95
       20
 96
       16
 40
0.0
 40
0.0
 40
0.0
 40
0.0
 40
1.0
 40
1.0
 40
1.0
 40
2.0
 40
2.0
 40
2.0
 40
3.0
 40
3.0
 40
3.0
 40
4.0
 40
4.0
 40
4.0
 40
5.0
 40
5.0
 40
5.0
 40
5.0
 10
100.3322199403118
 20
-132.0105380225532
 10
100.3514816064871
 20
-132.0105380225532
 10
100.3673566060821
 20
-131.9946983003346
 10
100.3673566060821
 20
-131.9754013558948
 10
100.3673566060821
 20
-131.9561044114556
 10
100.3514816064871
 20
-131.9402646892371
 10
100.3322199403118
 20
-131.9402646892371
 10
100.3129229963597
 20
-131.9402646892371
 10
100.2970479967647
 20
-131.9561044114556
 10
100.2970479967647
 20
-131.9754013558948
 10
100.2970479967647
 20
-131.9754013558948
 10
100.3322199403118
 20
-131.9754013558948
 10
100.3322199403118
 20
-131.9754013558948
 10
100.3322199403118
 20
-131.9754013558948
 10
100.3322199403118
 20
-132.0105380225532
 10
100.3322199403118
 20
-132.0105380225532
 97
        0
 97
        0
 75
     2
 76
     1
 98
        0
  0
SPLINE
  5
B9
330
1F
100
AcDbEntity
  8
_U+30EC_U+30A4_U+30E4_U+30FC 1
370
     0
100
AcDbSpline
210
0.0
220
0.0
230
1.0
 70
    11
 71
     3
 72
    20
 73
    16
 74
     0
 42
0.0000000001
 43
0.0000000001
 12
1.0
 22
0.0
 32
0.0
 13
1.0
 23
0.0
 33
0.0
 40
0.0
 40
0.0
 40
0.0
 40
0.0
 40
1.0
 40
1.0
 40
1.0
 40
2.0
 40
2.0
 40
2.0
 40
3.0
 40
3.0
 40
3.0
 40
4.0
 40
4.0
 40
4.0
 40
5.0
 40
5.0
 40
5.0
 40
5.0
 10
85.36721059987879
 20
-117.7752491372228
 30
0.0
 10
85.36721059987879
 20
-117.7559521927833
 30
0.0
 10
85.35137087806068
 20
-117.7401124705651
 30
0.0
 10
85.33207393410854
 20
-117.7401124705651
 30
0.0
 10
85.3127769901564
 20
-117.7401124705651
 30
0.0
 10
85.29693726833828
 20
-117.7559521927833
 30
0.0
 10
85.29693726833828
 20
-117.7752491372228
 30
0.0
 10
85.29693726833828
 20
-117.7948635816622
 30
0.0
 10
85.3127769901564
 20
-117.8107385816583
 30
0.0
 10
85.33207393410854
 20
-117.8107385816583
 30
0.0
 10
85.33207393410854
 20
-117.8107385816583
 30
0.0
 10
85.33207393410854
 20
-117.7752491372228
 30
0.0
 10
85.33207393410854
 20
-117.7752491372228
 30
0.0
 10
85.33207393410854
 20
-117.7752491372228
 30
0.0
 10
85.36721059987879
 20
-117.7752491372228
 30
0.0
 10
85.36721059987879
 20
-117.7752491372228
 30
0.0
  0
HATCH
  5
BA
330
1F
100
AcDbEntity
  8
_U+30EC_U+30A4_U+30E4_U+30FC 1
 62
    52
420
 14268416
100
AcDbHatch
 10
0.0
 20
0.0
 30
0.0
210
0.0
220
0.0
230
1.0
  2
SOLID
 70
     1
 71
     0
 91
        1
 92
        1
 93
        1
 72
     4
 94
        3
 73
     0
 74
     1
 95
       20
 96
       16
 40
0.0
 40
0.0
 40
0.0
 40
0.0
 40
1.0
 40
1.0
 40
1.0
 40
2.0
 40
2.0
 40
2.0
 40
3.0
 40
3.0
 40
3.0
 40
4.0
 40
4.0
 40
4.0
 40
5.0
 40
5.0
 40
5.0
 40
5.0
 10
85.36721059987879
 20
-117.7752491372228
 10
85.36721059987879
 20
-117.7559521927833
 10
85.35137087806068
 20
-117.7401124705651
 10
85.33207393410854
 20
-117.7401124705651
 10
85.3127769901564
 20
-117.7401124705651
 10
85.29693726833828
 20
-117.7559521927833
 10
85.29693726833828
 20
-117.7752491372228
 10
85.29693726833828
 20
-117.7948635816622
 10
85.3127769901564
 20
-117.8107385816583
 10
85.33207393410854
 20
-117.8107385816583
 10
85.33207393410854
 20
-117.8107385816583
 10
85.33207393410854
 20
-117.7752491372228
 10
85.33207393410854
 20
-117.7752491372228
 10
85.33207393410854
 20
-117.7752491372228
 10
85.36721059987879
 20
-117.7752491372228
 10
85.36721059987879
 20
-117.7752491372228
 97
        0
 97
        0
 75
     2
 76
     1
 98
        0
  0
SPLINE
  5
BB
330
1F
100
AcDbEntity
  8
_U+30EC_U+30A4_U+30E4_U+30FC 1
370
     0
100
AcDbSpline
210
0.0
220
0.0
230
1.0
 70
    11
 71
     3
 72
    14
 73
    10
 74
     0
 42
0.0000000001
 43
0.0000000001
 12
1.0
 22
0.0
 32
0.0
 13
1.0
 23
0.0
 33
0.0
 40
0.0
 40
0.0
 40
0.0
 40
0.0
 40
1.0
 40
1.0
 40
1.0
 40
2.0
 40
2.0
 40
2.0
 40
3.0
 40
3.0
 40
3.0
 40
3.0
 10
85.36721059987879
 20
-117.7752491372228
 30
0.0
 10
85.36721059987879
 20
-117.7752491372228
 30
0.0
 10
85.33207393410854
 20
-117.7752491372228
 30
0.0
 10
85.33207393410854
 20
-117.7752491372228
 30
0.0
 10
85.33207393410854
 20
-117.7752491372228
 30
0.0
 10
85.33207393410854
 20
-117.8107385816583
 30
0.0
 10
85.33207393410854
 20
-117.8107385816583
 30
0.0
 10
85.35137087806068
 20
-117.8107385816583
 30
0.0
 10
85.36721059987879
 20
-117.7948635816622
 30
0.0
 10
85.36721059987879
 20
-117.7752491372228
 30
0.0
  0
HATCH
  5
BC
330
1F
100
AcDbEntity
  8
_U+30EC_U+30A4_U+30E4_U+30FC 1
 62
    52
420
 14268416
100
AcDbHatch
 10
0.0
 20
0.0
 30
0.0
210
0.0
220
0.0
230
1.0
  2
SOLID
 70
     1
 71
     0
 91
        1
 92
        1
 93
        1
 72
     4
 94
        3
 73
     0
 74
     1
 95
       14
 96
       10
 40
0.0
 40
0.0
 40
0.0
 40
0.0
 40
1.0
 40
1.0
 40
1.0
 40
2.0
 40
2.0
 40
2.0
 40
3.0
 40
3.0
 40
3.0
 40
3.0
 10
85.36721059987879
 20
-117.7752491372228
 10
85.36721059987879
 20
-117.7752491372228
 10
85.33207393410854
 20
-117.7752491372228
 10
85.33207393410854
 20
-117.7752491372228
 10
85.33207393410854
 20
-117.7752491372228
 10
85.33207393410854
 20
-117.8107385816583
 10
85.33207393410854
 20
-117.8107385816583
 10
85.35137087806068
 20
-117.8107385816583
 10
85.36721059987879
 20
-117.7948635816622
 10
85.36721059987879
 20
-117.7752491372228
 97
        0
 97
        0
 75
     2
 76
     1
 98
        0
  0
SPLINE
  5
BD
330
1F
100
AcDbEntity
  8
_U+30EC_U+30A4_U+30E4_U+30FC 1
370
     0
100
AcDbSpline
210
0.0
220
0.0
230
1.0
 70
    11
 71
     3
 72
    14
 73
    10
 74
     0
 42
0.0000000001
 43
0.0000000001
 12
1.0
 22
0.0
 32
0.0
 13
1.0
 23
0.0
 33
0.0
 40
0.0
 40
0.0
 40
0.0
 40
0.0
 40
1.0
 40
1.0
 40
1.0
 40
2.0
 40
2.0
 40
2.0
 40
3.0
 40
3.0
 40
3.0
 40
3.0
 10
85.33207393410854
 20
-132.7402235779263
 30
0.0
 10
85.33207393410854
 20
-132.7402235779263
 30
0.0
 10
85.33207393410854
 20
-132.775360244584
 30
0.0
 10
85.33207393410854
 20
-132.775360244584
 30
0.0
 10
85.33207393410854
 20
-132.775360244584
 30
0.0
 10
85.36721059987879
 20
-132.775360244584
 30
0.0
 10
85.36721059987879
 20
-132.775360244584
 30
0.0
 10
85.36721059987879
 20
-132.7560633001442
 30
0.0
 10
85.35137087806068
 20
-132.7402235779263
 30
0.0
 10
85.33207393410854
 20
-132.7402235779263
 30
0.0
  0
HATCH
  5
BE
330
1F
100
AcDbEntity
  8
_U+30EC_U+30A4_U+30E4_U+30FC 1
 62
    54
420
 10196235
100
AcDbHatch
 10
0.0
 20
0.0
 30
0.0
210
0.0
220
0.0
230
1.0
  2
SOLID
 70
     1
 71
     0
 91
        1
 92
        1
 93
        1
 72
     4
 94
        3
 73
     0
 74
     1
 95
       14
 96
       10
 40
0.0
 40
0.0
 40
0.0
 40
0.0
 40
1.0
 40
1.0
 40
1.0
 40
2.0
 40
2.0
 40
2.0
 40
3.0
 40
3.0
 40
3.0
 40
3.0
 10
85.33207393410854
 20
-132.7402235779263
 10
85.33207393410854
 20
-132.7402235779263
 10
85.33207393410854
 20
-132.775360244584
 10
85.33207393410854
 20
-132.775360244584
 10
85.33207393410854
 20
-132.775360244584
 10
85.36721059987879
 20
-132.775360244584
 10
85.36721059987879
 20
-132.775360244584
 10
85.36721059987879
 20
-132.7560633001442
 10
85.35137087806068
 20
-132.7402235779263
 10
85.33207393410854
 20
-132.7402235779263
 97
        0
 97
        0
 75
     2
 76
     1
 98
        0
  0
SPLINE
  5
BF
330
1F
100
AcDbEntity
  8
_U+30EC_U+30A4_U+30E4_U+30FC 1
370
     0
100
AcDbSpline
210
0.0
220
0.0
230
1.0
 70
    11
 71
     3
 72
    20
 73
    16
 74
     0
 42
0.0000000001
 43
0.0000000001
 12
1.0
 22
0.0
 32
0.0
 13
1.0
 23
0.0
 33
0.0
 40
0.0
 40
0.0
 40
0.0
 40
0.0
 40
1.0
 40
1.0
 40
1.0
 40
2.0
 40
2.0
 40
2.0
 40
3.0
 40
3.0
 40
3.0
 40
4.0
 40
4.0
 40
4.0
 40
5.0
 40
5.0
 40
5.0
 40
5.0
 10
85.33207393410854
 20
-132.7402235779263
 30
0.0
 10
85.3127769901564
 20
-132.7402235779263
 30
0.0
 10
85.29693726833828
 20
-132.7560633001442
 30
0.0
 10
85.29693726833828
 20
-132.775360244584
 30
0.0
 10
85.29693726833828
 20
-132.7946571890239
 30
0.0
 10
85.3127769901564
 20
-132.8104969112418
 30
0.0
 10
85.33207393410854
 20
-132.8104969112418
 30
0.0
 10
85.35137087806068
 20
-132.8104969112418
 30
0.0
 10
85.36721059987879
 20
-132.7946571890239
 30
0.0
 10
85.36721059987879
 20
-132.775360244584
 30
0.0
 10
85.36721059987879
 20
-132.775360244584
 30
0.0
 10
85.33207393410854
 20
-132.775360244584
 30
0.0
 10
85.33207393410854
 20
-132.775360244584
 30
0.0
 10
85.33207393410854
 20
-132.775360244584
 30
0.0
 10
85.33207393410854
 20
-132.7402235779263
 30
0.0
 10
85.33207393410854
 20
-132.7402235779263
 30
0.0
  0
HATCH
  5
C0
330
1F
100
AcDbEntity
  8
_U+30EC_U+30A4_U+30E4_U+30FC 1
 62
    54
420
 10196235
100
AcDbHatch
 10
0.0
 20
0.0
 30
0.0
210
0.0
220
0.0
230
1.0
  2
SOLID
 70
     1
 71
     0
 91
        1
 92
        1
 93
        1
 72
     4
 94
        3
 73
     0
 74
     1
 95
       20
 96
       16
 40
0.0
 40
0.0
 40
0.0
 40
0.0
 40
1.0
 40
1.0
 40
1.0
 40
2.0
 40
2.0
 40
2.0
 40
3.0
 40
3.0
 40
3.0
 40
4.0
 40
4.0
 40
4.0
 40
5.0
 40
5.0
 40
5.0
 40
5.0
 10
85.33207393410854
 20
-132.7402235779263
 10
85.3127769901564
 20
-132.7402235779263
 10
85.29693726833828
 20
-132.7560633001442
 10
85.29693726833828
 20
-132.775360244584
 10
85.29693726833828
 20
-132.7946571890239
 10
85.3127769901564
 20
-132.8104969112418
 10
85.33207393410854
 20
-132.8104969112418
 10
85.35137087806068
 20
-132.8104969112418
 10
85.36721059987879
 20
-132.7946571890239
 10
85.36721059987879
 20
-132.775360244584
 10
85.36721059987879
 20
-132.775360244584
 10
85.33207393410854
 20
-132.775360244584
 10
85.33207393410854
 20
-132.775360244584
 10
85.33207393410854
 20
-132.775360244584
 10
85.33207393410854
 20
-132.7402235779263
 10
85.33207393410854
 20
-132.7402235779263
 97
        0
 97
        0
 75
     2
 76
     1
 98
        0
  0
SPLINE
  5
C1
330
1F
100
AcDbEntity
  8
_U+30EC_U+30A4_U+30E4_U+30FC 1
370
     0
100
AcDbSpline
210
0.0
220
0.0
230
1.0
 70
    11
 71
     3
 72
    20
 73
    16
 74
     0
 42
0.0000000001
 43
0.0000000001
 12
1.0
 22
0.0
 32
0.0
 13
1.0
 23
0.0
 33
0.0
 40
0.0
 40
0.0
 40
0.0
 40
0.0
 40
1.0
 40
1.0
 40
1.0
 40
2.0
 40
2.0
 40
2.0
 40
3.0
 40
3.0
 40
3.0
 40
4.0
 40
4.0
 40
4.0
 40
5.0
 40
5.0
 40
5.0
 40
5.0
 10
100.2970479967647
 20
-132.775360244584
 30
0.0
 10
100.2970479967647
 20
-132.7946571890239
 30
0.0
 10
100.3129229963597
 20
-132.8104969112418
 30
0.0
 10
100.3322199403118
 20
-132.8104969112418
 30
0.0
 10
100.3514816064871
 20
-132.8104969112418
 30
0.0
 10
100.3673566060821
 20
-132.7946571890239
 30
0.0
 10
100.3673566060821
 20
-132.775360244584
 30
0.0
 10
100.3673566060821
 20
-132.7560633001442
 30
0.0
 10
100.3514816064871
 20
-132.7402235779263
 30
0.0
 10
100.3322199403118
 20
-132.7402235779263
 30
0.0
 10
100.3322199403118
 20
-132.7402235779263
 30
0.0
 10
100.3322199403118
 20
-132.775360244584
 30
0.0
 10
100.3322199403118
 20
-132.775360244584
 30
0.0
 10
100.3322199403118
 20
-132.775360244584
 30
0.0
 10
100.2970479967647
 20
-132.775360244584
 30
0.0
 10
100.2970479967647
 20
-132.775360244584
 30
0.0
  0
HATCH
  5
C2
330
1F
100
AcDbEntity
  8
_U+30EC_U+30A4_U+30E4_U+30FC 1
 62
    54
420
 10196235
100
AcDbHatch
 10
0.0
 20
0.0
 30
0.0
210
0.0
220
0.0
230
1.0
  2
SOLID
 70
     1
 71
     0
 91
        1
 92
        1
 93
        1
 72
     4
 94
        3
 73
     0
 74
     1
 95
       20
 96
       16
 40
0.0
 40
0.0
 40
0.0
 40
0.0
 40
1.0
 40
1.0
 40
1.0
 40
2.0
 40
2.0
 40
2.0
 40
3.0
 40
3.0
 40
3.0
 40
4.0
 40
4.0
 40
4.0
 40
5.0
 40
5.0
 40
5.0
 40
5.0
 10
100.2970479967647
 20
-132.775360244584
 10
100.2970479967647
 20
-132.7946571890239
 10
100.3129229963597
 20
-132.8104969112418
 10
100.3322199403118
 20
-132.8104969112418
 10
100.3514816064871
 20
-132.8104969112418
 10
100.3673566060821
 20
-132.7946571890239
 10
100.3673566060821
 20
-132.775360244584
 10
100.3673566060821
 20
-132.7560633001442
 10
100.3514816064871
 20
-132.7402235779263
 10
100.3322199403118
 20
-132.7402235779263
 10
100.3322199403118
 20
-132.7402235779263
 10
100.3322199403118
 20
-132.775360244584
 10
100.3322199403118
 20
-132.775360244584
 10
100.3322199403118
 20
-132.775360244584
 10
100.2970479967647
 20
-132.775360244584
 10
100.2970479967647
 20
-132.775360244584
 97
        0
 97
        0
 75
     2
 76
     1
 98
        0
  0
SPLINE
  5
C3
330
1F
100
AcDbEntity
  8
_U+30EC_U+30A4_U+30E4_U+30FC 1
370
     0
100
AcDbSpline
210
0.0
220
0.0
230
1.0
 70
    11
 71
     3
 72
    14
 73
    10
 74
     0
 42
0.0000000001
 43
0.0000000001
 12
1.0
 22
0.0
 32
0.0
 13
1.0
 23
0.0
 33
0.0
 40
0.0
 40
0.0
 40
0.0
 40
0.0
 40
1.0
 40
1.0
 40
1.0
 40
2.0
 40
2.0
 40
2.0
 40
3.0
 40
3.0
 40
3.0
 40
3.0
 10
100.2970479967647
 20
-132.775360244584
 30
0.0
 10
100.2970479967647
 20
-132.775360244584
 30
0.0
 10
100.3322199403118
 20
-132.775360244584
 30
0.0
 10
100.3322199403118
 20
-132.775360244584
 30
0.0
 10
100.3322199403118
 20
-132.775360244584
 30
0.0
 10
100.3322199403118
 20
-132.7402235779263
 30
0.0
 10
100.3322199403118
 20
-132.7402235779263
 30
0.0
 10
100.3129229963597
 20
-132.7402235779263
 30
0.0
 10
100.2970479967647
 20
-132.7560633001442
 30
0.0
 10
100.2970479967647
 20
-132.775360244584
 30
0.0
  0
HATCH
  5
C4
330
1F
100
AcDbEntity
  8
_U+30EC_U+30A4_U+30E4_U+30FC 1
 62
    54
420
 10196235
100
AcDbHatch
 10
0.0
 20
0.0
 30
0.0
210
0.0
220
0.0
230
1.0
  2
SOLID
 70
     1
 71
     0
 91
        1
 92
        1
 93
        1
 72
     4
 94
        3
 73
     0
 74
     1
 95
       14
 96
       10
 40
0.0
 40
0.0
 40
0.0
 40
0.0
 40
1.0
 40
1.0
 40
1.0
 40
2.0
 40
2.0
 40
2.0
 40
3.0
 40
3.0
 40
3.0
 40
3.0
 10
100.2970479967647
 20
-132.775360244584
 10
100.2970479967647
 20
-132.775360244584
 10
100.3322199403118
 20
-132.775360244584
 10
100.3322199403118
 20
-132.775360244584
 10
100.3322199403118
 20
-132.775360244584
 10
100.3322199403118
 20
-132.7402235779263
 10
100.3322199403118
 20
-132.7402235779263
 10
100.3129229963597
 20
-132.7402235779263
 10
100.2970479967647
 20
-132.7560633001442
 10
100.2970479967647
 20
-132.775360244584
 97
        0
 97
        0
 75
     2
 76
     1
 98
        0
  0
ENDSEC
  0
SECTION
  2
OBJECTS
  0
DICTIONARY
  5
C
330
0
100
AcDbDictionary
281
     1
  3
ACAD_GROUP
350
D
  3
ACAD_LAYOUT
350
1A
  3
ACAD_MATERIAL
350
3B
  3
ACAD_MLEADERSTYLE
350
C6
  3
ACAD_MLINESTYLE
350
17
  3
ACAD_PLOTSETTINGS
350
19
  3
ACAD_PLOTSTYLENAME
350
E
  3
ACAD_TABLESTYLE
350
C5
  3
ACAD_VISUALSTYLE
350
2A
  0
SUN
  5
3F
330
29
100
AcDbSun
 90
        1
290
     0
 63
     7
421
 16777215
 40
1.0
291
     1
 91
  2455826
 92
 54000000
292
     0
 70
     2
 71
   256
280
     1
  0
DICTIONARY
  5
D
102
{ACAD_REACTORS
330
C
102
}
330
C
100
AcDbDictionary
281
     1
  0
DICTIONARY
  5
1A
102
{ACAD_REACTORS
330
C
102
}
330
C
100
AcDbDictionary
281
     1
  3
Layout1
350
1E
  3
Layout2
350
26
  3
Model
350
22
  0
DICTIONARY
  5
3B
102
{ACAD_REACTORS
330
C
102
}
330
C
100
AcDbDictionary
281
     1
  3
ByBlock
350
3D
  3
ByLayer
350
3C
  3
Global
350
3E
  0
DICTIONARY
  5
C6
102
{ACAD_REACTORS
330
C
102
}
330
C
100
AcDbDictionary
281
     1
  0
DICTIONARY
  5
17
102
{ACAD_REACTORS
330
C
102
}
330
C
100
AcDbDictionary
281
     1
  3
Standard
350
18
  0
DICTIONARY
  5
19
102
{ACAD_REACTORS
330
C
102
}
330
C
100
AcDbDictionary
281
     1
  0
ACDBDICTIONARYWDFLT
  5
E
102
{ACAD_REACTORS
330
C
102
}
330
C
100
AcDbDictionary
281
     1
  3
Normal
350
F
100
AcDbDictionaryWithDefault
340
F
  0
DICTIONARY
  5
C5
102
{ACAD_REACTORS
330
C
102
}
330
C
100
AcDbDictionary
281
     1
  0
DICTIONARY
  5
2A
102
{ACAD_REACTORS
330
C
102
}
330
C
100
AcDbDictionary
281
     1
  3
2dWireframe
350
2F
  3
3D Hidden
350
31
  3
3dWireframe
350
30
  3
Basic
350
32
  3
Brighten
350
36
  3
ColorChange
350
3A
  3
Conceptual
350
34
  3
Dim
350
35
  3
Facepattern
350
39
  3
Flat
350
2B
  3
FlatWithEdges
350
2C
  3
Gouraud
350
2D
  3
GouraudWithEdges
350
2E
  3
Linepattern
350
38
  3
Realistic
350
33
  3
Thicken
350
37
  0
LAYOUT
  5
1E
102
{ACAD_REACTORS
330
1A
102
}
330
1A
100
AcDbPlotSettings
  1

  2
none_device
  4

  6

 40
0.0
 41
0.0
 42
0.0
 43
0.0
 44
0.0
 45
0.0
 46
0.0
 47
0.0
 48
0.0
 49
0.0
140
0.0
141
0.0
142
1.0
143
1.0
 70
   688
 72
     0
 73
     0
 74
     5
  7

 75
    16
 76
     0
 77
     2
 78
   300
147
1.0
148
0.0
149
0.0
100
AcDbLayout
  1
Layout1
 70
     1
 71
     1
 10
0.0
 20
0.0
 11
12.0
 21
9.0
 12
0.0
 22
0.0
 32
0.0
 14
1.000000000000000E+20
 24
1.000000000000000E+20
 34
1.000000000000000E+20
 15
-1.000000000000000E+20
 25
-1.000000000000000E+20
 35
-1.000000000000000E+20
146
0.0
 13
0.0
 23
0.0
 33
0.0
 16
1.0
 26
0.0
 36
0.0
 17
0.0
 27
1.0
 37
0.0
 76
     0
330
1B
  0
LAYOUT
  5
26
102
{ACAD_REACTORS
330
1A
102
}
330
1A
100
AcDbPlotSettings
  1

  2
none_device
  4

  6

 40
0.0
 41
0.0
 42
0.0
 43
0.0
 44
0.0
 45
0.0
 46
0.0
 47
0.0
 48
0.0
 49
0.0
140
0.0
141
0.0
142
1.0
143
1.0
 70
   688
 72
     0
 73
     0
 74
     5
  7

 75
    16
 76
     0
 77
     2
 78
   300
147
1.0
148
0.0
149
0.0
100
AcDbLayout
  1
Layout2
 70
     1
 71
     2
 10
0.0
 20
0.0
 11
0.0
 21
0.0
 12
0.0
 22
0.0
 32
0.0
 14
0.0
 24
0.0
 34
0.0
 15
0.0
 25
0.0
 35
0.0
146
0.0
 13
0.0
 23
0.0
 33
0.0
 16
1.0
 26
0.0
 36
0.0
 17
0.0
 27
1.0
 37
0.0
 76
     0
330
23
  0
LAYOUT
  5
22
102
{ACAD_REACTORS
330
1A
102
}
330
1A
100
AcDbPlotSettings
  1

  2
none_device
  4

  6

 40
0.0
 41
0.0
 42
0.0
 43
0.0
 44
0.0
 45
0.0
 46
0.0
 47
0.0
 48
0.0
 49
0.0
140
0.0
141
0.0
142
1.0
143
1.0
 70
  1712
 72
     0
 73
     0
 74
     0
  7

 75
     0
 76
     0
 77
     2
 78
   300
147
1.0
148
0.0
149
0.0
100
AcDbLayout
  1
Model
 70
     1
 71
     0
 10
0.0
 20
0.0
 11
12.0
 21
9.0
 12
0.0
 22
0.0
 32
0.0
 14
1.000000000000000E+20
 24
1.000000000000000E+20
 34
1.000000000000000E+20
 15
-1.000000000000000E+20
 25
-1.000000000000000E+20
 35
-1.000000000000000E+20
146
0.0
 13
0.0
 23
0.0
 33
0.0
 16
1.0
 26
0.0
 36
0.0
 17
0.0
 27
1.0
 37
0.0
 76
     0
330
1F
331
29
  0
MATERIAL
  5
3D
102
{ACAD_REACTORS
330
3B
102
}
330
3B
100
AcDbMaterial
  1
ByBlock
 72
     1
 94
      127
  0
MATERIAL
  5
3C
102
{ACAD_REACTORS
330
3B
102
}
330
3B
100
AcDbMaterial
  1
ByLayer
 72
     1
 94
      127
  0
MATERIAL
  5
3E
102
{ACAD_REACTORS
330
3B
102
}
330
3B
100
AcDbMaterial
  1
Global
 72
     1
 94
      127
  0
MLINESTYLE
  5
18
102
{ACAD_REACTORS
330
17
102
}
330
17
100
AcDbMlineStyle
  2
Standard
 70
     0
  3

 62
   256
 51
90.0
 52
90.0
 71
     2
 49
0.5
 62
   256
  6
BYLAYER
 49
-0.5
 62
   256
  6
BYLAYER
  0
ACDBPLACEHOLDER
  5
F
102
{ACAD_REACTORS
330
E
102
}
330
E
  0
VISUALSTYLE
  5
2F
102
{ACAD_REACTORS
330
2A
102
}
330
2A
100
AcDbVisualStyle
  2
2dWireframe
 70
     4
177
     2
291
     0
 71
     0
176
     1
 72
     2
176
     1
 73
     0
176
     1
 90
        0
176
     1
 40
-0.6
176
     1
 41
-30.0
176
     1
 62
     5
 63
     7
421
 16777215
176
     1
 74
     1
176
     1
 91
        4
176
     1
 64
     7
176
     1
 65
   257
176
     1
 75
     1
176
     1
175
     1
176
     1
 42
1.0
176
     1
 92
        0
176
     1
 66
   257
176
     1
 43
1.0
176
     1
 76
     1
176
     1
 77
     6
176
     1
 78
     2
176
     1
 67
     7
176
     1
 79
     5
176
     1
170
     0
176
     1
171
     0
176
     1
290
     0
176
     1
 93
        1
176
     1
 44
0.0
176
     1
173
     0
176
     1
  0
VISUALSTYLE
  5
31
102
{ACAD_REACTORS
330
2A
102
}
330
2A
100
AcDbVisualStyle
  2
3D Hidden
 70
     6
177
     2
291
     0
 71
     1
176
     1
 72
     2
176
     1
 73
     2
176
     1
 90
        0
176
     1
 40
-0.6
176
     1
 41
-30.0
176
     1
 62
     5
 63
     7
421
 16777215
176
     1
 74
     2
176
     1
 91
        2
176
     1
 64
     7
176
     1
 65
   257
176
     1
 75
     2
176
     1
175
     1
176
     1
 42
40.0
176
     1
 92
        0
176
     1
 66
   257
176
     1
 43
1.0
176
     1
 76
     1
176
     1
 77
     6
176
     1
 78
     2
176
     1
 67
     7
176
     1
 79
     3
176
     1
170
     0
176
     1
171
     0
176
     1
290
     0
176
     1
 93
        1
176
     1
 44
0.0
176
     1
173
     0
176
     1
  0
VISUALSTYLE
  5
30
102
{ACAD_REACTORS
330
2A
102
}
330
2A
100
AcDbVisualStyle
  2
3dWireframe
 70
     5
177
     2
291
     0
 71
     0
176
     1
 72
     2
176
     1
 73
     0
176
     1
 90
        0
176
     1
 40
-0.6
176
     1
 41
-30.0
176
     1
 62
     5
 63
     7
421
 16777215
176
     1
 74
     1
176
     1
 91
        4
176
     1
 64
     7
176
     1
 65
   257
176
     1
 75
     1
176
     1
175
     1
176
     1
 42
1.0
176
     1
 92
        0
176
     1
 66
   257
176
     1
 43
1.0
176
     1
 76
     1
176
     1
 77
     6
176
     1
 78
     2
176
     1
 67
     7
176
     1
 79
     5
176
     1
170
     0
176
     1
171
     0
176
     1
290
     0
176
     1
 93
        1
176
     1
 44
0.0
176
     1
173
     0
176
     1
  0
VISUALSTYLE
  5
32
102
{ACAD_REACTORS
330
2A
102
}
330
2A
100
AcDbVisualStyle
  2
Basic
 70
     7
177
     2
291
     1
 71
     1
176
     1
 72
     0
176
     1
 73
     1
176
     1
 90
        0
176
     1
 40
-0.6
176
     1
 41
-30.0
176
     1
 62
     5
 63
     7
421
 16777215
176
     1
 74
     0
176
     1
 91
        4
176
     1
 64
     7
176
     1
 65
   257
176
     1
 75
     1
176
     1
175
     1
176
     1
 42
1.0
176
     1
 92
        8
176
     1
 66
     7
176
     1
 43
1.0
176
     1
 76
     1
176
     1
 77
     6
176
     1
 78
     2
176
     1
 67
     7
176
     1
 79
     5
176
     1
170
     0
176
     1
171
     0
176
     1
290
     0
176
     1
 93
        1
176
     1
 44
0.0
176
     1
173
     0
176
     1
  0
VISUALSTYLE
  5
36
102
{ACAD_REACTORS
330
2A
102
}
330
2A
100
AcDbVisualStyle
  2
Brighten
 70
    12
177
     2
291
     1
 71
     2
176
     1
 72
     2
176
     1
 73
     0
176
     1
 90
        0
176
     1
 40
-0.6
176
     1
 41
-30.0
176
     1
 62
     5
 63
     7
421
 16777215
176
     1
 74
     1
176
     1
 91
        4
176
     1
 64
     7
176
     1
 65
   257
176
     1
 75
     1
176
     1
175
     1
176
     1
 42
1.0
176
     1
 92
        8
176
     1
 66
     7
176
     1
 43
1.0
176
     1
 76
     1
176
     1
 77
     6
176
     1
 78
     2
176
     1
 67
     7
176
     1
 79
     5
176
     1
170
     0
176
     1
171
     0
176
     1
290
     0
176
     1
 93
        1
176
     1
 44
50.0
176
     1
173
     0
176
     1
  0
VISUALSTYLE
  5
3A
102
{ACAD_REACTORS
330
2A
102
}
330
2A
100
AcDbVisualStyle
  2
ColorChange
 70
    16
177
     2
291
     1
 71
     2
176
     1
 72
     2
176
     1
 73
     3
176
     1
 90
        0
176
     1
 40
-0.6
176
     1
 41
-30.0
176
     1
 62
     5
 63
     8
421
  8421504
176
     1
 74
     1
176
     1
 91
        4
176
     1
 64
     7
176
     1
 65
   257
176
     1
 75
     1
176
     1
175
     1
176
     1
 42
1.0
176
     1
 92
        8
176
     1
 66
     8
424
  8421504
176
     1
 43
1.0
176
     1
 76
     1
176
     1
 77
     6
176
     1
 78
     2
176
     1
 67
     7
176
     1
 79
     5
176
     1
170
     0
176
     1
171
     0
176
     1
290
     0
176
     1
 93
        1
176
     1
 44
0.0
176
     1
173
     0
176
     1
  0
VISUALSTYLE
  5
34
102
{ACAD_REACTORS
330
2A
102
}
330
2A
100
AcDbVisualStyle
  2
Conceptual
 70
     9
177
     2
291
     0
 71
     3
176
     1
 72
     2
176
     1
 73
     0
176
     1
 90
        0
176
     1
 40
-0.6
176
     1
 41
-30.0
176
     1
 62
     5
 63
     7
421
 16777215
176
     1
 74
     2
176
     1
 91
        2
176
     1
 64
     7
176
     1
 65
   257
176
     1
 75
     1
176
     1
175
     1
176
     1
 42
40.0
176
     1
 92
        8
176
     1
 66
     7
176
     1
 43
1.0
176
     1
 76
     1
176
     1
 77
     6
176
     1
 78
     2
176
     1
 67
     7
176
     1
 79
     3
176
     1
170
     0
176
     1
171
     0
176
     1
290
     0
176
     1
 93
        1
176
     1
 44
0.0
176
     1
173
     0
176
     1
  0
VISUALSTYLE
  5
35
102
{ACAD_REACTORS
330
2A
102
}
330
2A
100
AcDbVisualStyle
  2
Dim
 70
    11
177
     2
291
     1
 71
     2
176
     1
 72
     2
176
     1
 73
     0
176
     1
 90
        0
176
     1
 40
-0.6
176
     1
 41
-30.0
176
     1
 62
     5
 63
     7
421
 16777215
176
     1
 74
     1
176
     1
 91
        4
176
     1
 64
     7
176
     1
 65
   257
176
     1
 75
     1
176
     1
175
     1
176
     1
 42
1.0
176
     1
 92
        8
176
     1
 66
     7
176
     1
 43
1.0
176
     1
 76
     1
176
     1
 77
     6
176
     1
 78
     2
176
     1
 67
     7
176
     1
 79
     5
176
     1
170
     0
176
     1
171
     0
176
     1
290
     0
176
     1
 93
        1
176
     1
 44
-50.0
176
     1
173
     0
176
     1
  0
VISUALSTYLE
  5
39
102
{ACAD_REACTORS
330
2A
102
}
330
2A
100
AcDbVisualStyle
  2
Facepattern
 70
    15
177
     2
291
     1
 71
     2
176
     1
 72
     2
176
     1
 73
     0
176
     1
 90
        0
176
     1
 40
-0.6
176
     1
 41
-30.0
176
     1
 62
     5
 63
     7
421
 16777215
176
     1
 74
     1
176
     1
 91
        4
176
     1
 64
     7
176
     1
 65
   257
176
     1
 75
     1
176
     1
175
     1
176
     1
 42
1.0
176
     1
 92
        8
176
     1
 66
     7
176
     1
 43
1.0
176
     1
 76
     1
176
     1
 77
     6
176
     1
 78
     2
176
     1
 67
     7
176
     1
 79
     5
176
     1
170
     0
176
     1
171
     0
176
     1
290
     0
176
     1
 93
        1
176
     1
 44
0.0
176
     1
173
     0
176
     1
  0
VISUALSTYLE
  5
2B
102
{ACAD_REACTORS
330
2A
102
}
330
2A
100
AcDbVisualStyle
  2
Flat
 70
     0
177
     2
291
     1
 71
     2
176
     1
 72
     1
176
     1
 73
     1
176
     1
 90
        2
176
     1
 40
-0.6
176
     1
 41
30.0
176
     1
 62
     5
 63
     7
421
 16777215
176
     1
 74
     0
176
     1
 91
        4
176
     1
 64
     7
176
     1
 65
   257
176
     1
 75
     1
176
     1
175
     1
176
     1
 42
1.0
176
     1
 92
        8
176
     1
 66
     7
176
     1
 43
1.0
176
     1
 76
     1
176
     1
 77
     6
176
     1
 78
     2
176
     1
 67
     7
176
     1
 79
     5
176
     1
170
     0
176
     1
171
     0
176
     1
290
     0
176
     1
 93
       13
176
     1
 44
0.0
176
     1
173
     0
176
     1
  0
VISUALSTYLE
  5
2C
102
{ACAD_REACTORS
330
2A
102
}
330
2A
100
AcDbVisualStyle
  2
FlatWithEdges
 70
     1
177
     2
291
     1
 71
     2
176
     1
 72
     1
176
     1
 73
     1
176
     1
 90
        2
176
     1
 40
-0.6
176
     1
 41
30.0
176
     1
 62
     5
 63
     7
421
 16777215
176
     1
 74
     1
176
     1
 91
        4
176
     1
 64
     7
176
     1
 65
   257
176
     1
 75
     1
176
     1
175
     1
176
     1
 42
1.0
176
     1
 92
        0
176
     1
 66
   257
176
     1
 43
1.0
176
     1
 76
     1
176
     1
 77
     6
176
     1
 78
     2
176
     1
 67
     7
176
     1
 79
     5
176
     1
170
     0
176
     1
171
     0
176
     1
290
     0
176
     1
 93
       13
176
     1
 44
0.0
176
     1
173
     0
176
     1
  0
VISUALSTYLE
  5
2D
102
{ACAD_REACTORS
330
2A
102
}
330
2A
100
AcDbVisualStyle
  2
Gouraud
 70
     2
177
     2
291
     1
 71
     2
176
     1
 72
     2
176
     1
 73
     1
176
     1
 90
        2
176
     1
 40
-0.6
176
     1
 41
30.0
176
     1
 62
     5
 63
     7
421
 16777215
176
     1
 74
     0
176
     1
 91
        4
176
     1
 64
     7
176
     1
 65
   257
176
     1
 75
     1
176
     1
175
     1
176
     1
 42
1.0
176
     1
 92
        0
176
     1
 66
     7
176
     1
 43
1.0
176
     1
 76
     1
176
     1
 77
     6
176
     1
 78
     2
176
     1
 67
     7
176
     1
 79
     5
176
     1
170
     0
176
     1
171
     0
176
     1
290
     0
176
     1
 93
       13
176
     1
 44
0.0
176
     1
173
     0
176
     1
  0
VISUALSTYLE
  5
2E
102
{ACAD_REACTORS
330
2A
102
}
330
2A
100
AcDbVisualStyle
  2
GouraudWithEdges
 70
     3
177
     2
291
     1
 71
     2
176
     1
 72
     2
176
     1
 73
     1
176
     1
 90
        2
176
     1
 40
-0.6
176
     1
 41
30.0
176
     1
 62
     5
 63
     7
421
 16777215
176
     1
 74
     1
176
     1
 91
        4
176
     1
 64
     7
176
     1
 65
   257
176
     1
 75
     1
176
     1
175
     1
176
     1
 42
1.0
176
     1
 92
        0
176
     1
 66
   257
176
     1
 43
1.0
176
     1
 76
     1
176
     1
 77
     6
176
     1
 78
     2
176
     1
 67
     7
176
     1
 79
     5
176
     1
170
     0
176
     1
171
     0
176
     1
290
     0
176
     1
 93
       13
176
     1
 44
0.0
176
     1
173
     0
176
     1
  0
VISUALSTYLE
  5
38
102
{ACAD_REACTORS
330
2A
102
}
330
2A
100
AcDbVisualStyle
  2
Linepattern
 70
    14
177
     2
291
     1
 71
     2
176
     1
 72
     2
176
     1
 73
     0
176
     1
 90
        0
176
     1
 40
-0.6
176
     1
 41
-30.0
176
     1
 62
     5
 63
     7
421
 16777215
176
     1
 74
     1
176
     1
 91
        4
176
     1
 64
     7
176
     1
 65
   257
176
     1
 75
     7
176
     1
175
     7
176
     1
 42
1.0
176
     1
 92
        8
176
     1
 66
     7
176
     1
 43
1.0
176
     1
 76
     1
176
     1
 77
     6
176
     1
 78
     2
176
     1
 67
     7
176
     1
 79
     5
176
     1
170
     0
176
     1
171
     0
176
     1
290
     0
176
     1
 93
        1
176
     1
 44
0.0
176
     1
173
     0
176
     1
  0
VISUALSTYLE
  5
33
102
{ACAD_REACTORS
330
2A
102
}
330
2A
100
AcDbVisualStyle
  2
Realistic
 70
     8
177
     2
291
     0
 71
     2
176
     1
 72
     2
176
     1
 73
     0
176
     1
 90
        0
176
     1
 40
-0.6
176
     1
 41
-30.0
176
     1
 62
     5
 63
     7
421
 16777215
176
     1
 74
     1
176
     1
 91
        0
176
     1
 64
     7
176
     1
 65
   257
176
     1
 75
     1
176
     1
175
     1
176
     1
 42
1.0
176
     1
 92
        8
176
     1
 66
     8
424
  7895160
176
     1
 43
1.0
176
     1
 76
     1
176
     1
 77
     6
176
     1
 78
     2
176
     1
 67
     7
176
     1
 79
     5
176
     1
170
     0
176
     1
171
     0
176
     1
290
     0
176
     1
 93
       13
176
     1
 44
0.0
176
     1
173
     0
176
     1
  0
VISUALSTYLE
  5
37
102
{ACAD_REACTORS
330
2A
102
}
330
2A
100
AcDbVisualStyle
  2
Thicken
 70
    13
177
     2
291
     1
 71
     2
176
     1
 72
     2
176
     1
 73
     0
176
     1
 90
        0
176
     1
 40
-0.6
176
     1
 41
-30.0
176
     1
 62
     5
 63
     7
421
 16777215
176
     1
 74
     1
176
     1
 91
        4
176
     1
 64
     7
176
     1
 65
   257
176
     1
 75
     1
176
     1
175
     1
176
     1
 42
1.0
176
     1
 92
       12
176
     1
 66
     7
176
     1
 43
1.0
176
     1
 76
     1
176
     1
 77
     6
176
     1
 78
     2
176
     1
 67
     7
176
     1
 79
     5
176
     1
170
     0
176
     1
171
     0
176
     1
290
     0
176
     1
 93
        1
176
     1
 44
0.0
176
     1
173
     0
176
     1
  0
ENDSEC
  0
EOF
