  0
SECTION
  2
HEADER
  9
$ACADVER
  1
AC1024
  9
$ACADMAINTVER
 70
     6
  9
$DWGCODEPAGE
  3
UNDEFINED
  9
$INSBASE
 10
0.0
 20
0.0
 30
0.0
  9
$EXTMIN
 10
1.000000000000000E+20
 20
1.000000000000000E+20
 30
1.000000000000000E+20
  9
$EXTMAX
 10
-1.000000000000000E+20
 20
-1.000000000000000E+20
 30
-1.000000000000000E+20
  9
$LIMMIN
 10
0.0
 20
0.0
  9
$LIMMAX
 10
12.0
 20
9.0
  9
$ORTHOMODE
 70
     0
  9
$REGENMODE
 70
     1
  9
$FILLMODE
 70
     1
  9
$QTEXTMODE
 70
     0
  9
$MIRRTEXT
 70
     1
  9
$LTSCALE
 40
1.0
  9
$ATTMODE
 70
     1
  9
$TEXTSIZE
 40
0.2
  9
$TRACEWID
 40
0.05
  9
$TEXTSTYLE
  7
Standard
  9
$CLAYER
  8
0
  9
$CELTYPE
  6
ByLayer
  9
$CECOLOR
 62
   256
  9
$CELTSCALE
 40
1.0
  9
$DISPSILH
 70
     0
  9
$DIMSCALE
 40
1.0
  9
$DIMASZ
 40
0.18
  9
$DIMEXO
 40
0.0625
  9
$DIMDLI
 40
0.38
  9
$DIMRND
 40
0.0
  9
$DIMDLE
 40
0.0
  9
$DIMEXE
 40
0.18
  9
$DIMTP
 40
0.0
  9
$DIMTM
 40
0.0
  9
$DIMTXT
 40
0.18
  9
$DIMCEN
 40
0.09
  9
$DIMTSZ
 40
0.0
  9
$DIMTOL
 70
     0
  9
$DIMLIM
 70
     0
  9
$DIMTIH
 70
     1
  9
$DIMTOH
 70
     1
  9
$DIMSE1
 70
     0
  9
$DIMSE2
 70
     0
  9
$DIMTAD
 70
     0
  9
$DIMZIN
 70
     0
  9
$DIMBLK
  1

  9
$DIMASO
 70
     1
  9
$DIMSHO
 70
     1
  9
$DIMPOST
  1

  9
$DIMAPOST
  1

  9
$DIMALT
 70
     0
  9
$DIMALTD
 70
     2
  9
$DIMALTF
 40
25.4
  9
$DIMLFAC
 40
1.0
  9
$DIMTOFL
 70
     0
  9
$DIMTVP
 40
0.0
  9
$DIMTIX
 70
     0
  9
$DIMSOXD
 70
     0
  9
$DIMSAH
 70
     0
  9
$DIMBLK1
  1

  9
$DIMBLK2
  1

  9
$DIMSTYLE
  2
Standard
  9
$DIMCLRD
 70
     0
  9
$DIMCLRE
 70
     0
  9
$DIMCLRT
 70
     0
  9
$DIMTFAC
 40
1.0
  9
$DIMGAP
 40
0.09
  9
$DIMJUST
 70
     0
  9
$DIMSD1
 70
     0
  9
$DIMSD2
 70
     0
  9
$DIMTOLJ
 70
     1
  9
$DIMTZIN
 70
     0
  9
$DIMALTZ
 70
     0
  9
$DIMALTTZ
 70
     0
  9
$DIMUPT
 70
     0
  9
$DIMDEC
 70
     4
  9
$DIMTDEC
 70
     4
  9
$DIMALTU
 70
     2
  9
$DIMALTTD
 70
     2
  9
$DIMTXSTY
  7
Standard
  9
$DIMAUNIT
 70
     0
  9
$DIMADEC
 70
     0
  9
$DIMALTRND
 40
0.0
  9
$DIMAZIN
 70
     0
  9
$DIMDSEP
 70
    46
  9
$DIMATFIT
 70
     3
  9
$DIMFRAC
 70
     0
  9
$DIMLDRBLK
  1

  9
$DIMLUNIT
 70
     2
  9
$DIMLWD
 70
    -2
  9
$DIMLWE
 70
    -2
  9
$DIMTMOVE
 70
     0
  9
$DIMFXL
 40
1.0
  9
$DIMFXLON
 70
     0
  9
$DIMJOGANG
 40
0.7853981633974483
  9
$DIMTFILL
 70
     0
  9
$DIMTFILLCLR
 70
     0
  9
$DIMARCSYM
 70
     0
  9
$DIMLTYPE
  6

  9
$DIMLTEX1
  6

  9
$DIMLTEX2
  6

  9
$DIMTXTDIRECTION
 70
     0
  9
$LUNITS
 70
     2
  9
$LUPREC
 70
     4
  9
$SKETCHINC
 40
0.1
  9
$FILLETRAD
 40
0.5
  9
$AUNITS
 70
     0
  9
$AUPREC
 70
     0
  9
$MENU
  1
.
  9
$ELEVATION
 40
0.0
  9
$PELEVATION
 40
0.0
  9
$THICKNESS
 40
0.0
  9
$LIMCHECK
 70
     0
  9
$CHAMFERA
 40
0.5
  9
$CHAMFERB
 40
0.5
  9
$CHAMFERC
 40
1.0
  9
$CHAMFERD
 40
0.0
  9
$SKPOLY
 70
     0
  9
$TDCREATE
 40
2457917.621145822
  9
$TDUCREATE
 40
2457917.246145833
  9
$TDUPDATE
 40
2457917.621145822
  9
$TDUUPDATE
 40
2457917.246145833
  9
$TDINDWG
 40
0.0000000116
  9
$TDUSRTIMER
 40
0.0000000116
  9
$USRTIMER
 70
     1
  9
$ANGBASE
 50
0.0
  9
$ANGDIR
 70
     0
  9
$PDMODE
 70
     0
  9
$PDSIZE
 40
0.0
  9
$PLINEWID
 40
0.0
  9
$SPLFRAME
 70
     0
  9
$SPLINETYPE
 70
     6
  9
$SPLINESEGS
 70
     8
  9
$HANDSEED
  5
C5
  9
$SURFTAB1
 70
     6
  9
$SURFTAB2
 70
     6
  9
$SURFTYPE
 70
     6
  9
$SURFU
 70
     6
  9
$SURFV
 70
     6
  9
$UCSBASE
  2

  9
$UCSNAME
  2

  9
$UCSORG
 10
0.0
 20
0.0
 30
0.0
  9
$UCSXDIR
 10
1.0
 20
0.0
 30
0.0
  9
$UCSYDIR
 10
0.0
 20
1.0
 30
0.0
  9
$UCSORTHOREF
  2

  9
$UCSORTHOVIEW
 70
     0
  9
$UCSORGTOP
 10
0.0
 20
0.0
 30
0.0
  9
$UCSORGBOTTOM
 10
0.0
 20
0.0
 30
0.0
  9
$UCSORGLEFT
 10
0.0
 20
0.0
 30
0.0
  9
$UCSORGRIGHT
 10
0.0
 20
0.0
 30
0.0
  9
$UCSORGFRONT
 10
0.0
 20
0.0
 30
0.0
  9
$UCSORGBACK
 10
0.0
 20
0.0
 30
0.0
  9
$PUCSBASE
  2

  9
$PUCSNAME
  2

  9
$PUCSORG
 10
0.0
 20
0.0
 30
0.0
  9
$PUCSXDIR
 10
1.0
 20
0.0
 30
0.0
  9
$PUCSYDIR
 10
0.0
 20
1.0
 30
0.0
  9
$PUCSORTHOREF
  2

  9
$PUCSORTHOVIEW
 70
     0
  9
$PUCSORGTOP
 10
0.0
 20
0.0
 30
0.0
  9
$PUCSORGBOTTOM
 10
0.0
 20
0.0
 30
0.0
  9
$PUCSORGLEFT
 10
0.0
 20
0.0
 30
0.0
  9
$PUCSORGRIGHT
 10
0.0
 20
0.0
 30
0.0
  9
$PUCSORGFRONT
 10
0.0
 20
0.0
 30
0.0
  9
$PUCSORGBACK
 10
0.0
 20
0.0
 30
0.0
  9
$USERI1
 70
     0
  9
$USERI2
 70
     0
  9
$USERI3
 70
     0
  9
$USERI4
 70
     0
  9
$USERI5
 70
     0
  9
$USERR1
 40
0.0
  9
$USERR2
 40
0.0
  9
$USERR3
 40
0.0
  9
$USERR4
 40
0.0
  9
$USERR5
 40
0.0
  9
$WORLDVIEW
 70
     1
  9
$SHADEDGE
 70
     3
  9
$SHADEDIF
 70
    70
  9
$TILEMODE
 70
     1
  9
$MAXACTVP
 70
    64
  9
$PINSBASE
 10
0.0
 20
0.0
 30
0.0
  9
$PLIMCHECK
 70
     0
  9
$PEXTMIN
 10
1.000000000000000E+20
 20
1.000000000000000E+20
 30
1.000000000000000E+20
  9
$PEXTMAX
 10
-1.000000000000000E+20
 20
-1.000000000000000E+20
 30
-1.000000000000000E+20
  9
$PLIMMIN
 10
0.0
 20
0.0
  9
$PLIMMAX
 10
12.0
 20
9.0
  9
$UNITMODE
 70
     0
  9
$VISRETAIN
 70
     1
  9
$PLINEGEN
 70
     0
  9
$PSLTSCALE
 70
     1
  9
$TREEDEPTH
 70
  3020
  9
$CMLSTYLE
  2
Standard
  9
$CMLJUST
 70
     0
  9
$CMLSCALE
 40
1.0
  9
$PROXYGRAPHICS
 70
     1
  9
$MEASUREMENT
 70
     0
  9
$CELWEIGHT
370
    -1
  9
$ENDCAPS
280
     0
  9
$JOINSTYLE
280
     0
  9
$LWDISPLAY
290
     1
  9
$INSUNITS
 70
     1
  9
$HYPERLINKBASE
  1

  9
$STYLESHEET
  1

  9
$XEDIT
290
     1
  9
$CEPSNTYPE
380
     0
  9
$PSTYLEMODE
290
     1
  9
$FINGERPRINTGUID
  2
{A61C26ED-A2D7-2AC7-CCB2-D1BC78DBD79B}
  9
$VERSIONGUID
  2
{FAEB1C32-E019-11D5-929B-00C0DF256EC4}
  9
$EXTNAMES
290
     1
  9
$PSVPSCALE
 40
0.0
  9
$OLESTARTUP
290
     0
  9
$SORTENTS
280
   127
  9
$INDEXCTL
280
     0
  9
$HIDETEXT
280
     1
  9
$XCLIPFRAME
280
     2
  9
$HALOGAP
280
     0
  9
$OBSCOLOR
 70
   257
  9
$OBSLTYPE
280
     0
  9
$INTERSECTIONDISPLAY
280
     0
  9
$INTERSECTIONCOLOR
 70
   257
  9
$DIMASSOC
280
     2
  9
$PROJECTNAME
  1

  9
$CAMERADISPLAY
290
     0
  9
$LENSLENGTH
 40
50.0
  9
$CAMERAHEIGHT
 40
0.0
  9
$STEPSPERSEC
 40
2.0
  9
$STEPSIZE
 40
6.0
  9
$3DDWFPREC
 40
2.0
  9
$PSOLWIDTH
 40
0.25
  9
$PSOLHEIGHT
 40
4.0
  9
$LOFTANG1
 40
1.570796326794897
  9
$LOFTANG2
 40
1.570796326794897
  9
$LOFTMAG1
 40
0.0
  9
$LOFTMAG2
 40
0.0
  9
$LOFTPARAM
 70
     7
  9
$LOFTNORMALS
280
     1
  9
$LATITUDE
 40
37.795
  9
$LONGITUDE
 40
-122.394
  9
$NORTHDIRECTION
 40
0.0
  9
$TIMEZONE
 70
 -8000
  9
$LIGHTGLYPHDISPLAY
280
     1
  9
$TILEMODELIGHTSYNCH
280
     1
  9
$CMATERIAL
347
3C
  9
$SOLIDHIST
280
     1
  9
$SHOWHIST
280
     1
  9
$DWFFRAME
280
     2
  9
$DGNFRAME
280
     2
  9
$REALWORLDSCALE
290
     1
  9
$INTERFERECOLOR
 62
   256
  9
$CSHADOW
280
     0
  9
$SHADOWPLANELOCATION
 40
0.0
  0
ENDSEC
  0
SECTION
  2
CLASSES
  0
CLASS
  1
ACDBDICTIONARYWDFLT
  2
AcDbDictionaryWithDefault
  3
ObjectDBX Classes
 90
        0
 91
        4
280
     0
281
     0
  0
CLASS
  1
VISUALSTYLE
  2
AcDbVisualStyle
  3
ObjectDBX Classes
 90
     4095
 91
        4
280
     0
281
     0
  0
CLASS
  1
MATERIAL
  2
AcDbMaterial
  3
ObjectDBX Classes
 90
     1153
 91
        4
280
     0
281
     0
  0
CLASS
  1
SUN
  2
AcDbSun
  3
SCENEOE
 90
     1024
 91
        4
280
     0
281
     0
  0
ENDSEC
  0
SECTION
  2
TABLES
  0
TABLE
  2
VPORT
  5
8
330
0
100
AcDbSymbolTable
 70
     1
  0
VPORT
  5
29
330
8
100
AcDbSymbolTableRecord
100
AcDbViewportTableRecord
  2
*Active
 70
     0
 10
0.0
 20
0.0
 11
1.0
 21
1.0
 12
0.0
 22
0.0
 13
0.0
 23
0.0
 14
0.5
 24
0.5
 15
0.5
 25
0.5
 16
0.0
 26
0.0
 36
1.0
 17
91.00082462281999
 27
-128.4993055234307
 37
0.0
 40
256.9986110468615
 41
0.7081814508812795
 42
50.0
 43
0.0
 44
0.0
 50
0.0
 51
0.0
 71
     0
 72
   100
 73
     1
 74
     3
 75
     0
 76
     0
 77
     0
 78
     0
281
     0
 65
     1
110
0.0
120
0.0
130
0.0
111
1.0
121
0.0
131
0.0
112
0.0
122
1.0
132
0.0
 79
     0
146
0.0
 60
     3
 61
     5
292
     1
282
     1
141
0.0
142
0.0
 63
   250
361
3F
  0
ENDTAB
  0
TABLE
  2
LTYPE
  5
5
330
0
100
AcDbSymbolTable
 70
     1
  0
LTYPE
  5
14
330
5
100
AcDbSymbolTableRecord
100
AcDbLinetypeTableRecord
  2
ByBlock
 70
     0
  3

 72
    65
 73
     0
 40
0.0
  0
LTYPE
  5
15
330
5
100
AcDbSymbolTableRecord
100
AcDbLinetypeTableRecord
  2
ByLayer
 70
     0
  3

 72
    65
 73
     0
 40
0.0
  0
LTYPE
  5
16
330
5
100
AcDbSymbolTableRecord
100
AcDbLinetypeTableRecord
  2
Continuous
 70
     0
  3
Solid line
 72
    65
 73
     0
 40
0.0
  0
ENDTAB
  0
TABLE
  2
LAYER
  5
2
330
0
100
AcDbSymbolTable
 70
     2
  0
LAYER
  5
10
330
2
100
AcDbSymbolTableRecord
100
AcDbLayerTableRecord
  2
0
 70
     0
 62
     7
  6
Continuous
370
    -3
390
F
347
3E
  0
LAYER
  5
40
330
2
100
AcDbSymbolTableRecord
100
AcDbLayerTableRecord
  2
_U+30EC_U+30A4_U+30E4_U+30FC 1
 70
     0
 62
     7
  6
Continuous
370
    -3
390
F
347
3E
  0
ENDTAB
  0
TABLE
  2
STYLE
  5
3
330
0
100
AcDbSymbolTable
 70
     1
  0
STYLE
  5
11
330
3
100
AcDbSymbolTableRecord
100
AcDbTextStyleTableRecord
  2
Standard
 70
     0
 40
0.0
 41
1.0
 50
0.0
 71
     0
 42
0.2
  3
txt
  4

  0
ENDTAB
  0
TABLE
  2
VIEW
  5
6
330
0
100
AcDbSymbolTable
 70
     0
  0
ENDTAB
  0
TABLE
  2
UCS
  5
7
330
0
100
AcDbSymbolTable
 70
     0
  0
ENDTAB
  0
TABLE
  2
APPID
  5
9
330
0
100
AcDbSymbolTable
 70
     1
  0
APPID
  5
12
330
9
100
AcDbSymbolTableRecord
100
AcDbRegAppTableRecord
  2
ACAD
 70
     0
  0
ENDTAB
  0
TABLE
  2
DIMSTYLE
  5
A
330
0
100
AcDbSymbolTable
 70
     1
100
AcDbDimStyleTable
  0
DIMSTYLE
105
27
330
A
100
AcDbSymbolTableRecord
100
AcDbDimStyleTableRecord
  2
Standard
 70
     0
178
     0
340
11
  0
ENDTAB
  0
TABLE
  2
BLOCK_RECORD
  5
1
330
0
100
AcDbSymbolTable
 70
     5
  0
BLOCK_RECORD
  5
1F
330
1
100
AcDbSymbolTableRecord
100
AcDbBlockTableRecord
  2
*Model_Space
340
22
 70
     0
280
     1
281
     0
  0
BLOCK_RECORD
  5
1B
330
1
100
AcDbSymbolTableRecord
100
AcDbBlockTableRecord
  2
*Paper_Space
340
1E
 70
     0
280
     1
281
     0
  0
BLOCK_RECORD
  5
23
330
1
100
AcDbSymbolTableRecord
100
AcDbBlockTableRecord
  2
*Paper_Space0
340
26
 70
     0
280
     1
281
     0
  0
BLOCK_RECORD
  5
7B
330
1
100
AcDbSymbolTableRecord
100
AcDbBlockTableRecord
  2
block 2
340
0
102
{BLKREFS
331
7C
102
}
 70
     0
280
     1
281
     0
  0
BLOCK_RECORD
  5
8C
330
1
100
AcDbSymbolTableRecord
100
AcDbBlockTableRecord
  2
block 3
340
0
102
{BLKREFS
331
8D
102
}
 70
     0
280
     1
281
     0
  0
BLOCK_RECORD
  5
A5
330
1
100
AcDbSymbolTableRecord
100
AcDbBlockTableRecord
  2
block 4
340
0
102
{BLKREFS
331
A6
102
}
 70
     0
280
     1
281
     0
  0
BLOCK_RECORD
  5
BA
330
1
100
AcDbSymbolTableRecord
100
AcDbBlockTableRecord
  2
block 5
340
0
102
{BLKREFS
331
BB
102
}
 70
     0
280
     1
281
     0
  0
ENDTAB
  0
ENDSEC
  0
SECTION
  2
BLOCKS
  0
BLOCK
  5
20
330
1F
100
AcDbEntity
  8
0
100
AcDbBlockBegin
  2
*Model_Space
 70
     0
 10
0.0
 20
0.0
 30
0.0
  3
*Model_Space
  1

  0
ENDBLK
  5
21
330
1F
100
AcDbEntity
  8
0
100
AcDbBlockEnd
  0
BLOCK
  5
1C
330
1B
100
AcDbEntity
 67
     1
  8
0
100
AcDbBlockBegin
  2
*Paper_Space
 70
     0
 10
0.0
 20
0.0
 30
0.0
  3
*Paper_Space
  1

  0
ENDBLK
  5
1D
330
1B
100
AcDbEntity
 67
     1
  8
0
100
AcDbBlockEnd
  0
BLOCK
  5
24
330
23
100
AcDbEntity
  8
0
100
AcDbBlockBegin
  2
*Paper_Space0
 70
     0
 10
0.0
 20
0.0
 30
0.0
  3
*Paper_Space0
  1

  0
ENDBLK
  5
25
330
23
100
AcDbEntity
  8
0
100
AcDbBlockEnd
  0
BLOCK
  5
7D
330
7B
100
AcDbEntity
  8
0
100
AcDbBlockBegin
  2
block 2
 70
     0
 10
0.0
 20
0.0
 30
0.0
  3
block 2
  1

  0
SPLINE
  5
7F
330
7B
100
AcDbEntity
  8
_U+30EC_U+30A4_U+30E4_U+30FC 1
370
     0
100
AcDbSpline
210
0.0
220
0.0
230
1.0
 70
    11
 71
     3
 72
    26
 73
    22
 74
     0
 42
0.0000000001
 43
0.0000000001
 12
1.0
 22
0.0
 32
0.0
 13
1.0
 23
0.0
 33
0.0
 40
0.0
 40
0.0
 40
0.0
 40
0.0
 40
1.0
 40
1.0
 40
1.0
 40
2.0
 40
2.0
 40
2.0
 40
3.0
 40
3.0
 40
3.0
 40
4.0
 40
4.0
 40
4.0
 40
5.0
 40
5.0
 40
5.0
 40
6.0
 40
6.0
 40
6.0
 40
7.0
 40
7.0
 40
7.0
 40
7.0
 10
110.7722221945292
 20
-130.0582112305063
 30
0.0
 10
110.7722221945292
 20
-130.0582112305063
 30
0.0
 10
109.6680690915066
 20
-130.0582112305063
 30
0.0
 10
109.6680690915066
 20
-130.0582112305063
 30
0.0
 10
109.6680690915066
 20
-130.0582112305063
 30
0.0
 10
109.6680690915066
 20
-130.4106444986473
 30
0.0
 10
109.6680690915066
 20
-130.4106444986473
 30
0.0
 10
109.6680690915066
 20
-130.4106444986473
 30
0.0
 10
109.5199299856409
 20
-130.4106444986473
 30
0.0
 10
109.5199299856409
 20
-130.4106444986473
 30
0.0
 10
109.5051160750543
 20
-130.0557996636666
 30
0.0
 10
109.342163058602
 20
-130.006190288679
 30
0.0
 10
109.2277858884917
 20
-129.9744954102147
 30
0.0
 10
109.2277858884917
 20
-129.9744954102147
 30
0.0
 10
109.2277858884917
 20
-129.8184325847329
 30
0.0
 10
109.2277858884917
 20
-129.8184325847329
 30
0.0
 10
109.2277858884917
 20
-129.8184325847329
 30
0.0
 10
110.7722221945292
 20
-129.8184325847329
 30
0.0
 10
110.7722221945292
 20
-129.8184325847329
 30
0.0
 10
110.7722221945292
 20
-129.8184325847329
 30
0.0
 10
110.7722221945292
 20
-130.0582112305063
 30
0.0
 10
110.7722221945292
 20
-130.0582112305063
 30
0.0
  0
HATCH
  5
80
330
7B
100
AcDbEntity
  8
_U+30EC_U+30A4_U+30E4_U+30FC 1
 62
   179
420
  2234388
100
AcDbHatch
 10
0.0
 20
0.0
 30
0.0
210
0.0
220
0.0
230
1.0
  2
SOLID
 70
     1
 71
     0
 91
        1
 92
        1
 93
        1
 72
     4
 94
        3
 73
     0
 74
     1
 95
       26
 96
       22
 40
0.0
 40
0.0
 40
0.0
 40
0.0
 40
1.0
 40
1.0
 40
1.0
 40
2.0
 40
2.0
 40
2.0
 40
3.0
 40
3.0
 40
3.0
 40
4.0
 40
4.0
 40
4.0
 40
5.0
 40
5.0
 40
5.0
 40
6.0
 40
6.0
 40
6.0
 40
7.0
 40
7.0
 40
7.0
 40
7.0
 10
110.7722221945292
 20
-130.0582112305063
 10
110.7722221945292
 20
-130.0582112305063
 10
109.6680690915066
 20
-130.0582112305063
 10
109.6680690915066
 20
-130.0582112305063
 10
109.6680690915066
 20
-130.0582112305063
 10
109.6680690915066
 20
-130.4106444986473
 10
109.6680690915066
 20
-130.4106444986473
 10
109.6680690915066
 20
-130.4106444986473
 10
109.5199299856409
 20
-130.4106444986473
 10
109.5199299856409
 20
-130.4106444986473
 10
109.5051160750543
 20
-130.0557996636666
 10
109.342163058602
 20
-130.006190288679
 10
109.2277858884917
 20
-129.9744954102147
 10
109.2277858884917
 20
-129.9744954102147
 10
109.2277858884917
 20
-129.8184325847329
 10
109.2277858884917
 20
-129.8184325847329
 10
109.2277858884917
 20
-129.8184325847329
 10
110.7722221945292
 20
-129.8184325847329
 10
110.7722221945292
 20
-129.8184325847329
 10
110.7722221945292
 20
-129.8184325847329
 10
110.7722221945292
 20
-130.0582112305063
 10
110.7722221945292
 20
-130.0582112305063
 97
        0
 97
        0
 75
     2
 76
     1
 98
        0
  0
POLYLINE
  5
81
330
7B
100
AcDbEntity
  8
_U+30EC_U+30A4_U+30E4_U+30FC 1
370
     0
100
AcDb2dPolyline
 66
     1
 10
0.0
 20
0.0
 30
0.0
  0
VERTEX
  5
82
330
81
100
AcDbEntity
  8
_U+30EC_U+30A4_U+30E4_U+30FC 1
370
     0
100
AcDbVertex
100
AcDb2dVertex
 10
110.7722221945292
 20
-129.2186414607509
 30
0.0
  0
VERTEX
  5
83
330
81
100
AcDbEntity
  8
_U+30EC_U+30A4_U+30E4_U+30FC 1
370
     0
100
AcDbVertex
100
AcDb2dVertex
 10
110.5203857145574
 20
-129.2186414607509
 30
0.0
  0
VERTEX
  5
84
330
81
100
AcDbEntity
  8
_U+30EC_U+30A4_U+30E4_U+30FC 1
370
     0
100
AcDbVertex
100
AcDb2dVertex
 10
110.5203857145574
 20
-128.9495795033529
 30
0.0
  0
VERTEX
  5
85
330
81
100
AcDbEntity
  8
_U+30EC_U+30A4_U+30E4_U+30FC 1
370
     0
100
AcDbVertex
100
AcDb2dVertex
 10
110.7722221945292
 20
-128.9495795033529
 30
0.0
  0
VERTEX
  5
86
330
81
100
AcDbEntity
  8
_U+30EC_U+30A4_U+30E4_U+30FC 1
370
     0
100
AcDbVertex
100
AcDb2dVertex
 10
110.7722221945292
 20
-129.2186414607509
 30
0.0
  0
SEQEND
  5
87
330
81
100
AcDbEntity
  8
_U+30EC_U+30A4_U+30E4_U+30FC 1
370
     0
  0
HATCH
  5
88
330
7B
100
AcDbEntity
  8
_U+30EC_U+30A4_U+30E4_U+30FC 1
 62
   179
420
  2234388
100
AcDbHatch
 10
0.0
 20
0.0
 30
0.0
210
0.0
220
0.0
230
1.0
  2
SOLID
 70
     1
 71
     0
 91
        1
 92
        1
 93
        4
 72
     1
 10
110.7722221945292
 20
-129.2186414607509
 11
110.5203857145574
 21
-129.2186414607509
 72
     1
 10
110.5203857145574
 20
-129.2186414607509
 11
110.5203857145574
 21
-128.9495795033529
 72
     1
 10
110.5203857145574
 20
-128.9495795033529
 11
110.7722221945292
 21
-128.9495795033529
 72
     1
 10
110.7722221945292
 20
-128.9495795033529
 11
110.7722221945292
 21
-129.2186414607509
 97
        0
 75
     2
 76
     1
 98
        0
  0
SPLINE
  5
89
330
7B
100
AcDbEntity
  8
_U+30EC_U+30A4_U+30E4_U+30FC 1
370
     0
100
AcDbSpline
210
0.0
220
0.0
230
1.0
 70
    11
 71
     3
 72
    44
 73
    40
 74
     0
 42
0.0000000001
 43
0.0000000001
 12
1.0
 22
0.0
 32
0.0
 13
1.0
 23
0.0
 33
0.0
 40
0.0
 40
0.0
 40
0.0
 40
0.0
 40
1.0
 40
1.0
 40
1.0
 40
2.0
 40
2.0
 40
2.0
 40
3.0
 40
3.0
 40
3.0
 40
4.0
 40
4.0
 40
4.0
 40
5.0
 40
5.0
 40
5.0
 40
6.0
 40
6.0
 40
6.0
 40
7.0
 40
7.0
 40
7.0
 40
8.0
 40
8.0
 40
8.0
 40
9.0
 40
9.0
 40
9.0
 40
10.0
 40
10.0
 40
10.0
 40
11.0
 40
11.0
 40
11.0
 40
12.0
 40
12.0
 40
12.0
 40
13.0
 40
13.0
 40
13.0
 40
13.0
 10
110.1903455670705
 20
-128.0628119254496
 30
0.0
 10
110.3491644689405
 20
-128.2957003802525
 30
0.0
 10
110.4232340218734
 20
-128.3952636397762
 30
0.0
 10
110.5668945036083
 20
-128.4469400720549
 30
0.0
 10
110.5668945036083
 20
-128.4469400720549
 30
0.0
 10
110.5668945036083
 20
-127.6152940219156
 30
0.0
 10
110.5668945036083
 20
-127.6152940219156
 30
0.0
 10
110.5668945036083
 20
-127.6152940219156
 30
0.0
 10
110.7722221945292
 20
-127.6152940219156
 30
0.0
 10
110.7722221945292
 20
-127.6152940219156
 30
0.0
 10
110.7722221945292
 20
-127.6152940219156
 30
0.0
 10
110.7722221945292
 20
-128.7139349721618
 30
0.0
 10
110.7722221945292
 20
-128.7139349721618
 30
0.0
 10
110.4146212831602
 20
-128.6798285268578
 30
0.0
 10
110.3364176156451
 20
-128.6098930885072
 30
0.0
 10
110.0380723466224
 20
-128.1985486875684
 30
0.0
 10
109.8392903371235
 20
-127.9250081060396
 30
0.0
 10
109.7714219560641
 20
-127.8547281581405
 30
0.0
 10
109.6339626462026
 20
-127.8547281581405
 30
0.0
 10
109.51545136151
 20
-127.8547281581405
 30
0.0
 10
109.3845377330705
 20
-127.9315537874616
 30
0.0
 10
109.3845377330705
 20
-128.1420491216103
 30
0.0
 10
109.3845377330705
 20
-128.42006832727
 30
0.0
 10
109.6150146210338
 20
-128.4290255755316
 30
0.0
 10
109.7314588484352
 20
-128.4335041996625
 30
0.0
 10
109.7314588484352
 20
-128.4335041996625
 30
0.0
 10
109.7314588484352
 20
-128.6732828454359
 30
0.0
 10
109.7314588484352
 20
-128.6732828454359
 30
0.0
 10
109.6043348250295
 20
-128.6639810876257
 30
0.0
 10
109.4923692217589
 20
-128.6529567820729
 30
0.0
 10
109.3738579370663
 20
-128.5668293949416
 30
0.0
 10
109.2129719779051
 20
-128.4493516388946
 30
0.0
 10
109.1792100421496
 20
-128.2505696293957
 30
0.0
 10
109.1792100421496
 20
-128.1262016823782
 30
0.0
 10
109.1792100421496
 20
-127.8299234706467
 30
0.0
 10
109.363178141062
 20
-127.6084038309451
 30
0.0
 10
109.6360297034938
 20
-127.6084038309451
 30
0.0
 10
109.8647840437144
 20
-127.6084038309451
 30
0.0
 10
109.9640027936896
 20
-127.7327717779626
 30
0.0
 10
110.1903455670705
 20
-128.0628119254496
 30
0.0
  0
HATCH
  5
8A
330
7B
100
AcDbEntity
  8
_U+30EC_U+30A4_U+30E4_U+30FC 1
 62
   179
420
  2234388
100
AcDbHatch
 10
0.0
 20
0.0
 30
0.0
210
0.0
220
0.0
230
1.0
  2
SOLID
 70
     1
 71
     0
 91
        1
 92
        1
 93
        1
 72
     4
 94
        3
 73
     0
 74
     1
 95
       44
 96
       40
 40
0.0
 40
0.0
 40
0.0
 40
0.0
 40
1.0
 40
1.0
 40
1.0
 40
2.0
 40
2.0
 40
2.0
 40
3.0
 40
3.0
 40
3.0
 40
4.0
 40
4.0
 40
4.0
 40
5.0
 40
5.0
 40
5.0
 40
6.0
 40
6.0
 40
6.0
 40
7.0
 40
7.0
 40
7.0
 40
8.0
 40
8.0
 40
8.0
 40
9.0
 40
9.0
 40
9.0
 40
10.0
 40
10.0
 40
10.0
 40
11.0
 40
11.0
 40
11.0
 40
12.0
 40
12.0
 40
12.0
 40
13.0
 40
13.0
 40
13.0
 40
13.0
 10
110.1903455670705
 20
-128.0628119254496
 10
110.3491644689405
 20
-128.2957003802525
 10
110.4232340218734
 20
-128.3952636397762
 10
110.5668945036083
 20
-128.4469400720549
 10
110.5668945036083
 20
-128.4469400720549
 10
110.5668945036083
 20
-127.6152940219156
 10
110.5668945036083
 20
-127.6152940219156
 10
110.5668945036083
 20
-127.6152940219156
 10
110.7722221945292
 20
-127.6152940219156
 10
110.7722221945292
 20
-127.6152940219156
 10
110.7722221945292
 20
-127.6152940219156
 10
110.7722221945292
 20
-128.7139349721618
 10
110.7722221945292
 20
-128.7139349721618
 10
110.4146212831602
 20
-128.6798285268578
 10
110.3364176156451
 20
-128.6098930885072
 10
110.0380723466224
 20
-128.1985486875684
 10
109.8392903371235
 20
-127.9250081060396
 10
109.7714219560641
 20
-127.8547281581405
 10
109.6339626462026
 20
-127.8547281581405
 10
109.51545136151
 20
-127.8547281581405
 10
109.3845377330705
 20
-127.9315537874616
 10
109.3845377330705
 20
-128.1420491216103
 10
109.3845377330705
 20
-128.42006832727
 10
109.6150146210338
 20
-128.4290255755316
 10
109.7314588484352
 20
-128.4335041996625
 10
109.7314588484352
 20
-128.4335041996625
 10
109.7314588484352
 20
-128.6732828454359
 10
109.7314588484352
 20
-128.6732828454359
 10
109.6043348250295
 20
-128.6639810876257
 10
109.4923692217589
 20
-128.6529567820729
 10
109.3738579370663
 20
-128.5668293949416
 10
109.2129719779051
 20
-128.4493516388946
 10
109.1792100421496
 20
-128.2505696293957
 10
109.1792100421496
 20
-128.1262016823782
 10
109.1792100421496
 20
-127.8299234706467
 10
109.363178141062
 20
-127.6084038309451
 10
109.6360297034938
 20
-127.6084038309451
 10
109.8647840437144
 20
-127.6084038309451
 10
109.9640027936896
 20
-127.7327717779626
 10
110.1903455670705
 20
-128.0628119254496
 97
        0
 97
        0
 75
     2
 76
     1
 98
        0
  0
ENDBLK
  5
7E
330
7B
100
AcDbEntity
  8
0
100
AcDbBlockEnd
  0
BLOCK
  5
8E
330
8C
100
AcDbEntity
  8
0
100
AcDbBlockBegin
  2
block 3
 70
     0
 10
0.0
 20
0.0
 30
0.0
  3
block 3
  1

  0
SPLINE
  5
90
330
8C
100
AcDbEntity
  8
_U+30EC_U+30A4_U+30E4_U+30FC 1
370
     0
100
AcDbSpline
210
0.0
220
0.0
230
1.0
 70
    11
 71
     3
 72
    26
 73
    22
 74
     0
 42
0.0000000001
 43
0.0000000001
 12
1.0
 22
0.0
 32
0.0
 13
1.0
 23
0.0
 33
0.0
 40
0.0
 40
0.0
 40
0.0
 40
0.0
 40
1.0
 40
1.0
 40
1.0
 40
2.0
 40
2.0
 40
2.0
 40
3.0
 40
3.0
 40
3.0
 40
4.0
 40
4.0
 40
4.0
 40
5.0
 40
5.0
 40
5.0
 40
6.0
 40
6.0
 40
6.0
 40
7.0
 40
7.0
 40
7.0
 40
7.0
 10
88.31605629302516
 20
-127.4361490566826
 30
0.0
 10
88.31605629302516
 20
-127.4361490566826
 30
0.0
 10
88.7387695090653
 20
-126.4157117739516
 30
0.0
 10
88.7387695090653
 20
-126.4157117739516
 30
0.0
 10
88.7387695090653
 20
-126.4157117739516
 30
0.0
 10
88.4132079857092
 20
-126.2806640309298
 30
0.0
 10
88.4132079857092
 20
-126.2806640309298
 30
0.0
 10
88.4132079857092
 20
-126.2806640309298
 30
0.0
 10
88.4697075516673
 20
-126.144238249714
 30
0.0
 10
88.4697075516673
 20
-126.144238249714
 30
0.0
 10
88.80353730418801
 20
-126.2661946298918
 30
0.0
 10
88.91171330242486
 20
-126.1345919823552
 30
0.0
 10
88.98440481716362
 20
-126.0415744042535
 30
0.0
 10
88.98440481716362
 20
-126.0415744042535
 30
0.0
 10
89.12840980844707
 20
-126.1008300465998
 30
0.0
 10
89.12840980844707
 20
-126.1008300465998
 30
0.0
 10
89.12840980844707
 20
-126.1008300465998
 30
0.0
 10
88.53757593272672
 20
-127.5277885965903
 30
0.0
 10
88.53757593272672
 20
-127.5277885965903
 30
0.0
 10
88.53757593272672
 20
-127.5277885965903
 30
0.0
 10
88.31605629302516
 20
-127.4361490566826
 30
0.0
 10
88.31605629302516
 20
-127.4361490566826
 30
0.0
  0
HATCH
  5
91
330
8C
100
AcDbEntity
  8
_U+30EC_U+30A4_U+30E4_U+30FC 1
 62
   179
420
  2234388
100
AcDbHatch
 10
0.0
 20
0.0
 30
0.0
210
0.0
220
0.0
230
1.0
  2
SOLID
 70
     1
 71
     0
 91
        1
 92
        1
 93
        1
 72
     4
 94
        3
 73
     0
 74
     1
 95
       26
 96
       22
 40
0.0
 40
0.0
 40
0.0
 40
0.0
 40
1.0
 40
1.0
 40
1.0
 40
2.0
 40
2.0
 40
2.0
 40
3.0
 40
3.0
 40
3.0
 40
4.0
 40
4.0
 40
4.0
 40
5.0
 40
5.0
 40
5.0
 40
6.0
 40
6.0
 40
6.0
 40
7.0
 40
7.0
 40
7.0
 40
7.0
 10
88.31605629302516
 20
-127.4361490566826
 10
88.31605629302516
 20
-127.4361490566826
 10
88.7387695090653
 20
-126.4157117739516
 10
88.7387695090653
 20
-126.4157117739516
 10
88.7387695090653
 20
-126.4157117739516
 10
88.4132079857092
 20
-126.2806640309298
 10
88.4132079857092
 20
-126.2806640309298
 10
88.4132079857092
 20
-126.2806640309298
 10
88.4697075516673
 20
-126.144238249714
 10
88.4697075516673
 20
-126.144238249714
 10
88.80353730418801
 20
-126.2661946298918
 10
88.91171330242486
 20
-126.1345919823552
 10
88.98440481716362
 20
-126.0415744042535
 10
88.98440481716362
 20
-126.0415744042535
 10
89.12840980844707
 20
-126.1008300465998
 10
89.12840980844707
 20
-126.1008300465998
 10
89.12840980844707
 20
-126.1008300465998
 10
88.53757593272672
 20
-127.5277885965903
 10
88.53757593272672
 20
-127.5277885965903
 10
88.53757593272672
 20
-127.5277885965903
 10
88.31605629302516
 20
-127.4361490566826
 10
88.31605629302516
 20
-127.4361490566826
 97
        0
 97
        0
 75
     2
 76
     1
 98
        0
  0
SPLINE
  5
92
330
8C
100
AcDbEntity
  8
_U+30EC_U+30A4_U+30E4_U+30FC 1
370
     0
100
AcDbSpline
210
0.0
220
0.0
230
1.0
 70
    11
 71
     3
 72
    62
 73
    58
 74
     0
 42
0.0000000001
 43
0.0000000001
 12
1.0
 22
0.0
 32
0.0
 13
1.0
 23
0.0
 33
0.0
 40
0.0
 40
0.0
 40
0.0
 40
0.0
 40
1.0
 40
1.0
 40
1.0
 40
2.0
 40
2.0
 40
2.0
 40
3.0
 40
3.0
 40
3.0
 40
4.0
 40
4.0
 40
4.0
 40
5.0
 40
5.0
 40
5.0
 40
6.0
 40
6.0
 40
6.0
 40
7.0
 40
7.0
 40
7.0
 40
8.0
 40
8.0
 40
8.0
 40
9.0
 40
9.0
 40
9.0
 40
10.0
 40
10.0
 40
10.0
 40
11.0
 40
11.0
 40
11.0
 40
12.0
 40
12.0
 40
12.0
 40
13.0
 40
13.0
 40
13.0
 40
14.0
 40
14.0
 40
14.0
 40
15.0
 40
15.0
 40
15.0
 40
16.0
 40
16.0
 40
16.0
 40
17.0
 40
17.0
 40
17.0
 40
18.0
 40
18.0
 40
18.0
 40
19.0
 40
19.0
 40
19.0
 40
19.0
 10
89.49841306356291
 20
-127.9804741433521
 30
0.0
 10
89.40436195681558
 20
-127.9418890739173
 30
0.0
 10
89.19765622770059
 20
-127.8330240565834
 30
0.0
 10
89.14563528587331
 20
-127.6097818691392
 30
0.0
 10
89.11531844560312
 20
-127.4761121643115
 30
0.0
 10
89.1494248909071
 20
-127.3824055671127
 30
0.0
 10
89.17767467388614
 20
-127.3024793518549
 30
0.0
 10
89.17767467388614
 20
-127.3024793518549
 30
0.0
 10
89.39471568945689
 20
-127.3927408535685
 30
0.0
 10
89.39471568945689
 20
-127.3927408535685
 30
0.0
 10
89.36853296376898
 20
-127.461987272822
 30
0.0
 10
89.28929576760824
 20
-127.6835069125236
 30
0.0
 10
89.56903752101053
 20
-127.799262120828
 30
0.0
 10
89.70477428312937
 20
-127.8554171772375
 30
0.0
 10
89.88150768152268
 20
-127.8530056103979
 30
0.0
 10
89.96901310684802
 20
-127.6421657667006
 30
0.0
 10
90.01345483860776
 20
-127.5346787875608
 30
0.0
 10
89.99450681343887
 20
-127.4740451070204
 30
0.0
 10
89.97555878827
 20
-127.4316704325518
 30
0.0
 10
89.93077254696176
 20
-127.3327961921251
 30
0.0
 10
89.82087400098229
 20
-127.2738850593274
 30
0.0
 10
89.76644149231534
 20
-127.2514919386732
 30
0.0
 10
89.74749346714647
 20
-127.2435682190572
 30
0.0
 10
89.71166447409986
 20
-127.2308213657617
 30
0.0
 10
89.68238116247524
 20
-127.2232421556942
 30
0.0
 10
89.68238116247524
 20
-127.2232421556942
 30
0.0
 10
89.75679522495663
 20
-127.0434081713641
 30
0.0
 10
89.75679522495663
 20
-127.0434081713641
 30
0.0
 10
89.79193519890619
 20
-127.0647677633727
 30
0.0
 10
89.83327634472919
 20
-127.0840602980901
 30
0.0
 10
89.83947751660263
 20
-127.0868163744783
 30
0.0
 10
89.90424531172533
 20
-127.1136881192632
 30
0.0
 10
90.10853947400065
 20
-127.1756998379978
 30
0.0
 10
90.19948999481124
 20
-126.9565917651359
 30
0.0
 10
90.26735837587067
 20
-126.792605220038
 30
0.0
 10
90.1588378680853
 20
-126.6878743172864
 30
0.0
 10
90.05031736029993
 20
-126.6430880759781
 30
0.0
 10
89.789179122518
 20
-126.5345675681928
 30
0.0
 10
89.69168292028542
 20
-126.7464409405356
 30
0.0
 10
89.65998804182112
 20
-126.8112087356583
 30
0.0
 10
89.65998804182112
 20
-126.8112087356583
 30
0.0
 10
89.45948348457958
 20
-126.7278374249153
 30
0.0
 10
89.45948348457958
 20
-126.7278374249153
 30
0.0
 10
89.51563854098914
 20
-126.6162163311932
 30
0.0
 10
89.68685978660606
 20
-126.2792859927357
 30
0.0
 10
90.1381672951738
 20
-126.4663546775848
 30
0.0
 10
90.35934242532683
 20
-126.5579942174924
 30
0.0
 10
90.54882267701558
 20
-126.7740017044176
 30
0.0
 10
90.43582354509938
 20
-127.0475422859464
 30
0.0
 10
90.36451006855471
 20
-127.2197970602089
 30
0.0
 10
90.23876408334309
 20
-127.2566595819011
 30
0.0
 10
90.11715221271378
 20
-127.2728515306818
 30
0.0
 10
90.1671060972499
 20
-127.3231499247664
 30
0.0
 10
90.31627873176122
 20
-127.4719780497292
 30
0.0
 10
90.21016979081551
 20
-127.7282931538318
 30
0.0
 10
90.08063420057012
 20
-128.0411078238925
 30
0.0
 10
89.77195364509174
 20
-128.0941622943654
 30
0.0
 10
89.49841306356291
 20
-127.9804741433521
 30
0.0
  0
HATCH
  5
93
330
8C
100
AcDbEntity
  8
_U+30EC_U+30A4_U+30E4_U+30FC 1
 62
   179
420
  2234388
100
AcDbHatch
 10
0.0
 20
0.0
 30
0.0
210
0.0
220
0.0
230
1.0
  2
SOLID
 70
     1
 71
     0
 91
        1
 92
        1
 93
        1
 72
     4
 94
        3
 73
     0
 74
     1
 95
       62
 96
       58
 40
0.0
 40
0.0
 40
0.0
 40
0.0
 40
1.0
 40
1.0
 40
1.0
 40
2.0
 40
2.0
 40
2.0
 40
3.0
 40
3.0
 40
3.0
 40
4.0
 40
4.0
 40
4.0
 40
5.0
 40
5.0
 40
5.0
 40
6.0
 40
6.0
 40
6.0
 40
7.0
 40
7.0
 40
7.0
 40
8.0
 40
8.0
 40
8.0
 40
9.0
 40
9.0
 40
9.0
 40
10.0
 40
10.0
 40
10.0
 40
11.0
 40
11.0
 40
11.0
 40
12.0
 40
12.0
 40
12.0
 40
13.0
 40
13.0
 40
13.0
 40
14.0
 40
14.0
 40
14.0
 40
15.0
 40
15.0
 40
15.0
 40
16.0
 40
16.0
 40
16.0
 40
17.0
 40
17.0
 40
17.0
 40
18.0
 40
18.0
 40
18.0
 40
19.0
 40
19.0
 40
19.0
 40
19.0
 10
89.49841306356291
 20
-127.9804741433521
 10
89.40436195681558
 20
-127.9418890739173
 10
89.19765622770059
 20
-127.8330240565834
 10
89.14563528587331
 20
-127.6097818691392
 10
89.11531844560312
 20
-127.4761121643115
 10
89.1494248909071
 20
-127.3824055671127
 10
89.17767467388614
 20
-127.3024793518549
 10
89.17767467388614
 20
-127.3024793518549
 10
89.39471568945689
 20
-127.3927408535685
 10
89.39471568945689
 20
-127.3927408535685
 10
89.36853296376898
 20
-127.461987272822
 10
89.28929576760824
 20
-127.6835069125236
 10
89.56903752101053
 20
-127.799262120828
 10
89.70477428312937
 20
-127.8554171772375
 10
89.88150768152268
 20
-127.8530056103979
 10
89.96901310684802
 20
-127.6421657667006
 10
90.01345483860776
 20
-127.5346787875608
 10
89.99450681343887
 20
-127.4740451070204
 10
89.97555878827
 20
-127.4316704325518
 10
89.93077254696176
 20
-127.3327961921251
 10
89.82087400098229
 20
-127.2738850593274
 10
89.76644149231534
 20
-127.2514919386732
 10
89.74749346714647
 20
-127.2435682190572
 10
89.71166447409986
 20
-127.2308213657617
 10
89.68238116247524
 20
-127.2232421556942
 10
89.68238116247524
 20
-127.2232421556942
 10
89.75679522495663
 20
-127.0434081713641
 10
89.75679522495663
 20
-127.0434081713641
 10
89.79193519890619
 20
-127.0647677633727
 10
89.83327634472919
 20
-127.0840602980901
 10
89.83947751660263
 20
-127.0868163744783
 10
89.90424531172533
 20
-127.1136881192632
 10
90.10853947400065
 20
-127.1756998379978
 10
90.19948999481124
 20
-126.9565917651359
 10
90.26735837587067
 20
-126.792605220038
 10
90.1588378680853
 20
-126.6878743172864
 10
90.05031736029993
 20
-126.6430880759781
 10
89.789179122518
 20
-126.5345675681928
 10
89.69168292028542
 20
-126.7464409405356
 10
89.65998804182112
 20
-126.8112087356583
 10
89.65998804182112
 20
-126.8112087356583
 10
89.45948348457958
 20
-126.7278374249153
 10
89.45948348457958
 20
-126.7278374249153
 10
89.51563854098914
 20
-126.6162163311932
 10
89.68685978660606
 20
-126.2792859927357
 10
90.1381672951738
 20
-126.4663546775848
 10
90.35934242532683
 20
-126.5579942174924
 10
90.54882267701558
 20
-126.7740017044176
 10
90.43582354509938
 20
-127.0475422859464
 10
90.36451006855471
 20
-127.2197970602089
 10
90.23876408334309
 20
-127.2566595819011
 10
90.11715221271378
 20
-127.2728515306818
 10
90.1671060972499
 20
-127.3231499247664
 10
90.31627873176122
 20
-127.4719780497292
 10
90.21016979081551
 20
-127.7282931538318
 10
90.08063420057012
 20
-128.0411078238925
 10
89.77195364509174
 20
-128.0941622943654
 10
89.49841306356291
 20
-127.9804741433521
 97
        0
 97
        0
 75
     2
 76
     1
 98
        0
  0
SPLINE
  5
94
330
8C
100
AcDbEntity
  8
_U+30EC_U+30A4_U+30E4_U+30FC 1
370
     0
100
AcDbSpline
210
0.0
220
0.0
230
1.0
 70
    11
 71
     3
 72
    53
 73
    49
 74
     0
 42
0.0000000001
 43
0.0000000001
 12
1.0
 22
0.0
 32
0.0
 13
1.0
 23
0.0
 33
0.0
 40
0.0
 40
0.0
 40
0.0
 40
0.0
 40
1.0
 40
1.0
 40
1.0
 40
2.0
 40
2.0
 40
2.0
 40
3.0
 40
3.0
 40
3.0
 40
4.0
 40
4.0
 40
4.0
 40
5.0
 40
5.0
 40
5.0
 40
6.0
 40
6.0
 40
6.0
 40
7.0
 40
7.0
 40
7.0
 40
8.0
 40
8.0
 40
8.0
 40
9.0
 40
9.0
 40
9.0
 40
10.0
 40
10.0
 40
10.0
 40
11.0
 40
11.0
 40
11.0
 40
12.0
 40
12.0
 40
12.0
 40
13.0
 40
13.0
 40
13.0
 40
14.0
 40
14.0
 40
14.0
 40
15.0
 40
15.0
 40
15.0
 40
16.0
 40
16.0
 40
16.0
 40
16.0
 10
90.65010848428192
 20
-128.4576198680592
 30
0.0
 10
90.5725938358638
 20
-128.4255804800464
 30
0.0
 10
90.47923174821354
 20
-128.3683918949912
 30
0.0
 10
90.40309513798951
 20
-128.2681396163705
 30
0.0
 10
90.27390405729264
 20
-128.0955403325595
 30
0.0
 10
90.30353187846579
 20
-127.9660047423141
 30
0.0
 10
90.3255804895714
 20
-127.8585177631743
 30
0.0
 10
90.3255804895714
 20
-127.8585177631743
 30
0.0
 10
90.54537758153033
 20
-127.9494682839849
 30
0.0
 10
90.54537758153033
 20
-127.9494682839849
 30
0.0
 10
90.52332897042473
 20
-128.1554849940028
 30
0.0
 10
90.63736163098649
 20
-128.2347221901636
 30
0.0
 10
90.72934568044266
 20
-128.2726182405013
 30
0.0
 10
90.86714949985266
 20
-128.3298068255564
 30
0.0
 10
91.05559622289583
 20
-128.3005235139318
 30
0.0
 10
91.14482419596379
 20
-128.0852050461037
 30
0.0
 10
91.2426649077449
 20
-127.8488714958156
 30
0.0
 10
91.09176972549095
 20
-127.7110676764056
 30
0.0
 10
90.97256942170131
 20
-127.661458301418
 30
0.0
 10
90.94156356233405
 20
-127.648366938574
 30
0.0
 10
90.80169268563291
 20
-127.5904893344218
 30
0.0
 10
90.66423337577145
 20
-127.6731716260678
 30
0.0
 10
90.66423337577145
 20
-127.6731716260678
 30
0.0
 10
90.49783526383388
 20
-127.5839436529998
 30
0.0
 10
90.49783526383388
 20
-127.5839436529998
 30
0.0
 10
90.49783526383388
 20
-127.5839436529998
 30
0.0
 10
90.940874543237
 20
-126.8518608623843
 30
0.0
 10
90.940874543237
 20
-126.8518608623843
 30
0.0
 10
90.940874543237
 20
-126.8518608623843
 30
0.0
 10
91.70947534599625
 20
-127.1701876852214
 30
0.0
 10
91.70947534599625
 20
-127.1701876852214
 30
0.0
 10
91.70947534599625
 20
-127.1701876852214
 30
0.0
 10
91.63506128351484
 20
-127.3500216695514
 30
0.0
 10
91.63506128351484
 20
-127.3500216695514
 30
0.0
 10
91.63506128351484
 20
-127.3500216695514
 30
0.0
 10
91.02734643991678
 20
-127.0981851895796
 30
0.0
 10
91.02734643991678
 20
-127.0981851895796
 30
0.0
 10
91.02734643991678
 20
-127.0981851895796
 30
0.0
 10
90.80065915698734
 20
-127.4623317823705
 30
0.0
 10
90.80065915698734
 20
-127.4623317823705
 30
0.0
 10
90.87438420037168
 20
-127.4557861009486
 30
0.0
 10
90.97084687395868
 20
-127.4523410054633
 30
0.0
 10
91.08798012045717
 20
-127.5009168518053
 30
0.0
 10
91.33843856223484
 20
-127.6046142259113
 30
0.0
 10
91.50139157868716
 20
-127.8736761833094
 30
0.0
 10
91.38150225580046
 20
-128.1627196945218
 30
0.0
 10
91.25989038517115
 20
-128.4558973203166
 30
0.0
 10
90.94879826285309
 20
-128.5812987959797
 30
0.0
 10
90.65010848428192
 20
-128.4576198680592
 30
0.0
  0
HATCH
  5
95
330
8C
100
AcDbEntity
  8
_U+30EC_U+30A4_U+30E4_U+30FC 1
 62
   179
420
  2234388
100
AcDbHatch
 10
0.0
 20
0.0
 30
0.0
210
0.0
220
0.0
230
1.0
  2
SOLID
 70
     1
 71
     0
 91
        1
 92
        1
 93
        1
 72
     4
 94
        3
 73
     0
 74
     1
 95
       53
 96
       49
 40
0.0
 40
0.0
 40
0.0
 40
0.0
 40
1.0
 40
1.0
 40
1.0
 40
2.0
 40
2.0
 40
2.0
 40
3.0
 40
3.0
 40
3.0
 40
4.0
 40
4.0
 40
4.0
 40
5.0
 40
5.0
 40
5.0
 40
6.0
 40
6.0
 40
6.0
 40
7.0
 40
7.0
 40
7.0
 40
8.0
 40
8.0
 40
8.0
 40
9.0
 40
9.0
 40
9.0
 40
10.0
 40
10.0
 40
10.0
 40
11.0
 40
11.0
 40
11.0
 40
12.0
 40
12.0
 40
12.0
 40
13.0
 40
13.0
 40
13.0
 40
14.0
 40
14.0
 40
14.0
 40
15.0
 40
15.0
 40
15.0
 40
16.0
 40
16.0
 40
16.0
 40
16.0
 10
90.65010848428192
 20
-128.4576198680592
 10
90.5725938358638
 20
-128.4255804800464
 10
90.47923174821354
 20
-128.3683918949912
 10
90.40309513798951
 20
-128.2681396163705
 10
90.27390405729264
 20
-128.0955403325595
 10
90.30353187846579
 20
-127.9660047423141
 10
90.3255804895714
 20
-127.8585177631743
 10
90.3255804895714
 20
-127.8585177631743
 10
90.54537758153033
 20
-127.9494682839849
 10
90.54537758153033
 20
-127.9494682839849
 10
90.52332897042473
 20
-128.1554849940028
 10
90.63736163098649
 20
-128.2347221901636
 10
90.72934568044266
 20
-128.2726182405013
 10
90.86714949985266
 20
-128.3298068255564
 10
91.05559622289583
 20
-128.3005235139318
 10
91.14482419596379
 20
-128.0852050461037
 10
91.2426649077449
 20
-127.8488714958156
 10
91.09176972549095
 20
-127.7110676764056
 10
90.97256942170131
 20
-127.661458301418
 10
90.94156356233405
 20
-127.648366938574
 10
90.80169268563291
 20
-127.5904893344218
 10
90.66423337577145
 20
-127.6731716260678
 10
90.66423337577145
 20
-127.6731716260678
 10
90.49783526383388
 20
-127.5839436529998
 10
90.49783526383388
 20
-127.5839436529998
 10
90.49783526383388
 20
-127.5839436529998
 10
90.940874543237
 20
-126.8518608623843
 10
90.940874543237
 20
-126.8518608623843
 10
90.940874543237
 20
-126.8518608623843
 10
91.70947534599625
 20
-127.1701876852214
 10
91.70947534599625
 20
-127.1701876852214
 10
91.70947534599625
 20
-127.1701876852214
 10
91.63506128351484
 20
-127.3500216695514
 10
91.63506128351484
 20
-127.3500216695514
 10
91.63506128351484
 20
-127.3500216695514
 10
91.02734643991678
 20
-127.0981851895796
 10
91.02734643991678
 20
-127.0981851895796
 10
91.02734643991678
 20
-127.0981851895796
 10
90.80065915698734
 20
-127.4623317823705
 10
90.80065915698734
 20
-127.4623317823705
 10
90.87438420037168
 20
-127.4557861009486
 10
90.97084687395868
 20
-127.4523410054633
 10
91.08798012045717
 20
-127.5009168518053
 10
91.33843856223484
 20
-127.6046142259113
 10
91.50139157868716
 20
-127.8736761833094
 10
91.38150225580046
 20
-128.1627196945218
 10
91.25989038517115
 20
-128.4558973203166
 10
90.94879826285309
 20
-128.5812987959797
 10
90.65010848428192
 20
-128.4576198680592
 97
        0
 97
        0
 75
     2
 76
     1
 98
        0
  0
SPLINE
  5
96
330
8C
100
AcDbEntity
  8
_U+30EC_U+30A4_U+30E4_U+30FC 1
370
     0
100
AcDbSpline
210
0.0
220
0.0
230
1.0
 70
    11
 71
     3
 72
    17
 73
    13
 74
     0
 42
0.0000000001
 43
0.0000000001
 12
1.0
 22
0.0
 32
0.0
 13
1.0
 23
0.0
 33
0.0
 40
0.0
 40
0.0
 40
0.0
 40
0.0
 40
1.0
 40
1.0
 40
1.0
 40
2.0
 40
2.0
 40
2.0
 40
3.0
 40
3.0
 40
3.0
 40
4.0
 40
4.0
 40
4.0
 40
4.0
 10
92.46877439094531
 20
-127.7613660704902
 30
0.0
 10
92.40572914356524
 20
-127.9136392909383
 30
0.0
 10
92.22107202555584
 20
-127.9880533534197
 30
0.0
 10
92.05157332768155
 20
-127.9181179150691
 30
0.0
 10
91.88448619664693
 20
-127.8488714958156
 30
0.0
 10
91.80318194319504
 20
-127.6666259446458
 30
0.0
 10
91.8672607192207
 20
-127.5119411573581
 30
0.0
 10
91.93133949524633
 20
-127.3576008796189
 30
0.0
 10
92.11771916099835
 20
-127.2859428935257
 30
0.0
 10
92.28446178248444
 20
-127.3551893127793
 30
0.0
 10
92.45396048035873
 20
-127.4251247511298
 30
0.0
 10
92.53181963832539
 20
-127.6087483404936
 30
0.0
 10
92.46877439094531
 20
-127.7613660704902
 30
0.0
  0
SPLINE
  5
97
330
8C
100
AcDbEntity
  8
_U+30EC_U+30A4_U+30E4_U+30FC 1
370
     0
100
AcDbSpline
210
0.0
220
0.0
230
1.0
 70
    11
 71
     3
 72
    17
 73
    13
 74
     0
 42
0.0000000001
 43
0.0000000001
 12
1.0
 22
0.0
 32
0.0
 13
1.0
 23
0.0
 33
0.0
 40
0.0
 40
0.0
 40
0.0
 40
0.0
 40
1.0
 40
1.0
 40
1.0
 40
2.0
 40
2.0
 40
2.0
 40
3.0
 40
3.0
 40
3.0
 40
4.0
 40
4.0
 40
4.0
 40
4.0
 10
91.99059513759263
 20
-127.5629285705398
 30
0.0
 10
91.95269908725489
 20
-127.6552571295445
 30
0.0
 10
92.0012749335969
 20
-127.7623995991358
 30
0.0
 10
92.099115645378
 20
-127.8027072163132
 30
0.0
 10
92.19730086670762
 20
-127.8433593430392
 30
0.0
 10
92.30788843178415
 20
-127.8020181972162
 30
0.0
 10
92.34578448212189
 20
-127.7103786573085
 30
0.0
 10
92.38368053245964
 20
-127.6183946078524
 30
0.0
 10
92.33717174340876
 20
-127.5119411573581
 30
0.0
 10
92.236919464788
 20
-127.4706000115351
 30
0.0
 10
92.13666718616723
 20
-127.4292588657121
 30
0.0
 10
92.02849118793038
 20
-127.4712890306322
 30
0.0
 10
91.99059513759263
 20
-127.5629285705398
 30
0.0
  0
HATCH
  5
98
330
8C
100
AcDbEntity
  8
_U+30EC_U+30A4_U+30E4_U+30FC 1
 62
   179
420
  2234388
100
AcDbHatch
 10
0.0
 20
0.0
 30
0.0
210
0.0
220
0.0
230
1.0
  2
SOLID
 70
     1
 71
     0
 91
        2
 92
        1
 93
        1
 72
     4
 94
        3
 73
     0
 74
     1
 95
       17
 96
       13
 40
0.0
 40
0.0
 40
0.0
 40
0.0
 40
1.0
 40
1.0
 40
1.0
 40
2.0
 40
2.0
 40
2.0
 40
3.0
 40
3.0
 40
3.0
 40
4.0
 40
4.0
 40
4.0
 40
4.0
 10
92.46877439094531
 20
-127.7613660704902
 10
92.40572914356524
 20
-127.9136392909383
 10
92.22107202555584
 20
-127.9880533534197
 10
92.05157332768155
 20
-127.9181179150691
 10
91.88448619664693
 20
-127.8488714958156
 10
91.80318194319504
 20
-127.6666259446458
 10
91.8672607192207
 20
-127.5119411573581
 10
91.93133949524633
 20
-127.3576008796189
 10
92.11771916099835
 20
-127.2859428935257
 10
92.28446178248444
 20
-127.3551893127793
 10
92.45396048035873
 20
-127.4251247511298
 10
92.53181963832539
 20
-127.6087483404936
 10
92.46877439094531
 20
-127.7613660704902
 97
        0
 97
        0
 92
        1
 93
        1
 72
     4
 94
        3
 73
     0
 74
     1
 95
       17
 96
       13
 40
0.0
 40
0.0
 40
0.0
 40
0.0
 40
1.0
 40
1.0
 40
1.0
 40
2.0
 40
2.0
 40
2.0
 40
3.0
 40
3.0
 40
3.0
 40
4.0
 40
4.0
 40
4.0
 40
4.0
 10
91.99059513759263
 20
-127.5629285705398
 10
91.95269908725489
 20
-127.6552571295445
 10
92.0012749335969
 20
-127.7623995991358
 10
92.099115645378
 20
-127.8027072163132
 10
92.19730086670762
 20
-127.8433593430392
 10
92.30788843178415
 20
-127.8020181972162
 10
92.34578448212189
 20
-127.7103786573085
 10
92.38368053245964
 20
-127.6183946078524
 10
92.33717174340876
 20
-127.5119411573581
 10
92.236919464788
 20
-127.4706000115351
 10
92.13666718616723
 20
-127.4292588657121
 10
92.02849118793038
 20
-127.4712890306322
 10
91.99059513759263
 20
-127.5629285705398
 97
        0
 97
        0
 75
     2
 76
     1
 98
        0
  0
ENDBLK
  5
8F
330
8C
100
AcDbEntity
  8
0
100
AcDbBlockEnd
  0
BLOCK
  5
A7
330
A5
100
AcDbEntity
  8
0
100
AcDbBlockBegin
  2
block 4
 70
     0
 10
0.0
 20
0.0
 30
0.0
  3
block 4
  1

  0
SPLINE
  5
A9
330
A5
100
AcDbEntity
  8
_U+30EC_U+30A4_U+30E4_U+30FC 1
370
     0
100
AcDbSpline
210
0.0
220
0.0
230
1.0
 70
    11
 71
     3
 72
    44
 73
    40
 74
     0
 42
0.0000000001
 43
0.0000000001
 12
1.0
 22
0.0
 32
0.0
 13
1.0
 23
0.0
 33
0.0
 40
0.0
 40
0.0
 40
0.0
 40
0.0
 40
1.0
 40
1.0
 40
1.0
 40
2.0
 40
2.0
 40
2.0
 40
3.0
 40
3.0
 40
3.0
 40
4.0
 40
4.0
 40
4.0
 40
5.0
 40
5.0
 40
5.0
 40
6.0
 40
6.0
 40
6.0
 40
7.0
 40
7.0
 40
7.0
 40
8.0
 40
8.0
 40
8.0
 40
9.0
 40
9.0
 40
9.0
 40
10.0
 40
10.0
 40
10.0
 40
11.0
 40
11.0
 40
11.0
 40
12.0
 40
12.0
 40
12.0
 40
13.0
 40
13.0
 40
13.0
 40
13.0
 10
77.944251825132
 20
-127.9987331494239
 30
0.0
 10
77.66743840289217
 20
-127.9463676980481
 30
0.0
 10
77.54444849406875
 20
-127.9281086919763
 30
0.0
 10
77.40612791033597
 20
-127.9932209966475
 30
0.0
 10
77.40612791033597
 20
-127.9932209966475
 30
0.0
 10
77.99420570966812
 20
-128.5812987959797
 30
0.0
 10
77.99420570966812
 20
-128.5812987959797
 30
0.0
 10
77.99420570966812
 20
-128.5812987959797
 30
0.0
 10
77.8491671897391
 20
-128.7266818254572
 30
0.0
 10
77.8491671897391
 20
-128.7266818254572
 30
0.0
 10
77.8491671897391
 20
-128.7266818254572
 30
0.0
 10
77.07229815781527
 20
-127.9498127935334
 30
0.0
 10
77.07229815781527
 20
-127.9498127935334
 30
0.0
 10
77.34928383482935
 20
-127.7210584533128
 30
0.0
 10
77.4541869923552
 20
-127.7152017909879
 30
0.0
 10
77.95579289500758
 20
-127.7951280062457
 30
0.0
 10
78.28979490230256
 20
-127.84783796717
 30
0.0
 10
78.38763561408365
 20
-127.8499050244611
 30
0.0
 10
78.4847873067677
 20
-127.7524088222286
 30
0.0
 10
78.56850312705927
 20
-127.668693001937
 30
0.0
 10
78.6069159417198
 20
-127.5215874247168
 30
0.0
 10
78.45808781675701
 20
-127.372759299754
 30
0.0
 10
78.26137286454924
 20
-127.1760443475463
 30
0.0
 10
78.09204642144921
 20
-127.3327961921251
 30
0.0
 10
78.00678030818928
 20
-127.4120333882859
 30
0.0
 10
78.00678030818928
 20
-127.4120333882859
 30
0.0
 10
77.83728161031499
 20
-127.2425346904116
 30
0.0
 10
77.83728161031499
 20
-127.2425346904116
 30
0.0
 10
77.93357202912772
 20
-127.1595078892171
 30
0.0
 10
78.02038843535601
 20
-127.0878499031239
 30
0.0
 10
78.16508244573652
 20
-127.0647677633727
 30
0.0
 10
78.36179739794427
 20
-127.034106413554
 30
0.0
 10
78.52630070736495
 20
-127.1508951505039
 30
0.0
 10
78.61415064223883
 20
-127.2387450853778
 30
0.0
 10
78.82395695729055
 20
-127.4485514004295
 30
0.0
 10
78.8503119377527
 20
-127.7351833448023
 30
0.0
 10
78.65721433580445
 20
-127.9281086919763
 30
0.0
 10
78.49563935754624
 20
-128.0896836702345
 30
0.0
 10
78.33750947477327
 20
-128.0721136832597
 30
0.0
 10
77.944251825132
 20
-127.9987331494239
 30
0.0
  0
HATCH
  5
AA
330
A5
100
AcDbEntity
  8
_U+30EC_U+30A4_U+30E4_U+30FC 1
 62
   179
420
  2234388
100
AcDbHatch
 10
0.0
 20
0.0
 30
0.0
210
0.0
220
0.0
230
1.0
  2
SOLID
 70
     1
 71
     0
 91
        1
 92
        1
 93
        1
 72
     4
 94
        3
 73
     0
 74
     1
 95
       44
 96
       40
 40
0.0
 40
0.0
 40
0.0
 40
0.0
 40
1.0
 40
1.0
 40
1.0
 40
2.0
 40
2.0
 40
2.0
 40
3.0
 40
3.0
 40
3.0
 40
4.0
 40
4.0
 40
4.0
 40
5.0
 40
5.0
 40
5.0
 40
6.0
 40
6.0
 40
6.0
 40
7.0
 40
7.0
 40
7.0
 40
8.0
 40
8.0
 40
8.0
 40
9.0
 40
9.0
 40
9.0
 40
10.0
 40
10.0
 40
10.0
 40
11.0
 40
11.0
 40
11.0
 40
12.0
 40
12.0
 40
12.0
 40
13.0
 40
13.0
 40
13.0
 40
13.0
 10
77.944251825132
 20
-127.9987331494239
 10
77.66743840289217
 20
-127.9463676980481
 10
77.54444849406875
 20
-127.9281086919763
 10
77.40612791033597
 20
-127.9932209966475
 10
77.40612791033597
 20
-127.9932209966475
 10
77.99420570966812
 20
-128.5812987959797
 10
77.99420570966812
 20
-128.5812987959797
 10
77.99420570966812
 20
-128.5812987959797
 10
77.8491671897391
 20
-128.7266818254572
 10
77.8491671897391
 20
-128.7266818254572
 10
77.8491671897391
 20
-128.7266818254572
 10
77.07229815781527
 20
-127.9498127935334
 10
77.07229815781527
 20
-127.9498127935334
 10
77.34928383482935
 20
-127.7210584533128
 10
77.4541869923552
 20
-127.7152017909879
 10
77.95579289500758
 20
-127.7951280062457
 10
78.28979490230256
 20
-127.84783796717
 10
78.38763561408365
 20
-127.8499050244611
 10
78.4847873067677
 20
-127.7524088222286
 10
78.56850312705927
 20
-127.668693001937
 10
78.6069159417198
 20
-127.5215874247168
 10
78.45808781675701
 20
-127.372759299754
 10
78.26137286454924
 20
-127.1760443475463
 10
78.09204642144921
 20
-127.3327961921251
 10
78.00678030818928
 20
-127.4120333882859
 10
78.00678030818928
 20
-127.4120333882859
 10
77.83728161031499
 20
-127.2425346904116
 10
77.83728161031499
 20
-127.2425346904116
 10
77.93357202912772
 20
-127.1595078892171
 10
78.02038843535601
 20
-127.0878499031239
 10
78.16508244573652
 20
-127.0647677633727
 10
78.36179739794427
 20
-127.034106413554
 10
78.52630070736495
 20
-127.1508951505039
 10
78.61415064223883
 20
-127.2387450853778
 10
78.82395695729055
 20
-127.4485514004295
 10
78.8503119377527
 20
-127.7351833448023
 10
78.65721433580445
 20
-127.9281086919763
 10
78.49563935754624
 20
-128.0896836702345
 10
78.33750947477327
 20
-128.0721136832597
 10
77.944251825132
 20
-127.9987331494239
 97
        0
 97
        0
 75
     2
 76
     1
 98
        0
  0
SPLINE
  5
AB
330
A5
100
AcDbEntity
  8
_U+30EC_U+30A4_U+30E4_U+30FC 1
370
     0
100
AcDbSpline
210
0.0
220
0.0
230
1.0
 70
    11
 71
     3
 72
    29
 73
    25
 74
     0
 42
0.0000000001
 43
0.0000000001
 12
1.0
 22
0.0
 32
0.0
 13
1.0
 23
0.0
 33
0.0
 40
0.0
 40
0.0
 40
0.0
 40
0.0
 40
1.0
 40
1.0
 40
1.0
 40
2.0
 40
2.0
 40
2.0
 40
3.0
 40
3.0
 40
3.0
 40
4.0
 40
4.0
 40
4.0
 40
5.0
 40
5.0
 40
5.0
 40
6.0
 40
6.0
 40
6.0
 40
7.0
 40
7.0
 40
7.0
 40
8.0
 40
8.0
 40
8.0
 40
8.0
 10
78.7777926777882
 20
-129.4039875978573
 30
0.0
 10
78.54852157324481
 20
-129.4708224502712
 30
0.0
 10
78.40382756286432
 20
-129.3530001846756
 30
0.0
 10
78.31597762799045
 20
-129.2651502498018
 30
0.0
 10
78.19471026690965
 20
-129.143882888721
 30
0.0
 10
78.12046845920253
 20
-129.0036675024713
 30
0.0
 10
78.17696802516062
 20
-128.8031629452298
 30
0.0
 10
78.23605141273266
 20
-128.5868109487561
 30
0.0
 10
78.38953041660054
 20
-128.4052544166834
 30
0.0
 10
78.50476886058215
 20
-128.2901882274761
 30
0.0
 10
78.60639917739701
 20
-128.1882134011127
 30
0.0
 10
78.79725746727986
 20
-128.0231933273692
 30
0.0
 10
79.01774357833584
 20
-127.9625596468288
 30
0.0
 10
79.24270831352266
 20
-127.9002034185458
 30
0.0
 10
79.38068438770692
 20
-128.0052788308459
 30
0.0
 10
79.47818058993948
 20
-128.1027750330785
 30
0.0
 10
79.59806991282618
 20
-128.2226643559652
 30
0.0
 10
79.6755845612443
 20
-128.3628797422148
 30
0.0
 10
79.61856823096342
 20
-128.5633842994564
 30
0.0
 10
79.55793455042301
 20
-128.7749131622507
 30
0.0
 10
79.41392955913958
 20
-128.9540581274837
 30
0.0
 10
79.29128415986469
 20
-129.0767035267586
 30
0.0
 10
79.17001679878389
 20
-129.1976263782909
 30
0.0
 10
78.9908718335509
 20
-129.344731955511
 30
0.0
 10
78.7777926777882
 20
-129.4039875978573
 30
0.0
  0
SPLINE
  5
AC
330
A5
100
AcDbEntity
  8
_U+30EC_U+30A4_U+30E4_U+30FC 1
370
     0
100
AcDbSpline
210
0.0
220
0.0
230
1.0
 70
    11
 71
     3
 72
    17
 73
    13
 74
     0
 42
0.0000000001
 43
0.0000000001
 12
1.0
 22
0.0
 32
0.0
 13
1.0
 23
0.0
 33
0.0
 40
0.0
 40
0.0
 40
0.0
 40
0.0
 40
1.0
 40
1.0
 40
1.0
 40
2.0
 40
2.0
 40
2.0
 40
3.0
 40
3.0
 40
3.0
 40
4.0
 40
4.0
 40
4.0
 40
4.0
 10
79.34209931827212
 20
-128.2388563047458
 30
0.0
 10
79.15365259522895
 20
-128.0504095817027
 30
0.0
 10
78.91800806403786
 20
-128.2157741649947
 30
0.0
 10
78.67426755845644
 20
-128.4596869253504
 30
0.0
 10
78.44826929462404
 20
-128.6853406796342
 30
0.0
 10
78.25672198564416
 20
-128.930631478184
 30
0.0
 10
78.45343693785192
 20
-129.1273464303918
 30
0.0
 10
78.64050562270099
 20
-129.3144151152408
 30
0.0
 10
78.87632240866634
 20
-129.1524956274341
 30
0.0
 10
79.12178546199038
 20
-128.9072048288843
 30
0.0
 10
79.34761147104852
 20
-128.6812065650519
 30
0.0
 10
79.53709172273726
 20
-128.433848709211
 30
0.0
 10
79.34209931827212
 20
-128.2388563047458
 30
0.0
  0
HATCH
  5
AD
330
A5
100
AcDbEntity
  8
_U+30EC_U+30A4_U+30E4_U+30FC 1
 62
   179
420
  2234388
100
AcDbHatch
 10
0.0
 20
0.0
 30
0.0
210
0.0
220
0.0
230
1.0
  2
SOLID
 70
     1
 71
     0
 91
        2
 92
        1
 93
        1
 72
     4
 94
        3
 73
     0
 74
     1
 95
       29
 96
       25
 40
0.0
 40
0.0
 40
0.0
 40
0.0
 40
1.0
 40
1.0
 40
1.0
 40
2.0
 40
2.0
 40
2.0
 40
3.0
 40
3.0
 40
3.0
 40
4.0
 40
4.0
 40
4.0
 40
5.0
 40
5.0
 40
5.0
 40
6.0
 40
6.0
 40
6.0
 40
7.0
 40
7.0
 40
7.0
 40
8.0
 40
8.0
 40
8.0
 40
8.0
 10
78.7777926777882
 20
-129.4039875978573
 10
78.54852157324481
 20
-129.4708224502712
 10
78.40382756286432
 20
-129.3530001846756
 10
78.31597762799045
 20
-129.2651502498018
 10
78.19471026690965
 20
-129.143882888721
 10
78.12046845920253
 20
-129.0036675024713
 10
78.17696802516062
 20
-128.8031629452298
 10
78.23605141273266
 20
-128.5868109487561
 10
78.38953041660054
 20
-128.4052544166834
 10
78.50476886058215
 20
-128.2901882274761
 10
78.60639917739701
 20
-128.1882134011127
 10
78.79725746727986
 20
-128.0231933273692
 10
79.01774357833584
 20
-127.9625596468288
 10
79.24270831352266
 20
-127.9002034185458
 10
79.38068438770692
 20
-128.0052788308459
 10
79.47818058993948
 20
-128.1027750330785
 10
79.59806991282618
 20
-128.2226643559652
 10
79.6755845612443
 20
-128.3628797422148
 10
79.61856823096342
 20
-128.5633842994564
 10
79.55793455042301
 20
-128.7749131622507
 10
79.41392955913958
 20
-128.9540581274837
 10
79.29128415986469
 20
-129.0767035267586
 10
79.17001679878389
 20
-129.1976263782909
 10
78.9908718335509
 20
-129.344731955511
 10
78.7777926777882
 20
-129.4039875978573
 97
        0
 97
        0
 92
        1
 93
        1
 72
     4
 94
        3
 73
     0
 74
     1
 95
       17
 96
       13
 40
0.0
 40
0.0
 40
0.0
 40
0.0
 40
1.0
 40
1.0
 40
1.0
 40
2.0
 40
2.0
 40
2.0
 40
3.0
 40
3.0
 40
3.0
 40
4.0
 40
4.0
 40
4.0
 40
4.0
 10
79.34209931827212
 20
-128.2388563047458
 10
79.15365259522895
 20
-128.0504095817027
 10
78.91800806403786
 20
-128.2157741649947
 10
78.67426755845644
 20
-128.4596869253504
 10
78.44826929462404
 20
-128.6853406796342
 10
78.25672198564416
 20
-128.930631478184
 10
78.45343693785192
 20
-129.1273464303918
 10
78.64050562270099
 20
-129.3144151152408
 10
78.87632240866634
 20
-129.1524956274341
 10
79.12178546199038
 20
-128.9072048288843
 10
79.34761147104852
 20
-128.6812065650519
 10
79.53709172273726
 20
-128.433848709211
 10
79.34209931827212
 20
-128.2388563047458
 97
        0
 97
        0
 75
     2
 76
     1
 98
        0
  0
ENDBLK
  5
A8
330
A5
100
AcDbEntity
  8
0
100
AcDbBlockEnd
  0
BLOCK
  5
BC
330
BA
100
AcDbEntity
  8
0
100
AcDbBlockBegin
  2
block 5
 70
     0
 10
0.0
 20
0.0
 30
0.0
  3
block 5
  1

  0
SPLINE
  5
BE
330
BA
100
AcDbEntity
  8
_U+30EC_U+30A4_U+30E4_U+30FC 1
370
     0
100
AcDbSpline
210
0.0
220
0.0
230
1.0
 70
    11
 71
     3
 72
    44
 73
    40
 74
     0
 42
0.0000000001
 43
0.0000000001
 12
1.0
 22
0.0
 32
0.0
 13
1.0
 23
0.0
 33
0.0
 40
0.0
 40
0.0
 40
0.0
 40
0.0
 40
1.0
 40
1.0
 40
1.0
 40
2.0
 40
2.0
 40
2.0
 40
3.0
 40
3.0
 40
3.0
 40
4.0
 40
4.0
 40
4.0
 40
5.0
 40
5.0
 40
5.0
 40
6.0
 40
6.0
 40
6.0
 40
7.0
 40
7.0
 40
7.0
 40
8.0
 40
8.0
 40
8.0
 40
9.0
 40
9.0
 40
9.0
 40
10.0
 40
10.0
 40
10.0
 40
11.0
 40
11.0
 40
11.0
 40
12.0
 40
12.0
 40
12.0
 40
13.0
 40
13.0
 40
13.0
 40
13.0
 10
96.84370114766408
 20
-136.2538709511796
 30
0.0
 10
96.61081269286119
 20
-136.4126898530496
 30
0.0
 10
96.51124943333747
 20
-136.4867594059825
 30
0.0
 10
96.4592284915102
 20
-136.6304198877174
 30
0.0
 10
96.4592284915102
 20
-136.6304198877174
 30
0.0
 10
97.29156356074655
 20
-136.6304198877174
 30
0.0
 10
97.29156356074655
 20
-136.6304198877174
 30
0.0
 10
97.29156356074655
 20
-136.6304198877174
 30
0.0
 10
97.29156356074655
 20
-136.8357475786383
 30
0.0
 10
97.29156356074655
 20
-136.8357475786383
 30
0.0
 10
97.29156356074655
 20
-136.8357475786383
 30
0.0
 10
96.19257810095186
 20
-136.8357475786383
 30
0.0
 10
96.19257810095186
 20
-136.8357475786383
 30
0.0
 10
96.22668454625584
 20
-136.4781466672694
 30
0.0
 10
96.29661998460641
 20
-136.3999429997542
 30
0.0
 10
96.70796438554524
 20
-136.1015977307316
 30
0.0
 10
96.98150496707407
 20
-135.9028157212326
 30
0.0
 10
97.05178491497317
 20
-135.8349473401732
 30
0.0
 10
97.05178491497317
 20
-135.6974880303117
 30
0.0
 10
97.05178491497317
 20
-135.5789767456191
 30
0.0
 10
96.9749592856521
 20
-135.4480631171797
 30
0.0
 10
96.76446395150333
 20
-135.4480631171797
 30
0.0
 10
96.48644474584367
 20
-135.4480631171797
 30
0.0
 10
96.47748749758202
 20
-135.6785400051429
 30
0.0
 10
96.47300887345119
 20
-135.7949842325443
 30
0.0
 10
96.47300887345119
 20
-135.7949842325443
 30
0.0
 10
96.23323022767781
 20
-135.7949842325443
 30
0.0
 10
96.23323022767781
 20
-135.7949842325443
 30
0.0
 10
96.24218747593946
 20
-135.6678602091386
 30
0.0
 10
96.25355629104078
 20
-135.555894605868
 30
0.0
 10
96.33968367817202
 20
-135.4373833211754
 30
0.0
 10
96.45716143421905
 20
-135.2764973620142
 30
0.0
 10
96.65594344371796
 20
-135.2427354262588
 30
0.0
 10
96.78031139073548
 20
-135.2427354262588
 30
0.0
 10
97.07658960246697
 20
-135.2427354262588
 30
0.0
 10
97.29810924216854
 20
-135.4267035251711
 30
0.0
 10
97.29810924216854
 20
-135.6995550876029
 30
0.0
 10
97.29810924216854
 20
-135.9283094278235
 30
0.0
 10
97.17374129515102
 20
-136.0275281777987
 30
0.0
 10
96.84370114766408
 20
-136.2538709511796
 30
0.0
  0
HATCH
  5
BF
330
BA
100
AcDbEntity
  8
_U+30EC_U+30A4_U+30E4_U+30FC 1
 62
   179
420
  2234388
100
AcDbHatch
 10
0.0
 20
0.0
 30
0.0
210
0.0
220
0.0
230
1.0
  2
SOLID
 70
     1
 71
     0
 91
        1
 92
        1
 93
        1
 72
     4
 94
        3
 73
     0
 74
     1
 95
       44
 96
       40
 40
0.0
 40
0.0
 40
0.0
 40
0.0
 40
1.0
 40
1.0
 40
1.0
 40
2.0
 40
2.0
 40
2.0
 40
3.0
 40
3.0
 40
3.0
 40
4.0
 40
4.0
 40
4.0
 40
5.0
 40
5.0
 40
5.0
 40
6.0
 40
6.0
 40
6.0
 40
7.0
 40
7.0
 40
7.0
 40
8.0
 40
8.0
 40
8.0
 40
9.0
 40
9.0
 40
9.0
 40
10.0
 40
10.0
 40
10.0
 40
11.0
 40
11.0
 40
11.0
 40
12.0
 40
12.0
 40
12.0
 40
13.0
 40
13.0
 40
13.0
 40
13.0
 10
96.84370114766408
 20
-136.2538709511796
 10
96.61081269286119
 20
-136.4126898530496
 10
96.51124943333747
 20
-136.4867594059825
 10
96.4592284915102
 20
-136.6304198877174
 10
96.4592284915102
 20
-136.6304198877174
 10
97.29156356074655
 20
-136.6304198877174
 10
97.29156356074655
 20
-136.6304198877174
 10
97.29156356074655
 20
-136.6304198877174
 10
97.29156356074655
 20
-136.8357475786383
 10
97.29156356074655
 20
-136.8357475786383
 10
97.29156356074655
 20
-136.8357475786383
 10
96.19257810095186
 20
-136.8357475786383
 10
96.19257810095186
 20
-136.8357475786383
 10
96.22668454625584
 20
-136.4781466672694
 10
96.29661998460641
 20
-136.3999429997542
 10
96.70796438554524
 20
-136.1015977307316
 10
96.98150496707407
 20
-135.9028157212326
 10
97.05178491497317
 20
-135.8349473401732
 10
97.05178491497317
 20
-135.6974880303117
 10
97.05178491497317
 20
-135.5789767456191
 10
96.9749592856521
 20
-135.4480631171797
 10
96.76446395150333
 20
-135.4480631171797
 10
96.48644474584367
 20
-135.4480631171797
 10
96.47748749758202
 20
-135.6785400051429
 10
96.47300887345119
 20
-135.7949842325443
 10
96.47300887345119
 20
-135.7949842325443
 10
96.23323022767781
 20
-135.7949842325443
 10
96.23323022767781
 20
-135.7949842325443
 10
96.24218747593946
 20
-135.6678602091386
 10
96.25355629104078
 20
-135.555894605868
 10
96.33968367817202
 20
-135.4373833211754
 10
96.45716143421905
 20
-135.2764973620142
 10
96.65594344371796
 20
-135.2427354262588
 10
96.78031139073548
 20
-135.2427354262588
 10
97.07658960246697
 20
-135.2427354262588
 10
97.29810924216854
 20
-135.4267035251711
 10
97.29810924216854
 20
-135.6995550876029
 10
97.29810924216854
 20
-135.9283094278235
 10
97.17374129515102
 20
-136.0275281777987
 10
96.84370114766408
 20
-136.2538709511796
 97
        0
 97
        0
 75
     2
 76
     1
 98
        0
  0
SPLINE
  5
C0
330
BA
100
AcDbEntity
  8
_U+30EC_U+30A4_U+30E4_U+30FC 1
370
     0
100
AcDbSpline
210
0.0
220
0.0
230
1.0
 70
    11
 71
     3
 72
    29
 73
    25
 74
     0
 42
0.0000000001
 43
0.0000000001
 12
1.0
 22
0.0
 32
0.0
 13
1.0
 23
0.0
 33
0.0
 40
0.0
 40
0.0
 40
0.0
 40
0.0
 40
1.0
 40
1.0
 40
1.0
 40
2.0
 40
2.0
 40
2.0
 40
3.0
 40
3.0
 40
3.0
 40
4.0
 40
4.0
 40
4.0
 40
5.0
 40
5.0
 40
5.0
 40
6.0
 40
6.0
 40
6.0
 40
7.0
 40
7.0
 40
7.0
 40
8.0
 40
8.0
 40
8.0
 40
8.0
 10
98.4270670326849
 20
-136.6579806515994
 30
0.0
 10
98.31165633392904
 20
-136.8674424571026
 30
0.0
 10
98.12631019682259
 20
-136.8863904822715
 30
0.0
 10
98.00194224980507
 20
-136.8863904822715
 30
0.0
 10
97.83037649463964
 20
-136.8863904822715
 30
0.0
 10
97.67879229328864
 20
-136.8398816932206
 30
0.0
 10
97.57716197647377
 20
-136.6579806515994
 30
0.0
 10
97.46622990184872
 20
-136.4633327566828
 30
0.0
 10
97.44590383848575
 20
-136.2266546968461
 30
0.0
 10
97.44590383848575
 20
-136.0637016803938
 30
0.0
 10
97.44590383848575
 20
-135.9196966891104
 30
0.0
 10
97.46381833500905
 20
-135.6678602091386
 30
0.0
 10
97.57716197647377
 20
-135.4690781996397
 30
0.0
 10
97.69222816568112
 20
-135.2661620755585
 30
0.0
 10
97.86413843039509
 20
-135.2427354262588
 30
0.0
 10
98.00194224980507
 20
-135.2427354262588
 30
0.0
 10
98.1717854572279
 20
-135.2427354262588
 30
0.0
 10
98.32543671587004
 20
-135.2871771580185
 30
0.0
 10
98.4270670326849
 20
-135.4690781996397
 30
0.0
 10
98.53352048317912
 20
-135.6616590372651
 30
0.0
 10
98.55832517067293
 20
-135.8900688679372
 30
0.0
 10
98.55832517067293
 20
-136.0637016803938
 30
0.0
 10
98.55832517067293
 20
-136.2349229260107
 30
0.0
 10
98.53558754047027
 20
-136.4653998139739
 30
0.0
 10
98.4270670326849
 20
-136.6579806515994
 30
0.0
  0
SPLINE
  5
C1
330
BA
100
AcDbEntity
  8
_U+30EC_U+30A4_U+30E4_U+30FC 1
370
     0
100
AcDbSpline
210
0.0
220
0.0
230
1.0
 70
    11
 71
     3
 72
    17
 73
    13
 74
     0
 42
0.0000000001
 43
0.0000000001
 12
1.0
 22
0.0
 32
0.0
 13
1.0
 23
0.0
 33
0.0
 40
0.0
 40
0.0
 40
0.0
 40
0.0
 40
1.0
 40
1.0
 40
1.0
 40
2.0
 40
2.0
 40
2.0
 40
3.0
 40
3.0
 40
3.0
 40
4.0
 40
4.0
 40
4.0
 40
4.0
 10
98.00194224980507
 20
-135.4353162638842
 30
0.0
 10
97.73529185924674
 20
-135.4353162638842
 30
0.0
 10
97.68568248425915
 20
-135.7188476223203
 30
0.0
 10
97.68568248425915
 20
-136.0637016803938
 30
0.0
 10
97.68568248425915
 20
-136.3830620318764
 30
0.0
 10
97.72392304414541
 20
-136.6917425873548
 30
0.0
 10
98.00194224980507
 20
-136.6917425873548
 30
0.0
 10
98.26652558307227
 20
-136.6917425873548
 30
0.0
 10
98.31854652489953
 20
-136.4106227957585
 30
0.0
 10
98.31854652489953
 20
-136.0637016803938
 30
0.0
 10
98.31854652489953
 20
-135.7439968193626
 30
0.0
 10
98.27789439817359
 20
-135.4353162638842
 30
0.0
 10
98.00194224980507
 20
-135.4353162638842
 30
0.0
  0
HATCH
  5
C2
330
BA
100
AcDbEntity
  8
_U+30EC_U+30A4_U+30E4_U+30FC 1
 62
   179
420
  2234388
100
AcDbHatch
 10
0.0
 20
0.0
 30
0.0
210
0.0
220
0.0
230
1.0
  2
SOLID
 70
     1
 71
     0
 91
        2
 92
        1
 93
        1
 72
     4
 94
        3
 73
     0
 74
     1
 95
       29
 96
       25
 40
0.0
 40
0.0
 40
0.0
 40
0.0
 40
1.0
 40
1.0
 40
1.0
 40
2.0
 40
2.0
 40
2.0
 40
3.0
 40
3.0
 40
3.0
 40
4.0
 40
4.0
 40
4.0
 40
5.0
 40
5.0
 40
5.0
 40
6.0
 40
6.0
 40
6.0
 40
7.0
 40
7.0
 40
7.0
 40
8.0
 40
8.0
 40
8.0
 40
8.0
 10
98.4270670326849
 20
-136.6579806515994
 10
98.31165633392904
 20
-136.8674424571026
 10
98.12631019682259
 20
-136.8863904822715
 10
98.00194224980507
 20
-136.8863904822715
 10
97.83037649463964
 20
-136.8863904822715
 10
97.67879229328864
 20
-136.8398816932206
 10
97.57716197647377
 20
-136.6579806515994
 10
97.46622990184872
 20
-136.4633327566828
 10
97.44590383848575
 20
-136.2266546968461
 10
97.44590383848575
 20
-136.0637016803938
 10
97.44590383848575
 20
-135.9196966891104
 10
97.46381833500905
 20
-135.6678602091386
 10
97.57716197647377
 20
-135.4690781996397
 10
97.69222816568112
 20
-135.2661620755585
 10
97.86413843039509
 20
-135.2427354262588
 10
98.00194224980507
 20
-135.2427354262588
 10
98.1717854572279
 20
-135.2427354262588
 10
98.32543671587004
 20
-135.2871771580185
 10
98.4270670326849
 20
-135.4690781996397
 10
98.53352048317912
 20
-135.6616590372651
 10
98.55832517067293
 20
-135.8900688679372
 10
98.55832517067293
 20
-136.0637016803938
 10
98.55832517067293
 20
-136.2349229260107
 10
98.53558754047027
 20
-136.4653998139739
 10
98.4270670326849
 20
-136.6579806515994
 97
        0
 97
        0
 92
        1
 93
        1
 72
     4
 94
        3
 73
     0
 74
     1
 95
       17
 96
       13
 40
0.0
 40
0.0
 40
0.0
 40
0.0
 40
1.0
 40
1.0
 40
1.0
 40
2.0
 40
2.0
 40
2.0
 40
3.0
 40
3.0
 40
3.0
 40
4.0
 40
4.0
 40
4.0
 40
4.0
 10
98.00194224980507
 20
-135.4353162638842
 10
97.73529185924674
 20
-135.4353162638842
 10
97.68568248425915
 20
-135.7188476223203
 10
97.68568248425915
 20
-136.0637016803938
 10
97.68568248425915
 20
-136.3830620318764
 10
97.72392304414541
 20
-136.6917425873548
 10
98.00194224980507
 20
-136.6917425873548
 10
98.26652558307227
 20
-136.6917425873548
 10
98.31854652489953
 20
-136.4106227957585
 10
98.31854652489953
 20
-136.0637016803938
 10
98.31854652489953
 20
-135.7439968193626
 10
98.27789439817359
 20
-135.4353162638842
 10
98.00194224980507
 20
-135.4353162638842
 97
        0
 97
        0
 75
     2
 76
     1
 98
        0
  0
ENDBLK
  5
BD
330
BA
100
AcDbEntity
  8
0
100
AcDbBlockEnd
  0
ENDSEC
  0
SECTION
  2
ENTITIES
  0
POLYLINE
  5
41
330
1F
100
AcDbEntity
  8
_U+30EC_U+30A4_U+30E4_U+30FC 1
370
     0
100
AcDb2dPolyline
 66
     1
 10
0.0
 20
0.0
 30
0.0
  0
VERTEX
  5
42
330
41
100
AcDbEntity
  8
_U+30EC_U+30A4_U+30E4_U+30FC 1
370
     0
100
AcDbVertex
100
AcDb2dVertex
 10
74.07472366575192
 20
-118.4408349703898
 30
0.0
  0
VERTEX
  5
43
330
41
100
AcDbEntity
  8
_U+30EC_U+30A4_U+30E4_U+30FC 1
370
     0
100
AcDbVertex
100
AcDb2dVertex
 10
73.226187298511
 20
-119.2896888590666
 30
0.0
  0
VERTEX
  5
44
330
41
100
AcDbEntity
  8
_U+30EC_U+30A4_U+30E4_U+30FC 1
370
     0
100
AcDbVertex
100
AcDb2dVertex
 10
87.36830721549323
 20
-133.4319855221978
 30
0.0
  0
VERTEX
  5
45
330
41
100
AcDbEntity
  8
_U+30EC_U+30A4_U+30E4_U+30FC 1
370
     0
100
AcDbVertex
100
AcDb2dVertex
 10
107.368478371913
 20
-133.4319855221978
 30
0.0
  0
VERTEX
  5
46
330
41
100
AcDbEntity
  8
_U+30EC_U+30A4_U+30E4_U+30FC 1
370
     0
100
AcDbVertex
100
AcDb2dVertex
 10
107.368478371913
 20
-132.231729689164
 30
0.0
  0
VERTEX
  5
47
330
41
100
AcDbEntity
  8
_U+30EC_U+30A4_U+30E4_U+30FC 1
370
     0
100
AcDbVertex
100
AcDb2dVertex
 10
87.86544164725473
 20
-132.231729689164
 30
0.0
  0
VERTEX
  5
48
330
41
100
AcDbEntity
  8
_U+30EC_U+30A4_U+30E4_U+30FC 1
370
     0
100
AcDbVertex
100
AcDb2dVertex
 10
74.07472366575192
 20
-118.4408349703898
 30
0.0
  0
SEQEND
  5
4A
330
41
100
AcDbEntity
  8
_U+30EC_U+30A4_U+30E4_U+30FC 1
370
     0
  0
HATCH
  5
49
330
1F
100
AcDbEntity
  8
_U+30EC_U+30A4_U+30E4_U+30FC 1
 62
   253
420
 11711154
100
AcDbHatch
 10
0.0
 20
0.0
 30
0.0
210
0.0
220
0.0
230
1.0
  2
SOLID
 70
     1
 71
     0
 91
        1
 92
        1
 93
        6
 72
     1
 10
74.07472366575192
 20
-118.4408349703898
 11
73.226187298511
 21
-119.2896888590666
 72
     1
 10
73.226187298511
 20
-119.2896888590666
 11
87.36830721549323
 21
-133.4319855221978
 72
     1
 10
87.36830721549323
 20
-133.4319855221978
 11
107.368478371913
 21
-133.4319855221978
 72
     1
 10
107.368478371913
 20
-133.4319855221978
 11
107.368478371913
 21
-132.231729689164
 72
     1
 10
107.368478371913
 20
-132.231729689164
 11
87.86544164725473
 21
-132.231729689164
 72
     1
 10
87.86544164725473
 20
-132.231729689164
 11
74.07472366575192
 21
-118.4408349703898
 97
        0
 75
     2
 76
     1
 98
        0
  0
POLYLINE
  5
4B
330
1F
100
AcDbEntity
  8
_U+30EC_U+30A4_U+30E4_U+30FC 1
 62
   179
420
  2234388
370
    25
100
AcDb2dPolyline
 66
     1
 10
0.0
 20
0.0
 30
0.0
  0
VERTEX
  5
4C
330
4B
100
AcDbEntity
  8
_U+30EC_U+30A4_U+30E4_U+30FC 1
 62
   179
420
  2234388
370
    25
100
AcDbVertex
100
AcDb2dVertex
 10
87.36830721549323
 20
-133.4319855221978
 30
0.0
  0
VERTEX
  5
4D
330
4B
100
AcDbEntity
  8
_U+30EC_U+30A4_U+30E4_U+30FC 1
 62
   179
420
  2234388
370
    25
100
AcDbVertex
100
AcDb2dVertex
 10
107.368478371913
 20
-133.4319855221978
 30
0.0
  0
SEQEND
  5
4E
330
4B
100
AcDbEntity
  8
_U+30EC_U+30A4_U+30E4_U+30FC 1
 62
   179
420
  2234388
370
    25
  0
POLYLINE
  5
4F
330
1F
100
AcDbEntity
  8
_U+30EC_U+30A4_U+30E4_U+30FC 1
 62
   179
420
  2234388
370
    25
100
AcDb2dPolyline
 66
     1
 10
0.0
 20
0.0
 30
0.0
  0
VERTEX
  5
50
330
4F
100
AcDbEntity
  8
_U+30EC_U+30A4_U+30E4_U+30FC 1
 62
   179
420
  2234388
370
    25
100
AcDbVertex
100
AcDb2dVertex
 10
87.86544164725473
 20
-132.231729689164
 30
0.0
  0
VERTEX
  5
51
330
4F
100
AcDbEntity
  8
_U+30EC_U+30A4_U+30E4_U+30FC 1
 62
   179
420
  2234388
370
    25
100
AcDbVertex
100
AcDb2dVertex
 10
107.368478371913
 20
-132.231729689164
 30
0.0
  0
SEQEND
  5
52
330
4F
100
AcDbEntity
  8
_U+30EC_U+30A4_U+30E4_U+30FC 1
 62
   179
420
  2234388
370
    25
  0
POLYLINE
  5
53
330
1F
100
AcDbEntity
  8
_U+30EC_U+30A4_U+30E4_U+30FC 1
 62
   179
420
  2234388
370
    25
100
AcDb2dPolyline
 66
     1
 10
0.0
 20
0.0
 30
0.0
  0
VERTEX
  5
54
330
53
100
AcDbEntity
  8
_U+30EC_U+30A4_U+30E4_U+30FC 1
 62
   179
420
  2234388
370
    25
100
AcDbVertex
100
AcDb2dVertex
 10
87.36830721549323
 20
-133.4319855221978
 30
0.0
  0
VERTEX
  5
55
330
53
100
AcDbEntity
  8
_U+30EC_U+30A4_U+30E4_U+30FC 1
 62
   179
420
  2234388
370
    25
100
AcDbVertex
100
AcDb2dVertex
 10
73.226187298511
 20
-119.2896888590666
 30
0.0
  0
SEQEND
  5
56
330
53
100
AcDbEntity
  8
_U+30EC_U+30A4_U+30E4_U+30FC 1
 62
   179
420
  2234388
370
    25
  0
POLYLINE
  5
57
330
1F
100
AcDbEntity
  8
_U+30EC_U+30A4_U+30E4_U+30FC 1
 62
   179
420
  2234388
370
    25
100
AcDb2dPolyline
 66
     1
 10
0.0
 20
0.0
 30
0.0
  0
VERTEX
  5
58
330
57
100
AcDbEntity
  8
_U+30EC_U+30A4_U+30E4_U+30FC 1
 62
   179
420
  2234388
370
    25
100
AcDbVertex
100
AcDb2dVertex
 10
87.86544164725473
 20
-132.231729689164
 30
0.0
  0
VERTEX
  5
59
330
57
100
AcDbEntity
  8
_U+30EC_U+30A4_U+30E4_U+30FC 1
 62
   179
420
  2234388
370
    25
100
AcDbVertex
100
AcDb2dVertex
 10
74.07472366575192
 20
-118.4408349703898
 30
0.0
  0
SEQEND
  5
5A
330
57
100
AcDbEntity
  8
_U+30EC_U+30A4_U+30E4_U+30FC 1
 62
   179
420
  2234388
370
    25
  0
POLYLINE
  5
5B
330
1F
100
AcDbEntity
  8
_U+30EC_U+30A4_U+30E4_U+30FC 1
 62
   179
420
  2234388
370
    25
100
AcDb2dPolyline
 66
     1
 10
0.0
 20
0.0
 30
0.0
  0
VERTEX
  5
5C
330
5B
100
AcDbEntity
  8
_U+30EC_U+30A4_U+30E4_U+30FC 1
 62
   179
420
  2234388
370
    25
100
AcDbVertex
100
AcDb2dVertex
 10
73.226187298511
 20
-119.2896888590666
 30
0.0
  0
VERTEX
  5
5D
330
5B
100
AcDbEntity
  8
_U+30EC_U+30A4_U+30E4_U+30FC 1
 62
   179
420
  2234388
370
    25
100
AcDbVertex
100
AcDb2dVertex
 10
74.07472366575192
 20
-118.4408349703898
 30
0.0
  0
SEQEND
  5
5E
330
5B
100
AcDbEntity
  8
_U+30EC_U+30A4_U+30E4_U+30FC 1
 62
   179
420
  2234388
370
    25
  0
POLYLINE
  5
5F
330
1F
100
AcDbEntity
  8
_U+30EC_U+30A4_U+30E4_U+30FC 1
 62
   179
420
  2234388
370
    25
100
AcDb2dPolyline
 66
     1
 10
0.0
 20
0.0
 30
0.0
  0
VERTEX
  5
60
330
5F
100
AcDbEntity
  8
_U+30EC_U+30A4_U+30E4_U+30FC 1
 62
   179
420
  2234388
370
    25
100
AcDbVertex
100
AcDb2dVertex
 10
107.368478371913
 20
-132.231729689164
 30
0.0
  0
VERTEX
  5
61
330
5F
100
AcDbEntity
  8
_U+30EC_U+30A4_U+30E4_U+30FC 1
 62
   179
420
  2234388
370
    25
100
AcDbVertex
100
AcDb2dVertex
 10
107.368478371913
 20
-133.4319855221978
 30
0.0
  0
SEQEND
  5
62
330
5F
100
AcDbEntity
  8
_U+30EC_U+30A4_U+30E4_U+30FC 1
 62
   179
420
  2234388
370
    25
  0
SPLINE
  5
63
330
1F
100
AcDbEntity
  8
_U+30EC_U+30A4_U+30E4_U+30FC 1
 62
   179
420
  2234388
370
     9
100
AcDbSpline
210
0.0
220
0.0
230
1.0
 70
     8
 71
     3
 72
    17
 73
    13
 74
     0
 42
0.0000000001
 43
0.0000000001
 12
1.0
 22
0.0
 32
0.0
 13
1.0
 23
0.0
 33
0.0
 40
0.0
 40
0.0
 40
0.0
 40
0.0
 40
1.0
 40
1.0
 40
1.0
 40
2.0
 40
2.0
 40
2.0
 40
3.0
 40
3.0
 40
3.0
 40
4.0
 40
4.0
 40
4.0
 40
4.0
 10
107.4391044812223
 20
-137.3607657989931
 30
0.0
 10
107.4001578155493
 20
-137.3222071878916
 30
0.0
 10
107.3367636504999
 20
-137.3222071878916
 30
0.0
 10
107.2978522626037
 20
-137.3607657989931
 30
0.0
 10
107.2585555287412
 20
-137.4000652434277
 30
0.0
 10
107.2585555287412
 20
-137.4634594100787
 30
0.0
 10
107.2978522626037
 20
-137.5027235767357
 30
0.0
 10
107.3367636504999
 20
-137.5413174656147
 30
0.0
 10
107.4001578155493
 20
-137.5413174656147
 30
0.0
 10
107.4391044812223
 20
-137.5027235767357
 30
0.0
 10
107.4580486474057
 20
-137.4834266322959
 30
0.0
 10
107.4683850360309
 20
-137.457920798969
 30
0.0
 10
107.4683850360309
 20
-137.4317446878641
 30
0.0
  0
SPLINE
  5
64
330
1F
100
AcDbEntity
  8
_U+30EC_U+30A4_U+30E4_U+30FC 1
 62
   179
420
  2234388
370
     9
100
AcDbSpline
210
0.0
220
0.0
230
1.0
 70
    11
 71
     3
 72
    17
 73
    13
 74
     0
 42
0.0000000001
 43
0.0000000001
 12
1.0
 22
0.0
 32
0.0
 13
1.0
 23
0.0
 33
0.0
 40
0.0
 40
0.0
 40
0.0
 40
0.0
 40
1.0
 40
1.0
 40
1.0
 40
2.0
 40
2.0
 40
2.0
 40
3.0
 40
3.0
 40
3.0
 40
4.0
 40
4.0
 40
4.0
 40
4.0
 10
111.4684616006471
 20
-133.4319855221978
 30
0.0
 10
111.4684616006471
 20
-133.3768816333223
 30
0.0
 10
111.4236941017892
 20
-133.3320788555556
 30
0.0
 10
111.3685549365292
 20
-133.3320788555556
 30
0.0
 10
111.3130982712774
 20
-133.3320788555556
 30
0.0
 10
111.2683307724195
 20
-133.3768816333223
 30
0.0
 10
111.2683307724195
 20
-133.4319855221978
 30
0.0
 10
111.2683307724195
 20
-133.4871246888503
 30
0.0
 10
111.3130982712774
 20
-133.5318921888395
 30
0.0
 10
111.3685549365292
 20
-133.5318921888395
 30
0.0
 10
111.4236941017892
 20
-133.5318921888395
 30
0.0
 10
111.4684616006471
 20
-133.4871246888503
 30
0.0
 10
111.4684616006471
 20
-133.4319855221978
 30
0.0
  0
SPLINE
  5
65
330
1F
100
AcDbEntity
  8
_U+30EC_U+30A4_U+30E4_U+30FC 1
 62
   179
420
  2234388
370
     9
100
AcDbSpline
210
0.0
220
0.0
230
1.0
 70
    11
 71
     3
 72
    17
 73
    13
 74
     0
 42
0.0000000001
 43
0.0000000001
 12
1.0
 22
0.0
 32
0.0
 13
1.0
 23
0.0
 33
0.0
 40
0.0
 40
0.0
 40
0.0
 40
0.0
 40
1.0
 40
1.0
 40
1.0
 40
2.0
 40
2.0
 40
2.0
 40
3.0
 40
3.0
 40
3.0
 40
4.0
 40
4.0
 40
4.0
 40
4.0
 10
111.4684616006471
 20
-132.231729689164
 30
0.0
 10
111.4684616006471
 20
-132.1765905225116
 30
0.0
 10
111.4236941017892
 20
-132.1318230225224
 30
0.0
 10
111.3685549365292
 20
-132.1318230225224
 30
0.0
 10
111.3130982712774
 20
-132.1318230225224
 30
0.0
 10
111.2683307724195
 20
-132.1765905225116
 30
0.0
 10
111.2683307724195
 20
-132.231729689164
 30
0.0
 10
111.2683307724195
 20
-132.2868335780396
 30
0.0
 10
111.3130982712774
 20
-132.3316363558063
 30
0.0
 10
111.3685549365292
 20
-132.3316363558063
 30
0.0
 10
111.4236941017892
 20
-132.3316363558063
 30
0.0
 10
111.4684616006471
 20
-132.2868335780396
 30
0.0
 10
111.4684616006471
 20
-132.231729689164
 30
0.0
  0
SPLINE
  5
66
330
1F
100
AcDbEntity
  8
_U+30EC_U+30A4_U+30E4_U+30FC 1
 62
   179
420
  2234388
370
     9
100
AcDbSpline
210
0.0
220
0.0
230
1.0
 70
    11
 71
     3
 72
    17
 73
    13
 74
     0
 42
0.0000000001
 43
0.0000000001
 12
1.0
 22
0.0
 32
0.0
 13
1.0
 23
0.0
 33
0.0
 40
0.0
 40
0.0
 40
0.0
 40
0.0
 40
1.0
 40
1.0
 40
1.0
 40
2.0
 40
2.0
 40
2.0
 40
3.0
 40
3.0
 40
3.0
 40
4.0
 40
4.0
 40
4.0
 40
4.0
 10
70.497662923677
 20
-122.1181199694706
 30
0.0
 10
70.497662923677
 20
-122.0630160805954
 30
0.0
 10
70.45289720460895
 20
-122.0182133028286
 30
0.0
 10
70.39775625955917
 20
-122.0182133028286
 30
0.0
 10
70.3426523720761
 20
-122.0182133028286
 30
0.0
 10
70.29784959544133
 20
-122.0630160805954
 30
0.0
 10
70.29784959544133
 20
-122.1181199694706
 30
0.0
 10
70.29784959544133
 20
-122.1732591361234
 30
0.0
 10
70.3426523720761
 20
-122.2180266361122
 30
0.0
 10
70.39775625955917
 20
-122.2180266361122
 30
0.0
 10
70.45289720460895
 20
-122.2180266361122
 30
0.0
 10
70.497662923677
 20
-122.1732591361234
 30
0.0
 10
70.497662923677
 20
-122.1181199694706
 30
0.0
  0
SPLINE
  5
67
330
1F
100
AcDbEntity
  8
_U+30EC_U+30A4_U+30E4_U+30FC 1
 62
   179
420
  2234388
370
     9
100
AcDbSpline
210
0.0
220
0.0
230
1.0
 70
    11
 71
     3
 72
    17
 73
    13
 74
     0
 42
0.0000000001
 43
0.0000000001
 12
1.0
 22
0.0
 32
0.0
 13
1.0
 23
0.0
 33
0.0
 40
0.0
 40
0.0
 40
0.0
 40
0.0
 40
1.0
 40
1.0
 40
1.0
 40
2.0
 40
2.0
 40
2.0
 40
3.0
 40
3.0
 40
3.0
 40
4.0
 40
4.0
 40
4.0
 40
4.0
 10
84.63978284065924
 20
-136.2604166326016
 30
0.0
 10
84.63978284065924
 20
-136.2053127437267
 30
0.0
 10
84.59501534180136
 20
-136.1605099659599
 30
0.0
 10
84.53987617654141
 20
-136.1605099659599
 30
0.0
 10
84.48477228905834
 20
-136.1605099659599
 30
0.0
 10
84.43996951242357
 20
-136.2053127437267
 30
0.0
 10
84.43996951242357
 20
-136.2604166326016
 30
0.0
 10
84.43996951242357
 20
-136.3155557992546
 30
0.0
 10
84.48477228905834
 20
-136.3603232992432
 30
0.0
 10
84.53987617654141
 20
-136.3603232992432
 30
0.0
 10
84.59501534180136
 20
-136.3603232992432
 30
0.0
 10
84.63978284065924
 20
-136.3155557992546
 30
0.0
 10
84.63978284065924
 20
-136.2604166326016
 30
0.0
  0
SPLINE
  5
68
330
1F
100
AcDbEntity
  8
_U+30EC_U+30A4_U+30E4_U+30FC 1
 62
   179
420
  2234388
370
     9
100
AcDbSpline
210
0.0
220
0.0
230
1.0
 70
    11
 71
     3
 72
    17
 73
    13
 74
     0
 42
0.0000000001
 43
0.0000000001
 12
1.0
 22
0.0
 32
0.0
 13
1.0
 23
0.0
 33
0.0
 40
0.0
 40
0.0
 40
0.0
 40
0.0
 40
1.0
 40
1.0
 40
1.0
 40
2.0
 40
2.0
 40
2.0
 40
3.0
 40
3.0
 40
3.0
 40
4.0
 40
4.0
 40
4.0
 40
4.0
 10
87.46821387961107
 20
-137.4317446878641
 30
0.0
 10
87.46821387961107
 20
-137.3766407989892
 30
0.0
 10
87.42344638075318
 20
-137.3318380212224
 30
0.0
 10
87.36830721549323
 20
-137.3318380212224
 30
0.0
 10
87.3132055337274
 20
-137.3318380212224
 30
0.0
 10
87.26840275596068
 20
-137.3766407989892
 30
0.0
 10
87.26840275596068
 20
-137.4317446878641
 30
0.0
 10
87.26840275596068
 20
-137.4868838545172
 30
0.0
 10
87.3132055337274
 20
-137.5316513545057
 30
0.0
 10
87.36830721549323
 20
-137.5316513545057
 30
0.0
 10
87.42344638075318
 20
-137.5316513545057
 30
0.0
 10
87.46821387961107
 20
-137.4868838545172
 30
0.0
 10
87.46821387961107
 20
-137.4317446878641
 30
0.0
  0
SPLINE
  5
69
330
1F
100
AcDbEntity
  8
_U+30EC_U+30A4_U+30E4_U+30FC 1
 62
   179
420
  2234388
370
     9
100
AcDbSpline
210
0.0
220
0.0
230
1.0
 70
    11
 71
     3
 72
    17
 73
    13
 74
     0
 42
0.0000000001
 43
0.0000000001
 12
1.0
 22
0.0
 32
0.0
 13
1.0
 23
0.0
 33
0.0
 40
0.0
 40
0.0
 40
0.0
 40
0.0
 40
1.0
 40
1.0
 40
1.0
 40
2.0
 40
2.0
 40
2.0
 40
3.0
 40
3.0
 40
3.0
 40
4.0
 40
4.0
 40
4.0
 40
4.0
 10
85.13727220093784
 20
-129.4032985787603
 30
0.0
 10
85.13727220093784
 20
-129.3481946898854
 30
0.0
 10
85.09246942317145
 20
-129.3033919121187
 30
0.0
 10
85.0370106083029
 20
-129.3033919121187
 30
0.0
 10
84.98190672081982
 20
-129.3033919121187
 30
0.0
 10
84.93710394418505
 20
-129.3481946898854
 30
0.0
 10
84.93710394418505
 20
-129.4032985787603
 30
0.0
 10
84.93710394418505
 20
-129.4584377454134
 30
0.0
 10
84.98190672081982
 20
-129.5032052454019
 30
0.0
 10
85.0370106083029
 20
-129.5032052454019
 30
0.0
 10
85.09246942317145
 20
-129.5032052454019
 30
0.0
 10
85.13727220093784
 20
-129.4584377454134
 30
0.0
 10
85.13727220093784
 20
-129.4032985787603
 30
0.0
  0
SPLINE
  5
6A
330
1F
100
AcDbEntity
  8
_U+30EC_U+30A4_U+30E4_U+30FC 1
 62
   179
420
  2234388
370
     9
100
AcDbSpline
210
0.0
220
0.0
230
1.0
 70
    11
 71
     3
 72
    17
 73
    13
 74
     0
 42
0.0000000001
 43
0.0000000001
 12
1.0
 22
0.0
 32
0.0
 13
1.0
 23
0.0
 33
0.0
 40
0.0
 40
0.0
 40
0.0
 40
0.0
 40
1.0
 40
1.0
 40
1.0
 40
2.0
 40
2.0
 40
2.0
 40
3.0
 40
3.0
 40
3.0
 40
4.0
 40
4.0
 40
4.0
 40
4.0
 10
91.96546015376565
 20
-132.231729689164
 30
0.0
 10
91.96546015376565
 20
-132.1765905225116
 30
0.0
 10
91.92065737713088
 20
-132.1318230225224
 30
0.0
 10
91.86555348964781
 20
-132.1318230225224
 30
0.0
 10
91.81041664371406
 20
-132.1318230225224
 30
0.0
 10
91.76561386594734
 20
-132.1765905225116
 30
0.0
 10
91.76561386594734
 20
-132.231729689164
 30
0.0
 10
91.76561386594734
 20
-132.2868335780396
 30
0.0
 10
91.81041664371406
 20
-132.3316363558063
 30
0.0
 10
91.86555348964781
 20
-132.3316363558063
 30
0.0
 10
91.92065737713088
 20
-132.3316363558063
 30
0.0
 10
91.96546015376565
 20
-132.2868335780396
 30
0.0
 10
91.96546015376565
 20
-132.231729689164
 30
0.0
  0
POLYLINE
  5
6B
330
1F
100
AcDbEntity
  8
_U+30EC_U+30A4_U+30E4_U+30FC 1
 62
   179
420
  2234388
370
     9
100
AcDb2dPolyline
 66
     1
 10
0.0
 20
0.0
 30
0.0
  0
VERTEX
  5
6C
330
6B
100
AcDbEntity
  8
_U+30EC_U+30A4_U+30E4_U+30FC 1
 62
   179
420
  2234388
370
     9
100
AcDbVertex
100
AcDb2dVertex
 10
111.3685549365292
 20
-132.231729689164
 30
0.0
  0
VERTEX
  5
6D
330
6B
100
AcDbEntity
  8
_U+30EC_U+30A4_U+30E4_U+30FC 1
 62
   179
420
  2234388
370
     9
100
AcDbVertex
100
AcDb2dVertex
 10
111.3685549365292
 20
-126.9736474682565
 30
0.0
  0
SEQEND
  5
6E
330
6B
100
AcDbEntity
  8
_U+30EC_U+30A4_U+30E4_U+30FC 1
 62
   179
420
  2234388
370
     9
  0
POLYLINE
  5
6F
330
1F
100
AcDbEntity
  8
_U+30EC_U+30A4_U+30E4_U+30FC 1
 62
   179
420
  2234388
370
     9
100
AcDb2dPolyline
 66
     1
 10
0.0
 20
0.0
 30
0.0
  0
VERTEX
  5
70
330
6F
100
AcDbEntity
  8
_U+30EC_U+30A4_U+30E4_U+30FC 1
 62
   179
420
  2234388
370
     9
100
AcDbVertex
100
AcDb2dVertex
 10
111.3685549365292
 20
-134.4317577441697
 30
0.0
  0
VERTEX
  5
71
330
6F
100
AcDbEntity
  8
_U+30EC_U+30A4_U+30E4_U+30FC 1
 62
   179
420
  2234388
370
     9
100
AcDbVertex
100
AcDb2dVertex
 10
111.3685549365292
 20
-132.231729689164
 30
0.0
  0
SEQEND
  5
72
330
6F
100
AcDbEntity
  8
_U+30EC_U+30A4_U+30E4_U+30FC 1
 62
   179
420
  2234388
370
     9
  0
POLYLINE
  5
73
330
1F
100
AcDbEntity
  8
_U+30EC_U+30A4_U+30E4_U+30FC 1
 62
   179
420
  2234388
370
     9
100
AcDb2dPolyline
 66
     1
 10
0.0
 20
0.0
 30
0.0
  0
VERTEX
  5
74
330
73
100
AcDbEntity
  8
_U+30EC_U+30A4_U+30E4_U+30FC 1
 62
   179
420
  2234388
370
     9
100
AcDbVertex
100
AcDb2dVertex
 10
109.908548862666
 20
-133.4319855221978
 30
0.0
  0
VERTEX
  5
75
330
73
100
AcDbEntity
  8
_U+30EC_U+30A4_U+30E4_U+30FC 1
 62
   179
420
  2234388
370
     9
100
AcDbVertex
100
AcDb2dVertex
 10
112.3683271332451
 20
-133.4319855221978
 30
0.0
  0
SEQEND
  5
76
330
73
100
AcDbEntity
  8
_U+30EC_U+30A4_U+30E4_U+30FC 1
 62
   179
420
  2234388
370
     9
  0
POLYLINE
  5
77
330
1F
100
AcDbEntity
  8
_U+30EC_U+30A4_U+30E4_U+30FC 1
 62
   179
420
  2234388
370
     9
100
AcDb2dPolyline
 66
     1
 10
0.0
 20
0.0
 30
0.0
  0
VERTEX
  5
78
330
77
100
AcDbEntity
  8
_U+30EC_U+30A4_U+30E4_U+30FC 1
 62
   179
420
  2234388
370
     9
100
AcDbVertex
100
AcDb2dVertex
 10
109.908548862666
 20
-132.231729689164
 30
0.0
  0
VERTEX
  5
79
330
77
100
AcDbEntity
  8
_U+30EC_U+30A4_U+30E4_U+30FC 1
 62
   179
420
  2234388
370
     9
100
AcDbVertex
100
AcDb2dVertex
 10
112.3683271332451
 20
-132.231729689164
 30
0.0
  0
SEQEND
  5
7A
330
77
100
AcDbEntity
  8
_U+30EC_U+30A4_U+30E4_U+30FC 1
 62
   179
420
  2234388
370
     9
  0
INSERT
  5
7C
330
1F
100
AcDbEntity
  8
_U+30EC_U+30A4_U+30E4_U+30FC 1
100
AcDbBlockReference
  2
block 2
 10
0.0
 20
0.0
 30
0.0
  0
SPLINE
  5
8B
330
1F
100
AcDbEntity
  8
_U+30EC_U+30A4_U+30E4_U+30FC 1
 62
   179
420
  2234388
370
     9
100
AcDbSpline
210
0.0
220
0.0
230
1.0
 70
     8
 71
     3
 72
    11
 73
     7
 74
     0
 42
0.0000000001
 43
0.0000000001
 12
1.0
 22
0.0
 32
0.0
 13
1.0
 23
0.0
 33
0.0
 40
0.0
 40
0.0
 40
0.0
 40
0.0
 40
1.0
 40
1.0
 40
1.0
 40
2.0
 40
2.0
 40
2.0
 40
2.0
 10
91.86555348964781
 20
-132.231729689164
 30
0.0
 10
91.86555348964781
 20
-130.0227410786055
 30
0.0
 10
90.07478297977862
 20
-128.2317941346089
 30
0.0
 10
87.86544164725473
 20
-128.2317941346089
 30
0.0
 10
86.80467417431716
 20
-128.2317941346089
 30
0.0
 10
85.78701614472422
 20
-128.6527991345034
 30
0.0
 10
85.0370106083029
 20
-129.4032985787603
 30
0.0
  0
INSERT
  5
8D
330
1F
100
AcDbEntity
  8
_U+30EC_U+30A4_U+30E4_U+30FC 1
100
AcDbBlockReference
  2
block 3
 10
0.0
 20
0.0
 30
0.0
  0
POLYLINE
  5
99
330
1F
100
AcDbEntity
  8
_U+30EC_U+30A4_U+30E4_U+30FC 1
 62
   179
420
  2234388
370
     9
100
AcDb2dPolyline
 66
     1
 10
0.0
 20
0.0
 30
0.0
  0
VERTEX
  5
9A
330
99
100
AcDbEntity
  8
_U+30EC_U+30A4_U+30E4_U+30FC 1
 62
   179
420
  2234388
370
     9
100
AcDbVertex
100
AcDb2dVertex
 10
70.39775625955917
 20
-122.1181199694706
 30
0.0
  0
VERTEX
  5
9B
330
99
100
AcDbEntity
  8
_U+30EC_U+30A4_U+30E4_U+30FC 1
 62
   179
420
  2234388
370
     9
100
AcDbVertex
100
AcDb2dVertex
 10
84.53987617654141
 20
-136.2604166326016
 30
0.0
  0
SEQEND
  5
9C
330
99
100
AcDbEntity
  8
_U+30EC_U+30A4_U+30E4_U+30FC 1
 62
   179
420
  2234388
370
     9
  0
POLYLINE
  5
9D
330
1F
100
AcDbEntity
  8
_U+30EC_U+30A4_U+30E4_U+30FC 1
 62
   179
420
  2234388
370
     9
100
AcDb2dPolyline
 66
     1
 10
0.0
 20
0.0
 30
0.0
  0
VERTEX
  5
9E
330
9D
100
AcDbEntity
  8
_U+30EC_U+30A4_U+30E4_U+30FC 1
 62
   179
420
  2234388
370
     9
100
AcDbVertex
100
AcDb2dVertex
 10
71.43026623321764
 20
-121.0852924697287
 30
0.0
  0
VERTEX
  5
9F
330
9D
100
AcDbEntity
  8
_U+30EC_U+30A4_U+30E4_U+30FC 1
 62
   179
420
  2234388
370
     9
100
AcDbVertex
100
AcDb2dVertex
 10
69.6908248887056
 20
-122.8250513581826
 30
0.0
  0
SEQEND
  5
A0
330
9D
100
AcDbEntity
  8
_U+30EC_U+30A4_U+30E4_U+30FC 1
 62
   179
420
  2234388
370
     9
  0
POLYLINE
  5
A1
330
1F
100
AcDbEntity
  8
_U+30EC_U+30A4_U+30E4_U+30FC 1
 62
   179
420
  2234388
370
     9
100
AcDb2dPolyline
 66
     1
 10
0.0
 20
0.0
 30
0.0
  0
VERTEX
  5
A2
330
A1
100
AcDbEntity
  8
_U+30EC_U+30A4_U+30E4_U+30FC 1
 62
   179
420
  2234388
370
     9
100
AcDbVertex
100
AcDb2dVertex
 10
85.57238615019989
 20
-135.2275891328597
 30
0.0
  0
VERTEX
  5
A3
330
A1
100
AcDbEntity
  8
_U+30EC_U+30A4_U+30E4_U+30FC 1
 62
   179
420
  2234388
370
     9
100
AcDbVertex
100
AcDb2dVertex
 10
83.83294480568784
 20
-136.9673480213136
 30
0.0
  0
SEQEND
  5
A4
330
A1
100
AcDbEntity
  8
_U+30EC_U+30A4_U+30E4_U+30FC 1
 62
   179
420
  2234388
370
     9
  0
INSERT
  5
A6
330
1F
100
AcDbEntity
  8
_U+30EC_U+30A4_U+30E4_U+30FC 1
100
AcDbBlockReference
  2
block 4
 10
0.0
 20
0.0
 30
0.0
  0
POLYLINE
  5
AE
330
1F
100
AcDbEntity
  8
_U+30EC_U+30A4_U+30E4_U+30FC 1
 62
   179
420
  2234388
370
     9
100
AcDb2dPolyline
 66
     1
 10
0.0
 20
0.0
 30
0.0
  0
VERTEX
  5
AF
330
AE
100
AcDbEntity
  8
_U+30EC_U+30A4_U+30E4_U+30FC 1
 62
   179
420
  2234388
370
     9
100
AcDbVertex
100
AcDb2dVertex
 10
87.36830721549323
 20
-137.4317446878641
 30
0.0
  0
VERTEX
  5
B0
330
AE
100
AcDbEntity
  8
_U+30EC_U+30A4_U+30E4_U+30FC 1
 62
   179
420
  2234388
370
     9
100
AcDbVertex
100
AcDb2dVertex
 10
107.368478371913
 20
-137.4317446878641
 30
0.0
  0
SEQEND
  5
B1
330
AE
100
AcDbEntity
  8
_U+30EC_U+30A4_U+30E4_U+30FC 1
 62
   179
420
  2234388
370
     9
  0
POLYLINE
  5
B2
330
1F
100
AcDbEntity
  8
_U+30EC_U+30A4_U+30E4_U+30FC 1
 62
   179
420
  2234388
370
     9
100
AcDb2dPolyline
 66
     1
 10
0.0
 20
0.0
 30
0.0
  0
VERTEX
  5
B3
330
B2
100
AcDbEntity
  8
_U+30EC_U+30A4_U+30E4_U+30FC 1
 62
   179
420
  2234388
370
     9
100
AcDbVertex
100
AcDb2dVertex
 10
87.36830721549323
 20
-135.9717032993404
 30
0.0
  0
VERTEX
  5
B4
330
B2
100
AcDbEntity
  8
_U+30EC_U+30A4_U+30E4_U+30FC 1
 62
   179
420
  2234388
370
     9
100
AcDbVertex
100
AcDb2dVertex
 10
87.36830721549323
 20
-138.4315169098366
 30
0.0
  0
SEQEND
  5
B5
330
B2
100
AcDbEntity
  8
_U+30EC_U+30A4_U+30E4_U+30FC 1
 62
   179
420
  2234388
370
     9
  0
POLYLINE
  5
B6
330
1F
100
AcDbEntity
  8
_U+30EC_U+30A4_U+30E4_U+30FC 1
 62
   179
420
  2234388
370
     9
100
AcDb2dPolyline
 66
     1
 10
0.0
 20
0.0
 30
0.0
  0
VERTEX
  5
B7
330
B6
100
AcDbEntity
  8
_U+30EC_U+30A4_U+30E4_U+30FC 1
 62
   179
420
  2234388
370
     9
100
AcDbVertex
100
AcDb2dVertex
 10
107.368478371913
 20
-135.9717032993404
 30
0.0
  0
VERTEX
  5
B8
330
B6
100
AcDbEntity
  8
_U+30EC_U+30A4_U+30E4_U+30FC 1
 62
   179
420
  2234388
370
     9
100
AcDbVertex
100
AcDb2dVertex
 10
107.368478371913
 20
-138.4315169098366
 30
0.0
  0
SEQEND
  5
B9
330
B6
100
AcDbEntity
  8
_U+30EC_U+30A4_U+30E4_U+30FC 1
 62
   179
420
  2234388
370
     9
  0
INSERT
  5
BB
330
1F
100
AcDbEntity
  8
_U+30EC_U+30A4_U+30E4_U+30FC 1
100
AcDbBlockReference
  2
block 5
 10
0.0
 20
0.0
 30
0.0
  0
ENDSEC
  0
SECTION
  2
OBJECTS
  0
DICTIONARY
  5
C
330
0
100
AcDbDictionary
281
     1
  3
ACAD_GROUP
350
D
  3
ACAD_LAYOUT
350
1A
  3
ACAD_MATERIAL
350
3B
  3
ACAD_MLEADERSTYLE
350
C4
  3
ACAD_MLINESTYLE
350
17
  3
ACAD_PLOTSETTINGS
350
19
  3
ACAD_PLOTSTYLENAME
350
E
  3
ACAD_TABLESTYLE
350
C3
  3
ACAD_VISUALSTYLE
350
2A
  0
SUN
  5
3F
330
29
100
AcDbSun
 90
        1
290
     0
 63
     7
421
 16777215
 40
1.0
291
     1
 91
  2455826
 92
 54000000
292
     0
 70
     2
 71
   256
280
     1
  0
DICTIONARY
  5
D
102
{ACAD_REACTORS
330
C
102
}
330
C
100
AcDbDictionary
281
     1
  0
DICTIONARY
  5
1A
102
{ACAD_REACTORS
330
C
102
}
330
C
100
AcDbDictionary
281
     1
  3
Layout1
350
1E
  3
Layout2
350
26
  3
Model
350
22
  0
DICTIONARY
  5
3B
102
{ACAD_REACTORS
330
C
102
}
330
C
100
AcDbDictionary
281
     1
  3
ByBlock
350
3D
  3
ByLayer
350
3C
  3
Global
350
3E
  0
DICTIONARY
  5
C4
102
{ACAD_REACTORS
330
C
102
}
330
C
100
AcDbDictionary
281
     1
  0
DICTIONARY
  5
17
102
{ACAD_REACTORS
330
C
102
}
330
C
100
AcDbDictionary
281
     1
  3
Standard
350
18
  0
DICTIONARY
  5
19
102
{ACAD_REACTORS
330
C
102
}
330
C
100
AcDbDictionary
281
     1
  0
ACDBDICTIONARYWDFLT
  5
E
102
{ACAD_REACTORS
330
C
102
}
330
C
100
AcDbDictionary
281
     1
  3
Normal
350
F
100
AcDbDictionaryWithDefault
340
F
  0
DICTIONARY
  5
C3
102
{ACAD_REACTORS
330
C
102
}
330
C
100
AcDbDictionary
281
     1
  0
DICTIONARY
  5
2A
102
{ACAD_REACTORS
330
C
102
}
330
C
100
AcDbDictionary
281
     1
  3
2dWireframe
350
2F
  3
3D Hidden
350
31
  3
3dWireframe
350
30
  3
Basic
350
32
  3
Brighten
350
36
  3
ColorChange
350
3A
  3
Conceptual
350
34
  3
Dim
350
35
  3
Facepattern
350
39
  3
Flat
350
2B
  3
FlatWithEdges
350
2C
  3
Gouraud
350
2D
  3
GouraudWithEdges
350
2E
  3
Linepattern
350
38
  3
Realistic
350
33
  3
Thicken
350
37
  0
LAYOUT
  5
1E
102
{ACAD_REACTORS
330
1A
102
}
330
1A
100
AcDbPlotSettings
  1

  2
none_device
  4

  6

 40
0.0
 41
0.0
 42
0.0
 43
0.0
 44
0.0
 45
0.0
 46
0.0
 47
0.0
 48
0.0
 49
0.0
140
0.0
141
0.0
142
1.0
143
1.0
 70
   688
 72
     0
 73
     0
 74
     5
  7

 75
    16
 76
     0
 77
     2
 78
   300
147
1.0
148
0.0
149
0.0
100
AcDbLayout
  1
Layout1
 70
     1
 71
     1
 10
0.0
 20
0.0
 11
12.0
 21
9.0
 12
0.0
 22
0.0
 32
0.0
 14
1.000000000000000E+20
 24
1.000000000000000E+20
 34
1.000000000000000E+20
 15
-1.000000000000000E+20
 25
-1.000000000000000E+20
 35
-1.000000000000000E+20
146
0.0
 13
0.0
 23
0.0
 33
0.0
 16
1.0
 26
0.0
 36
0.0
 17
0.0
 27
1.0
 37
0.0
 76
     0
330
1B
  0
LAYOUT
  5
26
102
{ACAD_REACTORS
330
1A
102
}
330
1A
100
AcDbPlotSettings
  1

  2
none_device
  4

  6

 40
0.0
 41
0.0
 42
0.0
 43
0.0
 44
0.0
 45
0.0
 46
0.0
 47
0.0
 48
0.0
 49
0.0
140
0.0
141
0.0
142
1.0
143
1.0
 70
   688
 72
     0
 73
     0
 74
     5
  7

 75
    16
 76
     0
 77
     2
 78
   300
147
1.0
148
0.0
149
0.0
100
AcDbLayout
  1
Layout2
 70
     1
 71
     2
 10
0.0
 20
0.0
 11
0.0
 21
0.0
 12
0.0
 22
0.0
 32
0.0
 14
0.0
 24
0.0
 34
0.0
 15
0.0
 25
0.0
 35
0.0
146
0.0
 13
0.0
 23
0.0
 33
0.0
 16
1.0
 26
0.0
 36
0.0
 17
0.0
 27
1.0
 37
0.0
 76
     0
330
23
  0
LAYOUT
  5
22
102
{ACAD_REACTORS
330
1A
102
}
330
1A
100
AcDbPlotSettings
  1

  2
none_device
  4

  6

 40
0.0
 41
0.0
 42
0.0
 43
0.0
 44
0.0
 45
0.0
 46
0.0
 47
0.0
 48
0.0
 49
0.0
140
0.0
141
0.0
142
1.0
143
1.0
 70
  1712
 72
     0
 73
     0
 74
     0
  7

 75
     0
 76
     0
 77
     2
 78
   300
147
1.0
148
0.0
149
0.0
100
AcDbLayout
  1
Model
 70
     1
 71
     0
 10
0.0
 20
0.0
 11
12.0
 21
9.0
 12
0.0
 22
0.0
 32
0.0
 14
1.000000000000000E+20
 24
1.000000000000000E+20
 34
1.000000000000000E+20
 15
-1.000000000000000E+20
 25
-1.000000000000000E+20
 35
-1.000000000000000E+20
146
0.0
 13
0.0
 23
0.0
 33
0.0
 16
1.0
 26
0.0
 36
0.0
 17
0.0
 27
1.0
 37
0.0
 76
     0
330
1F
331
29
  0
MATERIAL
  5
3D
102
{ACAD_REACTORS
330
3B
102
}
330
3B
100
AcDbMaterial
  1
ByBlock
 72
     1
 94
      127
  0
MATERIAL
  5
3C
102
{ACAD_REACTORS
330
3B
102
}
330
3B
100
AcDbMaterial
  1
ByLayer
 72
     1
 94
      127
  0
MATERIAL
  5
3E
102
{ACAD_REACTORS
330
3B
102
}
330
3B
100
AcDbMaterial
  1
Global
 72
     1
 94
      127
  0
MLINESTYLE
  5
18
102
{ACAD_REACTORS
330
17
102
}
330
17
100
AcDbMlineStyle
  2
Standard
 70
     0
  3

 62
   256
 51
90.0
 52
90.0
 71
     2
 49
0.5
 62
   256
  6
BYLAYER
 49
-0.5
 62
   256
  6
BYLAYER
  0
ACDBPLACEHOLDER
  5
F
102
{ACAD_REACTORS
330
E
102
}
330
E
  0
VISUALSTYLE
  5
2F
102
{ACAD_REACTORS
330
2A
102
}
330
2A
100
AcDbVisualStyle
  2
2dWireframe
 70
     4
177
     2
291
     0
 71
     0
176
     1
 72
     2
176
     1
 73
     0
176
     1
 90
        0
176
     1
 40
-0.6
176
     1
 41
-30.0
176
     1
 62
     5
 63
     7
421
 16777215
176
     1
 74
     1
176
     1
 91
        4
176
     1
 64
     7
176
     1
 65
   257
176
     1
 75
     1
176
     1
175
     1
176
     1
 42
1.0
176
     1
 92
        0
176
     1
 66
   257
176
     1
 43
1.0
176
     1
 76
     1
176
     1
 77
     6
176
     1
 78
     2
176
     1
 67
     7
176
     1
 79
     5
176
     1
170
     0
176
     1
171
     0
176
     1
290
     0
176
     1
 93
        1
176
     1
 44
0.0
176
     1
173
     0
176
     1
  0
VISUALSTYLE
  5
31
102
{ACAD_REACTORS
330
2A
102
}
330
2A
100
AcDbVisualStyle
  2
3D Hidden
 70
     6
177
     2
291
     0
 71
     1
176
     1
 72
     2
176
     1
 73
     2
176
     1
 90
        0
176
     1
 40
-0.6
176
     1
 41
-30.0
176
     1
 62
     5
 63
     7
421
 16777215
176
     1
 74
     2
176
     1
 91
        2
176
     1
 64
     7
176
     1
 65
   257
176
     1
 75
     2
176
     1
175
     1
176
     1
 42
40.0
176
     1
 92
        0
176
     1
 66
   257
176
     1
 43
1.0
176
     1
 76
     1
176
     1
 77
     6
176
     1
 78
     2
176
     1
 67
     7
176
     1
 79
     3
176
     1
170
     0
176
     1
171
     0
176
     1
290
     0
176
     1
 93
        1
176
     1
 44
0.0
176
     1
173
     0
176
     1
  0
VISUALSTYLE
  5
30
102
{ACAD_REACTORS
330
2A
102
}
330
2A
100
AcDbVisualStyle
  2
3dWireframe
 70
     5
177
     2
291
     0
 71
     0
176
     1
 72
     2
176
     1
 73
     0
176
     1
 90
        0
176
     1
 40
-0.6
176
     1
 41
-30.0
176
     1
 62
     5
 63
     7
421
 16777215
176
     1
 74
     1
176
     1
 91
        4
176
     1
 64
     7
176
     1
 65
   257
176
     1
 75
     1
176
     1
175
     1
176
     1
 42
1.0
176
     1
 92
        0
176
     1
 66
   257
176
     1
 43
1.0
176
     1
 76
     1
176
     1
 77
     6
176
     1
 78
     2
176
     1
 67
     7
176
     1
 79
     5
176
     1
170
     0
176
     1
171
     0
176
     1
290
     0
176
     1
 93
        1
176
     1
 44
0.0
176
     1
173
     0
176
     1
  0
VISUALSTYLE
  5
32
102
{ACAD_REACTORS
330
2A
102
}
330
2A
100
AcDbVisualStyle
  2
Basic
 70
     7
177
     2
291
     1
 71
     1
176
     1
 72
     0
176
     1
 73
     1
176
     1
 90
        0
176
     1
 40
-0.6
176
     1
 41
-30.0
176
     1
 62
     5
 63
     7
421
 16777215
176
     1
 74
     0
176
     1
 91
        4
176
     1
 64
     7
176
     1
 65
   257
176
     1
 75
     1
176
     1
175
     1
176
     1
 42
1.0
176
     1
 92
        8
176
     1
 66
     7
176
     1
 43
1.0
176
     1
 76
     1
176
     1
 77
     6
176
     1
 78
     2
176
     1
 67
     7
176
     1
 79
     5
176
     1
170
     0
176
     1
171
     0
176
     1
290
     0
176
     1
 93
        1
176
     1
 44
0.0
176
     1
173
     0
176
     1
  0
VISUALSTYLE
  5
36
102
{ACAD_REACTORS
330
2A
102
}
330
2A
100
AcDbVisualStyle
  2
Brighten
 70
    12
177
     2
291
     1
 71
     2
176
     1
 72
     2
176
     1
 73
     0
176
     1
 90
        0
176
     1
 40
-0.6
176
     1
 41
-30.0
176
     1
 62
     5
 63
     7
421
 16777215
176
     1
 74
     1
176
     1
 91
        4
176
     1
 64
     7
176
     1
 65
   257
176
     1
 75
     1
176
     1
175
     1
176
     1
 42
1.0
176
     1
 92
        8
176
     1
 66
     7
176
     1
 43
1.0
176
     1
 76
     1
176
     1
 77
     6
176
     1
 78
     2
176
     1
 67
     7
176
     1
 79
     5
176
     1
170
     0
176
     1
171
     0
176
     1
290
     0
176
     1
 93
        1
176
     1
 44
50.0
176
     1
173
     0
176
     1
  0
VISUALSTYLE
  5
3A
102
{ACAD_REACTORS
330
2A
102
}
330
2A
100
AcDbVisualStyle
  2
ColorChange
 70
    16
177
     2
291
     1
 71
     2
176
     1
 72
     2
176
     1
 73
     3
176
     1
 90
        0
176
     1
 40
-0.6
176
     1
 41
-30.0
176
     1
 62
     5
 63
     8
421
  8421504
176
     1
 74
     1
176
     1
 91
        4
176
     1
 64
     7
176
     1
 65
   257
176
     1
 75
     1
176
     1
175
     1
176
     1
 42
1.0
176
     1
 92
        8
176
     1
 66
     8
424
  8421504
176
     1
 43
1.0
176
     1
 76
     1
176
     1
 77
     6
176
     1
 78
     2
176
     1
 67
     7
176
     1
 79
     5
176
     1
170
     0
176
     1
171
     0
176
     1
290
     0
176
     1
 93
        1
176
     1
 44
0.0
176
     1
173
     0
176
     1
  0
VISUALSTYLE
  5
34
102
{ACAD_REACTORS
330
2A
102
}
330
2A
100
AcDbVisualStyle
  2
Conceptual
 70
     9
177
     2
291
     0
 71
     3
176
     1
 72
     2
176
     1
 73
     0
176
     1
 90
        0
176
     1
 40
-0.6
176
     1
 41
-30.0
176
     1
 62
     5
 63
     7
421
 16777215
176
     1
 74
     2
176
     1
 91
        2
176
     1
 64
     7
176
     1
 65
   257
176
     1
 75
     1
176
     1
175
     1
176
     1
 42
40.0
176
     1
 92
        8
176
     1
 66
     7
176
     1
 43
1.0
176
     1
 76
     1
176
     1
 77
     6
176
     1
 78
     2
176
     1
 67
     7
176
     1
 79
     3
176
     1
170
     0
176
     1
171
     0
176
     1
290
     0
176
     1
 93
        1
176
     1
 44
0.0
176
     1
173
     0
176
     1
  0
VISUALSTYLE
  5
35
102
{ACAD_REACTORS
330
2A
102
}
330
2A
100
AcDbVisualStyle
  2
Dim
 70
    11
177
     2
291
     1
 71
     2
176
     1
 72
     2
176
     1
 73
     0
176
     1
 90
        0
176
     1
 40
-0.6
176
     1
 41
-30.0
176
     1
 62
     5
 63
     7
421
 16777215
176
     1
 74
     1
176
     1
 91
        4
176
     1
 64
     7
176
     1
 65
   257
176
     1
 75
     1
176
     1
175
     1
176
     1
 42
1.0
176
     1
 92
        8
176
     1
 66
     7
176
     1
 43
1.0
176
     1
 76
     1
176
     1
 77
     6
176
     1
 78
     2
176
     1
 67
     7
176
     1
 79
     5
176
     1
170
     0
176
     1
171
     0
176
     1
290
     0
176
     1
 93
        1
176
     1
 44
-50.0
176
     1
173
     0
176
     1
  0
VISUALSTYLE
  5
39
102
{ACAD_REACTORS
330
2A
102
}
330
2A
100
AcDbVisualStyle
  2
Facepattern
 70
    15
177
     2
291
     1
 71
     2
176
     1
 72
     2
176
     1
 73
     0
176
     1
 90
        0
176
     1
 40
-0.6
176
     1
 41
-30.0
176
     1
 62
     5
 63
     7
421
 16777215
176
     1
 74
     1
176
     1
 91
        4
176
     1
 64
     7
176
     1
 65
   257
176
     1
 75
     1
176
     1
175
     1
176
     1
 42
1.0
176
     1
 92
        8
176
     1
 66
     7
176
     1
 43
1.0
176
     1
 76
     1
176
     1
 77
     6
176
     1
 78
     2
176
     1
 67
     7
176
     1
 79
     5
176
     1
170
     0
176
     1
171
     0
176
     1
290
     0
176
     1
 93
        1
176
     1
 44
0.0
176
     1
173
     0
176
     1
  0
VISUALSTYLE
  5
2B
102
{ACAD_REACTORS
330
2A
102
}
330
2A
100
AcDbVisualStyle
  2
Flat
 70
     0
177
     2
291
     1
 71
     2
176
     1
 72
     1
176
     1
 73
     1
176
     1
 90
        2
176
     1
 40
-0.6
176
     1
 41
30.0
176
     1
 62
     5
 63
     7
421
 16777215
176
     1
 74
     0
176
     1
 91
        4
176
     1
 64
     7
176
     1
 65
   257
176
     1
 75
     1
176
     1
175
     1
176
     1
 42
1.0
176
     1
 92
        8
176
     1
 66
     7
176
     1
 43
1.0
176
     1
 76
     1
176
     1
 77
     6
176
     1
 78
     2
176
     1
 67
     7
176
     1
 79
     5
176
     1
170
     0
176
     1
171
     0
176
     1
290
     0
176
     1
 93
       13
176
     1
 44
0.0
176
     1
173
     0
176
     1
  0
VISUALSTYLE
  5
2C
102
{ACAD_REACTORS
330
2A
102
}
330
2A
100
AcDbVisualStyle
  2
FlatWithEdges
 70
     1
177
     2
291
     1
 71
     2
176
     1
 72
     1
176
     1
 73
     1
176
     1
 90
        2
176
     1
 40
-0.6
176
     1
 41
30.0
176
     1
 62
     5
 63
     7
421
 16777215
176
     1
 74
     1
176
     1
 91
        4
176
     1
 64
     7
176
     1
 65
   257
176
     1
 75
     1
176
     1
175
     1
176
     1
 42
1.0
176
     1
 92
        0
176
     1
 66
   257
176
     1
 43
1.0
176
     1
 76
     1
176
     1
 77
     6
176
     1
 78
     2
176
     1
 67
     7
176
     1
 79
     5
176
     1
170
     0
176
     1
171
     0
176
     1
290
     0
176
     1
 93
       13
176
     1
 44
0.0
176
     1
173
     0
176
     1
  0
VISUALSTYLE
  5
2D
102
{ACAD_REACTORS
330
2A
102
}
330
2A
100
AcDbVisualStyle
  2
Gouraud
 70
     2
177
     2
291
     1
 71
     2
176
     1
 72
     2
176
     1
 73
     1
176
     1
 90
        2
176
     1
 40
-0.6
176
     1
 41
30.0
176
     1
 62
     5
 63
     7
421
 16777215
176
     1
 74
     0
176
     1
 91
        4
176
     1
 64
     7
176
     1
 65
   257
176
     1
 75
     1
176
     1
175
     1
176
     1
 42
1.0
176
     1
 92
        0
176
     1
 66
     7
176
     1
 43
1.0
176
     1
 76
     1
176
     1
 77
     6
176
     1
 78
     2
176
     1
 67
     7
176
     1
 79
     5
176
     1
170
     0
176
     1
171
     0
176
     1
290
     0
176
     1
 93
       13
176
     1
 44
0.0
176
     1
173
     0
176
     1
  0
VISUALSTYLE
  5
2E
102
{ACAD_REACTORS
330
2A
102
}
330
2A
100
AcDbVisualStyle
  2
GouraudWithEdges
 70
     3
177
     2
291
     1
 71
     2
176
     1
 72
     2
176
     1
 73
     1
176
     1
 90
        2
176
     1
 40
-0.6
176
     1
 41
30.0
176
     1
 62
     5
 63
     7
421
 16777215
176
     1
 74
     1
176
     1
 91
        4
176
     1
 64
     7
176
     1
 65
   257
176
     1
 75
     1
176
     1
175
     1
176
     1
 42
1.0
176
     1
 92
        0
176
     1
 66
   257
176
     1
 43
1.0
176
     1
 76
     1
176
     1
 77
     6
176
     1
 78
     2
176
     1
 67
     7
176
     1
 79
     5
176
     1
170
     0
176
     1
171
     0
176
     1
290
     0
176
     1
 93
       13
176
     1
 44
0.0
176
     1
173
     0
176
     1
  0
VISUALSTYLE
  5
38
102
{ACAD_REACTORS
330
2A
102
}
330
2A
100
AcDbVisualStyle
  2
Linepattern
 70
    14
177
     2
291
     1
 71
     2
176
     1
 72
     2
176
     1
 73
     0
176
     1
 90
        0
176
     1
 40
-0.6
176
     1
 41
-30.0
176
     1
 62
     5
 63
     7
421
 16777215
176
     1
 74
     1
176
     1
 91
        4
176
     1
 64
     7
176
     1
 65
   257
176
     1
 75
     7
176
     1
175
     7
176
     1
 42
1.0
176
     1
 92
        8
176
     1
 66
     7
176
     1
 43
1.0
176
     1
 76
     1
176
     1
 77
     6
176
     1
 78
     2
176
     1
 67
     7
176
     1
 79
     5
176
     1
170
     0
176
     1
171
     0
176
     1
290
     0
176
     1
 93
        1
176
     1
 44
0.0
176
     1
173
     0
176
     1
  0
VISUALSTYLE
  5
33
102
{ACAD_REACTORS
330
2A
102
}
330
2A
100
AcDbVisualStyle
  2
Realistic
 70
     8
177
     2
291
     0
 71
     2
176
     1
 72
     2
176
     1
 73
     0
176
     1
 90
        0
176
     1
 40
-0.6
176
     1
 41
-30.0
176
     1
 62
     5
 63
     7
421
 16777215
176
     1
 74
     1
176
     1
 91
        0
176
     1
 64
     7
176
     1
 65
   257
176
     1
 75
     1
176
     1
175
     1
176
     1
 42
1.0
176
     1
 92
        8
176
     1
 66
     8
424
  7895160
176
     1
 43
1.0
176
     1
 76
     1
176
     1
 77
     6
176
     1
 78
     2
176
     1
 67
     7
176
     1
 79
     5
176
     1
170
     0
176
     1
171
     0
176
     1
290
     0
176
     1
 93
       13
176
     1
 44
0.0
176
     1
173
     0
176
     1
  0
VISUALSTYLE
  5
37
102
{ACAD_REACTORS
330
2A
102
}
330
2A
100
AcDbVisualStyle
  2
Thicken
 70
    13
177
     2
291
     1
 71
     2
176
     1
 72
     2
176
     1
 73
     0
176
     1
 90
        0
176
     1
 40
-0.6
176
     1
 41
-30.0
176
     1
 62
     5
 63
     7
421
 16777215
176
     1
 74
     1
176
     1
 91
        4
176
     1
 64
     7
176
     1
 65
   257
176
     1
 75
     1
176
     1
175
     1
176
     1
 42
1.0
176
     1
 92
       12
176
     1
 66
     7
176
     1
 43
1.0
176
     1
 76
     1
176
     1
 77
     6
176
     1
 78
     2
176
     1
 67
     7
176
     1
 79
     5
176
     1
170
     0
176
     1
171
     0
176
     1
290
     0
176
     1
 93
        1
176
     1
 44
0.0
176
     1
173
     0
176
     1
  0
ENDSEC
  0
EOF
