  0
SECTION
  2
HEADER
  9
$ACADVER
  1
AC1024
  9
$ACADMAINTVER
 70
     6
  9
$DWGCODEPAGE
  3
UNDEFINED
  9
$INSBASE
 10
0.0
 20
0.0
 30
0.0
  9
$EXTMIN
 10
1.000000000000000E+20
 20
1.000000000000000E+20
 30
1.000000000000000E+20
  9
$EXTMAX
 10
-1.000000000000000E+20
 20
-1.000000000000000E+20
 30
-1.000000000000000E+20
  9
$LIMMIN
 10
0.0
 20
0.0
  9
$LIMMAX
 10
12.0
 20
9.0
  9
$ORTHOMODE
 70
     0
  9
$REGENMODE
 70
     1
  9
$FILLMODE
 70
     1
  9
$QTEXTMODE
 70
     0
  9
$MIRRTEXT
 70
     1
  9
$LTSCALE
 40
1.0
  9
$ATTMODE
 70
     1
  9
$TEXTSIZE
 40
0.2
  9
$TRACEWID
 40
0.05
  9
$TEXTSTYLE
  7
Standard
  9
$CLAYER
  8
0
  9
$CELTYPE
  6
ByLayer
  9
$CECOLOR
 62
   256
  9
$CELTSCALE
 40
1.0
  9
$DISPSILH
 70
     0
  9
$DIMSCALE
 40
1.0
  9
$DIMASZ
 40
0.18
  9
$DIMEXO
 40
0.0625
  9
$DIMDLI
 40
0.38
  9
$DIMRND
 40
0.0
  9
$DIMDLE
 40
0.0
  9
$DIMEXE
 40
0.18
  9
$DIMTP
 40
0.0
  9
$DIMTM
 40
0.0
  9
$DIMTXT
 40
0.18
  9
$DIMCEN
 40
0.09
  9
$DIMTSZ
 40
0.0
  9
$DIMTOL
 70
     0
  9
$DIMLIM
 70
     0
  9
$DIMTIH
 70
     1
  9
$DIMTOH
 70
     1
  9
$DIMSE1
 70
     0
  9
$DIMSE2
 70
     0
  9
$DIMTAD
 70
     0
  9
$DIMZIN
 70
     0
  9
$DIMBLK
  1

  9
$DIMASO
 70
     1
  9
$DIMSHO
 70
     1
  9
$DIMPOST
  1

  9
$DIMAPOST
  1

  9
$DIMALT
 70
     0
  9
$DIMALTD
 70
     2
  9
$DIMALTF
 40
25.4
  9
$DIMLFAC
 40
1.0
  9
$DIMTOFL
 70
     0
  9
$DIMTVP
 40
0.0
  9
$DIMTIX
 70
     0
  9
$DIMSOXD
 70
     0
  9
$DIMSAH
 70
     0
  9
$DIMBLK1
  1

  9
$DIMBLK2
  1

  9
$DIMSTYLE
  2
Standard
  9
$DIMCLRD
 70
     0
  9
$DIMCLRE
 70
     0
  9
$DIMCLRT
 70
     0
  9
$DIMTFAC
 40
1.0
  9
$DIMGAP
 40
0.09
  9
$DIMJUST
 70
     0
  9
$DIMSD1
 70
     0
  9
$DIMSD2
 70
     0
  9
$DIMTOLJ
 70
     1
  9
$DIMTZIN
 70
     0
  9
$DIMALTZ
 70
     0
  9
$DIMALTTZ
 70
     0
  9
$DIMUPT
 70
     0
  9
$DIMDEC
 70
     4
  9
$DIMTDEC
 70
     4
  9
$DIMALTU
 70
     2
  9
$DIMALTTD
 70
     2
  9
$DIMTXSTY
  7
Standard
  9
$DIMAUNIT
 70
     0
  9
$DIMADEC
 70
     0
  9
$DIMALTRND
 40
0.0
  9
$DIMAZIN
 70
     0
  9
$DIMDSEP
 70
    46
  9
$DIMATFIT
 70
     3
  9
$DIMFRAC
 70
     0
  9
$DIMLDRBLK
  1

  9
$DIMLUNIT
 70
     2
  9
$DIMLWD
 70
    -2
  9
$DIMLWE
 70
    -2
  9
$DIMTMOVE
 70
     0
  9
$DIMFXL
 40
1.0
  9
$DIMFXLON
 70
     0
  9
$DIMJOGANG
 40
0.7853981633974483
  9
$DIMTFILL
 70
     0
  9
$DIMTFILLCLR
 70
     0
  9
$DIMARCSYM
 70
     0
  9
$DIMLTYPE
  6

  9
$DIMLTEX1
  6

  9
$DIMLTEX2
  6

  9
$DIMTXTDIRECTION
 70
     0
  9
$LUNITS
 70
     2
  9
$LUPREC
 70
     4
  9
$SKETCHINC
 40
0.1
  9
$FILLETRAD
 40
0.5
  9
$AUNITS
 70
     0
  9
$AUPREC
 70
     0
  9
$MENU
  1
.
  9
$ELEVATION
 40
0.0
  9
$PELEVATION
 40
0.0
  9
$THICKNESS
 40
0.0
  9
$LIMCHECK
 70
     0
  9
$CHAMFERA
 40
0.5
  9
$CHAMFERB
 40
0.5
  9
$CHAMFERC
 40
1.0
  9
$CHAMFERD
 40
0.0
  9
$SKPOLY
 70
     0
  9
$TDCREATE
 40
2457917.621064803
  9
$TDUCREATE
 40
2457917.246064815
  9
$TDUPDATE
 40
2457917.621064803
  9
$TDUUPDATE
 40
2457917.246064815
  9
$TDINDWG
 40
0.0000000116
  9
$TDUSRTIMER
 40
0.0000000116
  9
$USRTIMER
 70
     1
  9
$ANGBASE
 50
0.0
  9
$ANGDIR
 70
     0
  9
$PDMODE
 70
     0
  9
$PDSIZE
 40
0.0
  9
$PLINEWID
 40
0.0
  9
$SPLFRAME
 70
     0
  9
$SPLINETYPE
 70
     6
  9
$SPLINESEGS
 70
     8
  9
$HANDSEED
  5
AA
  9
$SURFTAB1
 70
     6
  9
$SURFTAB2
 70
     6
  9
$SURFTYPE
 70
     6
  9
$SURFU
 70
     6
  9
$SURFV
 70
     6
  9
$UCSBASE
  2

  9
$UCSNAME
  2

  9
$UCSORG
 10
0.0
 20
0.0
 30
0.0
  9
$UCSXDIR
 10
1.0
 20
0.0
 30
0.0
  9
$UCSYDIR
 10
0.0
 20
1.0
 30
0.0
  9
$UCSORTHOREF
  2

  9
$UCSORTHOVIEW
 70
     0
  9
$UCSORGTOP
 10
0.0
 20
0.0
 30
0.0
  9
$UCSORGBOTTOM
 10
0.0
 20
0.0
 30
0.0
  9
$UCSORGLEFT
 10
0.0
 20
0.0
 30
0.0
  9
$UCSORGRIGHT
 10
0.0
 20
0.0
 30
0.0
  9
$UCSORGFRONT
 10
0.0
 20
0.0
 30
0.0
  9
$UCSORGBACK
 10
0.0
 20
0.0
 30
0.0
  9
$PUCSBASE
  2

  9
$PUCSNAME
  2

  9
$PUCSORG
 10
0.0
 20
0.0
 30
0.0
  9
$PUCSXDIR
 10
1.0
 20
0.0
 30
0.0
  9
$PUCSYDIR
 10
0.0
 20
1.0
 30
0.0
  9
$PUCSORTHOREF
  2

  9
$PUCSORTHOVIEW
 70
     0
  9
$PUCSORGTOP
 10
0.0
 20
0.0
 30
0.0
  9
$PUCSORGBOTTOM
 10
0.0
 20
0.0
 30
0.0
  9
$PUCSORGLEFT
 10
0.0
 20
0.0
 30
0.0
  9
$PUCSORGRIGHT
 10
0.0
 20
0.0
 30
0.0
  9
$PUCSORGFRONT
 10
0.0
 20
0.0
 30
0.0
  9
$PUCSORGBACK
 10
0.0
 20
0.0
 30
0.0
  9
$USERI1
 70
     0
  9
$USERI2
 70
     0
  9
$USERI3
 70
     0
  9
$USERI4
 70
     0
  9
$USERI5
 70
     0
  9
$USERR1
 40
0.0
  9
$USERR2
 40
0.0
  9
$USERR3
 40
0.0
  9
$USERR4
 40
0.0
  9
$USERR5
 40
0.0
  9
$WORLDVIEW
 70
     1
  9
$SHADEDGE
 70
     3
  9
$SHADEDIF
 70
    70
  9
$TILEMODE
 70
     1
  9
$MAXACTVP
 70
    64
  9
$PINSBASE
 10
0.0
 20
0.0
 30
0.0
  9
$PLIMCHECK
 70
     0
  9
$PEXTMIN
 10
1.000000000000000E+20
 20
1.000000000000000E+20
 30
1.000000000000000E+20
  9
$PEXTMAX
 10
-1.000000000000000E+20
 20
-1.000000000000000E+20
 30
-1.000000000000000E+20
  9
$PLIMMIN
 10
0.0
 20
0.0
  9
$PLIMMAX
 10
12.0
 20
9.0
  9
$UNITMODE
 70
     0
  9
$VISRETAIN
 70
     1
  9
$PLINEGEN
 70
     0
  9
$PSLTSCALE
 70
     1
  9
$TREEDEPTH
 70
  3020
  9
$CMLSTYLE
  2
Standard
  9
$CMLJUST
 70
     0
  9
$CMLSCALE
 40
1.0
  9
$PROXYGRAPHICS
 70
     1
  9
$MEASUREMENT
 70
     0
  9
$CELWEIGHT
370
    -1
  9
$ENDCAPS
280
     0
  9
$JOINSTYLE
280
     0
  9
$LWDISPLAY
290
     1
  9
$INSUNITS
 70
     1
  9
$HYPERLINKBASE
  1

  9
$STYLESHEET
  1

  9
$XEDIT
290
     1
  9
$CEPSNTYPE
380
     0
  9
$PSTYLEMODE
290
     1
  9
$FINGERPRINTGUID
  2
{1AD22D50-7688-37F7-50E9-858ED9A247B5}
  9
$VERSIONGUID
  2
{FAEB1C32-E019-11D5-929B-00C0DF256EC4}
  9
$EXTNAMES
290
     1
  9
$PSVPSCALE
 40
0.0
  9
$OLESTARTUP
290
     0
  9
$SORTENTS
280
   127
  9
$INDEXCTL
280
     0
  9
$HIDETEXT
280
     1
  9
$XCLIPFRAME
280
     2
  9
$HALOGAP
280
     0
  9
$OBSCOLOR
 70
   257
  9
$OBSLTYPE
280
     0
  9
$INTERSECTIONDISPLAY
280
     0
  9
$INTERSECTIONCOLOR
 70
   257
  9
$DIMASSOC
280
     2
  9
$PROJECTNAME
  1

  9
$CAMERADISPLAY
290
     0
  9
$LENSLENGTH
 40
50.0
  9
$CAMERAHEIGHT
 40
0.0
  9
$STEPSPERSEC
 40
2.0
  9
$STEPSIZE
 40
6.0
  9
$3DDWFPREC
 40
2.0
  9
$PSOLWIDTH
 40
0.25
  9
$PSOLHEIGHT
 40
4.0
  9
$LOFTANG1
 40
1.570796326794897
  9
$LOFTANG2
 40
1.570796326794897
  9
$LOFTMAG1
 40
0.0
  9
$LOFTMAG2
 40
0.0
  9
$LOFTPARAM
 70
     7
  9
$LOFTNORMALS
280
     1
  9
$LATITUDE
 40
37.795
  9
$LONGITUDE
 40
-122.394
  9
$NORTHDIRECTION
 40
0.0
  9
$TIMEZONE
 70
 -8000
  9
$LIGHTGLYPHDISPLAY
280
     1
  9
$TILEMODELIGHTSYNCH
280
     1
  9
$CMATERIAL
347
3C
  9
$SOLIDHIST
280
     1
  9
$SHOWHIST
280
     1
  9
$DWFFRAME
280
     2
  9
$DGNFRAME
280
     2
  9
$REALWORLDSCALE
290
     1
  9
$INTERFERECOLOR
 62
   256
  9
$CSHADOW
280
     0
  9
$SHADOWPLANELOCATION
 40
0.0
  0
ENDSEC
  0
SECTION
  2
CLASSES
  0
CLASS
  1
ACDBDICTIONARYWDFLT
  2
AcDbDictionaryWithDefault
  3
ObjectDBX Classes
 90
        0
 91
        4
280
     0
281
     0
  0
CLASS
  1
VISUALSTYLE
  2
AcDbVisualStyle
  3
ObjectDBX Classes
 90
     4095
 91
        4
280
     0
281
     0
  0
CLASS
  1
MATERIAL
  2
AcDbMaterial
  3
ObjectDBX Classes
 90
     1153
 91
        4
280
     0
281
     0
  0
CLASS
  1
SUN
  2
AcDbSun
  3
SCENEOE
 90
     1024
 91
        4
280
     0
281
     0
  0
ENDSEC
  0
SECTION
  2
TABLES
  0
TABLE
  2
VPORT
  5
8
330
0
100
AcDbSymbolTable
 70
     1
  0
VPORT
  5
29
330
8
100
AcDbSymbolTableRecord
100
AcDbViewportTableRecord
  2
*Active
 70
     0
 10
0.0
 20
0.0
 11
1.0
 21
1.0
 12
0.0
 22
0.0
 13
0.0
 23
0.0
 14
0.5
 24
0.5
 15
0.5
 25
0.5
 16
0.0
 26
0.0
 36
1.0
 17
91.00082462281999
 27
-128.4993055234307
 37
0.0
 40
256.9986110468615
 41
0.7081814508812795
 42
50.0
 43
0.0
 44
0.0
 50
0.0
 51
0.0
 71
     0
 72
   100
 73
     1
 74
     3
 75
     0
 76
     0
 77
     0
 78
     0
281
     0
 65
     1
110
0.0
120
0.0
130
0.0
111
1.0
121
0.0
131
0.0
112
0.0
122
1.0
132
0.0
 79
     0
146
0.0
 60
     3
 61
     5
292
     1
282
     1
141
0.0
142
0.0
 63
   250
361
3F
  0
ENDTAB
  0
TABLE
  2
LTYPE
  5
5
330
0
100
AcDbSymbolTable
 70
     1
  0
LTYPE
  5
14
330
5
100
AcDbSymbolTableRecord
100
AcDbLinetypeTableRecord
  2
ByBlock
 70
     0
  3

 72
    65
 73
     0
 40
0.0
  0
LTYPE
  5
15
330
5
100
AcDbSymbolTableRecord
100
AcDbLinetypeTableRecord
  2
ByLayer
 70
     0
  3

 72
    65
 73
     0
 40
0.0
  0
LTYPE
  5
16
330
5
100
AcDbSymbolTableRecord
100
AcDbLinetypeTableRecord
  2
Continuous
 70
     0
  3
Solid line
 72
    65
 73
     0
 40
0.0
  0
ENDTAB
  0
TABLE
  2
LAYER
  5
2
330
0
100
AcDbSymbolTable
 70
     2
  0
LAYER
  5
10
330
2
100
AcDbSymbolTableRecord
100
AcDbLayerTableRecord
  2
0
 70
     0
 62
     7
  6
Continuous
370
    -3
390
F
347
3E
  0
LAYER
  5
40
330
2
100
AcDbSymbolTableRecord
100
AcDbLayerTableRecord
  2
_U+30EC_U+30A4_U+30E4_U+30FC 1
 70
     0
 62
     7
  6
Continuous
370
    -3
390
F
347
3E
  0
ENDTAB
  0
TABLE
  2
STYLE
  5
3
330
0
100
AcDbSymbolTable
 70
     1
  0
STYLE
  5
11
330
3
100
AcDbSymbolTableRecord
100
AcDbTextStyleTableRecord
  2
Standard
 70
     0
 40
0.0
 41
1.0
 50
0.0
 71
     0
 42
0.2
  3
txt
  4

  0
ENDTAB
  0
TABLE
  2
VIEW
  5
6
330
0
100
AcDbSymbolTable
 70
     0
  0
ENDTAB
  0
TABLE
  2
UCS
  5
7
330
0
100
AcDbSymbolTable
 70
     0
  0
ENDTAB
  0
TABLE
  2
APPID
  5
9
330
0
100
AcDbSymbolTable
 70
     1
  0
APPID
  5
12
330
9
100
AcDbSymbolTableRecord
100
AcDbRegAppTableRecord
  2
ACAD
 70
     0
  0
ENDTAB
  0
TABLE
  2
DIMSTYLE
  5
A
330
0
100
AcDbSymbolTable
 70
     1
100
AcDbDimStyleTable
  0
DIMSTYLE
105
27
330
A
100
AcDbSymbolTableRecord
100
AcDbDimStyleTableRecord
  2
Standard
 70
     0
178
     0
340
11
  0
ENDTAB
  0
TABLE
  2
BLOCK_RECORD
  5
1
330
0
100
AcDbSymbolTable
 70
     4
  0
BLOCK_RECORD
  5
1F
330
1
100
AcDbSymbolTableRecord
100
AcDbBlockTableRecord
  2
*Model_Space
340
22
 70
     0
280
     1
281
     0
  0
BLOCK_RECORD
  5
1B
330
1
100
AcDbSymbolTableRecord
100
AcDbBlockTableRecord
  2
*Paper_Space
340
1E
 70
     0
280
     1
281
     0
  0
BLOCK_RECORD
  5
23
330
1
100
AcDbSymbolTableRecord
100
AcDbBlockTableRecord
  2
*Paper_Space0
340
26
 70
     0
280
     1
281
     0
  0
BLOCK_RECORD
  5
79
330
1
100
AcDbSymbolTableRecord
100
AcDbBlockTableRecord
  2
block 2
340
0
102
{BLKREFS
331
7A
102
}
 70
     0
280
     1
281
     0
  0
BLOCK_RECORD
  5
8B
330
1
100
AcDbSymbolTableRecord
100
AcDbBlockTableRecord
  2
block 3
340
0
102
{BLKREFS
331
8C
102
}
 70
     0
280
     1
281
     0
  0
BLOCK_RECORD
  5
A0
330
1
100
AcDbSymbolTableRecord
100
AcDbBlockTableRecord
  2
block 4
340
0
102
{BLKREFS
331
A1
102
}
 70
     0
280
     1
281
     0
  0
ENDTAB
  0
ENDSEC
  0
SECTION
  2
BLOCKS
  0
BLOCK
  5
20
330
1F
100
AcDbEntity
  8
0
100
AcDbBlockBegin
  2
*Model_Space
 70
     0
 10
0.0
 20
0.0
 30
0.0
  3
*Model_Space
  1

  0
ENDBLK
  5
21
330
1F
100
AcDbEntity
  8
0
100
AcDbBlockEnd
  0
BLOCK
  5
1C
330
1B
100
AcDbEntity
 67
     1
  8
0
100
AcDbBlockBegin
  2
*Paper_Space
 70
     0
 10
0.0
 20
0.0
 30
0.0
  3
*Paper_Space
  1

  0
ENDBLK
  5
1D
330
1B
100
AcDbEntity
 67
     1
  8
0
100
AcDbBlockEnd
  0
BLOCK
  5
24
330
23
100
AcDbEntity
  8
0
100
AcDbBlockBegin
  2
*Paper_Space0
 70
     0
 10
0.0
 20
0.0
 30
0.0
  3
*Paper_Space0
  1

  0
ENDBLK
  5
25
330
23
100
AcDbEntity
  8
0
100
AcDbBlockEnd
  0
BLOCK
  5
7B
330
79
100
AcDbEntity
  8
0
100
AcDbBlockBegin
  2
block 2
 70
     0
 10
0.0
 20
0.0
 30
0.0
  3
block 2
  1

  0
SPLINE
  5
7D
330
79
100
AcDbEntity
  8
_U+30EC_U+30A4_U+30E4_U+30FC 1
370
     0
100
AcDbSpline
210
0.0
220
0.0
230
1.0
 70
    11
 71
     3
 72
    44
 73
    40
 74
     0
 42
0.0000000001
 43
0.0000000001
 12
1.0
 22
0.0
 32
0.0
 13
1.0
 23
0.0
 33
0.0
 40
0.0
 40
0.0
 40
0.0
 40
0.0
 40
1.0
 40
1.0
 40
1.0
 40
2.0
 40
2.0
 40
2.0
 40
3.0
 40
3.0
 40
3.0
 40
4.0
 40
4.0
 40
4.0
 40
5.0
 40
5.0
 40
5.0
 40
6.0
 40
6.0
 40
6.0
 40
7.0
 40
7.0
 40
7.0
 40
8.0
 40
8.0
 40
8.0
 40
9.0
 40
9.0
 40
9.0
 40
10.0
 40
10.0
 40
10.0
 40
11.0
 40
11.0
 40
11.0
 40
12.0
 40
12.0
 40
12.0
 40
13.0
 40
13.0
 40
13.0
 40
13.0
 10
119.4176893147636
 20
-133.253192783527
 30
0.0
 10
119.5765082166337
 20
-133.4860812383299
 30
0.0
 10
119.6505777695665
 20
-133.5856444978536
 30
0.0
 10
119.7942382513015
 20
-133.6373209301323
 30
0.0
 10
119.7942382513015
 20
-133.6373209301323
 30
0.0
 10
119.7942382513015
 20
-132.805674879993
 30
0.0
 10
119.7942382513015
 20
-132.805674879993
 30
0.0
 10
119.7942382513015
 20
-132.805674879993
 30
0.0
 10
119.9995659422223
 20
-132.805674879993
 30
0.0
 10
119.9995659422223
 20
-132.805674879993
 30
0.0
 10
119.9995659422223
 20
-132.805674879993
 30
0.0
 10
119.9995659422223
 20
-133.9043158302392
 30
0.0
 10
119.9995659422223
 20
-133.9043158302392
 30
0.0
 10
119.6419650308534
 20
-133.8702093849352
 30
0.0
 10
119.5637613633382
 20
-133.8002739465847
 30
0.0
 10
119.2654160943156
 20
-133.3889295456458
 30
0.0
 10
119.0666340848167
 20
-133.115388964117
 30
0.0
 10
118.9987657037573
 20
-133.0451090162179
 30
0.0
 10
118.8613063938958
 20
-133.0451090162179
 30
0.0
 10
118.7427951092032
 20
-133.0451090162179
 30
0.0
 10
118.6118814807637
 20
-133.121934645539
 30
0.0
 10
118.6118814807637
 20
-133.3324299796877
 30
0.0
 10
118.6118814807637
 20
-133.6104491853474
 30
0.0
 10
118.8423583687269
 20
-133.619406433609
 30
0.0
 10
118.9588025961284
 20
-133.6238850577399
 30
0.0
 10
118.9588025961284
 20
-133.6238850577399
 30
0.0
 10
118.9588025961284
 20
-133.8636637035133
 30
0.0
 10
118.9588025961284
 20
-133.8636637035133
 30
0.0
 10
118.8316785727226
 20
-133.8543619457031
 30
0.0
 10
118.719712969452
 20
-133.8433376401503
 30
0.0
 10
118.6012016847594
 20
-133.757210253019
 30
0.0
 10
118.4403157255983
 20
-133.639732496972
 30
0.0
 10
118.4065537898428
 20
-133.4409504874731
 30
0.0
 10
118.4065537898428
 20
-133.3165825404556
 30
0.0
 10
118.4065537898428
 20
-133.0203043287241
 30
0.0
 10
118.5905218887551
 20
-132.7987846890225
 30
0.0
 10
118.8633734511869
 20
-132.7987846890225
 30
0.0
 10
119.0921277914075
 20
-132.7987846890225
 30
0.0
 10
119.1913465413827
 20
-132.92315263604
 30
0.0
 10
119.4176893147636
 20
-133.253192783527
 30
0.0
  0
HATCH
  5
7E
330
79
100
AcDbEntity
  8
_U+30EC_U+30A4_U+30E4_U+30FC 1
 62
   179
420
  2234388
100
AcDbHatch
 10
0.0
 20
0.0
 30
0.0
210
0.0
220
0.0
230
1.0
  2
SOLID
 70
     1
 71
     0
 91
        1
 92
        1
 93
        1
 72
     4
 94
        3
 73
     0
 74
     1
 95
       44
 96
       40
 40
0.0
 40
0.0
 40
0.0
 40
0.0
 40
1.0
 40
1.0
 40
1.0
 40
2.0
 40
2.0
 40
2.0
 40
3.0
 40
3.0
 40
3.0
 40
4.0
 40
4.0
 40
4.0
 40
5.0
 40
5.0
 40
5.0
 40
6.0
 40
6.0
 40
6.0
 40
7.0
 40
7.0
 40
7.0
 40
8.0
 40
8.0
 40
8.0
 40
9.0
 40
9.0
 40
9.0
 40
10.0
 40
10.0
 40
10.0
 40
11.0
 40
11.0
 40
11.0
 40
12.0
 40
12.0
 40
12.0
 40
13.0
 40
13.0
 40
13.0
 40
13.0
 10
119.4176893147636
 20
-133.253192783527
 10
119.5765082166337
 20
-133.4860812383299
 10
119.6505777695665
 20
-133.5856444978536
 10
119.7942382513015
 20
-133.6373209301323
 10
119.7942382513015
 20
-133.6373209301323
 10
119.7942382513015
 20
-132.805674879993
 10
119.7942382513015
 20
-132.805674879993
 10
119.7942382513015
 20
-132.805674879993
 10
119.9995659422223
 20
-132.805674879993
 10
119.9995659422223
 20
-132.805674879993
 10
119.9995659422223
 20
-132.805674879993
 10
119.9995659422223
 20
-133.9043158302392
 10
119.9995659422223
 20
-133.9043158302392
 10
119.6419650308534
 20
-133.8702093849352
 10
119.5637613633382
 20
-133.8002739465847
 10
119.2654160943156
 20
-133.3889295456458
 10
119.0666340848167
 20
-133.115388964117
 10
118.9987657037573
 20
-133.0451090162179
 10
118.8613063938958
 20
-133.0451090162179
 10
118.7427951092032
 20
-133.0451090162179
 10
118.6118814807637
 20
-133.121934645539
 10
118.6118814807637
 20
-133.3324299796877
 10
118.6118814807637
 20
-133.6104491853474
 10
118.8423583687269
 20
-133.619406433609
 10
118.9588025961284
 20
-133.6238850577399
 10
118.9588025961284
 20
-133.6238850577399
 10
118.9588025961284
 20
-133.8636637035133
 10
118.9588025961284
 20
-133.8636637035133
 10
118.8316785727226
 20
-133.8543619457031
 10
118.719712969452
 20
-133.8433376401503
 10
118.6012016847594
 20
-133.757210253019
 10
118.4403157255983
 20
-133.639732496972
 10
118.4065537898428
 20
-133.4409504874731
 10
118.4065537898428
 20
-133.3165825404556
 10
118.4065537898428
 20
-133.0203043287241
 10
118.5905218887551
 20
-132.7987846890225
 10
118.8633734511869
 20
-132.7987846890225
 10
119.0921277914075
 20
-132.7987846890225
 10
119.1913465413827
 20
-132.92315263604
 10
119.4176893147636
 20
-133.253192783527
 97
        0
 97
        0
 75
     2
 76
     1
 98
        0
  0
ENDBLK
  5
7C
330
79
100
AcDbEntity
  8
0
100
AcDbBlockEnd
  0
BLOCK
  5
8D
330
8B
100
AcDbEntity
  8
0
100
AcDbBlockBegin
  2
block 3
 70
     0
 10
0.0
 20
0.0
 30
0.0
  3
block 3
  1

  0
SPLINE
  5
8F
330
8B
100
AcDbEntity
  8
_U+30EC_U+30A4_U+30E4_U+30FC 1
370
     0
100
AcDbSpline
210
0.0
220
0.0
230
1.0
 70
    11
 71
     3
 72
    53
 73
    49
 74
     0
 42
0.0000000001
 43
0.0000000001
 12
1.0
 22
0.0
 32
0.0
 13
1.0
 23
0.0
 33
0.0
 40
0.0
 40
0.0
 40
0.0
 40
0.0
 40
1.0
 40
1.0
 40
1.0
 40
2.0
 40
2.0
 40
2.0
 40
3.0
 40
3.0
 40
3.0
 40
4.0
 40
4.0
 40
4.0
 40
5.0
 40
5.0
 40
5.0
 40
6.0
 40
6.0
 40
6.0
 40
7.0
 40
7.0
 40
7.0
 40
8.0
 40
8.0
 40
8.0
 40
9.0
 40
9.0
 40
9.0
 40
10.0
 40
10.0
 40
10.0
 40
11.0
 40
11.0
 40
11.0
 40
12.0
 40
12.0
 40
12.0
 40
13.0
 40
13.0
 40
13.0
 40
14.0
 40
14.0
 40
14.0
 40
15.0
 40
15.0
 40
15.0
 40
16.0
 40
16.0
 40
16.0
 40
16.0
 10
91.83384329301377
 20
-141.8487060192253
 30
0.0
 10
91.75047198227072
 20
-141.8487060192253
 30
0.0
 10
91.64160696493683
 20
-141.8318250513476
 30
0.0
 10
91.53343096669998
 20
-141.768435294419
 30
0.0
 10
91.34756806527075
 20
-141.6585367484395
 30
0.0
 10
91.32517494461662
 20
-141.5272786104515
 30
0.0
 10
91.30484888125365
 20
-141.4194471217632
 30
0.0
 10
91.30484888125365
 20
-141.4194471217632
 30
0.0
 10
91.54238821496163
 20
-141.4194471217632
 30
0.0
 10
91.54238821496163
 20
-141.4194471217632
 30
0.0
 10
91.60095483821088
 20
-141.6182291312621
 30
0.0
 10
91.73669160032972
 20
-141.6478569524353
 30
0.0
 10
91.83591035030491
 20
-141.6478569524353
 30
0.0
 10
91.98542749436476
 20
-141.6478569524353
 30
0.0
 10
92.14803600126855
 20
-141.5482936929116
 30
0.0
 10
92.14803600126855
 20
-141.3157497476572
 30
0.0
 10
92.14803600126855
 20
-141.0597791531031
 30
0.0
 10
91.9557996731916
 20
-140.9898437147525
 30
0.0
 10
91.82695310204326
 20
-140.9898437147525
 30
0.0
 10
91.79319116628781
 20
-140.9898437147525
 30
0.0
 10
91.64160696493683
 20
-140.9898437147525
 30
0.0
 10
91.54652232954393
 20
-141.1190347954494
 30
0.0
 10
91.54652232954393
 20
-141.1190347954494
 30
0.0
 10
91.35893688037207
 20
-141.1000867702805
 30
0.0
 10
91.35893688037207
 20
-141.1000867702805
 30
0.0
 10
91.35893688037207
 20
-141.1000867702805
 30
0.0
 10
91.48795570629468
 20
-140.2536268095546
 30
0.0
 10
91.48795570629468
 20
-140.2536268095546
 30
0.0
 10
91.48795570629468
 20
-140.2536268095546
 30
0.0
 10
92.319601756434
 20
-140.2536268095546
 30
0.0
 10
92.319601756434
 20
-140.2536268095546
 30
0.0
 10
92.319601756434
 20
-140.2536268095546
 30
0.0
 10
92.319601756434
 20
-140.4482747044713
 30
0.0
 10
92.319601756434
 20
-140.4482747044713
 30
0.0
 10
92.319601756434
 20
-140.4482747044713
 30
0.0
 10
91.66227753784833
 20
-140.4482747044713
 30
0.0
 10
91.66227753784833
 20
-140.4482747044713
 30
0.0
 10
91.66227753784833
 20
-140.4482747044713
 30
0.0
 10
91.59199758994923
 20
-140.87133243006
 30
0.0
 10
91.59199758994923
 20
-140.87133243006
 30
0.0
 10
91.65745440416897
 20
-140.8375704943045
 30
0.0
 10
91.74564884859137
 20
-140.7972628771271
 30
0.0
 10
91.87242836244856
 20
-140.7972628771271
 30
0.0
 10
92.1432128675892
 20
-140.7972628771271
 30
0.0
 10
92.39677189530359
 20
-140.9836425428791
 30
0.0
 10
92.39677189530359
 20
-141.2968017224883
 30
0.0
 10
92.39677189530359
 20
-141.6140950166798
 30
0.0
 10
92.1569932495302
 20
-141.8487060192253
 30
0.0
 10
91.83384329301377
 20
-141.8487060192253
 30
0.0
  0
HATCH
  5
90
330
8B
100
AcDbEntity
  8
_U+30EC_U+30A4_U+30E4_U+30FC 1
 62
   179
420
  2234388
100
AcDbHatch
 10
0.0
 20
0.0
 30
0.0
210
0.0
220
0.0
230
1.0
  2
SOLID
 70
     1
 71
     0
 91
        1
 92
        1
 93
        1
 72
     4
 94
        3
 73
     0
 74
     1
 95
       53
 96
       49
 40
0.0
 40
0.0
 40
0.0
 40
0.0
 40
1.0
 40
1.0
 40
1.0
 40
2.0
 40
2.0
 40
2.0
 40
3.0
 40
3.0
 40
3.0
 40
4.0
 40
4.0
 40
4.0
 40
5.0
 40
5.0
 40
5.0
 40
6.0
 40
6.0
 40
6.0
 40
7.0
 40
7.0
 40
7.0
 40
8.0
 40
8.0
 40
8.0
 40
9.0
 40
9.0
 40
9.0
 40
10.0
 40
10.0
 40
10.0
 40
11.0
 40
11.0
 40
11.0
 40
12.0
 40
12.0
 40
12.0
 40
13.0
 40
13.0
 40
13.0
 40
14.0
 40
14.0
 40
14.0
 40
15.0
 40
15.0
 40
15.0
 40
16.0
 40
16.0
 40
16.0
 40
16.0
 10
91.83384329301377
 20
-141.8487060192253
 10
91.75047198227072
 20
-141.8487060192253
 10
91.64160696493683
 20
-141.8318250513476
 10
91.53343096669998
 20
-141.768435294419
 10
91.34756806527075
 20
-141.6585367484395
 10
91.32517494461662
 20
-141.5272786104515
 10
91.30484888125365
 20
-141.4194471217632
 10
91.30484888125365
 20
-141.4194471217632
 10
91.54238821496163
 20
-141.4194471217632
 10
91.54238821496163
 20
-141.4194471217632
 10
91.60095483821088
 20
-141.6182291312621
 10
91.73669160032972
 20
-141.6478569524353
 10
91.83591035030491
 20
-141.6478569524353
 10
91.98542749436476
 20
-141.6478569524353
 10
92.14803600126855
 20
-141.5482936929116
 10
92.14803600126855
 20
-141.3157497476572
 10
92.14803600126855
 20
-141.0597791531031
 10
91.9557996731916
 20
-140.9898437147525
 10
91.82695310204326
 20
-140.9898437147525
 10
91.79319116628781
 20
-140.9898437147525
 10
91.64160696493683
 20
-140.9898437147525
 10
91.54652232954393
 20
-141.1190347954494
 10
91.54652232954393
 20
-141.1190347954494
 10
91.35893688037207
 20
-141.1000867702805
 10
91.35893688037207
 20
-141.1000867702805
 10
91.35893688037207
 20
-141.1000867702805
 10
91.48795570629468
 20
-140.2536268095546
 10
91.48795570629468
 20
-140.2536268095546
 10
91.48795570629468
 20
-140.2536268095546
 10
92.319601756434
 20
-140.2536268095546
 10
92.319601756434
 20
-140.2536268095546
 10
92.319601756434
 20
-140.2536268095546
 10
92.319601756434
 20
-140.4482747044713
 10
92.319601756434
 20
-140.4482747044713
 10
92.319601756434
 20
-140.4482747044713
 10
91.66227753784833
 20
-140.4482747044713
 10
91.66227753784833
 20
-140.4482747044713
 10
91.66227753784833
 20
-140.4482747044713
 10
91.59199758994923
 20
-140.87133243006
 10
91.59199758994923
 20
-140.87133243006
 10
91.65745440416897
 20
-140.8375704943045
 10
91.74564884859137
 20
-140.7972628771271
 10
91.87242836244856
 20
-140.7972628771271
 10
92.1432128675892
 20
-140.7972628771271
 10
92.39677189530359
 20
-140.9836425428791
 10
92.39677189530359
 20
-141.2968017224883
 10
92.39677189530359
 20
-141.6140950166798
 10
92.1569932495302
 20
-141.8487060192253
 10
91.83384329301377
 20
-141.8487060192253
 97
        0
 97
        0
 75
     2
 76
     1
 98
        0
  0
SPLINE
  5
91
330
8B
100
AcDbEntity
  8
_U+30EC_U+30A4_U+30E4_U+30FC 1
370
     0
100
AcDbSpline
210
0.0
220
0.0
230
1.0
 70
    11
 71
     3
 72
    29
 73
    25
 74
     0
 42
0.0000000001
 43
0.0000000001
 12
1.0
 22
0.0
 32
0.0
 13
1.0
 23
0.0
 33
0.0
 40
0.0
 40
0.0
 40
0.0
 40
0.0
 40
1.0
 40
1.0
 40
1.0
 40
2.0
 40
2.0
 40
2.0
 40
3.0
 40
3.0
 40
3.0
 40
4.0
 40
4.0
 40
4.0
 40
5.0
 40
5.0
 40
5.0
 40
6.0
 40
6.0
 40
6.0
 40
7.0
 40
7.0
 40
7.0
 40
8.0
 40
8.0
 40
8.0
 40
8.0
 10
93.53709850092129
 20
-141.6202961885533
 30
0.0
 10
93.4213432926169
 20
-141.8297579940565
 30
0.0
 10
93.23599715551045
 20
-141.8487060192253
 30
0.0
 10
93.11197371804145
 20
-141.8487060192253
 30
0.0
 10
92.94040796287601
 20
-141.8487060192253
 30
0.0
 10
92.78882376152502
 20
-141.8021972301745
 30
0.0
 10
92.68684893516162
 20
-141.6202961885533
 30
0.0
 10
92.57591686053658
 20
-141.4256482936366
 30
0.0
 10
92.55593530672213
 20
-141.1889702338
 30
0.0
 10
92.55593530672213
 20
-141.0260172173477
 30
0.0
 10
92.55593530672213
 20
-140.8820122260642
 30
0.0
 10
92.57384980324544
 20
-140.6301757460925
 30
0.0
 10
92.68684893516162
 20
-140.4313937365935
 30
0.0
 10
92.80191512436897
 20
-140.2284776125123
 30
0.0
 10
92.97416989863146
 20
-140.2050509632126
 30
0.0
 10
93.11197371804145
 20
-140.2050509632126
 30
0.0
 10
93.28147241591574
 20
-140.2050509632126
 30
0.0
 10
93.43512367455789
 20
-140.2494926949724
 30
0.0
 10
93.53709850092129
 20
-140.4313937365935
 30
0.0
 10
93.64320744186698
 20
-140.623974574219
 30
0.0
 10
93.66801212936078
 20
-140.8523844048911
 30
0.0
 10
93.66801212936078
 20
-141.0260172173477
 30
0.0
 10
93.66801212936078
 20
-141.1972384629646
 30
0.0
 10
93.64527449915813
 20
-141.4277153509278
 30
0.0
 10
93.53709850092129
 20
-141.6202961885533
 30
0.0
  0
SPLINE
  5
92
330
8B
100
AcDbEntity
  8
_U+30EC_U+30A4_U+30E4_U+30FC 1
370
     0
100
AcDbSpline
210
0.0
220
0.0
230
1.0
 70
    11
 71
     3
 72
    17
 73
    13
 74
     0
 42
0.0000000001
 43
0.0000000001
 12
1.0
 22
0.0
 32
0.0
 13
1.0
 23
0.0
 33
0.0
 40
0.0
 40
0.0
 40
0.0
 40
0.0
 40
1.0
 40
1.0
 40
1.0
 40
2.0
 40
2.0
 40
2.0
 40
3.0
 40
3.0
 40
3.0
 40
4.0
 40
4.0
 40
4.0
 40
4.0
 10
93.11197371804145
 20
-140.3976318008381
 30
0.0
 10
92.84532332748311
 20
-140.3976318008381
 30
0.0
 10
92.79571395249552
 20
-140.6811631592741
 30
0.0
 10
92.79571395249552
 20
-141.0260172173477
 30
0.0
 10
92.79571395249552
 20
-141.3453775688303
 30
0.0
 10
92.83361000283327
 20
-141.6540581243087
 30
0.0
 10
93.11197371804145
 20
-141.6540581243087
 30
0.0
 10
93.37655705130864
 20
-141.6540581243087
 30
0.0
 10
93.42823348358739
 20
-141.3729383327123
 30
0.0
 10
93.42823348358739
 20
-141.0260172173477
 30
0.0
 10
93.42823348358739
 20
-140.7063123563165
 30
0.0
 10
93.38758135686145
 20
-140.3976318008381
 30
0.0
 10
93.11197371804145
 20
-140.3976318008381
 30
0.0
  0
HATCH
  5
93
330
8B
100
AcDbEntity
  8
_U+30EC_U+30A4_U+30E4_U+30FC 1
 62
   179
420
  2234388
100
AcDbHatch
 10
0.0
 20
0.0
 30
0.0
210
0.0
220
0.0
230
1.0
  2
SOLID
 70
     1
 71
     0
 91
        2
 92
        1
 93
        1
 72
     4
 94
        3
 73
     0
 74
     1
 95
       29
 96
       25
 40
0.0
 40
0.0
 40
0.0
 40
0.0
 40
1.0
 40
1.0
 40
1.0
 40
2.0
 40
2.0
 40
2.0
 40
3.0
 40
3.0
 40
3.0
 40
4.0
 40
4.0
 40
4.0
 40
5.0
 40
5.0
 40
5.0
 40
6.0
 40
6.0
 40
6.0
 40
7.0
 40
7.0
 40
7.0
 40
8.0
 40
8.0
 40
8.0
 40
8.0
 10
93.53709850092129
 20
-141.6202961885533
 10
93.4213432926169
 20
-141.8297579940565
 10
93.23599715551045
 20
-141.8487060192253
 10
93.11197371804145
 20
-141.8487060192253
 10
92.94040796287601
 20
-141.8487060192253
 10
92.78882376152502
 20
-141.8021972301745
 10
92.68684893516162
 20
-141.6202961885533
 10
92.57591686053658
 20
-141.4256482936366
 10
92.55593530672213
 20
-141.1889702338
 10
92.55593530672213
 20
-141.0260172173477
 10
92.55593530672213
 20
-140.8820122260642
 10
92.57384980324544
 20
-140.6301757460925
 10
92.68684893516162
 20
-140.4313937365935
 10
92.80191512436897
 20
-140.2284776125123
 10
92.97416989863146
 20
-140.2050509632126
 10
93.11197371804145
 20
-140.2050509632126
 10
93.28147241591574
 20
-140.2050509632126
 10
93.43512367455789
 20
-140.2494926949724
 10
93.53709850092129
 20
-140.4313937365935
 10
93.64320744186698
 20
-140.623974574219
 10
93.66801212936078
 20
-140.8523844048911
 10
93.66801212936078
 20
-141.0260172173477
 10
93.66801212936078
 20
-141.1972384629646
 10
93.64527449915813
 20
-141.4277153509278
 10
93.53709850092129
 20
-141.6202961885533
 97
        0
 97
        0
 92
        1
 93
        1
 72
     4
 94
        3
 73
     0
 74
     1
 95
       17
 96
       13
 40
0.0
 40
0.0
 40
0.0
 40
0.0
 40
1.0
 40
1.0
 40
1.0
 40
2.0
 40
2.0
 40
2.0
 40
3.0
 40
3.0
 40
3.0
 40
4.0
 40
4.0
 40
4.0
 40
4.0
 10
93.11197371804145
 20
-140.3976318008381
 10
92.84532332748311
 20
-140.3976318008381
 10
92.79571395249552
 20
-140.6811631592741
 10
92.79571395249552
 20
-141.0260172173477
 10
92.79571395249552
 20
-141.3453775688303
 10
92.83361000283327
 20
-141.6540581243087
 10
93.11197371804145
 20
-141.6540581243087
 10
93.37655705130864
 20
-141.6540581243087
 10
93.42823348358739
 20
-141.3729383327123
 10
93.42823348358739
 20
-141.0260172173477
 10
93.42823348358739
 20
-140.7063123563165
 10
93.38758135686145
 20
-140.3976318008381
 10
93.11197371804145
 20
-140.3976318008381
 97
        0
 97
        0
 75
     2
 76
     1
 98
        0
  0
ENDBLK
  5
8E
330
8B
100
AcDbEntity
  8
0
100
AcDbBlockEnd
  0
BLOCK
  5
A2
330
A0
100
AcDbEntity
  8
0
100
AcDbBlockBegin
  2
block 4
 70
     0
 10
0.0
 20
0.0
 30
0.0
  3
block 4
  1

  0
SPLINE
  5
A4
330
A0
100
AcDbEntity
  8
_U+30EC_U+30A4_U+30E4_U+30FC 1
370
     0
100
AcDbSpline
210
0.0
220
0.0
230
1.0
 70
    11
 71
     3
 72
    44
 73
    40
 74
     0
 42
0.0000000001
 43
0.0000000001
 12
1.0
 22
0.0
 32
0.0
 13
1.0
 23
0.0
 33
0.0
 40
0.0
 40
0.0
 40
0.0
 40
0.0
 40
1.0
 40
1.0
 40
1.0
 40
2.0
 40
2.0
 40
2.0
 40
3.0
 40
3.0
 40
3.0
 40
4.0
 40
4.0
 40
4.0
 40
5.0
 40
5.0
 40
5.0
 40
6.0
 40
6.0
 40
6.0
 40
7.0
 40
7.0
 40
7.0
 40
8.0
 40
8.0
 40
8.0
 40
9.0
 40
9.0
 40
9.0
 40
10.0
 40
10.0
 40
10.0
 40
11.0
 40
11.0
 40
11.0
 40
12.0
 40
12.0
 40
12.0
 40
13.0
 40
13.0
 40
13.0
 40
13.0
 10
62.29990097183822
 20
-126.4188123598884
 30
0.0
 10
62.45854761893398
 20
-126.6517008146913
 30
0.0
 10
62.53261717186685
 20
-126.751264074215
 30
0.0
 10
62.67644990837603
 20
-126.8029405064937
 30
0.0
 10
62.67644990837603
 20
-126.8029405064937
 30
0.0
 10
62.67644990837603
 20
-125.9712944563544
 30
0.0
 10
62.67644990837603
 20
-125.9712944563544
 30
0.0
 10
62.67644990837603
 20
-125.9712944563544
 30
0.0
 10
62.88160534452265
 20
-125.9712944563544
 30
0.0
 10
62.88160534452265
 20
-125.9712944563544
 30
0.0
 10
62.88160534452265
 20
-125.9712944563544
 30
0.0
 10
62.88160534452265
 20
-127.0699354066006
 30
0.0
 10
62.88160534452265
 20
-127.0699354066006
 30
0.0
 10
62.52400443315372
 20
-127.0358289612966
 30
0.0
 10
62.44580076563855
 20
-126.965893522946
 30
0.0
 10
62.14745549661592
 20
-126.5545491220072
 30
0.0
 10
61.948673487117
 20
-126.2810085404784
 30
0.0
 10
61.88097736083184
 20
-126.2107285925793
 30
0.0
 10
61.74351805097037
 20
-126.2107285925793
 30
0.0
 10
61.62500676627778
 20
-126.2107285925793
 30
0.0
 10
61.49392088306402
 20
-126.2875542219003
 30
0.0
 10
61.49392088306402
 20
-126.4980495560491
 30
0.0
 10
61.49392088306402
 20
-126.7760687617088
 30
0.0
 10
61.72439777102723
 20
-126.7850260099704
 30
0.0
 10
61.84084199842868
 20
-126.7895046341012
 30
0.0
 10
61.84084199842868
 20
-126.7895046341012
 30
0.0
 10
61.84084199842868
 20
-127.0292832798746
 30
0.0
 10
61.84084199842868
 20
-127.0292832798746
 30
0.0
 10
61.71389022979722
 20
-127.0199815220645
 30
0.0
 10
61.60175237175234
 20
-127.0089572165117
 30
0.0
 10
61.48324108705975
 20
-126.9228298293804
 30
0.0
 10
61.32252738267285
 20
-126.8053520733334
 30
0.0
 10
61.28859319214313
 20
-126.6065700638345
 30
0.0
 10
61.28859319214313
 20
-126.4822021168169
 30
0.0
 10
61.28859319214313
 20
-126.1859239050855
 30
0.0
 10
61.47273354582973
 20
-125.9644042653839
 30
0.0
 10
61.74558510826152
 20
-125.9644042653839
 30
0.0
 10
61.97399493893359
 20
-125.9644042653839
 30
0.0
 10
62.07355819845731
 20
-126.0887722124014
 30
0.0
 10
62.29990097183822
 20
-126.4188123598884
 30
0.0
  0
HATCH
  5
A5
330
A0
100
AcDbEntity
  8
_U+30EC_U+30A4_U+30E4_U+30FC 1
 62
   179
420
  2234388
100
AcDbHatch
 10
0.0
 20
0.0
 30
0.0
210
0.0
220
0.0
230
1.0
  2
SOLID
 70
     1
 71
     0
 91
        1
 92
        1
 93
        1
 72
     4
 94
        3
 73
     0
 74
     1
 95
       44
 96
       40
 40
0.0
 40
0.0
 40
0.0
 40
0.0
 40
1.0
 40
1.0
 40
1.0
 40
2.0
 40
2.0
 40
2.0
 40
3.0
 40
3.0
 40
3.0
 40
4.0
 40
4.0
 40
4.0
 40
5.0
 40
5.0
 40
5.0
 40
6.0
 40
6.0
 40
6.0
 40
7.0
 40
7.0
 40
7.0
 40
8.0
 40
8.0
 40
8.0
 40
9.0
 40
9.0
 40
9.0
 40
10.0
 40
10.0
 40
10.0
 40
11.0
 40
11.0
 40
11.0
 40
12.0
 40
12.0
 40
12.0
 40
13.0
 40
13.0
 40
13.0
 40
13.0
 10
62.29990097183822
 20
-126.4188123598884
 10
62.45854761893398
 20
-126.6517008146913
 10
62.53261717186685
 20
-126.751264074215
 10
62.67644990837603
 20
-126.8029405064937
 10
62.67644990837603
 20
-126.8029405064937
 10
62.67644990837603
 20
-125.9712944563544
 10
62.67644990837603
 20
-125.9712944563544
 10
62.67644990837603
 20
-125.9712944563544
 10
62.88160534452265
 20
-125.9712944563544
 10
62.88160534452265
 20
-125.9712944563544
 10
62.88160534452265
 20
-125.9712944563544
 10
62.88160534452265
 20
-127.0699354066006
 10
62.88160534452265
 20
-127.0699354066006
 10
62.52400443315372
 20
-127.0358289612966
 10
62.44580076563855
 20
-126.965893522946
 10
62.14745549661592
 20
-126.5545491220072
 10
61.948673487117
 20
-126.2810085404784
 10
61.88097736083184
 20
-126.2107285925793
 10
61.74351805097037
 20
-126.2107285925793
 10
61.62500676627778
 20
-126.2107285925793
 10
61.49392088306402
 20
-126.2875542219003
 10
61.49392088306402
 20
-126.4980495560491
 10
61.49392088306402
 20
-126.7760687617088
 10
61.72439777102723
 20
-126.7850260099704
 10
61.84084199842868
 20
-126.7895046341012
 10
61.84084199842868
 20
-126.7895046341012
 10
61.84084199842868
 20
-127.0292832798746
 10
61.84084199842868
 20
-127.0292832798746
 10
61.71389022979722
 20
-127.0199815220645
 10
61.60175237175234
 20
-127.0089572165117
 10
61.48324108705975
 20
-126.9228298293804
 10
61.32252738267285
 20
-126.8053520733334
 10
61.28859319214313
 20
-126.6065700638345
 10
61.28859319214313
 20
-126.4822021168169
 10
61.28859319214313
 20
-126.1859239050855
 10
61.47273354582973
 20
-125.9644042653839
 10
61.74558510826152
 20
-125.9644042653839
 10
61.97399493893359
 20
-125.9644042653839
 10
62.07355819845731
 20
-126.0887722124014
 10
62.29990097183822
 20
-126.4188123598884
 97
        0
 97
        0
 75
     2
 76
     1
 98
        0
  0
SPLINE
  5
A6
330
A0
100
AcDbEntity
  8
_U+30EC_U+30A4_U+30E4_U+30FC 1
370
     0
100
AcDbSpline
210
0.0
220
0.0
230
1.0
 70
    11
 71
     3
 72
    53
 73
    49
 74
     0
 42
0.0000000001
 43
0.0000000001
 12
1.0
 22
0.0
 32
0.0
 13
1.0
 23
0.0
 33
0.0
 40
0.0
 40
0.0
 40
0.0
 40
0.0
 40
1.0
 40
1.0
 40
1.0
 40
2.0
 40
2.0
 40
2.0
 40
3.0
 40
3.0
 40
3.0
 40
4.0
 40
4.0
 40
4.0
 40
5.0
 40
5.0
 40
5.0
 40
6.0
 40
6.0
 40
6.0
 40
7.0
 40
7.0
 40
7.0
 40
8.0
 40
8.0
 40
8.0
 40
9.0
 40
9.0
 40
9.0
 40
10.0
 40
10.0
 40
10.0
 40
11.0
 40
11.0
 40
11.0
 40
12.0
 40
12.0
 40
12.0
 40
13.0
 40
13.0
 40
13.0
 40
14.0
 40
14.0
 40
14.0
 40
15.0
 40
15.0
 40
15.0
 40
16.0
 40
16.0
 40
16.0
 40
16.0
 10
62.93242050293009
 20
-125.2808973211103
 30
0.0
 10
62.93242050293009
 20
-125.3642686318534
 30
0.0
 10
62.9153672802781
 20
-125.4731336491873
 30
0.0
 10
62.85197752334951
 20
-125.5813096474241
 30
0.0
 10
62.74190672259578
 20
-125.7670002940791
 30
0.0
 10
62.61082083938202
 20
-125.7893934147332
 30
0.0
 10
62.5029893506937
 20
-125.8097194780962
 30
0.0
 10
62.5029893506937
 20
-125.8097194780962
 30
0.0
 10
62.5029893506937
 20
-125.5723523991625
 30
0.0
 10
62.5029893506937
 20
-125.5723523991625
 30
0.0
 10
62.70177136019262
 20
-125.5137857759132
 30
0.0
 10
62.73139918136577
 20
-125.3780490137944
 30
0.0
 10
62.73139918136577
 20
-125.2784857542707
 30
0.0
 10
62.73139918136577
 20
-125.1293131197593
 30
0.0
 10
62.63200817661631
 20
-124.9667046128556
 30
0.0
 10
62.39929197658768
 20
-124.9667046128556
 30
0.0
 10
62.14332138203362
 20
-124.9667046128556
 30
0.0
 10
62.07355819845731
 20
-125.158596431384
 30
0.0
 10
62.07355819845731
 20
-125.2874430025323
 30
0.0
 10
62.07355819845731
 20
-125.3215494478363
 30
0.0
 10
62.07355819845731
 20
-125.4731336491873
 30
0.0
 10
62.20257702437991
 20
-125.5678737750316
 30
0.0
 10
62.20257702437991
 20
-125.5678737750316
 30
0.0
 10
62.18345674443677
 20
-125.7556314789778
 30
0.0
 10
62.18345674443677
 20
-125.7556314789778
 30
0.0
 10
62.18345674443677
 20
-125.7556314789778
 30
0.0
 10
61.33734129325942
 20
-125.6267849078294
 30
0.0
 10
61.33734129325942
 20
-125.6267849078294
 30
0.0
 10
61.33734129325942
 20
-125.6267849078294
 30
0.0
 10
61.33734129325942
 20
-124.7947943481416
 30
0.0
 10
61.33734129325942
 20
-124.7947943481416
 30
0.0
 10
61.33734129325942
 20
-124.7947943481416
 30
0.0
 10
61.53198918817603
 20
-124.7947943481416
 30
0.0
 10
61.53198918817603
 20
-124.7947943481416
 30
0.0
 10
61.53198918817603
 20
-124.7947943481416
 30
0.0
 10
61.53198918817603
 20
-125.4524630762758
 30
0.0
 10
61.53198918817603
 20
-125.4524630762758
 30
0.0
 10
61.53198918817603
 20
-125.4524630762758
 30
0.0
 10
61.95504691376471
 20
-125.5227430241749
 30
0.0
 10
61.95504691376471
 20
-125.5227430241749
 30
0.0
 10
61.92111272323501
 20
-125.4572862099551
 30
0.0
 10
61.88097736083184
 20
-125.3690917655327
 30
0.0
 10
61.88097736083184
 20
-125.2423122516755
 30
0.0
 10
61.88097736083184
 20
-124.9711832369864
 30
0.0
 10
62.06718477180959
 20
-124.7179687188205
 30
0.0
 10
62.38017169664455
 20
-124.7179687188205
 30
0.0
 10
62.69763724561032
 20
-124.7179687188205
 30
0.0
 10
62.93242050293009
 20
-124.9574028550454
 30
0.0
 10
62.93242050293009
 20
-125.2808973211103
 30
0.0
  0
HATCH
  5
A7
330
A0
100
AcDbEntity
  8
_U+30EC_U+30A4_U+30E4_U+30FC 1
 62
   179
420
  2234388
100
AcDbHatch
 10
0.0
 20
0.0
 30
0.0
210
0.0
220
0.0
230
1.0
  2
SOLID
 70
     1
 71
     0
 91
        1
 92
        1
 93
        1
 72
     4
 94
        3
 73
     0
 74
     1
 95
       53
 96
       49
 40
0.0
 40
0.0
 40
0.0
 40
0.0
 40
1.0
 40
1.0
 40
1.0
 40
2.0
 40
2.0
 40
2.0
 40
3.0
 40
3.0
 40
3.0
 40
4.0
 40
4.0
 40
4.0
 40
5.0
 40
5.0
 40
5.0
 40
6.0
 40
6.0
 40
6.0
 40
7.0
 40
7.0
 40
7.0
 40
8.0
 40
8.0
 40
8.0
 40
9.0
 40
9.0
 40
9.0
 40
10.0
 40
10.0
 40
10.0
 40
11.0
 40
11.0
 40
11.0
 40
12.0
 40
12.0
 40
12.0
 40
13.0
 40
13.0
 40
13.0
 40
14.0
 40
14.0
 40
14.0
 40
15.0
 40
15.0
 40
15.0
 40
16.0
 40
16.0
 40
16.0
 40
16.0
 10
62.93242050293009
 20
-125.2808973211103
 10
62.93242050293009
 20
-125.3642686318534
 10
62.9153672802781
 20
-125.4731336491873
 10
62.85197752334951
 20
-125.5813096474241
 10
62.74190672259578
 20
-125.7670002940791
 10
62.61082083938202
 20
-125.7893934147332
 10
62.5029893506937
 20
-125.8097194780962
 10
62.5029893506937
 20
-125.8097194780962
 10
62.5029893506937
 20
-125.5723523991625
 10
62.5029893506937
 20
-125.5723523991625
 10
62.70177136019262
 20
-125.5137857759132
 10
62.73139918136577
 20
-125.3780490137944
 10
62.73139918136577
 20
-125.2784857542707
 10
62.73139918136577
 20
-125.1293131197593
 10
62.63200817661631
 20
-124.9667046128556
 10
62.39929197658768
 20
-124.9667046128556
 10
62.14332138203362
 20
-124.9667046128556
 10
62.07355819845731
 20
-125.158596431384
 10
62.07355819845731
 20
-125.2874430025323
 10
62.07355819845731
 20
-125.3215494478363
 10
62.07355819845731
 20
-125.4731336491873
 10
62.20257702437991
 20
-125.5678737750316
 10
62.20257702437991
 20
-125.5678737750316
 10
62.18345674443677
 20
-125.7556314789778
 10
62.18345674443677
 20
-125.7556314789778
 10
62.18345674443677
 20
-125.7556314789778
 10
61.33734129325942
 20
-125.6267849078294
 10
61.33734129325942
 20
-125.6267849078294
 10
61.33734129325942
 20
-125.6267849078294
 10
61.33734129325942
 20
-124.7947943481416
 10
61.33734129325942
 20
-124.7947943481416
 10
61.33734129325942
 20
-124.7947943481416
 10
61.53198918817603
 20
-124.7947943481416
 10
61.53198918817603
 20
-124.7947943481416
 10
61.53198918817603
 20
-124.7947943481416
 10
61.53198918817603
 20
-125.4524630762758
 10
61.53198918817603
 20
-125.4524630762758
 10
61.53198918817603
 20
-125.4524630762758
 10
61.95504691376471
 20
-125.5227430241749
 10
61.95504691376471
 20
-125.5227430241749
 10
61.92111272323501
 20
-125.4572862099551
 10
61.88097736083184
 20
-125.3690917655327
 10
61.88097736083184
 20
-125.2423122516755
 10
61.88097736083184
 20
-124.9711832369864
 10
62.06718477180959
 20
-124.7179687188205
 10
62.38017169664455
 20
-124.7179687188205
 10
62.69763724561032
 20
-124.7179687188205
 10
62.93242050293009
 20
-124.9574028550454
 10
62.93242050293009
 20
-125.2808973211103
 97
        0
 97
        0
 75
     2
 76
     1
 98
        0
  0
ENDBLK
  5
A3
330
A0
100
AcDbEntity
  8
0
100
AcDbBlockEnd
  0
ENDSEC
  0
SECTION
  2
ENTITIES
  0
POLYLINE
  5
41
330
1F
100
AcDbEntity
  8
_U+30EC_U+30A4_U+30E4_U+30FC 1
370
     0
100
AcDb2dPolyline
 66
     1
 10
0.0
 20
0.0
 30
0.0
  0
VERTEX
  5
42
330
41
100
AcDbEntity
  8
_U+30EC_U+30A4_U+30E4_U+30FC 1
370
     0
100
AcDbVertex
100
AcDb2dVertex
 10
69.47809989413267
 20
-113.3953013605399
 30
0.0
  0
VERTEX
  5
43
330
41
100
AcDbEntity
  8
_U+30EC_U+30A4_U+30E4_U+30FC 1
370
     0
100
AcDbVertex
100
AcDb2dVertex
 10
67.47788522294017
 20
-113.3953013605399
 30
0.0
  0
VERTEX
  5
44
330
41
100
AcDbEntity
  8
_U+30EC_U+30A4_U+30E4_U+30FC 1
370
     0
100
AcDbVertex
100
AcDb2dVertex
 10
67.47788522294017
 20
-138.395004409846
 30
0.0
  0
VERTEX
  5
45
330
41
100
AcDbEntity
  8
_U+30EC_U+30A4_U+30E4_U+30FC 1
370
     0
100
AcDbVertex
100
AcDb2dVertex
 10
117.4777486695596
 20
-138.395004409846
 30
0.0
  0
VERTEX
  5
46
330
41
100
AcDbEntity
  8
_U+30EC_U+30A4_U+30E4_U+30FC 1
370
     0
100
AcDbVertex
100
AcDb2dVertex
 10
117.4777486695596
 20
-136.3954599659009
 30
0.0
  0
VERTEX
  5
47
330
41
100
AcDbEntity
  8
_U+30EC_U+30A4_U+30E4_U+30FC 1
370
     0
100
AcDbVertex
100
AcDb2dVertex
 10
69.47809989413267
 20
-136.3954599659009
 30
0.0
  0
VERTEX
  5
48
330
41
100
AcDbEntity
  8
_U+30EC_U+30A4_U+30E4_U+30FC 1
370
     0
100
AcDbVertex
100
AcDb2dVertex
 10
69.47809989413267
 20
-113.3953013605399
 30
0.0
  0
SEQEND
  5
4A
330
41
100
AcDbEntity
  8
_U+30EC_U+30A4_U+30E4_U+30FC 1
370
     0
  0
HATCH
  5
49
330
1F
100
AcDbEntity
  8
_U+30EC_U+30A4_U+30E4_U+30FC 1
 62
   253
420
 11711154
100
AcDbHatch
 10
0.0
 20
0.0
 30
0.0
210
0.0
220
0.0
230
1.0
  2
SOLID
 70
     1
 71
     0
 91
        1
 92
        1
 93
        6
 72
     1
 10
69.47809989413267
 20
-113.3953013605399
 11
67.47788522294017
 21
-113.3953013605399
 72
     1
 10
67.47788522294017
 20
-113.3953013605399
 11
67.47788522294017
 21
-138.395004409846
 72
     1
 10
67.47788522294017
 20
-138.395004409846
 11
117.4777486695596
 21
-138.395004409846
 72
     1
 10
117.4777486695596
 20
-138.395004409846
 11
117.4777486695596
 21
-136.3954599659009
 72
     1
 10
117.4777486695596
 20
-136.3954599659009
 11
69.47809989413267
 21
-136.3954599659009
 72
     1
 10
69.47809989413267
 20
-136.3954599659009
 11
69.47809989413267
 21
-113.3953013605399
 97
        0
 75
     2
 76
     1
 98
        0
  0
POLYLINE
  5
4B
330
1F
100
AcDbEntity
  8
_U+30EC_U+30A4_U+30E4_U+30FC 1
 62
   179
420
  2234388
370
    25
100
AcDb2dPolyline
 66
     1
 10
0.0
 20
0.0
 30
0.0
  0
VERTEX
  5
4C
330
4B
100
AcDbEntity
  8
_U+30EC_U+30A4_U+30E4_U+30FC 1
 62
   179
420
  2234388
370
    25
100
AcDbVertex
100
AcDb2dVertex
 10
67.47788522294017
 20
-138.395004409846
 30
0.0
  0
VERTEX
  5
4D
330
4B
100
AcDbEntity
  8
_U+30EC_U+30A4_U+30E4_U+30FC 1
 62
   179
420
  2234388
370
    25
100
AcDbVertex
100
AcDb2dVertex
 10
117.4777486695596
 20
-138.395004409846
 30
0.0
  0
SEQEND
  5
4E
330
4B
100
AcDbEntity
  8
_U+30EC_U+30A4_U+30E4_U+30FC 1
 62
   179
420
  2234388
370
    25
  0
POLYLINE
  5
4F
330
1F
100
AcDbEntity
  8
_U+30EC_U+30A4_U+30E4_U+30FC 1
 62
   179
420
  2234388
370
    25
100
AcDb2dPolyline
 66
     1
 10
0.0
 20
0.0
 30
0.0
  0
VERTEX
  5
50
330
4F
100
AcDbEntity
  8
_U+30EC_U+30A4_U+30E4_U+30FC 1
 62
   179
420
  2234388
370
    25
100
AcDbVertex
100
AcDb2dVertex
 10
67.47788522294017
 20
-113.3953013605399
 30
0.0
  0
VERTEX
  5
51
330
4F
100
AcDbEntity
  8
_U+30EC_U+30A4_U+30E4_U+30FC 1
 62
   179
420
  2234388
370
    25
100
AcDbVertex
100
AcDb2dVertex
 10
67.47788522294017
 20
-138.395004409846
 30
0.0
  0
SEQEND
  5
52
330
4F
100
AcDbEntity
  8
_U+30EC_U+30A4_U+30E4_U+30FC 1
 62
   179
420
  2234388
370
    25
  0
POLYLINE
  5
53
330
1F
100
AcDbEntity
  8
_U+30EC_U+30A4_U+30E4_U+30FC 1
 62
   179
420
  2234388
370
    25
100
AcDb2dPolyline
 66
     1
 10
0.0
 20
0.0
 30
0.0
  0
VERTEX
  5
54
330
53
100
AcDbEntity
  8
_U+30EC_U+30A4_U+30E4_U+30FC 1
 62
   179
420
  2234388
370
    25
100
AcDbVertex
100
AcDb2dVertex
 10
69.47809989413267
 20
-136.3954599659009
 30
0.0
  0
VERTEX
  5
55
330
53
100
AcDbEntity
  8
_U+30EC_U+30A4_U+30E4_U+30FC 1
 62
   179
420
  2234388
370
    25
100
AcDbVertex
100
AcDb2dVertex
 10
117.4777486695596
 20
-136.3954599659009
 30
0.0
  0
SEQEND
  5
56
330
53
100
AcDbEntity
  8
_U+30EC_U+30A4_U+30E4_U+30FC 1
 62
   179
420
  2234388
370
    25
  0
POLYLINE
  5
57
330
1F
100
AcDbEntity
  8
_U+30EC_U+30A4_U+30E4_U+30FC 1
 62
   179
420
  2234388
370
    25
100
AcDb2dPolyline
 66
     1
 10
0.0
 20
0.0
 30
0.0
  0
VERTEX
  5
58
330
57
100
AcDbEntity
  8
_U+30EC_U+30A4_U+30E4_U+30FC 1
 62
   179
420
  2234388
370
    25
100
AcDbVertex
100
AcDb2dVertex
 10
69.47809989413267
 20
-113.3953013605399
 30
0.0
  0
VERTEX
  5
59
330
57
100
AcDbEntity
  8
_U+30EC_U+30A4_U+30E4_U+30FC 1
 62
   179
420
  2234388
370
    25
100
AcDbVertex
100
AcDb2dVertex
 10
69.47809989413267
 20
-136.3954599659009
 30
0.0
  0
SEQEND
  5
5A
330
57
100
AcDbEntity
  8
_U+30EC_U+30A4_U+30E4_U+30FC 1
 62
   179
420
  2234388
370
    25
  0
POLYLINE
  5
5B
330
1F
100
AcDbEntity
  8
_U+30EC_U+30A4_U+30E4_U+30FC 1
 62
   179
420
  2234388
370
    25
100
AcDb2dPolyline
 66
     1
 10
0.0
 20
0.0
 30
0.0
  0
VERTEX
  5
5C
330
5B
100
AcDbEntity
  8
_U+30EC_U+30A4_U+30E4_U+30FC 1
 62
   179
420
  2234388
370
    25
100
AcDbVertex
100
AcDb2dVertex
 10
117.4777486695596
 20
-136.3954599659009
 30
0.0
  0
VERTEX
  5
5D
330
5B
100
AcDbEntity
  8
_U+30EC_U+30A4_U+30E4_U+30FC 1
 62
   179
420
  2234388
370
    25
100
AcDbVertex
100
AcDb2dVertex
 10
117.4777486695596
 20
-138.395004409846
 30
0.0
  0
SEQEND
  5
5E
330
5B
100
AcDbEntity
  8
_U+30EC_U+30A4_U+30E4_U+30FC 1
 62
   179
420
  2234388
370
    25
  0
POLYLINE
  5
5F
330
1F
100
AcDbEntity
  8
_U+30EC_U+30A4_U+30E4_U+30FC 1
 62
   179
420
  2234388
370
    25
100
AcDb2dPolyline
 66
     1
 10
0.0
 20
0.0
 30
0.0
  0
VERTEX
  5
60
330
5F
100
AcDbEntity
  8
_U+30EC_U+30A4_U+30E4_U+30FC 1
 62
   179
420
  2234388
370
    25
100
AcDbVertex
100
AcDb2dVertex
 10
67.47788522294017
 20
-113.3953013605399
 30
0.0
  0
VERTEX
  5
61
330
5F
100
AcDbEntity
  8
_U+30EC_U+30A4_U+30E4_U+30FC 1
 62
   179
420
  2234388
370
    25
100
AcDbVertex
100
AcDb2dVertex
 10
69.47809989413267
 20
-113.3953013605399
 30
0.0
  0
SEQEND
  5
62
330
5F
100
AcDbEntity
  8
_U+30EC_U+30A4_U+30E4_U+30FC 1
 62
   179
420
  2234388
370
    25
  0
SPLINE
  5
63
330
1F
100
AcDbEntity
  8
_U+30EC_U+30A4_U+30E4_U+30FC 1
 62
   179
420
  2234388
370
     9
100
AcDbSpline
210
0.0
220
0.0
230
1.0
 70
    11
 71
     3
 72
    17
 73
    13
 74
     0
 42
0.0000000001
 43
0.0000000001
 12
1.0
 22
0.0
 32
0.0
 13
1.0
 23
0.0
 33
0.0
 40
0.0
 40
0.0
 40
0.0
 40
0.0
 40
1.0
 40
1.0
 40
1.0
 40
2.0
 40
2.0
 40
2.0
 40
3.0
 40
3.0
 40
3.0
 40
4.0
 40
4.0
 40
4.0
 40
4.0
 10
63.5780328224337
 20
-138.395004409846
 30
0.0
 10
63.5780328224337
 20
-138.3398652431929
 30
0.0
 10
63.53323004579893
 20
-138.2950977432037
 30
0.0
 10
63.47812776190828
 20
-138.2950977432037
 30
0.0
 10
63.42298699305591
 20
-138.2950977432037
 30
0.0
 10
63.37821949419803
 20
-138.3398652431929
 30
0.0
 10
63.37821949419803
 20
-138.395004409846
 30
0.0
 10
63.37821949419803
 20
-138.4501082987209
 30
0.0
 10
63.42298699305591
 20
-138.4949110764877
 30
0.0
 10
63.47812776190828
 20
-138.4949110764877
 30
0.0
 10
63.53323004579893
 20
-138.4949110764877
 30
0.0
 10
63.5780328224337
 20
-138.4501082987209
 30
0.0
 10
63.5780328224337
 20
-138.395004409846
 30
0.0
  0
SPLINE
  5
64
330
1F
100
AcDbEntity
  8
_U+30EC_U+30A4_U+30E4_U+30FC 1
 62
   179
420
  2234388
370
     9
100
AcDbSpline
210
0.0
220
0.0
230
1.0
 70
    11
 71
     3
 72
    17
 73
    13
 74
     0
 42
0.0000000001
 43
0.0000000001
 12
1.0
 22
0.0
 32
0.0
 13
1.0
 23
0.0
 33
0.0
 40
0.0
 40
0.0
 40
0.0
 40
0.0
 40
1.0
 40
1.0
 40
1.0
 40
2.0
 40
2.0
 40
2.0
 40
3.0
 40
3.0
 40
3.0
 40
4.0
 40
4.0
 40
4.0
 40
4.0
 10
67.57814466482678
 20
-142.3954338532903
 30
0.0
 10
67.57814466482678
 20
-142.3396244088598
 30
0.0
 10
67.53334188819203
 20
-142.2948569088706
 30
0.0
 10
67.47788522294017
 20
-142.2948569088706
 30
0.0
 10
67.42274605768023
 20
-142.2948569088706
 30
0.0
 10
67.37797855882233
 20
-142.3396244088598
 30
0.0
 10
67.37797855882233
 20
-142.3954338532903
 30
0.0
 10
67.37797855882233
 20
-142.4505730199427
 30
0.0
 10
67.42274605768023
 20
-142.4953405199319
 30
0.0
 10
67.47788522294017
 20
-142.4953405199319
 30
0.0
 10
67.53334188819203
 20
-142.4953405199319
 30
0.0
 10
67.57814466482678
 20
-142.4505730199427
 30
0.0
 10
67.57814466482678
 20
-142.3954338532903
 30
0.0
  0
SPLINE
  5
65
330
1F
100
AcDbEntity
  8
_U+30EC_U+30A4_U+30E4_U+30FC 1
 62
   179
420
  2234388
370
     9
100
AcDbSpline
210
0.0
220
0.0
230
1.0
 70
    11
 71
     3
 72
    17
 73
    13
 74
     0
 42
0.0000000001
 43
0.0000000001
 12
1.0
 22
0.0
 32
0.0
 13
1.0
 23
0.0
 33
0.0
 40
0.0
 40
0.0
 40
0.0
 40
0.0
 40
1.0
 40
1.0
 40
1.0
 40
2.0
 40
2.0
 40
2.0
 40
3.0
 40
3.0
 40
3.0
 40
4.0
 40
4.0
 40
4.0
 40
4.0
 10
63.5780328224337
 20
-113.3953013605399
 30
0.0
 10
63.5780328224337
 20
-113.340197471665
 30
0.0
 10
63.53323004579893
 20
-113.2953946938983
 30
0.0
 10
63.47812776190828
 20
-113.2953946938983
 30
0.0
 10
63.42298699305591
 20
-113.2953946938983
 30
0.0
 10
63.37821949419803
 20
-113.340197471665
 30
0.0
 10
63.37821949419803
 20
-113.3953013605399
 30
0.0
 10
63.37821949419803
 20
-113.450440527193
 30
0.0
 10
63.42298699305591
 20
-113.4952433049594
 30
0.0
 10
63.47812776190828
 20
-113.4952433049594
 30
0.0
 10
63.53323004579893
 20
-113.4952433049594
 30
0.0
 10
63.5780328224337
 20
-113.450440527193
 30
0.0
 10
63.5780328224337
 20
-113.3953013605399
 30
0.0
  0
SPLINE
  5
66
330
1F
100
AcDbEntity
  8
_U+30EC_U+30A4_U+30E4_U+30FC 1
 62
   179
420
  2234388
370
     9
100
AcDbSpline
210
0.0
220
0.0
230
1.0
 70
    11
 71
     3
 72
    17
 73
    13
 74
     0
 42
0.0000000001
 43
0.0000000001
 12
1.0
 22
0.0
 32
0.0
 13
1.0
 23
0.0
 33
0.0
 40
0.0
 40
0.0
 40
0.0
 40
0.0
 40
1.0
 40
1.0
 40
1.0
 40
2.0
 40
2.0
 40
2.0
 40
3.0
 40
3.0
 40
3.0
 40
4.0
 40
4.0
 40
4.0
 40
4.0
 10
117.5776583039387
 20
-142.3954338532903
 30
0.0
 10
117.5776583039387
 20
-142.3396244088598
 30
0.0
 10
117.5328878348196
 20
-142.2948569088706
 30
0.0
 10
117.4777486695596
 20
-142.2948569088706
 30
0.0
 10
117.4226447820765
 20
-142.2948569088706
 30
0.0
 10
117.3778420054418
 20
-142.3396244088598
 30
0.0
 10
117.3778420054418
 20
-142.3954338532903
 30
0.0
 10
117.3778420054418
 20
-142.4505730199427
 30
0.0
 10
117.4226447820765
 20
-142.4953405199319
 30
0.0
 10
117.4777486695596
 20
-142.4953405199319
 30
0.0
 10
117.5328878348196
 20
-142.4953405199319
 30
0.0
 10
117.5776583039387
 20
-142.4505730199427
 30
0.0
 10
117.5776583039387
 20
-142.3954338532903
 30
0.0
  0
SPLINE
  5
67
330
1F
100
AcDbEntity
  8
_U+30EC_U+30A4_U+30E4_U+30FC 1
 62
   179
420
  2234388
370
     9
100
AcDbSpline
210
0.0
220
0.0
230
1.0
 70
    11
 71
     3
 72
    17
 73
    13
 74
     0
 42
0.0000000001
 43
0.0000000001
 12
1.0
 22
0.0
 32
0.0
 13
1.0
 23
0.0
 33
0.0
 40
0.0
 40
0.0
 40
0.0
 40
0.0
 40
1.0
 40
1.0
 40
1.0
 40
2.0
 40
2.0
 40
2.0
 40
3.0
 40
3.0
 40
3.0
 40
4.0
 40
4.0
 40
4.0
 40
4.0
 10
120.6961755318951
 20
-138.395004409846
 30
0.0
 10
120.6961755318951
 20
-138.3398652431929
 30
0.0
 10
120.6513727552604
 20
-138.2950977432037
 30
0.0
 10
120.5962688677773
 20
-138.2950977432037
 30
0.0
 10
120.5404594247567
 20
-138.2950977432037
 30
0.0
 10
120.4956566481219
 20
-138.3398652431929
 30
0.0
 10
120.4956566481219
 20
-138.395004409846
 30
0.0
 10
120.4956566481219
 20
-138.4501082987209
 30
0.0
 10
120.5404594247567
 20
-138.4949110764877
 30
0.0
 10
120.5962688677773
 20
-138.4949110764877
 30
0.0
 10
120.6513727552604
 20
-138.4949110764877
 30
0.0
 10
120.6961755318951
 20
-138.4501082987209
 30
0.0
 10
120.6961755318951
 20
-138.395004409846
 30
0.0
  0
SPLINE
  5
68
330
1F
100
AcDbEntity
  8
_U+30EC_U+30A4_U+30E4_U+30FC 1
 62
   179
420
  2234388
370
     9
100
AcDbSpline
210
0.0
220
0.0
230
1.0
 70
    11
 71
     3
 72
    17
 73
    13
 74
     0
 42
0.0000000001
 43
0.0000000001
 12
1.0
 22
0.0
 32
0.0
 13
1.0
 23
0.0
 33
0.0
 40
0.0
 40
0.0
 40
0.0
 40
0.0
 40
1.0
 40
1.0
 40
1.0
 40
2.0
 40
2.0
 40
2.0
 40
3.0
 40
3.0
 40
3.0
 40
4.0
 40
4.0
 40
4.0
 40
4.0
 10
120.6961755318951
 20
-136.3954599659009
 30
0.0
 10
120.6961755318951
 20
-136.3396505214705
 30
0.0
 10
120.6513727552604
 20
-136.2948830214819
 30
0.0
 10
120.5962688677773
 20
-136.2948830214819
 30
0.0
 10
120.5404594247567
 20
-136.2948830214819
 30
0.0
 10
120.4956566481219
 20
-136.3396505214705
 30
0.0
 10
120.4956566481219
 20
-136.3954599659009
 30
0.0
 10
120.4956566481219
 20
-136.450599132554
 30
0.0
 10
120.5404594247567
 20
-136.4953666325426
 30
0.0
 10
120.5962688677773
 20
-136.4953666325426
 30
0.0
 10
120.6513727552604
 20
-136.4953666325426
 30
0.0
 10
120.6961755318951
 20
-136.450599132554
 30
0.0
 10
120.6961755318951
 20
-136.3954599659009
 30
0.0
  0
POLYLINE
  5
69
330
1F
100
AcDbEntity
  8
_U+30EC_U+30A4_U+30E4_U+30FC 1
 62
   179
420
  2234388
370
     9
100
AcDb2dPolyline
 66
     1
 10
0.0
 20
0.0
 30
0.0
  0
VERTEX
  5
6A
330
69
100
AcDbEntity
  8
_U+30EC_U+30A4_U+30E4_U+30FC 1
 62
   179
420
  2234388
370
     9
100
AcDbVertex
100
AcDb2dVertex
 10
120.5962688677773
 20
-136.3954599659009
 30
0.0
  0
VERTEX
  5
6B
330
69
100
AcDbEntity
  8
_U+30EC_U+30A4_U+30E4_U+30FC 1
 62
   179
420
  2234388
370
     9
100
AcDbVertex
100
AcDb2dVertex
 10
120.5962688677773
 20
-132.6251474668435
 30
0.0
  0
SEQEND
  5
6C
330
69
100
AcDbEntity
  8
_U+30EC_U+30A4_U+30E4_U+30FC 1
 62
   179
420
  2234388
370
     9
  0
POLYLINE
  5
6D
330
1F
100
AcDbEntity
  8
_U+30EC_U+30A4_U+30E4_U+30FC 1
 62
   179
420
  2234388
370
     9
100
AcDb2dPolyline
 66
     1
 10
0.0
 20
0.0
 30
0.0
  0
VERTEX
  5
6E
330
6D
100
AcDbEntity
  8
_U+30EC_U+30A4_U+30E4_U+30FC 1
 62
   179
420
  2234388
370
     9
100
AcDbVertex
100
AcDb2dVertex
 10
120.5962688677773
 20
-136.3954599659009
 30
0.0
  0
VERTEX
  5
6F
330
6D
100
AcDbEntity
  8
_U+30EC_U+30A4_U+30E4_U+30FC 1
 62
   179
420
  2234388
370
     9
100
AcDbVertex
100
AcDb2dVertex
 10
120.5962688677773
 20
-139.3954469095953
 30
0.0
  0
SEQEND
  5
70
330
6D
100
AcDbEntity
  8
_U+30EC_U+30A4_U+30E4_U+30FC 1
 62
   179
420
  2234388
370
     9
  0
POLYLINE
  5
71
330
1F
100
AcDbEntity
  8
_U+30EC_U+30A4_U+30E4_U+30FC 1
 62
   179
420
  2234388
370
     9
100
AcDb2dPolyline
 66
     1
 10
0.0
 20
0.0
 30
0.0
  0
VERTEX
  5
72
330
71
100
AcDbEntity
  8
_U+30EC_U+30A4_U+30E4_U+30FC 1
 62
   179
420
  2234388
370
     9
100
AcDbVertex
100
AcDb2dVertex
 10
119.1362305257718
 20
-136.3954599659009
 30
0.0
  0
VERTEX
  5
73
330
71
100
AcDbEntity
  8
_U+30EC_U+30A4_U+30E4_U+30FC 1
 62
   179
420
  2234388
370
     9
100
AcDbVertex
100
AcDb2dVertex
 10
121.5960057867163
 20
-136.3954599659009
 30
0.0
  0
SEQEND
  5
74
330
71
100
AcDbEntity
  8
_U+30EC_U+30A4_U+30E4_U+30FC 1
 62
   179
420
  2234388
370
     9
  0
POLYLINE
  5
75
330
1F
100
AcDbEntity
  8
_U+30EC_U+30A4_U+30E4_U+30FC 1
 62
   179
420
  2234388
370
     9
100
AcDb2dPolyline
 66
     1
 10
0.0
 20
0.0
 30
0.0
  0
VERTEX
  5
76
330
75
100
AcDbEntity
  8
_U+30EC_U+30A4_U+30E4_U+30FC 1
 62
   179
420
  2234388
370
     9
100
AcDbVertex
100
AcDb2dVertex
 10
119.1362305257718
 20
-138.395004409846
 30
0.0
  0
VERTEX
  5
77
330
75
100
AcDbEntity
  8
_U+30EC_U+30A4_U+30E4_U+30FC 1
 62
   179
420
  2234388
370
     9
100
AcDbVertex
100
AcDb2dVertex
 10
121.5960057867163
 20
-138.395004409846
 30
0.0
  0
SEQEND
  5
78
330
75
100
AcDbEntity
  8
_U+30EC_U+30A4_U+30E4_U+30FC 1
 62
   179
420
  2234388
370
     9
  0
INSERT
  5
7A
330
1F
100
AcDbEntity
  8
_U+30EC_U+30A4_U+30E4_U+30FC 1
100
AcDbBlockReference
  2
block 2
 10
0.0
 20
0.0
 30
0.0
  0
POLYLINE
  5
7F
330
1F
100
AcDbEntity
  8
_U+30EC_U+30A4_U+30E4_U+30FC 1
 62
   179
420
  2234388
370
     9
100
AcDb2dPolyline
 66
     1
 10
0.0
 20
0.0
 30
0.0
  0
VERTEX
  5
80
330
7F
100
AcDbEntity
  8
_U+30EC_U+30A4_U+30E4_U+30FC 1
 62
   179
420
  2234388
370
     9
100
AcDbVertex
100
AcDb2dVertex
 10
67.47788522294017
 20
-142.3954338532903
 30
0.0
  0
VERTEX
  5
81
330
7F
100
AcDbEntity
  8
_U+30EC_U+30A4_U+30E4_U+30FC 1
 62
   179
420
  2234388
370
     9
100
AcDbVertex
100
AcDb2dVertex
 10
117.4777486695596
 20
-142.3954338532903
 30
0.0
  0
SEQEND
  5
82
330
7F
100
AcDbEntity
  8
_U+30EC_U+30A4_U+30E4_U+30FC 1
 62
   179
420
  2234388
370
     9
  0
POLYLINE
  5
83
330
1F
100
AcDbEntity
  8
_U+30EC_U+30A4_U+30E4_U+30FC 1
 62
   179
420
  2234388
370
     9
100
AcDb2dPolyline
 66
     1
 10
0.0
 20
0.0
 30
0.0
  0
VERTEX
  5
84
330
83
100
AcDbEntity
  8
_U+30EC_U+30A4_U+30E4_U+30FC 1
 62
   179
420
  2234388
370
     9
100
AcDbVertex
100
AcDb2dVertex
 10
67.47788522294017
 20
-140.9354277425441
 30
0.0
  0
VERTEX
  5
85
330
83
100
AcDbEntity
  8
_U+30EC_U+30A4_U+30E4_U+30FC 1
 62
   179
420
  2234388
370
     9
100
AcDbVertex
100
AcDb2dVertex
 10
67.47788522294017
 20
-143.3952060752622
 30
0.0
  0
SEQEND
  5
86
330
83
100
AcDbEntity
  8
_U+30EC_U+30A4_U+30E4_U+30FC 1
 62
   179
420
  2234388
370
     9
  0
POLYLINE
  5
87
330
1F
100
AcDbEntity
  8
_U+30EC_U+30A4_U+30E4_U+30FC 1
 62
   179
420
  2234388
370
     9
100
AcDb2dPolyline
 66
     1
 10
0.0
 20
0.0
 30
0.0
  0
VERTEX
  5
88
330
87
100
AcDbEntity
  8
_U+30EC_U+30A4_U+30E4_U+30FC 1
 62
   179
420
  2234388
370
     9
100
AcDbVertex
100
AcDb2dVertex
 10
117.4777486695596
 20
-140.9354277425441
 30
0.0
  0
VERTEX
  5
89
330
87
100
AcDbEntity
  8
_U+30EC_U+30A4_U+30E4_U+30FC 1
 62
   179
420
  2234388
370
     9
100
AcDbVertex
100
AcDb2dVertex
 10
117.4777486695596
 20
-143.3952060752622
 30
0.0
  0
SEQEND
  5
8A
330
87
100
AcDbEntity
  8
_U+30EC_U+30A4_U+30E4_U+30FC 1
 62
   179
420
  2234388
370
     9
  0
INSERT
  5
8C
330
1F
100
AcDbEntity
  8
_U+30EC_U+30A4_U+30E4_U+30FC 1
100
AcDbBlockReference
  2
block 3
 10
0.0
 20
0.0
 30
0.0
  0
POLYLINE
  5
94
330
1F
100
AcDbEntity
  8
_U+30EC_U+30A4_U+30E4_U+30FC 1
 62
   179
420
  2234388
370
     9
100
AcDb2dPolyline
 66
     1
 10
0.0
 20
0.0
 30
0.0
  0
VERTEX
  5
95
330
94
100
AcDbEntity
  8
_U+30EC_U+30A4_U+30E4_U+30FC 1
 62
   179
420
  2234388
370
     9
100
AcDbVertex
100
AcDb2dVertex
 10
63.47812776190828
 20
-113.3953013605399
 30
0.0
  0
VERTEX
  5
96
330
94
100
AcDbEntity
  8
_U+30EC_U+30A4_U+30E4_U+30FC 1
 62
   179
420
  2234388
370
     9
100
AcDbVertex
100
AcDb2dVertex
 10
63.47812776190828
 20
-138.395004409846
 30
0.0
  0
SEQEND
  5
97
330
94
100
AcDbEntity
  8
_U+30EC_U+30A4_U+30E4_U+30FC 1
 62
   179
420
  2234388
370
     9
  0
POLYLINE
  5
98
330
1F
100
AcDbEntity
  8
_U+30EC_U+30A4_U+30E4_U+30FC 1
 62
   179
420
  2234388
370
     9
100
AcDb2dPolyline
 66
     1
 10
0.0
 20
0.0
 30
0.0
  0
VERTEX
  5
99
330
98
100
AcDbEntity
  8
_U+30EC_U+30A4_U+30E4_U+30FC 1
 62
   179
420
  2234388
370
     9
100
AcDbVertex
100
AcDb2dVertex
 10
64.93816750995599
 20
-113.3953013605399
 30
0.0
  0
VERTEX
  5
9A
330
98
100
AcDbEntity
  8
_U+30EC_U+30A4_U+30E4_U+30FC 1
 62
   179
420
  2234388
370
     9
100
AcDbVertex
100
AcDb2dVertex
 10
62.4780027621583
 20
-113.3953013605399
 30
0.0
  0
SEQEND
  5
9B
330
98
100
AcDbEntity
  8
_U+30EC_U+30A4_U+30E4_U+30FC 1
 62
   179
420
  2234388
370
     9
  0
POLYLINE
  5
9C
330
1F
100
AcDbEntity
  8
_U+30EC_U+30A4_U+30E4_U+30FC 1
 62
   179
420
  2234388
370
     9
100
AcDb2dPolyline
 66
     1
 10
0.0
 20
0.0
 30
0.0
  0
VERTEX
  5
9D
330
9C
100
AcDbEntity
  8
_U+30EC_U+30A4_U+30E4_U+30FC 1
 62
   179
420
  2234388
370
     9
100
AcDbVertex
100
AcDb2dVertex
 10
64.93816750995599
 20
-138.395004409846
 30
0.0
  0
VERTEX
  5
9E
330
9C
100
AcDbEntity
  8
_U+30EC_U+30A4_U+30E4_U+30FC 1
 62
   179
420
  2234388
370
     9
100
AcDbVertex
100
AcDb2dVertex
 10
62.4780027621583
 20
-138.395004409846
 30
0.0
  0
SEQEND
  5
9F
330
9C
100
AcDbEntity
  8
_U+30EC_U+30A4_U+30E4_U+30FC 1
 62
   179
420
  2234388
370
     9
  0
INSERT
  5
A1
330
1F
100
AcDbEntity
  8
_U+30EC_U+30A4_U+30E4_U+30FC 1
100
AcDbBlockReference
  2
block 4
 10
0.0
 20
0.0
 30
0.0
  0
ENDSEC
  0
SECTION
  2
OBJECTS
  0
DICTIONARY
  5
C
330
0
100
AcDbDictionary
281
     1
  3
ACAD_GROUP
350
D
  3
ACAD_LAYOUT
350
1A
  3
ACAD_MATERIAL
350
3B
  3
ACAD_MLEADERSTYLE
350
A9
  3
ACAD_MLINESTYLE
350
17
  3
ACAD_PLOTSETTINGS
350
19
  3
ACAD_PLOTSTYLENAME
350
E
  3
ACAD_TABLESTYLE
350
A8
  3
ACAD_VISUALSTYLE
350
2A
  0
SUN
  5
3F
330
29
100
AcDbSun
 90
        1
290
     0
 63
     7
421
 16777215
 40
1.0
291
     1
 91
  2455826
 92
 54000000
292
     0
 70
     2
 71
   256
280
     1
  0
DICTIONARY
  5
D
102
{ACAD_REACTORS
330
C
102
}
330
C
100
AcDbDictionary
281
     1
  0
DICTIONARY
  5
1A
102
{ACAD_REACTORS
330
C
102
}
330
C
100
AcDbDictionary
281
     1
  3
Layout1
350
1E
  3
Layout2
350
26
  3
Model
350
22
  0
DICTIONARY
  5
3B
102
{ACAD_REACTORS
330
C
102
}
330
C
100
AcDbDictionary
281
     1
  3
ByBlock
350
3D
  3
ByLayer
350
3C
  3
Global
350
3E
  0
DICTIONARY
  5
A9
102
{ACAD_REACTORS
330
C
102
}
330
C
100
AcDbDictionary
281
     1
  0
DICTIONARY
  5
17
102
{ACAD_REACTORS
330
C
102
}
330
C
100
AcDbDictionary
281
     1
  3
Standard
350
18
  0
DICTIONARY
  5
19
102
{ACAD_REACTORS
330
C
102
}
330
C
100
AcDbDictionary
281
     1
  0
ACDBDICTIONARYWDFLT
  5
E
102
{ACAD_REACTORS
330
C
102
}
330
C
100
AcDbDictionary
281
     1
  3
Normal
350
F
100
AcDbDictionaryWithDefault
340
F
  0
DICTIONARY
  5
A8
102
{ACAD_REACTORS
330
C
102
}
330
C
100
AcDbDictionary
281
     1
  0
DICTIONARY
  5
2A
102
{ACAD_REACTORS
330
C
102
}
330
C
100
AcDbDictionary
281
     1
  3
2dWireframe
350
2F
  3
3D Hidden
350
31
  3
3dWireframe
350
30
  3
Basic
350
32
  3
Brighten
350
36
  3
ColorChange
350
3A
  3
Conceptual
350
34
  3
Dim
350
35
  3
Facepattern
350
39
  3
Flat
350
2B
  3
FlatWithEdges
350
2C
  3
Gouraud
350
2D
  3
GouraudWithEdges
350
2E
  3
Linepattern
350
38
  3
Realistic
350
33
  3
Thicken
350
37
  0
LAYOUT
  5
1E
102
{ACAD_REACTORS
330
1A
102
}
330
1A
100
AcDbPlotSettings
  1

  2
none_device
  4

  6

 40
0.0
 41
0.0
 42
0.0
 43
0.0
 44
0.0
 45
0.0
 46
0.0
 47
0.0
 48
0.0
 49
0.0
140
0.0
141
0.0
142
1.0
143
1.0
 70
   688
 72
     0
 73
     0
 74
     5
  7

 75
    16
 76
     0
 77
     2
 78
   300
147
1.0
148
0.0
149
0.0
100
AcDbLayout
  1
Layout1
 70
     1
 71
     1
 10
0.0
 20
0.0
 11
12.0
 21
9.0
 12
0.0
 22
0.0
 32
0.0
 14
1.000000000000000E+20
 24
1.000000000000000E+20
 34
1.000000000000000E+20
 15
-1.000000000000000E+20
 25
-1.000000000000000E+20
 35
-1.000000000000000E+20
146
0.0
 13
0.0
 23
0.0
 33
0.0
 16
1.0
 26
0.0
 36
0.0
 17
0.0
 27
1.0
 37
0.0
 76
     0
330
1B
  0
LAYOUT
  5
26
102
{ACAD_REACTORS
330
1A
102
}
330
1A
100
AcDbPlotSettings
  1

  2
none_device
  4

  6

 40
0.0
 41
0.0
 42
0.0
 43
0.0
 44
0.0
 45
0.0
 46
0.0
 47
0.0
 48
0.0
 49
0.0
140
0.0
141
0.0
142
1.0
143
1.0
 70
   688
 72
     0
 73
     0
 74
     5
  7

 75
    16
 76
     0
 77
     2
 78
   300
147
1.0
148
0.0
149
0.0
100
AcDbLayout
  1
Layout2
 70
     1
 71
     2
 10
0.0
 20
0.0
 11
0.0
 21
0.0
 12
0.0
 22
0.0
 32
0.0
 14
0.0
 24
0.0
 34
0.0
 15
0.0
 25
0.0
 35
0.0
146
0.0
 13
0.0
 23
0.0
 33
0.0
 16
1.0
 26
0.0
 36
0.0
 17
0.0
 27
1.0
 37
0.0
 76
     0
330
23
  0
LAYOUT
  5
22
102
{ACAD_REACTORS
330
1A
102
}
330
1A
100
AcDbPlotSettings
  1

  2
none_device
  4

  6

 40
0.0
 41
0.0
 42
0.0
 43
0.0
 44
0.0
 45
0.0
 46
0.0
 47
0.0
 48
0.0
 49
0.0
140
0.0
141
0.0
142
1.0
143
1.0
 70
  1712
 72
     0
 73
     0
 74
     0
  7

 75
     0
 76
     0
 77
     2
 78
   300
147
1.0
148
0.0
149
0.0
100
AcDbLayout
  1
Model
 70
     1
 71
     0
 10
0.0
 20
0.0
 11
12.0
 21
9.0
 12
0.0
 22
0.0
 32
0.0
 14
1.000000000000000E+20
 24
1.000000000000000E+20
 34
1.000000000000000E+20
 15
-1.000000000000000E+20
 25
-1.000000000000000E+20
 35
-1.000000000000000E+20
146
0.0
 13
0.0
 23
0.0
 33
0.0
 16
1.0
 26
0.0
 36
0.0
 17
0.0
 27
1.0
 37
0.0
 76
     0
330
1F
331
29
  0
MATERIAL
  5
3D
102
{ACAD_REACTORS
330
3B
102
}
330
3B
100
AcDbMaterial
  1
ByBlock
 72
     1
 94
      127
  0
MATERIAL
  5
3C
102
{ACAD_REACTORS
330
3B
102
}
330
3B
100
AcDbMaterial
  1
ByLayer
 72
     1
 94
      127
  0
MATERIAL
  5
3E
102
{ACAD_REACTORS
330
3B
102
}
330
3B
100
AcDbMaterial
  1
Global
 72
     1
 94
      127
  0
MLINESTYLE
  5
18
102
{ACAD_REACTORS
330
17
102
}
330
17
100
AcDbMlineStyle
  2
Standard
 70
     0
  3

 62
   256
 51
90.0
 52
90.0
 71
     2
 49
0.5
 62
   256
  6
BYLAYER
 49
-0.5
 62
   256
  6
BYLAYER
  0
ACDBPLACEHOLDER
  5
F
102
{ACAD_REACTORS
330
E
102
}
330
E
  0
VISUALSTYLE
  5
2F
102
{ACAD_REACTORS
330
2A
102
}
330
2A
100
AcDbVisualStyle
  2
2dWireframe
 70
     4
177
     2
291
     0
 71
     0
176
     1
 72
     2
176
     1
 73
     0
176
     1
 90
        0
176
     1
 40
-0.6
176
     1
 41
-30.0
176
     1
 62
     5
 63
     7
421
 16777215
176
     1
 74
     1
176
     1
 91
        4
176
     1
 64
     7
176
     1
 65
   257
176
     1
 75
     1
176
     1
175
     1
176
     1
 42
1.0
176
     1
 92
        0
176
     1
 66
   257
176
     1
 43
1.0
176
     1
 76
     1
176
     1
 77
     6
176
     1
 78
     2
176
     1
 67
     7
176
     1
 79
     5
176
     1
170
     0
176
     1
171
     0
176
     1
290
     0
176
     1
 93
        1
176
     1
 44
0.0
176
     1
173
     0
176
     1
  0
VISUALSTYLE
  5
31
102
{ACAD_REACTORS
330
2A
102
}
330
2A
100
AcDbVisualStyle
  2
3D Hidden
 70
     6
177
     2
291
     0
 71
     1
176
     1
 72
     2
176
     1
 73
     2
176
     1
 90
        0
176
     1
 40
-0.6
176
     1
 41
-30.0
176
     1
 62
     5
 63
     7
421
 16777215
176
     1
 74
     2
176
     1
 91
        2
176
     1
 64
     7
176
     1
 65
   257
176
     1
 75
     2
176
     1
175
     1
176
     1
 42
40.0
176
     1
 92
        0
176
     1
 66
   257
176
     1
 43
1.0
176
     1
 76
     1
176
     1
 77
     6
176
     1
 78
     2
176
     1
 67
     7
176
     1
 79
     3
176
     1
170
     0
176
     1
171
     0
176
     1
290
     0
176
     1
 93
        1
176
     1
 44
0.0
176
     1
173
     0
176
     1
  0
VISUALSTYLE
  5
30
102
{ACAD_REACTORS
330
2A
102
}
330
2A
100
AcDbVisualStyle
  2
3dWireframe
 70
     5
177
     2
291
     0
 71
     0
176
     1
 72
     2
176
     1
 73
     0
176
     1
 90
        0
176
     1
 40
-0.6
176
     1
 41
-30.0
176
     1
 62
     5
 63
     7
421
 16777215
176
     1
 74
     1
176
     1
 91
        4
176
     1
 64
     7
176
     1
 65
   257
176
     1
 75
     1
176
     1
175
     1
176
     1
 42
1.0
176
     1
 92
        0
176
     1
 66
   257
176
     1
 43
1.0
176
     1
 76
     1
176
     1
 77
     6
176
     1
 78
     2
176
     1
 67
     7
176
     1
 79
     5
176
     1
170
     0
176
     1
171
     0
176
     1
290
     0
176
     1
 93
        1
176
     1
 44
0.0
176
     1
173
     0
176
     1
  0
VISUALSTYLE
  5
32
102
{ACAD_REACTORS
330
2A
102
}
330
2A
100
AcDbVisualStyle
  2
Basic
 70
     7
177
     2
291
     1
 71
     1
176
     1
 72
     0
176
     1
 73
     1
176
     1
 90
        0
176
     1
 40
-0.6
176
     1
 41
-30.0
176
     1
 62
     5
 63
     7
421
 16777215
176
     1
 74
     0
176
     1
 91
        4
176
     1
 64
     7
176
     1
 65
   257
176
     1
 75
     1
176
     1
175
     1
176
     1
 42
1.0
176
     1
 92
        8
176
     1
 66
     7
176
     1
 43
1.0
176
     1
 76
     1
176
     1
 77
     6
176
     1
 78
     2
176
     1
 67
     7
176
     1
 79
     5
176
     1
170
     0
176
     1
171
     0
176
     1
290
     0
176
     1
 93
        1
176
     1
 44
0.0
176
     1
173
     0
176
     1
  0
VISUALSTYLE
  5
36
102
{ACAD_REACTORS
330
2A
102
}
330
2A
100
AcDbVisualStyle
  2
Brighten
 70
    12
177
     2
291
     1
 71
     2
176
     1
 72
     2
176
     1
 73
     0
176
     1
 90
        0
176
     1
 40
-0.6
176
     1
 41
-30.0
176
     1
 62
     5
 63
     7
421
 16777215
176
     1
 74
     1
176
     1
 91
        4
176
     1
 64
     7
176
     1
 65
   257
176
     1
 75
     1
176
     1
175
     1
176
     1
 42
1.0
176
     1
 92
        8
176
     1
 66
     7
176
     1
 43
1.0
176
     1
 76
     1
176
     1
 77
     6
176
     1
 78
     2
176
     1
 67
     7
176
     1
 79
     5
176
     1
170
     0
176
     1
171
     0
176
     1
290
     0
176
     1
 93
        1
176
     1
 44
50.0
176
     1
173
     0
176
     1
  0
VISUALSTYLE
  5
3A
102
{ACAD_REACTORS
330
2A
102
}
330
2A
100
AcDbVisualStyle
  2
ColorChange
 70
    16
177
     2
291
     1
 71
     2
176
     1
 72
     2
176
     1
 73
     3
176
     1
 90
        0
176
     1
 40
-0.6
176
     1
 41
-30.0
176
     1
 62
     5
 63
     8
421
  8421504
176
     1
 74
     1
176
     1
 91
        4
176
     1
 64
     7
176
     1
 65
   257
176
     1
 75
     1
176
     1
175
     1
176
     1
 42
1.0
176
     1
 92
        8
176
     1
 66
     8
424
  8421504
176
     1
 43
1.0
176
     1
 76
     1
176
     1
 77
     6
176
     1
 78
     2
176
     1
 67
     7
176
     1
 79
     5
176
     1
170
     0
176
     1
171
     0
176
     1
290
     0
176
     1
 93
        1
176
     1
 44
0.0
176
     1
173
     0
176
     1
  0
VISUALSTYLE
  5
34
102
{ACAD_REACTORS
330
2A
102
}
330
2A
100
AcDbVisualStyle
  2
Conceptual
 70
     9
177
     2
291
     0
 71
     3
176
     1
 72
     2
176
     1
 73
     0
176
     1
 90
        0
176
     1
 40
-0.6
176
     1
 41
-30.0
176
     1
 62
     5
 63
     7
421
 16777215
176
     1
 74
     2
176
     1
 91
        2
176
     1
 64
     7
176
     1
 65
   257
176
     1
 75
     1
176
     1
175
     1
176
     1
 42
40.0
176
     1
 92
        8
176
     1
 66
     7
176
     1
 43
1.0
176
     1
 76
     1
176
     1
 77
     6
176
     1
 78
     2
176
     1
 67
     7
176
     1
 79
     3
176
     1
170
     0
176
     1
171
     0
176
     1
290
     0
176
     1
 93
        1
176
     1
 44
0.0
176
     1
173
     0
176
     1
  0
VISUALSTYLE
  5
35
102
{ACAD_REACTORS
330
2A
102
}
330
2A
100
AcDbVisualStyle
  2
Dim
 70
    11
177
     2
291
     1
 71
     2
176
     1
 72
     2
176
     1
 73
     0
176
     1
 90
        0
176
     1
 40
-0.6
176
     1
 41
-30.0
176
     1
 62
     5
 63
     7
421
 16777215
176
     1
 74
     1
176
     1
 91
        4
176
     1
 64
     7
176
     1
 65
   257
176
     1
 75
     1
176
     1
175
     1
176
     1
 42
1.0
176
     1
 92
        8
176
     1
 66
     7
176
     1
 43
1.0
176
     1
 76
     1
176
     1
 77
     6
176
     1
 78
     2
176
     1
 67
     7
176
     1
 79
     5
176
     1
170
     0
176
     1
171
     0
176
     1
290
     0
176
     1
 93
        1
176
     1
 44
-50.0
176
     1
173
     0
176
     1
  0
VISUALSTYLE
  5
39
102
{ACAD_REACTORS
330
2A
102
}
330
2A
100
AcDbVisualStyle
  2
Facepattern
 70
    15
177
     2
291
     1
 71
     2
176
     1
 72
     2
176
     1
 73
     0
176
     1
 90
        0
176
     1
 40
-0.6
176
     1
 41
-30.0
176
     1
 62
     5
 63
     7
421
 16777215
176
     1
 74
     1
176
     1
 91
        4
176
     1
 64
     7
176
     1
 65
   257
176
     1
 75
     1
176
     1
175
     1
176
     1
 42
1.0
176
     1
 92
        8
176
     1
 66
     7
176
     1
 43
1.0
176
     1
 76
     1
176
     1
 77
     6
176
     1
 78
     2
176
     1
 67
     7
176
     1
 79
     5
176
     1
170
     0
176
     1
171
     0
176
     1
290
     0
176
     1
 93
        1
176
     1
 44
0.0
176
     1
173
     0
176
     1
  0
VISUALSTYLE
  5
2B
102
{ACAD_REACTORS
330
2A
102
}
330
2A
100
AcDbVisualStyle
  2
Flat
 70
     0
177
     2
291
     1
 71
     2
176
     1
 72
     1
176
     1
 73
     1
176
     1
 90
        2
176
     1
 40
-0.6
176
     1
 41
30.0
176
     1
 62
     5
 63
     7
421
 16777215
176
     1
 74
     0
176
     1
 91
        4
176
     1
 64
     7
176
     1
 65
   257
176
     1
 75
     1
176
     1
175
     1
176
     1
 42
1.0
176
     1
 92
        8
176
     1
 66
     7
176
     1
 43
1.0
176
     1
 76
     1
176
     1
 77
     6
176
     1
 78
     2
176
     1
 67
     7
176
     1
 79
     5
176
     1
170
     0
176
     1
171
     0
176
     1
290
     0
176
     1
 93
       13
176
     1
 44
0.0
176
     1
173
     0
176
     1
  0
VISUALSTYLE
  5
2C
102
{ACAD_REACTORS
330
2A
102
}
330
2A
100
AcDbVisualStyle
  2
FlatWithEdges
 70
     1
177
     2
291
     1
 71
     2
176
     1
 72
     1
176
     1
 73
     1
176
     1
 90
        2
176
     1
 40
-0.6
176
     1
 41
30.0
176
     1
 62
     5
 63
     7
421
 16777215
176
     1
 74
     1
176
     1
 91
        4
176
     1
 64
     7
176
     1
 65
   257
176
     1
 75
     1
176
     1
175
     1
176
     1
 42
1.0
176
     1
 92
        0
176
     1
 66
   257
176
     1
 43
1.0
176
     1
 76
     1
176
     1
 77
     6
176
     1
 78
     2
176
     1
 67
     7
176
     1
 79
     5
176
     1
170
     0
176
     1
171
     0
176
     1
290
     0
176
     1
 93
       13
176
     1
 44
0.0
176
     1
173
     0
176
     1
  0
VISUALSTYLE
  5
2D
102
{ACAD_REACTORS
330
2A
102
}
330
2A
100
AcDbVisualStyle
  2
Gouraud
 70
     2
177
     2
291
     1
 71
     2
176
     1
 72
     2
176
     1
 73
     1
176
     1
 90
        2
176
     1
 40
-0.6
176
     1
 41
30.0
176
     1
 62
     5
 63
     7
421
 16777215
176
     1
 74
     0
176
     1
 91
        4
176
     1
 64
     7
176
     1
 65
   257
176
     1
 75
     1
176
     1
175
     1
176
     1
 42
1.0
176
     1
 92
        0
176
     1
 66
     7
176
     1
 43
1.0
176
     1
 76
     1
176
     1
 77
     6
176
     1
 78
     2
176
     1
 67
     7
176
     1
 79
     5
176
     1
170
     0
176
     1
171
     0
176
     1
290
     0
176
     1
 93
       13
176
     1
 44
0.0
176
     1
173
     0
176
     1
  0
VISUALSTYLE
  5
2E
102
{ACAD_REACTORS
330
2A
102
}
330
2A
100
AcDbVisualStyle
  2
GouraudWithEdges
 70
     3
177
     2
291
     1
 71
     2
176
     1
 72
     2
176
     1
 73
     1
176
     1
 90
        2
176
     1
 40
-0.6
176
     1
 41
30.0
176
     1
 62
     5
 63
     7
421
 16777215
176
     1
 74
     1
176
     1
 91
        4
176
     1
 64
     7
176
     1
 65
   257
176
     1
 75
     1
176
     1
175
     1
176
     1
 42
1.0
176
     1
 92
        0
176
     1
 66
   257
176
     1
 43
1.0
176
     1
 76
     1
176
     1
 77
     6
176
     1
 78
     2
176
     1
 67
     7
176
     1
 79
     5
176
     1
170
     0
176
     1
171
     0
176
     1
290
     0
176
     1
 93
       13
176
     1
 44
0.0
176
     1
173
     0
176
     1
  0
VISUALSTYLE
  5
38
102
{ACAD_REACTORS
330
2A
102
}
330
2A
100
AcDbVisualStyle
  2
Linepattern
 70
    14
177
     2
291
     1
 71
     2
176
     1
 72
     2
176
     1
 73
     0
176
     1
 90
        0
176
     1
 40
-0.6
176
     1
 41
-30.0
176
     1
 62
     5
 63
     7
421
 16777215
176
     1
 74
     1
176
     1
 91
        4
176
     1
 64
     7
176
     1
 65
   257
176
     1
 75
     7
176
     1
175
     7
176
     1
 42
1.0
176
     1
 92
        8
176
     1
 66
     7
176
     1
 43
1.0
176
     1
 76
     1
176
     1
 77
     6
176
     1
 78
     2
176
     1
 67
     7
176
     1
 79
     5
176
     1
170
     0
176
     1
171
     0
176
     1
290
     0
176
     1
 93
        1
176
     1
 44
0.0
176
     1
173
     0
176
     1
  0
VISUALSTYLE
  5
33
102
{ACAD_REACTORS
330
2A
102
}
330
2A
100
AcDbVisualStyle
  2
Realistic
 70
     8
177
     2
291
     0
 71
     2
176
     1
 72
     2
176
     1
 73
     0
176
     1
 90
        0
176
     1
 40
-0.6
176
     1
 41
-30.0
176
     1
 62
     5
 63
     7
421
 16777215
176
     1
 74
     1
176
     1
 91
        0
176
     1
 64
     7
176
     1
 65
   257
176
     1
 75
     1
176
     1
175
     1
176
     1
 42
1.0
176
     1
 92
        8
176
     1
 66
     8
424
  7895160
176
     1
 43
1.0
176
     1
 76
     1
176
     1
 77
     6
176
     1
 78
     2
176
     1
 67
     7
176
     1
 79
     5
176
     1
170
     0
176
     1
171
     0
176
     1
290
     0
176
     1
 93
       13
176
     1
 44
0.0
176
     1
173
     0
176
     1
  0
VISUALSTYLE
  5
37
102
{ACAD_REACTORS
330
2A
102
}
330
2A
100
AcDbVisualStyle
  2
Thicken
 70
    13
177
     2
291
     1
 71
     2
176
     1
 72
     2
176
     1
 73
     0
176
     1
 90
        0
176
     1
 40
-0.6
176
     1
 41
-30.0
176
     1
 62
     5
 63
     7
421
 16777215
176
     1
 74
     1
176
     1
 91
        4
176
     1
 64
     7
176
     1
 65
   257
176
     1
 75
     1
176
     1
175
     1
176
     1
 42
1.0
176
     1
 92
       12
176
     1
 66
     7
176
     1
 43
1.0
176
     1
 76
     1
176
     1
 77
     6
176
     1
 78
     2
176
     1
 67
     7
176
     1
 79
     5
176
     1
170
     0
176
     1
171
     0
176
     1
290
     0
176
     1
 93
        1
176
     1
 44
0.0
176
     1
173
     0
176
     1
  0
ENDSEC
  0
EOF
