  0
SECTION
  2
HEADER
  9
$ACADVER
  1
AC1024
  9
$ACADMAINTVER
 70
     6
  9
$DWGCODEPAGE
  3
UNDEFINED
  9
$INSBASE
 10
0.0
 20
0.0
 30
0.0
  9
$EXTMIN
 10
1.000000000000000E+20
 20
1.000000000000000E+20
 30
1.000000000000000E+20
  9
$EXTMAX
 10
-1.000000000000000E+20
 20
-1.000000000000000E+20
 30
-1.000000000000000E+20
  9
$LIMMIN
 10
0.0
 20
0.0
  9
$LIMMAX
 10
12.0
 20
9.0
  9
$ORTHOMODE
 70
     0
  9
$REGENMODE
 70
     1
  9
$FILLMODE
 70
     1
  9
$QTEXTMODE
 70
     0
  9
$MIRRTEXT
 70
     1
  9
$LTSCALE
 40
1.0
  9
$ATTMODE
 70
     1
  9
$TEXTSIZE
 40
0.2
  9
$TRACEWID
 40
0.05
  9
$TEXTSTYLE
  7
Standard
  9
$CLAYER
  8
0
  9
$CELTYPE
  6
ByLayer
  9
$CECOLOR
 62
   256
  9
$CELTSCALE
 40
1.0
  9
$DISPSILH
 70
     0
  9
$DIMSCALE
 40
1.0
  9
$DIMASZ
 40
0.18
  9
$DIMEXO
 40
0.0625
  9
$DIMDLI
 40
0.38
  9
$DIMRND
 40
0.0
  9
$DIMDLE
 40
0.0
  9
$DIMEXE
 40
0.18
  9
$DIMTP
 40
0.0
  9
$DIMTM
 40
0.0
  9
$DIMTXT
 40
0.18
  9
$DIMCEN
 40
0.09
  9
$DIMTSZ
 40
0.0
  9
$DIMTOL
 70
     0
  9
$DIMLIM
 70
     0
  9
$DIMTIH
 70
     1
  9
$DIMTOH
 70
     1
  9
$DIMSE1
 70
     0
  9
$DIMSE2
 70
     0
  9
$DIMTAD
 70
     0
  9
$DIMZIN
 70
     0
  9
$DIMBLK
  1

  9
$DIMASO
 70
     1
  9
$DIMSHO
 70
     1
  9
$DIMPOST
  1

  9
$DIMAPOST
  1

  9
$DIMALT
 70
     0
  9
$DIMALTD
 70
     2
  9
$DIMALTF
 40
25.4
  9
$DIMLFAC
 40
1.0
  9
$DIMTOFL
 70
     0
  9
$DIMTVP
 40
0.0
  9
$DIMTIX
 70
     0
  9
$DIMSOXD
 70
     0
  9
$DIMSAH
 70
     0
  9
$DIMBLK1
  1

  9
$DIMBLK2
  1

  9
$DIMSTYLE
  2
Standard
  9
$DIMCLRD
 70
     0
  9
$DIMCLRE
 70
     0
  9
$DIMCLRT
 70
     0
  9
$DIMTFAC
 40
1.0
  9
$DIMGAP
 40
0.09
  9
$DIMJUST
 70
     0
  9
$DIMSD1
 70
     0
  9
$DIMSD2
 70
     0
  9
$DIMTOLJ
 70
     1
  9
$DIMTZIN
 70
     0
  9
$DIMALTZ
 70
     0
  9
$DIMALTTZ
 70
     0
  9
$DIMUPT
 70
     0
  9
$DIMDEC
 70
     4
  9
$DIMTDEC
 70
     4
  9
$DIMALTU
 70
     2
  9
$DIMALTTD
 70
     2
  9
$DIMTXSTY
  7
Standard
  9
$DIMAUNIT
 70
     0
  9
$DIMADEC
 70
     0
  9
$DIMALTRND
 40
0.0
  9
$DIMAZIN
 70
     0
  9
$DIMDSEP
 70
    46
  9
$DIMATFIT
 70
     3
  9
$DIMFRAC
 70
     0
  9
$DIMLDRBLK
  1

  9
$DIMLUNIT
 70
     2
  9
$DIMLWD
 70
    -2
  9
$DIMLWE
 70
    -2
  9
$DIMTMOVE
 70
     0
  9
$DIMFXL
 40
1.0
  9
$DIMFXLON
 70
     0
  9
$DIMJOGANG
 40
0.7853981633974483
  9
$DIMTFILL
 70
     0
  9
$DIMTFILLCLR
 70
     0
  9
$DIMARCSYM
 70
     0
  9
$DIMLTYPE
  6

  9
$DIMLTEX1
  6

  9
$DIMLTEX2
  6

  9
$DIMTXTDIRECTION
 70
     0
  9
$LUNITS
 70
     2
  9
$LUPREC
 70
     4
  9
$SKETCHINC
 40
0.1
  9
$FILLETRAD
 40
0.5
  9
$AUNITS
 70
     0
  9
$AUPREC
 70
     0
  9
$MENU
  1
.
  9
$ELEVATION
 40
0.0
  9
$PELEVATION
 40
0.0
  9
$THICKNESS
 40
0.0
  9
$LIMCHECK
 70
     0
  9
$CHAMFERA
 40
0.5
  9
$CHAMFERB
 40
0.5
  9
$CHAMFERC
 40
1.0
  9
$CHAMFERD
 40
0.0
  9
$SKPOLY
 70
     0
  9
$TDCREATE
 40
2457917.620891192
  9
$TDUCREATE
 40
2457917.245891204
  9
$TDUPDATE
 40
2457917.620891192
  9
$TDUUPDATE
 40
2457917.245891204
  9
$TDINDWG
 40
0.0000000116
  9
$TDUSRTIMER
 40
0.0000000116
  9
$USRTIMER
 70
     1
  9
$ANGBASE
 50
0.0
  9
$ANGDIR
 70
     0
  9
$PDMODE
 70
     0
  9
$PDSIZE
 40
0.0
  9
$PLINEWID
 40
0.0
  9
$SPLFRAME
 70
     0
  9
$SPLINETYPE
 70
     6
  9
$SPLINESEGS
 70
     8
  9
$HANDSEED
  5
DB
  9
$SURFTAB1
 70
     6
  9
$SURFTAB2
 70
     6
  9
$SURFTYPE
 70
     6
  9
$SURFU
 70
     6
  9
$SURFV
 70
     6
  9
$UCSBASE
  2

  9
$UCSNAME
  2

  9
$UCSORG
 10
0.0
 20
0.0
 30
0.0
  9
$UCSXDIR
 10
1.0
 20
0.0
 30
0.0
  9
$UCSYDIR
 10
0.0
 20
1.0
 30
0.0
  9
$UCSORTHOREF
  2

  9
$UCSORTHOVIEW
 70
     0
  9
$UCSORGTOP
 10
0.0
 20
0.0
 30
0.0
  9
$UCSORGBOTTOM
 10
0.0
 20
0.0
 30
0.0
  9
$UCSORGLEFT
 10
0.0
 20
0.0
 30
0.0
  9
$UCSORGRIGHT
 10
0.0
 20
0.0
 30
0.0
  9
$UCSORGFRONT
 10
0.0
 20
0.0
 30
0.0
  9
$UCSORGBACK
 10
0.0
 20
0.0
 30
0.0
  9
$PUCSBASE
  2

  9
$PUCSNAME
  2

  9
$PUCSORG
 10
0.0
 20
0.0
 30
0.0
  9
$PUCSXDIR
 10
1.0
 20
0.0
 30
0.0
  9
$PUCSYDIR
 10
0.0
 20
1.0
 30
0.0
  9
$PUCSORTHOREF
  2

  9
$PUCSORTHOVIEW
 70
     0
  9
$PUCSORGTOP
 10
0.0
 20
0.0
 30
0.0
  9
$PUCSORGBOTTOM
 10
0.0
 20
0.0
 30
0.0
  9
$PUCSORGLEFT
 10
0.0
 20
0.0
 30
0.0
  9
$PUCSORGRIGHT
 10
0.0
 20
0.0
 30
0.0
  9
$PUCSORGFRONT
 10
0.0
 20
0.0
 30
0.0
  9
$PUCSORGBACK
 10
0.0
 20
0.0
 30
0.0
  9
$USERI1
 70
     0
  9
$USERI2
 70
     0
  9
$USERI3
 70
     0
  9
$USERI4
 70
     0
  9
$USERI5
 70
     0
  9
$USERR1
 40
0.0
  9
$USERR2
 40
0.0
  9
$USERR3
 40
0.0
  9
$USERR4
 40
0.0
  9
$USERR5
 40
0.0
  9
$WORLDVIEW
 70
     1
  9
$SHADEDGE
 70
     3
  9
$SHADEDIF
 70
    70
  9
$TILEMODE
 70
     1
  9
$MAXACTVP
 70
    64
  9
$PINSBASE
 10
0.0
 20
0.0
 30
0.0
  9
$PLIMCHECK
 70
     0
  9
$PEXTMIN
 10
1.000000000000000E+20
 20
1.000000000000000E+20
 30
1.000000000000000E+20
  9
$PEXTMAX
 10
-1.000000000000000E+20
 20
-1.000000000000000E+20
 30
-1.000000000000000E+20
  9
$PLIMMIN
 10
0.0
 20
0.0
  9
$PLIMMAX
 10
12.0
 20
9.0
  9
$UNITMODE
 70
     0
  9
$VISRETAIN
 70
     1
  9
$PLINEGEN
 70
     0
  9
$PSLTSCALE
 70
     1
  9
$TREEDEPTH
 70
  3020
  9
$CMLSTYLE
  2
Standard
  9
$CMLJUST
 70
     0
  9
$CMLSCALE
 40
1.0
  9
$PROXYGRAPHICS
 70
     1
  9
$MEASUREMENT
 70
     0
  9
$CELWEIGHT
370
    -1
  9
$ENDCAPS
280
     0
  9
$JOINSTYLE
280
     0
  9
$LWDISPLAY
290
     1
  9
$INSUNITS
 70
     1
  9
$HYPERLINKBASE
  1

  9
$STYLESHEET
  1

  9
$XEDIT
290
     1
  9
$CEPSNTYPE
380
     0
  9
$PSTYLEMODE
290
     1
  9
$FINGERPRINTGUID
  2
{CCB2958A-69A7-D9C5-B05D-0A0CEC1E1363}
  9
$VERSIONGUID
  2
{FAEB1C32-E019-11D5-929B-00C0DF256EC4}
  9
$EXTNAMES
290
     1
  9
$PSVPSCALE
 40
0.0
  9
$OLESTARTUP
290
     0
  9
$SORTENTS
280
   127
  9
$INDEXCTL
280
     0
  9
$HIDETEXT
280
     1
  9
$XCLIPFRAME
280
     2
  9
$HALOGAP
280
     0
  9
$OBSCOLOR
 70
   257
  9
$OBSLTYPE
280
     0
  9
$INTERSECTIONDISPLAY
280
     0
  9
$INTERSECTIONCOLOR
 70
   257
  9
$DIMASSOC
280
     2
  9
$PROJECTNAME
  1

  9
$CAMERADISPLAY
290
     0
  9
$LENSLENGTH
 40
50.0
  9
$CAMERAHEIGHT
 40
0.0
  9
$STEPSPERSEC
 40
2.0
  9
$STEPSIZE
 40
6.0
  9
$3DDWFPREC
 40
2.0
  9
$PSOLWIDTH
 40
0.25
  9
$PSOLHEIGHT
 40
4.0
  9
$LOFTANG1
 40
1.570796326794897
  9
$LOFTANG2
 40
1.570796326794897
  9
$LOFTMAG1
 40
0.0
  9
$LOFTMAG2
 40
0.0
  9
$LOFTPARAM
 70
     7
  9
$LOFTNORMALS
280
     1
  9
$LATITUDE
 40
37.795
  9
$LONGITUDE
 40
-122.394
  9
$NORTHDIRECTION
 40
0.0
  9
$TIMEZONE
 70
 -8000
  9
$LIGHTGLYPHDISPLAY
280
     1
  9
$TILEMODELIGHTSYNCH
280
     1
  9
$CMATERIAL
347
3C
  9
$SOLIDHIST
280
     1
  9
$SHOWHIST
280
     1
  9
$DWFFRAME
280
     2
  9
$DGNFRAME
280
     2
  9
$REALWORLDSCALE
290
     1
  9
$INTERFERECOLOR
 62
   256
  9
$CSHADOW
280
     0
  9
$SHADOWPLANELOCATION
 40
0.0
  0
ENDSEC
  0
SECTION
  2
CLASSES
  0
CLASS
  1
ACDBDICTIONARYWDFLT
  2
AcDbDictionaryWithDefault
  3
ObjectDBX Classes
 90
        0
 91
        4
280
     0
281
     0
  0
CLASS
  1
VISUALSTYLE
  2
AcDbVisualStyle
  3
ObjectDBX Classes
 90
     4095
 91
        4
280
     0
281
     0
  0
CLASS
  1
MATERIAL
  2
AcDbMaterial
  3
ObjectDBX Classes
 90
     1153
 91
        4
280
     0
281
     0
  0
CLASS
  1
SUN
  2
AcDbSun
  3
SCENEOE
 90
     1024
 91
        4
280
     0
281
     0
  0
ENDSEC
  0
SECTION
  2
TABLES
  0
TABLE
  2
VPORT
  5
8
330
0
100
AcDbSymbolTable
 70
     1
  0
VPORT
  5
29
330
8
100
AcDbSymbolTableRecord
100
AcDbViewportTableRecord
  2
*Active
 70
     0
 10
0.0
 20
0.0
 11
1.0
 21
1.0
 12
0.0
 22
0.0
 13
0.0
 23
0.0
 14
0.5
 24
0.5
 15
0.5
 25
0.5
 16
0.0
 26
0.0
 36
1.0
 17
91.00082462281999
 27
-128.4993055234307
 37
0.0
 40
256.9986110468615
 41
0.7081814508812795
 42
50.0
 43
0.0
 44
0.0
 50
0.0
 51
0.0
 71
     0
 72
   100
 73
     1
 74
     3
 75
     0
 76
     0
 77
     0
 78
     0
281
     0
 65
     1
110
0.0
120
0.0
130
0.0
111
1.0
121
0.0
131
0.0
112
0.0
122
1.0
132
0.0
 79
     0
146
0.0
 60
     3
 61
     5
292
     1
282
     1
141
0.0
142
0.0
 63
   250
361
3F
  0
ENDTAB
  0
TABLE
  2
LTYPE
  5
5
330
0
100
AcDbSymbolTable
 70
     1
  0
LTYPE
  5
14
330
5
100
AcDbSymbolTableRecord
100
AcDbLinetypeTableRecord
  2
ByBlock
 70
     0
  3

 72
    65
 73
     0
 40
0.0
  0
LTYPE
  5
15
330
5
100
AcDbSymbolTableRecord
100
AcDbLinetypeTableRecord
  2
ByLayer
 70
     0
  3

 72
    65
 73
     0
 40
0.0
  0
LTYPE
  5
16
330
5
100
AcDbSymbolTableRecord
100
AcDbLinetypeTableRecord
  2
Continuous
 70
     0
  3
Solid line
 72
    65
 73
     0
 40
0.0
  0
ENDTAB
  0
TABLE
  2
LAYER
  5
2
330
0
100
AcDbSymbolTable
 70
     2
  0
LAYER
  5
10
330
2
100
AcDbSymbolTableRecord
100
AcDbLayerTableRecord
  2
0
 70
     0
 62
     7
  6
Continuous
370
    -3
390
F
347
3E
  0
LAYER
  5
40
330
2
100
AcDbSymbolTableRecord
100
AcDbLayerTableRecord
  2
_U+30EC_U+30A4_U+30E4_U+30FC 1
 70
     0
 62
     7
  6
Continuous
370
    -3
390
F
347
3E
  0
ENDTAB
  0
TABLE
  2
STYLE
  5
3
330
0
100
AcDbSymbolTable
 70
     1
  0
STYLE
  5
11
330
3
100
AcDbSymbolTableRecord
100
AcDbTextStyleTableRecord
  2
Standard
 70
     0
 40
0.0
 41
1.0
 50
0.0
 71
     0
 42
0.2
  3
txt
  4

  0
ENDTAB
  0
TABLE
  2
VIEW
  5
6
330
0
100
AcDbSymbolTable
 70
     0
  0
ENDTAB
  0
TABLE
  2
UCS
  5
7
330
0
100
AcDbSymbolTable
 70
     0
  0
ENDTAB
  0
TABLE
  2
APPID
  5
9
330
0
100
AcDbSymbolTable
 70
     1
  0
APPID
  5
12
330
9
100
AcDbSymbolTableRecord
100
AcDbRegAppTableRecord
  2
ACAD
 70
     0
  0
ENDTAB
  0
TABLE
  2
DIMSTYLE
  5
A
330
0
100
AcDbSymbolTable
 70
     1
100
AcDbDimStyleTable
  0
DIMSTYLE
105
27
330
A
100
AcDbSymbolTableRecord
100
AcDbDimStyleTableRecord
  2
Standard
 70
     0
178
     0
340
11
  0
ENDTAB
  0
TABLE
  2
BLOCK_RECORD
  5
1
330
0
100
AcDbSymbolTable
 70
     4
  0
BLOCK_RECORD
  5
1F
330
1
100
AcDbSymbolTableRecord
100
AcDbBlockTableRecord
  2
*Model_Space
340
22
 70
     0
280
     1
281
     0
  0
BLOCK_RECORD
  5
1B
330
1
100
AcDbSymbolTableRecord
100
AcDbBlockTableRecord
  2
*Paper_Space
340
1E
 70
     0
280
     1
281
     0
  0
BLOCK_RECORD
  5
23
330
1
100
AcDbSymbolTableRecord
100
AcDbBlockTableRecord
  2
*Paper_Space0
340
26
 70
     0
280
     1
281
     0
  0
BLOCK_RECORD
  5
79
330
1
100
AcDbSymbolTableRecord
100
AcDbBlockTableRecord
  2
block 2
340
0
102
{BLKREFS
331
7A
102
}
 70
     0
280
     1
281
     0
  0
BLOCK_RECORD
  5
95
330
1
100
AcDbSymbolTableRecord
100
AcDbBlockTableRecord
  2
block 3
340
0
102
{BLKREFS
331
96
102
}
 70
     0
280
     1
281
     0
  0
BLOCK_RECORD
  5
C6
330
1
100
AcDbSymbolTableRecord
100
AcDbBlockTableRecord
  2
block 4
340
0
102
{BLKREFS
331
C7
102
}
 70
     0
280
     1
281
     0
  0
ENDTAB
  0
ENDSEC
  0
SECTION
  2
BLOCKS
  0
BLOCK
  5
20
330
1F
100
AcDbEntity
  8
0
100
AcDbBlockBegin
  2
*Model_Space
 70
     0
 10
0.0
 20
0.0
 30
0.0
  3
*Model_Space
  1

  0
ENDBLK
  5
21
330
1F
100
AcDbEntity
  8
0
100
AcDbBlockEnd
  0
BLOCK
  5
1C
330
1B
100
AcDbEntity
 67
     1
  8
0
100
AcDbBlockBegin
  2
*Paper_Space
 70
     0
 10
0.0
 20
0.0
 30
0.0
  3
*Paper_Space
  1

  0
ENDBLK
  5
1D
330
1B
100
AcDbEntity
 67
     1
  8
0
100
AcDbBlockEnd
  0
BLOCK
  5
24
330
23
100
AcDbEntity
  8
0
100
AcDbBlockBegin
  2
*Paper_Space0
 70
     0
 10
0.0
 20
0.0
 30
0.0
  3
*Paper_Space0
  1

  0
ENDBLK
  5
25
330
23
100
AcDbEntity
  8
0
100
AcDbBlockEnd
  0
BLOCK
  5
7B
330
79
100
AcDbEntity
  8
0
100
AcDbBlockBegin
  2
block 2
 70
     0
 10
0.0
 20
0.0
 30
0.0
  3
block 2
  1

  0
SPLINE
  5
7D
330
79
100
AcDbEntity
  8
_U+30EC_U+30A4_U+30E4_U+30FC 1
370
     0
100
AcDbSpline
210
0.0
220
0.0
230
1.0
 70
    11
 71
     3
 72
    26
 73
    22
 74
     0
 42
0.0000000001
 43
0.0000000001
 12
1.0
 22
0.0
 32
0.0
 13
1.0
 23
0.0
 33
0.0
 40
0.0
 40
0.0
 40
0.0
 40
0.0
 40
1.0
 40
1.0
 40
1.0
 40
2.0
 40
2.0
 40
2.0
 40
3.0
 40
3.0
 40
3.0
 40
4.0
 40
4.0
 40
4.0
 40
5.0
 40
5.0
 40
5.0
 40
6.0
 40
6.0
 40
6.0
 40
7.0
 40
7.0
 40
7.0
 40
7.0
 10
132.5686523106078
 20
-135.135248447119
 30
0.0
 10
132.5686523106078
 20
-135.135248447119
 30
0.0
 10
131.4648437171338
 20
-135.135248447119
 30
0.0
 10
131.4648437171338
 20
-135.135248447119
 30
0.0
 10
131.4648437171338
 20
-135.135248447119
 30
0.0
 10
131.4648437171338
 20
-135.48768171526
 30
0.0
 10
131.4648437171338
 20
-135.48768171526
 30
0.0
 10
131.4648437171338
 20
-135.48768171526
 30
0.0
 10
131.3167046112681
 20
-135.48768171526
 30
0.0
 10
131.3167046112681
 20
-135.48768171526
 30
0.0
 10
131.301546191133
 20
-135.1328368802793
 30
0.0
 10
131.1389376842291
 20
-135.0832275052917
 30
0.0
 10
131.0245605141189
 20
-135.0515326268274
 30
0.0
 10
131.0245605141189
 20
-135.0515326268274
 30
0.0
 10
131.0245605141189
 20
-134.8954698013456
 30
0.0
 10
131.0245605141189
 20
-134.8954698013456
 30
0.0
 10
131.0245605141189
 20
-134.8954698013456
 30
0.0
 10
132.5686523106078
 20
-134.8954698013456
 30
0.0
 10
132.5686523106078
 20
-134.8954698013456
 30
0.0
 10
132.5686523106078
 20
-134.8954698013456
 30
0.0
 10
132.5686523106078
 20
-135.135248447119
 30
0.0
 10
132.5686523106078
 20
-135.135248447119
 30
0.0
  0
HATCH
  5
7E
330
79
100
AcDbEntity
  8
_U+30EC_U+30A4_U+30E4_U+30FC 1
 62
   179
420
  2234388
100
AcDbHatch
 10
0.0
 20
0.0
 30
0.0
210
0.0
220
0.0
230
1.0
  2
SOLID
 70
     1
 71
     0
 91
        1
 92
        1
 93
        1
 72
     4
 94
        3
 73
     0
 74
     1
 95
       26
 96
       22
 40
0.0
 40
0.0
 40
0.0
 40
0.0
 40
1.0
 40
1.0
 40
1.0
 40
2.0
 40
2.0
 40
2.0
 40
3.0
 40
3.0
 40
3.0
 40
4.0
 40
4.0
 40
4.0
 40
5.0
 40
5.0
 40
5.0
 40
6.0
 40
6.0
 40
6.0
 40
7.0
 40
7.0
 40
7.0
 40
7.0
 10
132.5686523106078
 20
-135.135248447119
 10
132.5686523106078
 20
-135.135248447119
 10
131.4648437171338
 20
-135.135248447119
 10
131.4648437171338
 20
-135.135248447119
 10
131.4648437171338
 20
-135.135248447119
 10
131.4648437171338
 20
-135.48768171526
 10
131.4648437171338
 20
-135.48768171526
 10
131.4648437171338
 20
-135.48768171526
 10
131.3167046112681
 20
-135.48768171526
 10
131.3167046112681
 20
-135.48768171526
 10
131.301546191133
 20
-135.1328368802793
 10
131.1389376842291
 20
-135.0832275052917
 10
131.0245605141189
 20
-135.0515326268274
 10
131.0245605141189
 20
-135.0515326268274
 10
131.0245605141189
 20
-134.8954698013456
 10
131.0245605141189
 20
-134.8954698013456
 10
131.0245605141189
 20
-134.8954698013456
 10
132.5686523106078
 20
-134.8954698013456
 10
132.5686523106078
 20
-134.8954698013456
 10
132.5686523106078
 20
-134.8954698013456
 10
132.5686523106078
 20
-135.135248447119
 10
132.5686523106078
 20
-135.135248447119
 97
        0
 97
        0
 75
     2
 76
     1
 98
        0
  0
POLYLINE
  5
7F
330
79
100
AcDbEntity
  8
_U+30EC_U+30A4_U+30E4_U+30FC 1
370
     0
100
AcDb2dPolyline
 66
     1
 10
0.0
 20
0.0
 30
0.0
  0
VERTEX
  5
80
330
7F
100
AcDbEntity
  8
_U+30EC_U+30A4_U+30E4_U+30FC 1
370
     0
100
AcDbVertex
100
AcDb2dVertex
 10
132.5686523106078
 20
-134.2956786773636
 30
0.0
  0
VERTEX
  5
81
330
7F
100
AcDbEntity
  8
_U+30EC_U+30A4_U+30E4_U+30FC 1
370
     0
100
AcDbVertex
100
AcDb2dVertex
 10
132.3171603401846
 20
-134.2956786773636
 30
0.0
  0
VERTEX
  5
82
330
7F
100
AcDbEntity
  8
_U+30EC_U+30A4_U+30E4_U+30FC 1
370
     0
100
AcDbVertex
100
AcDb2dVertex
 10
132.3171603401846
 20
-134.0266167199656
 30
0.0
  0
VERTEX
  5
83
330
7F
100
AcDbEntity
  8
_U+30EC_U+30A4_U+30E4_U+30FC 1
370
     0
100
AcDbVertex
100
AcDb2dVertex
 10
132.5686523106078
 20
-134.0266167199656
 30
0.0
  0
VERTEX
  5
84
330
7F
100
AcDbEntity
  8
_U+30EC_U+30A4_U+30E4_U+30FC 1
370
     0
100
AcDbVertex
100
AcDb2dVertex
 10
132.5686523106078
 20
-134.2956786773636
 30
0.0
  0
SEQEND
  5
85
330
7F
100
AcDbEntity
  8
_U+30EC_U+30A4_U+30E4_U+30FC 1
370
     0
  0
HATCH
  5
86
330
79
100
AcDbEntity
  8
_U+30EC_U+30A4_U+30E4_U+30FC 1
 62
   179
420
  2234388
100
AcDbHatch
 10
0.0
 20
0.0
 30
0.0
210
0.0
220
0.0
230
1.0
  2
SOLID
 70
     1
 71
     0
 91
        1
 92
        1
 93
        4
 72
     1
 10
132.5686523106078
 20
-134.2956786773636
 11
132.3171603401846
 21
-134.2956786773636
 72
     1
 10
132.3171603401846
 20
-134.2956786773636
 11
132.3171603401846
 21
-134.0266167199656
 72
     1
 10
132.3171603401846
 20
-134.0266167199656
 11
132.5686523106078
 21
-134.0266167199656
 72
     1
 10
132.5686523106078
 20
-134.0266167199656
 11
132.5686523106078
 21
-134.2956786773636
 97
        0
 75
     2
 76
     1
 98
        0
  0
SPLINE
  5
87
330
79
100
AcDbEntity
  8
_U+30EC_U+30A4_U+30E4_U+30FC 1
370
     0
100
AcDbSpline
210
0.0
220
0.0
230
1.0
 70
    11
 71
     3
 72
    53
 73
    49
 74
     0
 42
0.0000000001
 43
0.0000000001
 12
1.0
 22
0.0
 32
0.0
 13
1.0
 23
0.0
 33
0.0
 40
0.0
 40
0.0
 40
0.0
 40
0.0
 40
1.0
 40
1.0
 40
1.0
 40
2.0
 40
2.0
 40
2.0
 40
3.0
 40
3.0
 40
3.0
 40
4.0
 40
4.0
 40
4.0
 40
5.0
 40
5.0
 40
5.0
 40
6.0
 40
6.0
 40
6.0
 40
7.0
 40
7.0
 40
7.0
 40
8.0
 40
8.0
 40
8.0
 40
9.0
 40
9.0
 40
9.0
 40
10.0
 40
10.0
 40
10.0
 40
11.0
 40
11.0
 40
11.0
 40
12.0
 40
12.0
 40
12.0
 40
13.0
 40
13.0
 40
13.0
 40
14.0
 40
14.0
 40
14.0
 40
15.0
 40
15.0
 40
15.0
 40
16.0
 40
16.0
 40
16.0
 40
16.0
 10
132.6196397237895
 20
-133.259738464949
 30
0.0
 10
132.6196397237895
 20
-133.3434542852405
 30
0.0
 10
132.6024142463633
 20
-133.4516302834774
 30
0.0
 10
132.5390244894347
 20
-133.5604953008113
 30
0.0
 10
132.4294704530037
 20
-133.7458414379177
 30
0.0
 10
132.2978678054672
 20
-133.7682345585718
 30
0.0
 10
132.1903808263274
 20
-133.7885606219348
 30
0.0
 10
132.1903808263274
 20
-133.7885606219348
 30
0.0
 10
132.1903808263274
 20
-133.5511935430011
 30
0.0
 10
132.1903808263274
 20
-133.5511935430011
 30
0.0
 10
132.3888183262778
 20
-133.4926269197518
 30
0.0
 10
132.4184461474509
 20
-133.356890157633
 30
0.0
 10
132.4184461474509
 20
-133.2573268981093
 30
0.0
 10
132.4184461474509
 20
-133.108154263598
 30
0.0
 10
132.3192273974757
 20
-132.9452012471457
 30
0.0
 10
132.0863389426729
 20
-132.9452012471457
 30
0.0
 10
131.8307128576673
 20
-132.9452012471457
 30
0.0
 10
131.7604329097682
 20
-133.1374375752226
 30
0.0
 10
131.7604329097682
 20
-133.2662841463709
 30
0.0
 10
131.7604329097682
 20
-133.3003905916749
 30
0.0
 10
131.7604329097682
 20
-133.4516302834774
 30
0.0
 10
131.8899685000136
 20
-133.5467149188703
 30
0.0
 10
131.8899685000136
 20
-133.5467149188703
 30
0.0
 10
131.8706759652962
 20
-133.7344726228164
 30
0.0
 10
131.8706759652962
 20
-133.7344726228164
 30
0.0
 10
131.8706759652962
 20
-133.7344726228164
 30
0.0
 10
131.0245605141189
 20
-133.6056260516681
 30
0.0
 10
131.0245605141189
 20
-133.6056260516681
 30
0.0
 10
131.0245605141189
 20
-133.6056260516681
 30
0.0
 10
131.0245605141189
 20
-132.7736354919802
 30
0.0
 10
131.0245605141189
 20
-132.7736354919802
 30
0.0
 10
131.0245605141189
 20
-132.7736354919802
 30
0.0
 10
131.218863899487
 20
-132.7736354919802
 30
0.0
 10
131.218863899487
 20
-132.7736354919802
 30
0.0
 10
131.218863899487
 20
-132.7736354919802
 30
0.0
 10
131.218863899487
 20
-133.4313042201144
 30
0.0
 10
131.218863899487
 20
-133.4313042201144
 30
0.0
 10
131.218863899487
 20
-133.4313042201144
 30
0.0
 10
131.6419216250756
 20
-133.5015841680135
 30
0.0
 10
131.6419216250756
 20
-133.5015841680135
 30
0.0
 10
131.6081596893202
 20
-133.4361273537938
 30
0.0
 10
131.5681965816913
 20
-133.3479329093714
 30
0.0
 10
131.5681965816913
 20
-133.2211533955142
 30
0.0
 10
131.5681965816913
 20
-132.950024380825
 30
0.0
 10
131.7542317378948
 20
-132.6968098626591
 30
0.0
 10
132.0677354270525
 20
-132.6968098626591
 30
0.0
 10
132.3846842116955
 20
-132.6968098626591
 30
0.0
 10
132.6196397237895
 20
-132.936243998884
 30
0.0
 10
132.6196397237895
 20
-133.259738464949
 30
0.0
  0
HATCH
  5
88
330
79
100
AcDbEntity
  8
_U+30EC_U+30A4_U+30E4_U+30FC 1
 62
   179
420
  2234388
100
AcDbHatch
 10
0.0
 20
0.0
 30
0.0
210
0.0
220
0.0
230
1.0
  2
SOLID
 70
     1
 71
     0
 91
        1
 92
        1
 93
        1
 72
     4
 94
        3
 73
     0
 74
     1
 95
       53
 96
       49
 40
0.0
 40
0.0
 40
0.0
 40
0.0
 40
1.0
 40
1.0
 40
1.0
 40
2.0
 40
2.0
 40
2.0
 40
3.0
 40
3.0
 40
3.0
 40
4.0
 40
4.0
 40
4.0
 40
5.0
 40
5.0
 40
5.0
 40
6.0
 40
6.0
 40
6.0
 40
7.0
 40
7.0
 40
7.0
 40
8.0
 40
8.0
 40
8.0
 40
9.0
 40
9.0
 40
9.0
 40
10.0
 40
10.0
 40
10.0
 40
11.0
 40
11.0
 40
11.0
 40
12.0
 40
12.0
 40
12.0
 40
13.0
 40
13.0
 40
13.0
 40
14.0
 40
14.0
 40
14.0
 40
15.0
 40
15.0
 40
15.0
 40
16.0
 40
16.0
 40
16.0
 40
16.0
 10
132.6196397237895
 20
-133.259738464949
 10
132.6196397237895
 20
-133.3434542852405
 10
132.6024142463633
 20
-133.4516302834774
 10
132.5390244894347
 20
-133.5604953008113
 10
132.4294704530037
 20
-133.7458414379177
 10
132.2978678054672
 20
-133.7682345585718
 10
132.1903808263274
 20
-133.7885606219348
 10
132.1903808263274
 20
-133.7885606219348
 10
132.1903808263274
 20
-133.5511935430011
 10
132.1903808263274
 20
-133.5511935430011
 10
132.3888183262778
 20
-133.4926269197518
 10
132.4184461474509
 20
-133.356890157633
 10
132.4184461474509
 20
-133.2573268981093
 10
132.4184461474509
 20
-133.108154263598
 10
132.3192273974757
 20
-132.9452012471457
 10
132.0863389426729
 20
-132.9452012471457
 10
131.8307128576673
 20
-132.9452012471457
 10
131.7604329097682
 20
-133.1374375752226
 10
131.7604329097682
 20
-133.2662841463709
 10
131.7604329097682
 20
-133.3003905916749
 10
131.7604329097682
 20
-133.4516302834774
 10
131.8899685000136
 20
-133.5467149188703
 10
131.8899685000136
 20
-133.5467149188703
 10
131.8706759652962
 20
-133.7344726228164
 10
131.8706759652962
 20
-133.7344726228164
 10
131.8706759652962
 20
-133.7344726228164
 10
131.0245605141189
 20
-133.6056260516681
 10
131.0245605141189
 20
-133.6056260516681
 10
131.0245605141189
 20
-133.6056260516681
 10
131.0245605141189
 20
-132.7736354919802
 10
131.0245605141189
 20
-132.7736354919802
 10
131.0245605141189
 20
-132.7736354919802
 10
131.218863899487
 20
-132.7736354919802
 10
131.218863899487
 20
-132.7736354919802
 10
131.218863899487
 20
-132.7736354919802
 10
131.218863899487
 20
-133.4313042201144
 10
131.218863899487
 20
-133.4313042201144
 10
131.218863899487
 20
-133.4313042201144
 10
131.6419216250756
 20
-133.5015841680135
 10
131.6419216250756
 20
-133.5015841680135
 10
131.6081596893202
 20
-133.4361273537938
 10
131.5681965816913
 20
-133.3479329093714
 10
131.5681965816913
 20
-133.2211533955142
 10
131.5681965816913
 20
-132.950024380825
 10
131.7542317378948
 20
-132.6968098626591
 10
132.0677354270525
 20
-132.6968098626591
 10
132.3846842116955
 20
-132.6968098626591
 10
132.6196397237895
 20
-132.936243998884
 10
132.6196397237895
 20
-133.259738464949
 97
        0
 97
        0
 75
     2
 76
     1
 98
        0
  0
ENDBLK
  5
7C
330
79
100
AcDbEntity
  8
0
100
AcDbBlockEnd
  0
BLOCK
  5
97
330
95
100
AcDbEntity
  8
0
100
AcDbBlockBegin
  2
block 3
 70
     0
 10
0.0
 20
0.0
 30
0.0
  3
block 3
  1

  0
SPLINE
  5
99
330
95
100
AcDbEntity
  8
_U+30EC_U+30A4_U+30E4_U+30FC 1
370
     0
100
AcDbSpline
210
0.0
220
0.0
230
1.0
 70
    11
 71
     3
 72
    44
 73
    40
 74
     0
 42
0.0000000001
 43
0.0000000001
 12
1.0
 22
0.0
 32
0.0
 13
1.0
 23
0.0
 33
0.0
 40
0.0
 40
0.0
 40
0.0
 40
0.0
 40
1.0
 40
1.0
 40
1.0
 40
2.0
 40
2.0
 40
2.0
 40
3.0
 40
3.0
 40
3.0
 40
4.0
 40
4.0
 40
4.0
 40
5.0
 40
5.0
 40
5.0
 40
6.0
 40
6.0
 40
6.0
 40
7.0
 40
7.0
 40
7.0
 40
8.0
 40
8.0
 40
8.0
 40
9.0
 40
9.0
 40
9.0
 40
10.0
 40
10.0
 40
10.0
 40
11.0
 40
11.0
 40
11.0
 40
12.0
 40
12.0
 40
12.0
 40
13.0
 40
13.0
 40
13.0
 40
13.0
 10
49.24712319732364
 20
-127.3007568041123
 30
0.0
 10
49.4057698444194
 20
-127.5336452589152
 30
0.0
 10
49.47983939735226
 20
-127.6332085184389
 30
0.0
 10
49.62367213386145
 20
-127.6852294602662
 30
0.0
 10
49.62367213386145
 20
-127.6852294602662
 30
0.0
 10
49.62367213386145
 20
-126.8528943910298
 30
0.0
 10
49.62367213386145
 20
-126.8528943910298
 30
0.0
 10
49.62367213386145
 20
-126.8528943910298
 30
0.0
 10
49.82882757000807
 20
-126.8528943910298
 30
0.0
 10
49.82882757000807
 20
-126.8528943910298
 30
0.0
 10
49.82882757000807
 20
-126.8528943910298
 30
0.0
 10
49.82882757000807
 20
-127.9518798508245
 30
0.0
 10
49.82882757000807
 20
-127.9518798508245
 30
0.0
 10
49.47122665863914
 20
-127.9177734055206
 30
0.0
 10
49.39302299112397
 20
-127.84783796717
 30
0.0
 10
49.09467772210133
 20
-127.4364935662312
 30
0.0
 10
48.89589571260242
 20
-127.1629529847023
 30
0.0
 10
48.82819958631726
 20
-127.0926730368032
 30
0.0
 10
48.69074027645579
 20
-127.0926730368032
 30
0.0
 10
48.5722289917632
 20
-127.0926730368032
 30
0.0
 10
48.44097085377518
 20
-127.1694986661243
 30
0.0
 10
48.44097085377518
 20
-127.3799940002731
 30
0.0
 10
48.44097085377518
 20
-127.6580132059327
 30
0.0
 10
48.67161999651265
 20
-127.6669704541944
 30
0.0
 10
48.7880642239141
 20
-127.6714490783252
 30
0.0
 10
48.7880642239141
 20
-127.6714490783252
 30
0.0
 10
48.7880642239141
 20
-127.9112277240986
 30
0.0
 10
48.7880642239141
 20
-127.9112277240986
 30
0.0
 10
48.66111245528264
 20
-127.9022704758369
 30
0.0
 10
48.54897459723776
 20
-127.8909016607356
 30
0.0
 10
48.43046331254516
 20
-127.8047742736044
 30
0.0
 10
48.26974960815826
 20
-127.6872965175573
 30
0.0
 10
48.23581541762855
 20
-127.4885145080584
 30
0.0
 10
48.23581541762855
 20
-127.3641465610409
 30
0.0
 10
48.23581541762855
 20
-127.0678683493094
 30
0.0
 10
48.41995577131515
 20
-126.8463487096079
 30
0.0
 10
48.69280733374694
 20
-126.8463487096079
 30
0.0
 10
48.92121716441901
 20
-126.8463487096079
 30
0.0
 10
49.02078042394272
 20
-126.9707166566254
 30
0.0
 10
49.24712319732364
 20
-127.3007568041123
 30
0.0
  0
HATCH
  5
9A
330
95
100
AcDbEntity
  8
_U+30EC_U+30A4_U+30E4_U+30FC 1
 62
   179
420
  2234388
100
AcDbHatch
 10
0.0
 20
0.0
 30
0.0
210
0.0
220
0.0
230
1.0
  2
SOLID
 70
     1
 71
     0
 91
        1
 92
        1
 93
        1
 72
     4
 94
        3
 73
     0
 74
     1
 95
       44
 96
       40
 40
0.0
 40
0.0
 40
0.0
 40
0.0
 40
1.0
 40
1.0
 40
1.0
 40
2.0
 40
2.0
 40
2.0
 40
3.0
 40
3.0
 40
3.0
 40
4.0
 40
4.0
 40
4.0
 40
5.0
 40
5.0
 40
5.0
 40
6.0
 40
6.0
 40
6.0
 40
7.0
 40
7.0
 40
7.0
 40
8.0
 40
8.0
 40
8.0
 40
9.0
 40
9.0
 40
9.0
 40
10.0
 40
10.0
 40
10.0
 40
11.0
 40
11.0
 40
11.0
 40
12.0
 40
12.0
 40
12.0
 40
13.0
 40
13.0
 40
13.0
 40
13.0
 10
49.24712319732364
 20
-127.3007568041123
 10
49.4057698444194
 20
-127.5336452589152
 10
49.47983939735226
 20
-127.6332085184389
 10
49.62367213386145
 20
-127.6852294602662
 10
49.62367213386145
 20
-127.6852294602662
 10
49.62367213386145
 20
-126.8528943910298
 10
49.62367213386145
 20
-126.8528943910298
 10
49.62367213386145
 20
-126.8528943910298
 10
49.82882757000807
 20
-126.8528943910298
 10
49.82882757000807
 20
-126.8528943910298
 10
49.82882757000807
 20
-126.8528943910298
 10
49.82882757000807
 20
-127.9518798508245
 10
49.82882757000807
 20
-127.9518798508245
 10
49.47122665863914
 20
-127.9177734055206
 10
49.39302299112397
 20
-127.84783796717
 10
49.09467772210133
 20
-127.4364935662312
 10
48.89589571260242
 20
-127.1629529847023
 10
48.82819958631726
 20
-127.0926730368032
 10
48.69074027645579
 20
-127.0926730368032
 10
48.5722289917632
 20
-127.0926730368032
 10
48.44097085377518
 20
-127.1694986661243
 10
48.44097085377518
 20
-127.3799940002731
 10
48.44097085377518
 20
-127.6580132059327
 10
48.67161999651265
 20
-127.6669704541944
 10
48.7880642239141
 20
-127.6714490783252
 10
48.7880642239141
 20
-127.6714490783252
 10
48.7880642239141
 20
-127.9112277240986
 10
48.7880642239141
 20
-127.9112277240986
 10
48.66111245528264
 20
-127.9022704758369
 10
48.54897459723776
 20
-127.8909016607356
 10
48.43046331254516
 20
-127.8047742736044
 10
48.26974960815826
 20
-127.6872965175573
 10
48.23581541762855
 20
-127.4885145080584
 10
48.23581541762855
 20
-127.3641465610409
 10
48.23581541762855
 20
-127.0678683493094
 10
48.41995577131515
 20
-126.8463487096079
 10
48.69280733374694
 20
-126.8463487096079
 10
48.92121716441901
 20
-126.8463487096079
 10
49.02078042394272
 20
-126.9707166566254
 10
49.24712319732364
 20
-127.3007568041123
 97
        0
 97
        0
 75
     2
 76
     1
 98
        0
  0
SPLINE
  5
9B
330
95
100
AcDbEntity
  8
_U+30EC_U+30A4_U+30E4_U+30FC 1
370
     0
100
AcDbSpline
210
0.0
220
0.0
230
1.0
 70
    11
 71
     3
 72
    53
 73
    49
 74
     0
 42
0.0000000001
 43
0.0000000001
 12
1.0
 22
0.0
 32
0.0
 13
1.0
 23
0.0
 33
0.0
 40
0.0
 40
0.0
 40
0.0
 40
0.0
 40
1.0
 40
1.0
 40
1.0
 40
2.0
 40
2.0
 40
2.0
 40
3.0
 40
3.0
 40
3.0
 40
4.0
 40
4.0
 40
4.0
 40
5.0
 40
5.0
 40
5.0
 40
6.0
 40
6.0
 40
6.0
 40
7.0
 40
7.0
 40
7.0
 40
8.0
 40
8.0
 40
8.0
 40
9.0
 40
9.0
 40
9.0
 40
10.0
 40
10.0
 40
10.0
 40
11.0
 40
11.0
 40
11.0
 40
12.0
 40
12.0
 40
12.0
 40
13.0
 40
13.0
 40
13.0
 40
14.0
 40
14.0
 40
14.0
 40
15.0
 40
15.0
 40
15.0
 40
16.0
 40
16.0
 40
16.0
 40
16.0
 10
49.87964272841551
 20
-126.1628417653343
 30
0.0
 10
49.87964272841551
 20
-126.2465575856259
 30
0.0
 10
49.86276176053779
 20
-126.3547335838627
 30
0.0
 10
49.79919974883492
 20
-126.4635986011966
 30
0.0
 10
49.68912894808119
 20
-126.648944738303
 30
0.0
 10
49.55804306486743
 20
-126.6713378589572
 30
0.0
 10
49.45021157617911
 20
-126.6916639223201
 30
0.0
 10
49.45021157617911
 20
-126.6916639223201
 30
0.0
 10
49.45021157617911
 20
-126.4542968433864
 30
0.0
 10
49.45021157617911
 20
-126.4542968433864
 30
0.0
 10
49.64899358567803
 20
-126.3957302201372
 30
0.0
 10
49.67862140685118
 20
-126.2599934580183
 30
0.0
 10
49.67862140685118
 20
-126.1604301984946
 30
0.0
 10
49.67862140685118
 20
-126.0112575639833
 30
0.0
 10
49.57923040210172
 20
-125.848304547531
 30
0.0
 10
49.3465142020731
 20
-125.848304547531
 30
0.0
 10
49.09054360751903
 20
-125.848304547531
 30
0.0
 10
49.02078042394272
 20
-126.0405408756079
 30
0.0
 10
49.02078042394272
 20
-126.1693874467563
 30
0.0
 10
49.02078042394272
 20
-126.2034938920602
 30
0.0
 10
49.02078042394272
 20
-126.3547335838627
 30
0.0
 10
49.14979924986533
 20
-126.4498182192556
 30
0.0
 10
49.14979924986533
 20
-126.4498182192556
 30
0.0
 10
49.13067896992219
 20
-126.6375759232017
 30
0.0
 10
49.13067896992219
 20
-126.6375759232017
 30
0.0
 10
49.13067896992219
 20
-126.6375759232017
 30
0.0
 10
48.28456351874483
 20
-126.5087293520534
 30
0.0
 10
48.28456351874483
 20
-126.5087293520534
 30
0.0
 10
48.28456351874483
 20
-126.5087293520534
 30
0.0
 10
48.28456351874483
 20
-125.6767387923655
 30
0.0
 10
48.28456351874483
 20
-125.6767387923655
 30
0.0
 10
48.28456351874483
 20
-125.6767387923655
 30
0.0
 10
48.47921141366145
 20
-125.6767387923655
 30
0.0
 10
48.47921141366145
 20
-125.6767387923655
 30
0.0
 10
48.47921141366145
 20
-125.6767387923655
 30
0.0
 10
48.47921141366145
 20
-126.3344075204997
 30
0.0
 10
48.47921141366145
 20
-126.3344075204997
 30
0.0
 10
48.47921141366145
 20
-126.3344075204997
 30
0.0
 10
48.90226913925013
 20
-126.4046874683988
 30
0.0
 10
48.90226913925013
 20
-126.4046874683988
 30
0.0
 10
48.86833494872042
 20
-126.3392306541791
 30
0.0
 10
48.82819958631726
 20
-126.2510362097567
 30
0.0
 10
48.82819958631726
 20
-126.1242566958995
 30
0.0
 10
48.82819958631726
 20
-125.8531276812103
 30
0.0
 10
49.01440699729501
 20
-125.5999131630445
 30
0.0
 10
49.32739392212996
 20
-125.5999131630445
 30
0.0
 10
49.64485947109574
 20
-125.5999131630445
 30
0.0
 10
49.87964272841551
 20
-125.8393472992693
 30
0.0
 10
49.87964272841551
 20
-126.1628417653343
 30
0.0
  0
HATCH
  5
9C
330
95
100
AcDbEntity
  8
_U+30EC_U+30A4_U+30E4_U+30FC 1
 62
   179
420
  2234388
100
AcDbHatch
 10
0.0
 20
0.0
 30
0.0
210
0.0
220
0.0
230
1.0
  2
SOLID
 70
     1
 71
     0
 91
        1
 92
        1
 93
        1
 72
     4
 94
        3
 73
     0
 74
     1
 95
       53
 96
       49
 40
0.0
 40
0.0
 40
0.0
 40
0.0
 40
1.0
 40
1.0
 40
1.0
 40
2.0
 40
2.0
 40
2.0
 40
3.0
 40
3.0
 40
3.0
 40
4.0
 40
4.0
 40
4.0
 40
5.0
 40
5.0
 40
5.0
 40
6.0
 40
6.0
 40
6.0
 40
7.0
 40
7.0
 40
7.0
 40
8.0
 40
8.0
 40
8.0
 40
9.0
 40
9.0
 40
9.0
 40
10.0
 40
10.0
 40
10.0
 40
11.0
 40
11.0
 40
11.0
 40
12.0
 40
12.0
 40
12.0
 40
13.0
 40
13.0
 40
13.0
 40
14.0
 40
14.0
 40
14.0
 40
15.0
 40
15.0
 40
15.0
 40
16.0
 40
16.0
 40
16.0
 40
16.0
 10
49.87964272841551
 20
-126.1628417653343
 10
49.87964272841551
 20
-126.2465575856259
 10
49.86276176053779
 20
-126.3547335838627
 10
49.79919974883492
 20
-126.4635986011966
 10
49.68912894808119
 20
-126.648944738303
 10
49.55804306486743
 20
-126.6713378589572
 10
49.45021157617911
 20
-126.6916639223201
 10
49.45021157617911
 20
-126.6916639223201
 10
49.45021157617911
 20
-126.4542968433864
 10
49.45021157617911
 20
-126.4542968433864
 10
49.64899358567803
 20
-126.3957302201372
 10
49.67862140685118
 20
-126.2599934580183
 10
49.67862140685118
 20
-126.1604301984946
 10
49.67862140685118
 20
-126.0112575639833
 10
49.57923040210172
 20
-125.848304547531
 10
49.3465142020731
 20
-125.848304547531
 10
49.09054360751903
 20
-125.848304547531
 10
49.02078042394272
 20
-126.0405408756079
 10
49.02078042394272
 20
-126.1693874467563
 10
49.02078042394272
 20
-126.2034938920602
 10
49.02078042394272
 20
-126.3547335838627
 10
49.14979924986533
 20
-126.4498182192556
 10
49.14979924986533
 20
-126.4498182192556
 10
49.13067896992219
 20
-126.6375759232017
 10
49.13067896992219
 20
-126.6375759232017
 10
49.13067896992219
 20
-126.6375759232017
 10
48.28456351874483
 20
-126.5087293520534
 10
48.28456351874483
 20
-126.5087293520534
 10
48.28456351874483
 20
-126.5087293520534
 10
48.28456351874483
 20
-125.6767387923655
 10
48.28456351874483
 20
-125.6767387923655
 10
48.28456351874483
 20
-125.6767387923655
 10
48.47921141366145
 20
-125.6767387923655
 10
48.47921141366145
 20
-125.6767387923655
 10
48.47921141366145
 20
-125.6767387923655
 10
48.47921141366145
 20
-126.3344075204997
 10
48.47921141366145
 20
-126.3344075204997
 10
48.47921141366145
 20
-126.3344075204997
 10
48.90226913925013
 20
-126.4046874683988
 10
48.90226913925013
 20
-126.4046874683988
 10
48.86833494872042
 20
-126.3392306541791
 10
48.82819958631726
 20
-126.2510362097567
 10
48.82819958631726
 20
-126.1242566958995
 10
48.82819958631726
 20
-125.8531276812103
 10
49.01440699729501
 20
-125.5999131630445
 10
49.32739392212996
 20
-125.5999131630445
 10
49.64485947109574
 20
-125.5999131630445
 10
49.87964272841551
 20
-125.8393472992693
 10
49.87964272841551
 20
-126.1628417653343
 97
        0
 97
        0
 75
     2
 76
     1
 98
        0
  0
POLYLINE
  5
9D
330
95
100
AcDbEntity
  8
_U+30EC_U+30A4_U+30E4_U+30FC 1
370
     0
100
AcDb2dPolyline
 66
     1
 10
0.0
 20
0.0
 30
0.0
  0
VERTEX
  5
9E
330
9D
100
AcDbEntity
  8
_U+30EC_U+30A4_U+30E4_U+30FC 1
370
     0
100
AcDbVertex
100
AcDb2dVertex
 10
49.82882757000807
 20
-125.3549668740432
 30
0.0
  0
VERTEX
  5
9F
330
9D
100
AcDbEntity
  8
_U+30EC_U+30A4_U+30E4_U+30FC 1
370
     0
100
AcDbVertex
100
AcDb2dVertex
 10
49.57716334481057
 20
-125.3549668740432
 30
0.0
  0
VERTEX
  5
A0
330
9D
100
AcDbEntity
  8
_U+30EC_U+30A4_U+30E4_U+30FC 1
370
     0
100
AcDbVertex
100
AcDb2dVertex
 10
49.57716334481057
 20
-125.0859049166452
 30
0.0
  0
VERTEX
  5
A1
330
9D
100
AcDbEntity
  8
_U+30EC_U+30A4_U+30E4_U+30FC 1
370
     0
100
AcDbVertex
100
AcDb2dVertex
 10
49.82882757000807
 20
-125.0859049166452
 30
0.0
  0
VERTEX
  5
A2
330
9D
100
AcDbEntity
  8
_U+30EC_U+30A4_U+30E4_U+30FC 1
370
     0
100
AcDbVertex
100
AcDb2dVertex
 10
49.82882757000807
 20
-125.3549668740432
 30
0.0
  0
SEQEND
  5
A3
330
9D
100
AcDbEntity
  8
_U+30EC_U+30A4_U+30E4_U+30FC 1
370
     0
  0
HATCH
  5
A4
330
95
100
AcDbEntity
  8
_U+30EC_U+30A4_U+30E4_U+30FC 1
 62
   179
420
  2234388
100
AcDbHatch
 10
0.0
 20
0.0
 30
0.0
210
0.0
220
0.0
230
1.0
  2
SOLID
 70
     1
 71
     0
 91
        1
 92
        1
 93
        4
 72
     1
 10
49.82882757000807
 20
-125.3549668740432
 11
49.57716334481057
 21
-125.3549668740432
 72
     1
 10
49.57716334481057
 20
-125.3549668740432
 11
49.57716334481057
 21
-125.0859049166452
 72
     1
 10
49.57716334481057
 20
-125.0859049166452
 11
49.82882757000807
 21
-125.0859049166452
 72
     1
 10
49.82882757000807
 20
-125.0859049166452
 11
49.82882757000807
 21
-125.3549668740432
 97
        0
 75
     2
 76
     1
 98
        0
  0
POLYLINE
  5
A5
330
95
100
AcDbEntity
  8
_U+30EC_U+30A4_U+30E4_U+30FC 1
370
     0
100
AcDb2dPolyline
 66
     1
 10
0.0
 20
0.0
 30
0.0
  0
VERTEX
  5
A6
330
A5
100
AcDbEntity
  8
_U+30EC_U+30A4_U+30E4_U+30FC 1
370
     0
100
AcDbVertex
100
AcDb2dVertex
 10
49.48190645464341
 20
-123.9435112537363
 30
0.0
  0
VERTEX
  5
A7
330
A5
100
AcDbEntity
  8
_U+30EC_U+30A4_U+30E4_U+30FC 1
370
     0
100
AcDbVertex
100
AcDb2dVertex
 10
49.82882757000807
 20
-123.9435112537363
 30
0.0
  0
VERTEX
  5
A8
330
A5
100
AcDbEntity
  8
_U+30EC_U+30A4_U+30E4_U+30FC 1
370
     0
100
AcDbVertex
100
AcDb2dVertex
 10
49.82882757000807
 20
-124.1763997085392
 30
0.0
  0
VERTEX
  5
A9
330
A5
100
AcDbEntity
  8
_U+30EC_U+30A4_U+30E4_U+30FC 1
370
     0
100
AcDbVertex
100
AcDb2dVertex
 10
49.48190645464341
 20
-124.1763997085392
 30
0.0
  0
VERTEX
  5
AA
330
A5
100
AcDbEntity
  8
_U+30EC_U+30A4_U+30E4_U+30FC 1
370
     0
100
AcDbVertex
100
AcDb2dVertex
 10
49.48190645464341
 20
-124.8774766397876
 30
0.0
  0
VERTEX
  5
AB
330
A5
100
AcDbEntity
  8
_U+30EC_U+30A4_U+30E4_U+30FC 1
370
     0
100
AcDbVertex
100
AcDb2dVertex
 10
49.25763073855365
 20
-124.8774766397876
 30
0.0
  0
VERTEX
  5
AC
330
A5
100
AcDbEntity
  8
_U+30EC_U+30A4_U+30E4_U+30FC 1
370
     0
100
AcDbVertex
100
AcDb2dVertex
 10
48.28456351874483
 20
-124.1515950210454
 30
0.0
  0
VERTEX
  5
AD
330
A5
100
AcDbEntity
  8
_U+30EC_U+30A4_U+30E4_U+30FC 1
370
     0
100
AcDbVertex
100
AcDb2dVertex
 10
48.28456351874483
 20
-123.9435112537363
 30
0.0
  0
VERTEX
  5
AE
330
A5
100
AcDbEntity
  8
_U+30EC_U+30A4_U+30E4_U+30FC 1
370
     0
100
AcDbVertex
100
AcDb2dVertex
 10
49.28295219037024
 20
-123.9435112537363
 30
0.0
  0
VERTEX
  5
AF
330
A5
100
AcDbEntity
  8
_U+30EC_U+30A4_U+30E4_U+30FC 1
370
     0
100
AcDbVertex
100
AcDb2dVertex
 10
49.28295219037024
 20
-123.7219916140348
 30
0.0
  0
VERTEX
  5
B0
330
A5
100
AcDbEntity
  8
_U+30EC_U+30A4_U+30E4_U+30FC 1
370
     0
100
AcDbVertex
100
AcDb2dVertex
 10
49.48190645464341
 20
-123.7219916140348
 30
0.0
  0
VERTEX
  5
B1
330
A5
100
AcDbEntity
  8
_U+30EC_U+30A4_U+30E4_U+30FC 1
370
     0
100
AcDbVertex
100
AcDb2dVertex
 10
49.48190645464341
 20
-123.9435112537363
 30
0.0
  0
SEQEND
  5
B2
330
A5
100
AcDbEntity
  8
_U+30EC_U+30A4_U+30E4_U+30FC 1
370
     0
  0
POLYLINE
  5
B3
330
95
100
AcDbEntity
  8
_U+30EC_U+30A4_U+30E4_U+30FC 1
370
     0
100
AcDb2dPolyline
 66
     1
 10
0.0
 20
0.0
 30
0.0
  0
VERTEX
  5
B4
330
B3
100
AcDbEntity
  8
_U+30EC_U+30A4_U+30E4_U+30FC 1
370
     0
100
AcDbVertex
100
AcDb2dVertex
 10
48.62717826475293
 20
-124.1763997085392
 30
0.0
  0
VERTEX
  5
B5
330
B3
100
AcDbEntity
  8
_U+30EC_U+30A4_U+30E4_U+30FC 1
370
     0
100
AcDbVertex
100
AcDb2dVertex
 10
49.28295219037024
 20
-124.6649142483477
 30
0.0
  0
VERTEX
  5
B6
330
B3
100
AcDbEntity
  8
_U+30EC_U+30A4_U+30E4_U+30FC 1
370
     0
100
AcDbVertex
100
AcDb2dVertex
 10
49.28295219037024
 20
-124.1763997085392
 30
0.0
  0
VERTEX
  5
B7
330
B3
100
AcDbEntity
  8
_U+30EC_U+30A4_U+30E4_U+30FC 1
370
     0
100
AcDbVertex
100
AcDb2dVertex
 10
48.62717826475293
 20
-124.1763997085392
 30
0.0
  0
SEQEND
  5
B8
330
B3
100
AcDbEntity
  8
_U+30EC_U+30A4_U+30E4_U+30FC 1
370
     0
  0
HATCH
  5
B9
330
95
100
AcDbEntity
  8
_U+30EC_U+30A4_U+30E4_U+30FC 1
 62
   179
420
  2234388
100
AcDbHatch
 10
0.0
 20
0.0
 30
0.0
210
0.0
220
0.0
230
1.0
  2
SOLID
 70
     1
 71
     0
 91
        2
 92
        1
 93
       11
 72
     1
 10
49.48190645464341
 20
-123.9435112537363
 11
49.82882757000807
 21
-123.9435112537363
 72
     1
 10
49.82882757000807
 20
-123.9435112537363
 11
49.82882757000807
 21
-124.1763997085392
 72
     1
 10
49.82882757000807
 20
-124.1763997085392
 11
49.48190645464341
 21
-124.1763997085392
 72
     1
 10
49.48190645464341
 20
-124.1763997085392
 11
49.48190645464341
 21
-124.8774766397876
 72
     1
 10
49.48190645464341
 20
-124.8774766397876
 11
49.25763073855365
 21
-124.8774766397876
 72
     1
 10
49.25763073855365
 20
-124.8774766397876
 11
48.28456351874483
 21
-124.1515950210454
 72
     1
 10
48.28456351874483
 20
-124.1515950210454
 11
48.28456351874483
 21
-123.9435112537363
 72
     1
 10
48.28456351874483
 20
-123.9435112537363
 11
49.28295219037024
 21
-123.9435112537363
 72
     1
 10
49.28295219037024
 20
-123.9435112537363
 11
49.28295219037024
 21
-123.7219916140348
 72
     1
 10
49.28295219037024
 20
-123.7219916140348
 11
49.48190645464341
 21
-123.7219916140348
 72
     1
 10
49.48190645464341
 20
-123.7219916140348
 11
49.48190645464341
 21
-123.9435112537363
 97
        0
 92
        1
 93
        3
 72
     1
 10
48.62717826475293
 20
-124.1763997085392
 11
49.28295219037024
 21
-124.6649142483477
 72
     1
 10
49.28295219037024
 20
-124.6649142483477
 11
49.28295219037024
 21
-124.1763997085392
 72
     1
 10
49.28295219037024
 20
-124.1763997085392
 11
48.62717826475293
 21
-124.1763997085392
 97
        0
 75
     2
 76
     1
 98
        0
  0
ENDBLK
  5
98
330
95
100
AcDbEntity
  8
0
100
AcDbBlockEnd
  0
BLOCK
  5
C8
330
C6
100
AcDbEntity
  8
0
100
AcDbBlockBegin
  2
block 4
 70
     0
 10
0.0
 20
0.0
 30
0.0
  3
block 4
  1

  0
SPLINE
  5
CA
330
C6
100
AcDbEntity
  8
_U+30EC_U+30A4_U+30E4_U+30FC 1
370
     0
100
AcDbSpline
210
0.0
220
0.0
230
1.0
 70
    11
 71
     3
 72
    26
 73
    22
 74
     0
 42
0.0000000001
 43
0.0000000001
 12
1.0
 22
0.0
 32
0.0
 13
1.0
 23
0.0
 33
0.0
 40
0.0
 40
0.0
 40
0.0
 40
0.0
 40
1.0
 40
1.0
 40
1.0
 40
2.0
 40
2.0
 40
2.0
 40
3.0
 40
3.0
 40
3.0
 40
4.0
 40
4.0
 40
4.0
 40
5.0
 40
5.0
 40
5.0
 40
6.0
 40
6.0
 40
6.0
 40
7.0
 40
7.0
 40
7.0
 40
7.0
 10
91.13776175021904
 20
-142.2118190833707
 30
0.0
 10
91.13776175021904
 20
-142.2118190833707
 30
0.0
 10
90.88454723205318
 20
-142.2118190833707
 30
0.0
 10
90.88454723205318
 20
-142.2118190833707
 30
0.0
 10
90.91176348638665
 20
-141.9027940183437
 30
0.0
 10
91.11743568685606
 20
-141.3846516573622
 30
0.0
 10
91.55134546322329
 20
-140.8789116401275
 30
0.0
 10
91.55134546322329
 20
-140.8789116401275
 30
0.0
 10
90.6561374013811
 20
-140.8789116401275
 30
0.0
 10
90.6561374013811
 20
-140.8789116401275
 30
0.0
 10
90.6561374013811
 20
-140.8789116401275
 30
0.0
 10
90.6561374013811
 20
-140.6673827773332
 30
0.0
 10
90.6561374013811
 20
-140.6673827773332
 30
0.0
 10
90.6561374013811
 20
-140.6673827773332
 30
0.0
 10
91.80455998138915
 20
-140.6673827773332
 30
0.0
 10
91.80455998138915
 20
-140.6673827773332
 30
0.0
 10
91.80455998138915
 20
-140.6673827773332
 30
0.0
 10
91.80455998138915
 20
-140.8789116401275
 30
0.0
 10
91.80455998138915
 20
-140.8789116401275
 30
0.0
 10
91.45867239467006
 20
-141.1689886799855
 30
0.0
 10
91.17393525281416
 20
-141.7612005939
 30
0.0
 10
91.13776175021904
 20
-142.2118190833707
 30
0.0
  0
HATCH
  5
CB
330
C6
100
AcDbEntity
  8
_U+30EC_U+30A4_U+30E4_U+30FC 1
 62
   179
420
  2234388
100
AcDbHatch
 10
0.0
 20
0.0
 30
0.0
210
0.0
220
0.0
230
1.0
  2
SOLID
 70
     1
 71
     0
 91
        1
 92
        1
 93
        1
 72
     4
 94
        3
 73
     0
 74
     1
 95
       26
 96
       22
 40
0.0
 40
0.0
 40
0.0
 40
0.0
 40
1.0
 40
1.0
 40
1.0
 40
2.0
 40
2.0
 40
2.0
 40
3.0
 40
3.0
 40
3.0
 40
4.0
 40
4.0
 40
4.0
 40
5.0
 40
5.0
 40
5.0
 40
6.0
 40
6.0
 40
6.0
 40
7.0
 40
7.0
 40
7.0
 40
7.0
 10
91.13776175021904
 20
-142.2118190833707
 10
91.13776175021904
 20
-142.2118190833707
 10
90.88454723205318
 20
-142.2118190833707
 10
90.88454723205318
 20
-142.2118190833707
 10
90.91176348638665
 20
-141.9027940183437
 10
91.11743568685606
 20
-141.3846516573622
 10
91.55134546322329
 20
-140.8789116401275
 10
91.55134546322329
 20
-140.8789116401275
 10
90.6561374013811
 20
-140.8789116401275
 10
90.6561374013811
 20
-140.8789116401275
 10
90.6561374013811
 20
-140.8789116401275
 10
90.6561374013811
 20
-140.6673827773332
 10
90.6561374013811
 20
-140.6673827773332
 10
90.6561374013811
 20
-140.6673827773332
 10
91.80455998138915
 20
-140.6673827773332
 10
91.80455998138915
 20
-140.6673827773332
 10
91.80455998138915
 20
-140.6673827773332
 10
91.80455998138915
 20
-140.8789116401275
 10
91.80455998138915
 20
-140.8789116401275
 10
91.45867239467006
 20
-141.1689886799855
 10
91.17393525281416
 20
-141.7612005939
 10
91.13776175021904
 20
-142.2118190833707
 97
        0
 97
        0
 75
     2
 76
     1
 98
        0
  0
SPLINE
  5
CC
330
C6
100
AcDbEntity
  8
_U+30EC_U+30A4_U+30E4_U+30FC 1
370
     0
100
AcDbSpline
210
0.0
220
0.0
230
1.0
 70
    11
 71
     3
 72
    32
 73
    28
 74
     0
 42
0.0000000001
 43
0.0000000001
 12
1.0
 22
0.0
 32
0.0
 13
1.0
 23
0.0
 33
0.0
 40
0.0
 40
0.0
 40
0.0
 40
0.0
 40
1.0
 40
1.0
 40
1.0
 40
2.0
 40
2.0
 40
2.0
 40
3.0
 40
3.0
 40
3.0
 40
4.0
 40
4.0
 40
4.0
 40
5.0
 40
5.0
 40
5.0
 40
6.0
 40
6.0
 40
6.0
 40
7.0
 40
7.0
 40
7.0
 40
8.0
 40
8.0
 40
8.0
 40
9.0
 40
9.0
 40
9.0
 40
9.0
 10
92.49495711663322
 20
-142.2624619870038
 30
0.0
 10
91.94305281989618
 20
-142.2624619870038
 30
0.0
 10
91.93409557163453
 20
-141.7084906329757
 30
0.0
 10
91.93409557163453
 20
-141.4945502033416
 30
0.0
 10
91.93409557163453
 20
-141.2640733153784
 30
0.0
 10
91.95442163499752
 20
-140.6167398737
 30
0.0
 10
92.53560924335916
 20
-140.6167398737
 30
0.0
 10
92.7209553804656
 20
-140.6167398737
 30
0.0
 10
92.98312714689311
 20
-140.6866753120506
 30
0.0
 10
93.02377927361906
 20
-141.0187825168287
 30
0.0
 10
93.02377927361906
 20
-141.0187825168287
 30
0.0
 10
92.79536944294699
 20
-141.0187825168287
 30
0.0
 10
92.79536944294699
 20
-141.0187825168287
 30
0.0
 10
92.7843451373942
 20
-140.9615939317735
 30
0.0
 10
92.75023869209022
 20
-140.8134548259077
 30
0.0
 10
92.53319767651948
 20
-140.8134548259077
 30
0.0
 10
92.22107202555584
 20
-140.8134548259077
 30
0.0
 10
92.17835284153875
 20
-141.1414279161035
 30
0.0
 10
92.16457245959775
 20
-141.3464110974759
 30
0.0
 10
92.26413571912147
 20
-141.2682074299607
 30
0.0
 10
92.33648272431172
 20
-141.2089517876144
 30
0.0
 10
92.53078610967981
 20
-141.2089517876144
 30
0.0
 10
92.72302243775675
 20
-141.2089517876144
 30
0.0
 10
93.04651690382171
 20
-141.3171277858513
 30
0.0
 10
93.04651690382171
 20
-141.7233045435623
 30
0.0
 10
93.04651690382171
 20
-142.0426648950449
 30
0.0
 10
92.8339545123818
 20
-142.2624619870038
 30
0.0
 10
92.49495711663322
 20
-142.2624619870038
 30
0.0
  0
SPLINE
  5
CD
330
C6
100
AcDbEntity
  8
_U+30EC_U+30A4_U+30E4_U+30FC 1
370
     0
100
AcDbSpline
210
0.0
220
0.0
230
1.0
 70
    11
 71
     3
 72
    17
 73
    13
 74
     0
 42
0.0000000001
 43
0.0000000001
 12
1.0
 22
0.0
 32
0.0
 13
1.0
 23
0.0
 33
0.0
 40
0.0
 40
0.0
 40
0.0
 40
0.0
 40
1.0
 40
1.0
 40
1.0
 40
2.0
 40
2.0
 40
2.0
 40
3.0
 40
3.0
 40
3.0
 40
4.0
 40
4.0
 40
4.0
 40
4.0
 10
92.5128716131565
 20
-141.4035996825311
 30
0.0
 10
92.23244084065718
 20
-141.4035996825311
 30
0.0
 10
92.19178871393122
 20
-141.6151285453254
 30
0.0
 10
92.19178871393122
 20
-141.7315727727268
 30
0.0
 10
92.19178871393122
 20
-141.9072726424746
 30
0.0
 10
92.2934190307461
 20
-142.0702256589269
 30
0.0
 10
92.49013398295386
 20
-142.0702256589269
 30
0.0
 10
92.61898055410221
 20
-142.0702256589269
 30
0.0
 10
92.80673825804831
 20
-142.0109700165806
 30
0.0
 10
92.80673825804831
 20
-141.7253716008534
 30
0.0
 10
92.80673825804831
 20
-141.5010958847636
 30
0.0
 10
92.657565623537
 20
-141.4035996825311
 30
0.0
 10
92.5128716131565
 20
-141.4035996825311
 30
0.0
  0
HATCH
  5
CE
330
C6
100
AcDbEntity
  8
_U+30EC_U+30A4_U+30E4_U+30FC 1
 62
   179
420
  2234388
100
AcDbHatch
 10
0.0
 20
0.0
 30
0.0
210
0.0
220
0.0
230
1.0
  2
SOLID
 70
     1
 71
     0
 91
        2
 92
        1
 93
        1
 72
     4
 94
        3
 73
     0
 74
     1
 95
       32
 96
       28
 40
0.0
 40
0.0
 40
0.0
 40
0.0
 40
1.0
 40
1.0
 40
1.0
 40
2.0
 40
2.0
 40
2.0
 40
3.0
 40
3.0
 40
3.0
 40
4.0
 40
4.0
 40
4.0
 40
5.0
 40
5.0
 40
5.0
 40
6.0
 40
6.0
 40
6.0
 40
7.0
 40
7.0
 40
7.0
 40
8.0
 40
8.0
 40
8.0
 40
9.0
 40
9.0
 40
9.0
 40
9.0
 10
92.49495711663322
 20
-142.2624619870038
 10
91.94305281989618
 20
-142.2624619870038
 10
91.93409557163453
 20
-141.7084906329757
 10
91.93409557163453
 20
-141.4945502033416
 10
91.93409557163453
 20
-141.2640733153784
 10
91.95442163499752
 20
-140.6167398737
 10
92.53560924335916
 20
-140.6167398737
 10
92.7209553804656
 20
-140.6167398737
 10
92.98312714689311
 20
-140.6866753120506
 10
93.02377927361906
 20
-141.0187825168287
 10
93.02377927361906
 20
-141.0187825168287
 10
92.79536944294699
 20
-141.0187825168287
 10
92.79536944294699
 20
-141.0187825168287
 10
92.7843451373942
 20
-140.9615939317735
 10
92.75023869209022
 20
-140.8134548259077
 10
92.53319767651948
 20
-140.8134548259077
 10
92.22107202555584
 20
-140.8134548259077
 10
92.17835284153875
 20
-141.1414279161035
 10
92.16457245959775
 20
-141.3464110974759
 10
92.26413571912147
 20
-141.2682074299607
 10
92.33648272431172
 20
-141.2089517876144
 10
92.53078610967981
 20
-141.2089517876144
 10
92.72302243775675
 20
-141.2089517876144
 10
93.04651690382171
 20
-141.3171277858513
 10
93.04651690382171
 20
-141.7233045435623
 10
93.04651690382171
 20
-142.0426648950449
 10
92.8339545123818
 20
-142.2624619870038
 10
92.49495711663322
 20
-142.2624619870038
 97
        0
 97
        0
 92
        1
 93
        1
 72
     4
 94
        3
 73
     0
 74
     1
 95
       17
 96
       13
 40
0.0
 40
0.0
 40
0.0
 40
0.0
 40
1.0
 40
1.0
 40
1.0
 40
2.0
 40
2.0
 40
2.0
 40
3.0
 40
3.0
 40
3.0
 40
4.0
 40
4.0
 40
4.0
 40
4.0
 10
92.5128716131565
 20
-141.4035996825311
 10
92.23244084065718
 20
-141.4035996825311
 10
92.19178871393122
 20
-141.6151285453254
 10
92.19178871393122
 20
-141.7315727727268
 10
92.19178871393122
 20
-141.9072726424746
 10
92.2934190307461
 20
-142.0702256589269
 10
92.49013398295386
 20
-142.0702256589269
 10
92.61898055410221
 20
-142.0702256589269
 10
92.80673825804831
 20
-142.0109700165806
 10
92.80673825804831
 20
-141.7253716008534
 10
92.80673825804831
 20
-141.5010958847636
 10
92.657565623537
 20
-141.4035996825311
 10
92.5128716131565
 20
-141.4035996825311
 97
        0
 97
        0
 75
     2
 76
     1
 98
        0
  0
POLYLINE
  5
CF
330
C6
100
AcDbEntity
  8
_U+30EC_U+30A4_U+30E4_U+30FC 1
370
     0
100
AcDb2dPolyline
 66
     1
 10
0.0
 20
0.0
 30
0.0
  0
VERTEX
  5
D0
330
CF
100
AcDbEntity
  8
_U+30EC_U+30A4_U+30E4_U+30FC 1
370
     0
100
AcDbVertex
100
AcDb2dVertex
 10
93.27768281088197
 20
-142.2118190833707
 30
0.0
  0
VERTEX
  5
D1
330
CF
100
AcDbEntity
  8
_U+30EC_U+30A4_U+30E4_U+30FC 1
370
     0
100
AcDbVertex
100
AcDb2dVertex
 10
93.27768281088197
 20
-141.9599826033989
 30
0.0
  0
VERTEX
  5
D2
330
CF
100
AcDbEntity
  8
_U+30EC_U+30A4_U+30E4_U+30FC 1
370
     0
100
AcDbVertex
100
AcDb2dVertex
 10
93.54674476827998
 20
-141.9599826033989
 30
0.0
  0
VERTEX
  5
D3
330
CF
100
AcDbEntity
  8
_U+30EC_U+30A4_U+30E4_U+30FC 1
370
     0
100
AcDbVertex
100
AcDb2dVertex
 10
93.54674476827998
 20
-142.2118190833707
 30
0.0
  0
VERTEX
  5
D4
330
CF
100
AcDbEntity
  8
_U+30EC_U+30A4_U+30E4_U+30FC 1
370
     0
100
AcDbVertex
100
AcDb2dVertex
 10
93.27768281088197
 20
-142.2118190833707
 30
0.0
  0
SEQEND
  5
D5
330
CF
100
AcDbEntity
  8
_U+30EC_U+30A4_U+30E4_U+30FC 1
370
     0
  0
HATCH
  5
D6
330
C6
100
AcDbEntity
  8
_U+30EC_U+30A4_U+30E4_U+30FC 1
 62
   179
420
  2234388
100
AcDbHatch
 10
0.0
 20
0.0
 30
0.0
210
0.0
220
0.0
230
1.0
  2
SOLID
 70
     1
 71
     0
 91
        1
 92
        1
 93
        4
 72
     1
 10
93.27768281088197
 20
-142.2118190833707
 11
93.27768281088197
 21
-141.9599826033989
 72
     1
 10
93.27768281088197
 20
-141.9599826033989
 11
93.54674476827998
 21
-141.9599826033989
 72
     1
 10
93.54674476827998
 20
-141.9599826033989
 11
93.54674476827998
 21
-142.2118190833707
 72
     1
 10
93.54674476827998
 20
-142.2118190833707
 11
93.27768281088197
 21
-142.2118190833707
 97
        0
 75
     2
 76
     1
 98
        0
  0
SPLINE
  5
D7
330
C6
100
AcDbEntity
  8
_U+30EC_U+30A4_U+30E4_U+30FC 1
370
     0
100
AcDbSpline
210
0.0
220
0.0
230
1.0
 70
    11
 71
     3
 72
    44
 73
    40
 74
     0
 42
0.0000000001
 43
0.0000000001
 12
1.0
 22
0.0
 32
0.0
 13
1.0
 23
0.0
 33
0.0
 40
0.0
 40
0.0
 40
0.0
 40
0.0
 40
1.0
 40
1.0
 40
1.0
 40
2.0
 40
2.0
 40
2.0
 40
3.0
 40
3.0
 40
3.0
 40
4.0
 40
4.0
 40
4.0
 40
5.0
 40
5.0
 40
5.0
 40
6.0
 40
6.0
 40
6.0
 40
7.0
 40
7.0
 40
7.0
 40
8.0
 40
8.0
 40
8.0
 40
9.0
 40
9.0
 40
9.0
 40
10.0
 40
10.0
 40
10.0
 40
11.0
 40
11.0
 40
11.0
 40
12.0
 40
12.0
 40
12.0
 40
13.0
 40
13.0
 40
13.0
 40
13.0
 10
94.43351234618329
 20
-141.629942455912
 30
0.0
 10
94.2006238913804
 20
-141.788761357782
 30
0.0
 10
94.10106063185668
 20
-141.8628309107148
 30
0.0
 10
94.04938419957793
 20
-142.0064913924498
 30
0.0
 10
94.04938419957793
 20
-142.0064913924498
 30
0.0
 10
94.88103024971724
 20
-142.0064913924498
 30
0.0
 10
94.88103024971724
 20
-142.0064913924498
 30
0.0
 10
94.88103024971724
 20
-142.0064913924498
 30
0.0
 10
94.88103024971724
 20
-142.2118190833707
 30
0.0
 10
94.88103024971724
 20
-142.2118190833707
 30
0.0
 10
94.88103024971724
 20
-142.2118190833707
 30
0.0
 10
93.78238929947108
 20
-142.2118190833707
 30
0.0
 10
93.78238929947108
 20
-142.2118190833707
 30
0.0
 10
93.81649574477505
 20
-141.8542181720017
 30
0.0
 10
93.88643118312562
 20
-141.7760145044866
 30
0.0
 10
94.29777558406445
 20
-141.4776692354639
 30
0.0
 10
94.57131616559329
 20
-141.278887225965
 30
0.0
 10
94.64159611349238
 20
-141.2110188449056
 30
0.0
 10
94.64159611349238
 20
-141.0735595350441
 30
0.0
 10
94.64159611349238
 20
-140.9550482503515
 30
0.0
 10
94.5647704841713
 20
-140.824134621912
 30
0.0
 10
94.35427515002254
 20
-140.824134621912
 30
0.0
 10
94.07625594436288
 20
-140.824134621912
 30
0.0
 10
94.06729869610123
 20
-141.0546115098752
 30
0.0
 10
94.0628200719704
 20
-141.1710557372767
 30
0.0
 10
94.0628200719704
 20
-141.1710557372767
 30
0.0
 10
93.82304142619702
 20
-141.1710557372767
 30
0.0
 10
93.82304142619702
 20
-141.1710557372767
 30
0.0
 10
93.8323431840072
 20
-141.043931713871
 30
0.0
 10
93.84336748956
 20
-140.9319661106003
 30
0.0
 10
93.92949487669124
 20
-140.8134548259077
 30
0.0
 10
94.04697263273826
 20
-140.6525688667466
 30
0.0
 10
94.24575464223717
 20
-140.6188069309911
 30
0.0
 10
94.37012258925469
 20
-140.6188069309911
 30
0.0
 10
94.66640080098618
 20
-140.6188069309911
 30
0.0
 10
94.88792044068775
 20
-140.8027750299035
 30
0.0
 10
94.88792044068775
 20
-141.0756265923353
 30
0.0
 10
94.88792044068775
 20
-141.3043809325559
 30
0.0
 10
94.76355249367023
 20
-141.4035996825311
 30
0.0
 10
94.43351234618329
 20
-141.629942455912
 30
0.0
  0
HATCH
  5
D8
330
C6
100
AcDbEntity
  8
_U+30EC_U+30A4_U+30E4_U+30FC 1
 62
   179
420
  2234388
100
AcDbHatch
 10
0.0
 20
0.0
 30
0.0
210
0.0
220
0.0
230
1.0
  2
SOLID
 70
     1
 71
     0
 91
        1
 92
        1
 93
        1
 72
     4
 94
        3
 73
     0
 74
     1
 95
       44
 96
       40
 40
0.0
 40
0.0
 40
0.0
 40
0.0
 40
1.0
 40
1.0
 40
1.0
 40
2.0
 40
2.0
 40
2.0
 40
3.0
 40
3.0
 40
3.0
 40
4.0
 40
4.0
 40
4.0
 40
5.0
 40
5.0
 40
5.0
 40
6.0
 40
6.0
 40
6.0
 40
7.0
 40
7.0
 40
7.0
 40
8.0
 40
8.0
 40
8.0
 40
9.0
 40
9.0
 40
9.0
 40
10.0
 40
10.0
 40
10.0
 40
11.0
 40
11.0
 40
11.0
 40
12.0
 40
12.0
 40
12.0
 40
13.0
 40
13.0
 40
13.0
 40
13.0
 10
94.43351234618329
 20
-141.629942455912
 10
94.2006238913804
 20
-141.788761357782
 10
94.10106063185668
 20
-141.8628309107148
 10
94.04938419957793
 20
-142.0064913924498
 10
94.04938419957793
 20
-142.0064913924498
 10
94.88103024971724
 20
-142.0064913924498
 10
94.88103024971724
 20
-142.0064913924498
 10
94.88103024971724
 20
-142.0064913924498
 10
94.88103024971724
 20
-142.2118190833707
 10
94.88103024971724
 20
-142.2118190833707
 10
94.88103024971724
 20
-142.2118190833707
 10
93.78238929947108
 20
-142.2118190833707
 10
93.78238929947108
 20
-142.2118190833707
 10
93.81649574477505
 20
-141.8542181720017
 10
93.88643118312562
 20
-141.7760145044866
 10
94.29777558406445
 20
-141.4776692354639
 10
94.57131616559329
 20
-141.278887225965
 10
94.64159611349238
 20
-141.2110188449056
 10
94.64159611349238
 20
-141.0735595350441
 10
94.64159611349238
 20
-140.9550482503515
 10
94.5647704841713
 20
-140.824134621912
 10
94.35427515002254
 20
-140.824134621912
 10
94.07625594436288
 20
-140.824134621912
 10
94.06729869610123
 20
-141.0546115098752
 10
94.0628200719704
 20
-141.1710557372767
 10
94.0628200719704
 20
-141.1710557372767
 10
93.82304142619702
 20
-141.1710557372767
 10
93.82304142619702
 20
-141.1710557372767
 10
93.8323431840072
 20
-141.043931713871
 10
93.84336748956
 20
-140.9319661106003
 10
93.92949487669124
 20
-140.8134548259077
 10
94.04697263273826
 20
-140.6525688667466
 10
94.24575464223717
 20
-140.6188069309911
 10
94.37012258925469
 20
-140.6188069309911
 10
94.66640080098618
 20
-140.6188069309911
 10
94.88792044068775
 20
-140.8027750299035
 10
94.88792044068775
 20
-141.0756265923353
 10
94.88792044068775
 20
-141.3043809325559
 10
94.76355249367023
 20
-141.4035996825311
 10
94.43351234618329
 20
-141.629942455912
 97
        0
 97
        0
 75
     2
 76
     1
 98
        0
  0
ENDBLK
  5
C9
330
C6
100
AcDbEntity
  8
0
100
AcDbBlockEnd
  0
ENDSEC
  0
SECTION
  2
ENTITIES
  0
POLYLINE
  5
41
330
1F
100
AcDbEntity
  8
_U+30EC_U+30A4_U+30E4_U+30FC 1
370
     0
100
AcDb2dPolyline
 66
     1
 10
0.0
 20
0.0
 30
0.0
  0
VERTEX
  5
42
330
41
100
AcDbEntity
  8
_U+30EC_U+30A4_U+30E4_U+30FC 1
370
     0
100
AcDbVertex
100
AcDb2dVertex
 10
55.92543635100103
 20
-113.4104708049808
 30
0.0
  0
VERTEX
  5
43
330
41
100
AcDbEntity
  8
_U+30EC_U+30A4_U+30E4_U+30FC 1
370
     0
100
AcDbVertex
100
AcDb2dVertex
 10
54.42546055593527
 20
-113.4104708049808
 30
0.0
  0
VERTEX
  5
44
330
41
100
AcDbEntity
  8
_U+30EC_U+30A4_U+30E4_U+30FC 1
370
     0
100
AcDbVertex
100
AcDb2dVertex
 10
54.42546055593527
 20
-138.8104707986305
 30
0.0
  0
VERTEX
  5
45
330
41
100
AcDbEntity
  8
_U+30EC_U+30A4_U+30E4_U+30FC 1
370
     0
100
AcDbVertex
100
AcDb2dVertex
 10
130.6249294452582
 20
-138.8104707986305
 30
0.0
  0
VERTEX
  5
46
330
41
100
AcDbEntity
  8
_U+30EC_U+30A4_U+30E4_U+30FC 1
370
     0
100
AcDbVertex
100
AcDb2dVertex
 10
130.6249294452582
 20
-137.3104949656724
 30
0.0
  0
VERTEX
  5
47
330
41
100
AcDbEntity
  8
_U+30EC_U+30A4_U+30E4_U+30FC 1
370
     0
100
AcDbVertex
100
AcDb2dVertex
 10
55.92543635100103
 20
-137.3104949656724
 30
0.0
  0
VERTEX
  5
48
330
41
100
AcDbEntity
  8
_U+30EC_U+30A4_U+30E4_U+30FC 1
370
     0
100
AcDbVertex
100
AcDb2dVertex
 10
55.92543635100103
 20
-113.4104708049808
 30
0.0
  0
SEQEND
  5
4A
330
41
100
AcDbEntity
  8
_U+30EC_U+30A4_U+30E4_U+30FC 1
370
     0
  0
HATCH
  5
49
330
1F
100
AcDbEntity
  8
_U+30EC_U+30A4_U+30E4_U+30FC 1
 62
   253
420
 11711154
100
AcDbHatch
 10
0.0
 20
0.0
 30
0.0
210
0.0
220
0.0
230
1.0
  2
SOLID
 70
     1
 71
     0
 91
        1
 92
        1
 93
        6
 72
     1
 10
55.92543635100103
 20
-113.4104708049808
 11
54.42546055593527
 21
-113.4104708049808
 72
     1
 10
54.42546055593527
 20
-113.4104708049808
 11
54.42546055593527
 21
-138.8104707986305
 72
     1
 10
54.42546055593527
 20
-138.8104707986305
 11
130.6249294452582
 21
-138.8104707986305
 72
     1
 10
130.6249294452582
 20
-138.8104707986305
 11
130.6249294452582
 21
-137.3104949656724
 72
     1
 10
130.6249294452582
 20
-137.3104949656724
 11
55.92543635100103
 21
-137.3104949656724
 72
     1
 10
55.92543635100103
 20
-137.3104949656724
 11
55.92543635100103
 21
-113.4104708049808
 97
        0
 75
     2
 76
     1
 98
        0
  0
POLYLINE
  5
4B
330
1F
100
AcDbEntity
  8
_U+30EC_U+30A4_U+30E4_U+30FC 1
 62
   179
420
  2234388
370
    25
100
AcDb2dPolyline
 66
     1
 10
0.0
 20
0.0
 30
0.0
  0
VERTEX
  5
4C
330
4B
100
AcDbEntity
  8
_U+30EC_U+30A4_U+30E4_U+30FC 1
 62
   179
420
  2234388
370
    25
100
AcDbVertex
100
AcDb2dVertex
 10
54.42546055593527
 20
-138.8104707986305
 30
0.0
  0
VERTEX
  5
4D
330
4B
100
AcDbEntity
  8
_U+30EC_U+30A4_U+30E4_U+30FC 1
 62
   179
420
  2234388
370
    25
100
AcDbVertex
100
AcDb2dVertex
 10
130.6249294452582
 20
-138.8104707986305
 30
0.0
  0
SEQEND
  5
4E
330
4B
100
AcDbEntity
  8
_U+30EC_U+30A4_U+30E4_U+30FC 1
 62
   179
420
  2234388
370
    25
  0
POLYLINE
  5
4F
330
1F
100
AcDbEntity
  8
_U+30EC_U+30A4_U+30E4_U+30FC 1
 62
   179
420
  2234388
370
    25
100
AcDb2dPolyline
 66
     1
 10
0.0
 20
0.0
 30
0.0
  0
VERTEX
  5
50
330
4F
100
AcDbEntity
  8
_U+30EC_U+30A4_U+30E4_U+30FC 1
 62
   179
420
  2234388
370
    25
100
AcDbVertex
100
AcDb2dVertex
 10
54.42546055593527
 20
-113.4104708049808
 30
0.0
  0
VERTEX
  5
51
330
4F
100
AcDbEntity
  8
_U+30EC_U+30A4_U+30E4_U+30FC 1
 62
   179
420
  2234388
370
    25
100
AcDbVertex
100
AcDb2dVertex
 10
54.42546055593527
 20
-138.8104707986305
 30
0.0
  0
SEQEND
  5
52
330
4F
100
AcDbEntity
  8
_U+30EC_U+30A4_U+30E4_U+30FC 1
 62
   179
420
  2234388
370
    25
  0
POLYLINE
  5
53
330
1F
100
AcDbEntity
  8
_U+30EC_U+30A4_U+30E4_U+30FC 1
 62
   179
420
  2234388
370
    25
100
AcDb2dPolyline
 66
     1
 10
0.0
 20
0.0
 30
0.0
  0
VERTEX
  5
54
330
53
100
AcDbEntity
  8
_U+30EC_U+30A4_U+30E4_U+30FC 1
 62
   179
420
  2234388
370
    25
100
AcDbVertex
100
AcDb2dVertex
 10
130.6249294452582
 20
-137.3104949656724
 30
0.0
  0
VERTEX
  5
55
330
53
100
AcDbEntity
  8
_U+30EC_U+30A4_U+30E4_U+30FC 1
 62
   179
420
  2234388
370
    25
100
AcDbVertex
100
AcDb2dVertex
 10
130.6249294452582
 20
-138.8104707986305
 30
0.0
  0
SEQEND
  5
56
330
53
100
AcDbEntity
  8
_U+30EC_U+30A4_U+30E4_U+30FC 1
 62
   179
420
  2234388
370
    25
  0
POLYLINE
  5
57
330
1F
100
AcDbEntity
  8
_U+30EC_U+30A4_U+30E4_U+30FC 1
 62
   179
420
  2234388
370
    25
100
AcDb2dPolyline
 66
     1
 10
0.0
 20
0.0
 30
0.0
  0
VERTEX
  5
58
330
57
100
AcDbEntity
  8
_U+30EC_U+30A4_U+30E4_U+30FC 1
 62
   179
420
  2234388
370
    25
100
AcDbVertex
100
AcDb2dVertex
 10
55.92543635100103
 20
-137.3104949656724
 30
0.0
  0
VERTEX
  5
59
330
57
100
AcDbEntity
  8
_U+30EC_U+30A4_U+30E4_U+30FC 1
 62
   179
420
  2234388
370
    25
100
AcDbVertex
100
AcDb2dVertex
 10
130.6249294452582
 20
-137.3104949656724
 30
0.0
  0
SEQEND
  5
5A
330
57
100
AcDbEntity
  8
_U+30EC_U+30A4_U+30E4_U+30FC 1
 62
   179
420
  2234388
370
    25
  0
POLYLINE
  5
5B
330
1F
100
AcDbEntity
  8
_U+30EC_U+30A4_U+30E4_U+30FC 1
 62
   179
420
  2234388
370
    25
100
AcDb2dPolyline
 66
     1
 10
0.0
 20
0.0
 30
0.0
  0
VERTEX
  5
5C
330
5B
100
AcDbEntity
  8
_U+30EC_U+30A4_U+30E4_U+30FC 1
 62
   179
420
  2234388
370
    25
100
AcDbVertex
100
AcDb2dVertex
 10
54.42546055593527
 20
-113.4104708049808
 30
0.0
  0
VERTEX
  5
5D
330
5B
100
AcDbEntity
  8
_U+30EC_U+30A4_U+30E4_U+30FC 1
 62
   179
420
  2234388
370
    25
100
AcDbVertex
100
AcDb2dVertex
 10
55.92543635100103
 20
-113.4104708049808
 30
0.0
  0
SEQEND
  5
5E
330
5B
100
AcDbEntity
  8
_U+30EC_U+30A4_U+30E4_U+30FC 1
 62
   179
420
  2234388
370
    25
  0
POLYLINE
  5
5F
330
1F
100
AcDbEntity
  8
_U+30EC_U+30A4_U+30E4_U+30FC 1
 62
   179
420
  2234388
370
    25
100
AcDb2dPolyline
 66
     1
 10
0.0
 20
0.0
 30
0.0
  0
VERTEX
  5
60
330
5F
100
AcDbEntity
  8
_U+30EC_U+30A4_U+30E4_U+30FC 1
 62
   179
420
  2234388
370
    25
100
AcDbVertex
100
AcDb2dVertex
 10
55.92543635100103
 20
-113.4104708049808
 30
0.0
  0
VERTEX
  5
61
330
5F
100
AcDbEntity
  8
_U+30EC_U+30A4_U+30E4_U+30FC 1
 62
   179
420
  2234388
370
    25
100
AcDbVertex
100
AcDb2dVertex
 10
55.92543635100103
 20
-137.3104949656724
 30
0.0
  0
SEQEND
  5
62
330
5F
100
AcDbEntity
  8
_U+30EC_U+30A4_U+30E4_U+30FC 1
 62
   179
420
  2234388
370
    25
  0
SPLINE
  5
63
330
1F
100
AcDbEntity
  8
_U+30EC_U+30A4_U+30E4_U+30FC 1
 62
   179
420
  2234388
370
     9
100
AcDbSpline
210
0.0
220
0.0
230
1.0
 70
    11
 71
     3
 72
    17
 73
    13
 74
     0
 42
0.0000000001
 43
0.0000000001
 12
1.0
 22
0.0
 32
0.0
 13
1.0
 23
0.0
 33
0.0
 40
0.0
 40
0.0
 40
0.0
 40
0.0
 40
1.0
 40
1.0
 40
1.0
 40
2.0
 40
2.0
 40
2.0
 40
3.0
 40
3.0
 40
3.0
 40
4.0
 40
4.0
 40
4.0
 40
4.0
 10
50.52525537766002
 20
-138.8104707986305
 30
0.0
 10
50.52525537766002
 20
-138.7546613542
 30
0.0
 10
50.48045260102525
 20
-138.7098938542115
 30
0.0
 10
50.42499720961594
 20
-138.7098938542115
 30
0.0
 10
50.36989204829033
 20
-138.7098938542115
 30
0.0
 10
50.32508927165556
 20
-138.7546613542
 30
0.0
 10
50.32508927165556
 20
-138.8104707986305
 30
0.0
 10
50.32508927165556
 20
-138.8656099652835
 30
0.0
 10
50.36989204829033
 20
-138.9103774652721
 30
0.0
 10
50.42499720961594
 20
-138.9103774652721
 30
0.0
 10
50.48045260102525
 20
-138.9103774652721
 30
0.0
 10
50.52525537766002
 20
-138.8656099652835
 30
0.0
 10
50.52525537766002
 20
-138.8104707986305
 30
0.0
  0
SPLINE
  5
64
330
1F
100
AcDbEntity
  8
_U+30EC_U+30A4_U+30E4_U+30FC 1
 62
   179
420
  2234388
370
    25
100
AcDbSpline
210
0.0
220
0.0
230
1.0
 70
    11
 71
     3
 72
    17
 73
    13
 74
     0
 42
0.0000000001
 43
0.0000000001
 12
1.0
 22
0.0
 32
0.0
 13
1.0
 23
0.0
 33
0.0
 40
0.0
 40
0.0
 40
0.0
 40
0.0
 40
1.0
 40
1.0
 40
1.0
 40
2.0
 40
2.0
 40
2.0
 40
3.0
 40
3.0
 40
3.0
 40
4.0
 40
4.0
 40
4.0
 40
4.0
 10
54.52536722005311
 20
-142.8102299642973
 30
0.0
 10
54.52536722005311
 20
-142.7551260754224
 30
0.0
 10
54.48056444341834
 20
-142.7103232976557
 30
0.0
 10
54.42546055593527
 20
-142.7103232976557
 30
0.0
 10
54.36996861290654
 20
-142.7103232976557
 30
0.0
 10
54.32520111404865
 20
-142.7551260754224
 30
0.0
 10
54.32520111404865
 20
-142.8102299642973
 30
0.0
 10
54.32520111404865
 20
-142.8653691309504
 30
0.0
 10
54.36996861290654
 20
-142.910136630939
 30
0.0
 10
54.42546055593527
 20
-142.910136630939
 30
0.0
 10
54.48056444341834
 20
-142.910136630939
 30
0.0
 10
54.52536722005311
 20
-142.8653691309504
 30
0.0
 10
54.52536722005311
 20
-142.8102299642973
 30
0.0
  0
SPLINE
  5
65
330
1F
100
AcDbEntity
  8
_U+30EC_U+30A4_U+30E4_U+30FC 1
 62
   179
420
  2234388
370
    25
100
AcDbSpline
210
0.0
220
0.0
230
1.0
 70
    11
 71
     3
 72
    17
 73
    13
 74
     0
 42
0.0000000001
 43
0.0000000001
 12
1.0
 22
0.0
 32
0.0
 13
1.0
 23
0.0
 33
0.0
 40
0.0
 40
0.0
 40
0.0
 40
0.0
 40
1.0
 40
1.0
 40
1.0
 40
2.0
 40
2.0
 40
2.0
 40
3.0
 40
3.0
 40
3.0
 40
4.0
 40
4.0
 40
4.0
 40
4.0
 10
130.7255063871367
 20
-142.8102299642973
 30
0.0
 10
130.7255063871367
 20
-142.7551260754224
 30
0.0
 10
130.6807388882788
 20
-142.7103232976557
 30
0.0
 10
130.6249294452582
 20
-142.7103232976557
 30
0.0
 10
130.5697902799982
 20
-142.7103232976557
 30
0.0
 10
130.5250227811404
 20
-142.7551260754224
 30
0.0
 10
130.5250227811404
 20
-142.8102299642973
 30
0.0
 10
130.5250227811404
 20
-142.8653691309504
 30
0.0
 10
130.5697902799982
 20
-142.910136630939
 30
0.0
 10
130.6249294452582
 20
-142.910136630939
 30
0.0
 10
130.6807388882788
 20
-142.910136630939
 30
0.0
 10
130.7255063871367
 20
-142.8653691309504
 30
0.0
 10
130.7255063871367
 20
-142.8102299642973
 30
0.0
  0
SPLINE
  5
66
330
1F
100
AcDbEntity
  8
_U+30EC_U+30A4_U+30E4_U+30FC 1
 62
   179
420
  2234388
370
     9
100
AcDbSpline
210
0.0
220
0.0
230
1.0
 70
    11
 71
     3
 72
    17
 73
    13
 74
     0
 42
0.0000000001
 43
0.0000000001
 12
1.0
 22
0.0
 32
0.0
 13
1.0
 23
0.0
 33
0.0
 40
0.0
 40
0.0
 40
0.0
 40
0.0
 40
1.0
 40
1.0
 40
1.0
 40
2.0
 40
2.0
 40
2.0
 40
3.0
 40
3.0
 40
3.0
 40
4.0
 40
4.0
 40
4.0
 40
4.0
 10
133.2652593778978
 20
-137.3104949656724
 30
0.0
 10
133.2652593778978
 20
-137.2546855212419
 30
0.0
 10
133.220456601263
 20
-137.2098827434752
 30
0.0
 10
133.1653527137799
 20
-137.2098827434752
 30
0.0
 10
133.11021354852
 20
-137.2098827434752
 30
0.0
 10
133.0654460496621
 20
-137.2546855212419
 30
0.0
 10
133.0654460496621
 20
-137.3104949656724
 30
0.0
 10
133.0654460496621
 20
-137.3655988545473
 30
0.0
 10
133.11021354852
 20
-137.410401632314
 30
0.0
 10
133.1653527137799
 20
-137.410401632314
 30
0.0
 10
133.220456601263
 20
-137.410401632314
 30
0.0
 10
133.2652593778978
 20
-137.3655988545473
 30
0.0
 10
133.2652593778978
 20
-137.3104949656724
 30
0.0
  0
SPLINE
  5
67
330
1F
100
AcDbEntity
  8
_U+30EC_U+30A4_U+30E4_U+30FC 1
 62
   179
420
  2234388
370
     9
100
AcDbSpline
210
0.0
220
0.0
230
1.0
 70
    11
 71
     3
 72
    17
 73
    13
 74
     0
 42
0.0000000001
 43
0.0000000001
 12
1.0
 22
0.0
 32
0.0
 13
1.0
 23
0.0
 33
0.0
 40
0.0
 40
0.0
 40
0.0
 40
0.0
 40
1.0
 40
1.0
 40
1.0
 40
2.0
 40
2.0
 40
2.0
 40
3.0
 40
3.0
 40
3.0
 40
4.0
 40
4.0
 40
4.0
 40
4.0
 10
133.2652593778978
 20
-138.8104707986305
 30
0.0
 10
133.2652593778978
 20
-138.7546613542
 30
0.0
 10
133.220456601263
 20
-138.7098938542115
 30
0.0
 10
133.1653527137799
 20
-138.7098938542115
 30
0.0
 10
133.11021354852
 20
-138.7098938542115
 30
0.0
 10
133.0654460496621
 20
-138.7546613542
 30
0.0
 10
133.0654460496621
 20
-138.8104707986305
 30
0.0
 10
133.0654460496621
 20
-138.8656099652835
 30
0.0
 10
133.11021354852
 20
-138.9103774652721
 30
0.0
 10
133.1653527137799
 20
-138.9103774652721
 30
0.0
 10
133.220456601263
 20
-138.9103774652721
 30
0.0
 10
133.2652593778978
 20
-138.8656099652835
 30
0.0
 10
133.2652593778978
 20
-138.8104707986305
 30
0.0
  0
SPLINE
  5
68
330
1F
100
AcDbEntity
  8
_U+30EC_U+30A4_U+30E4_U+30FC 1
 62
   179
420
  2234388
370
     9
100
AcDbSpline
210
0.0
220
0.0
230
1.0
 70
    11
 71
     3
 72
    17
 73
    13
 74
     0
 42
0.0000000001
 43
0.0000000001
 12
1.0
 22
0.0
 32
0.0
 13
1.0
 23
0.0
 33
0.0
 40
0.0
 40
0.0
 40
0.0
 40
0.0
 40
1.0
 40
1.0
 40
1.0
 40
2.0
 40
2.0
 40
2.0
 40
3.0
 40
3.0
 40
3.0
 40
4.0
 40
4.0
 40
4.0
 40
4.0
 10
50.52525537766002
 20
-113.4104708049808
 30
0.0
 10
50.52525537766002
 20
-113.3550141383278
 30
0.0
 10
50.48045260102525
 20
-113.3102113605614
 30
0.0
 10
50.42499720961594
 20
-113.3102113605614
 30
0.0
 10
50.36989204829033
 20
-113.3102113605614
 30
0.0
 10
50.32508927165556
 20
-113.3550141383278
 30
0.0
 10
50.32508927165556
 20
-113.4104708049808
 30
0.0
 10
50.32508927165556
 20
-113.4656099716335
 30
0.0
 10
50.36989204829033
 20
-113.5103774716224
 30
0.0
 10
50.42499720961594
 20
-113.5103774716224
 30
0.0
 10
50.48045260102525
 20
-113.5103774716224
 30
0.0
 10
50.52525537766002
 20
-113.4656099716335
 30
0.0
 10
50.52525537766002
 20
-113.4104708049808
 30
0.0
  0
POLYLINE
  5
69
330
1F
100
AcDbEntity
  8
_U+30EC_U+30A4_U+30E4_U+30FC 1
 62
   179
420
  2234388
370
     9
100
AcDb2dPolyline
 66
     1
 10
0.0
 20
0.0
 30
0.0
  0
VERTEX
  5
6A
330
69
100
AcDbEntity
  8
_U+30EC_U+30A4_U+30E4_U+30FC 1
 62
   179
420
  2234388
370
     9
100
AcDbVertex
100
AcDb2dVertex
 10
133.1653527137799
 20
-137.3104949656724
 30
0.0
  0
VERTEX
  5
6B
330
69
100
AcDbEntity
  8
_U+30EC_U+30A4_U+30E4_U+30FC 1
 62
   179
420
  2234388
370
     9
100
AcDbVertex
100
AcDb2dVertex
 10
133.1653527137799
 20
-132.0525891336535
 30
0.0
  0
SEQEND
  5
6C
330
69
100
AcDbEntity
  8
_U+30EC_U+30A4_U+30E4_U+30FC 1
 62
   179
420
  2234388
370
     9
  0
POLYLINE
  5
6D
330
1F
100
AcDbEntity
  8
_U+30EC_U+30A4_U+30E4_U+30FC 1
 62
   179
420
  2234388
370
     9
100
AcDb2dPolyline
 66
     1
 10
0.0
 20
0.0
 30
0.0
  0
VERTEX
  5
6E
330
6D
100
AcDbEntity
  8
_U+30EC_U+30A4_U+30E4_U+30FC 1
 62
   179
420
  2234388
370
     9
100
AcDbVertex
100
AcDb2dVertex
 10
133.1653527137799
 20
-139.810243020603
 30
0.0
  0
VERTEX
  5
6F
330
6D
100
AcDbEntity
  8
_U+30EC_U+30A4_U+30E4_U+30FC 1
 62
   179
420
  2234388
370
     9
100
AcDbVertex
100
AcDb2dVertex
 10
133.1653527137799
 20
-137.3104949656724
 30
0.0
  0
SEQEND
  5
70
330
6D
100
AcDbEntity
  8
_U+30EC_U+30A4_U+30E4_U+30FC 1
 62
   179
420
  2234388
370
     9
  0
POLYLINE
  5
71
330
1F
100
AcDbEntity
  8
_U+30EC_U+30A4_U+30E4_U+30FC 1
 62
   179
420
  2234388
370
     9
100
AcDb2dPolyline
 66
     1
 10
0.0
 20
0.0
 30
0.0
  0
VERTEX
  5
72
330
71
100
AcDbEntity
  8
_U+30EC_U+30A4_U+30E4_U+30FC 1
 62
   179
420
  2234388
370
     9
100
AcDbVertex
100
AcDb2dVertex
 10
131.7053113621398
 20
-138.8104707986305
 30
0.0
  0
VERTEX
  5
73
330
71
100
AcDbEntity
  8
_U+30EC_U+30A4_U+30E4_U+30FC 1
 62
   179
420
  2234388
370
     9
100
AcDbVertex
100
AcDb2dVertex
 10
134.1650896327189
 20
-138.8104707986305
 30
0.0
  0
SEQEND
  5
74
330
71
100
AcDbEntity
  8
_U+30EC_U+30A4_U+30E4_U+30FC 1
 62
   179
420
  2234388
370
     9
  0
POLYLINE
  5
75
330
1F
100
AcDbEntity
  8
_U+30EC_U+30A4_U+30E4_U+30FC 1
 62
   179
420
  2234388
370
     9
100
AcDb2dPolyline
 66
     1
 10
0.0
 20
0.0
 30
0.0
  0
VERTEX
  5
76
330
75
100
AcDbEntity
  8
_U+30EC_U+30A4_U+30E4_U+30FC 1
 62
   179
420
  2234388
370
     9
100
AcDbVertex
100
AcDb2dVertex
 10
131.7053113621398
 20
-137.3104949656724
 30
0.0
  0
VERTEX
  5
77
330
75
100
AcDbEntity
  8
_U+30EC_U+30A4_U+30E4_U+30FC 1
 62
   179
420
  2234388
370
     9
100
AcDbVertex
100
AcDb2dVertex
 10
134.1650896327189
 20
-137.3104949656724
 30
0.0
  0
SEQEND
  5
78
330
75
100
AcDbEntity
  8
_U+30EC_U+30A4_U+30E4_U+30FC 1
 62
   179
420
  2234388
370
     9
  0
INSERT
  5
7A
330
1F
100
AcDbEntity
  8
_U+30EC_U+30A4_U+30E4_U+30FC 1
100
AcDbBlockReference
  2
block 2
 10
0.0
 20
0.0
 30
0.0
  0
POLYLINE
  5
89
330
1F
100
AcDbEntity
  8
_U+30EC_U+30A4_U+30E4_U+30FC 1
 62
   179
420
  2234388
370
     9
100
AcDb2dPolyline
 66
     1
 10
0.0
 20
0.0
 30
0.0
  0
VERTEX
  5
8A
330
89
100
AcDbEntity
  8
_U+30EC_U+30A4_U+30E4_U+30FC 1
 62
   179
420
  2234388
370
     9
100
AcDbVertex
100
AcDb2dVertex
 10
50.42499720961594
 20
-113.4104708049808
 30
0.0
  0
VERTEX
  5
8B
330
89
100
AcDbEntity
  8
_U+30EC_U+30A4_U+30E4_U+30FC 1
 62
   179
420
  2234388
370
     9
100
AcDbVertex
100
AcDb2dVertex
 10
50.42499720961594
 20
-138.8104707986305
 30
0.0
  0
SEQEND
  5
8C
330
89
100
AcDbEntity
  8
_U+30EC_U+30A4_U+30E4_U+30FC 1
 62
   179
420
  2234388
370
     9
  0
POLYLINE
  5
8D
330
1F
100
AcDbEntity
  8
_U+30EC_U+30A4_U+30E4_U+30FC 1
 62
   179
420
  2234388
370
     9
100
AcDb2dPolyline
 66
     1
 10
0.0
 20
0.0
 30
0.0
  0
VERTEX
  5
8E
330
8D
100
AcDbEntity
  8
_U+30EC_U+30A4_U+30E4_U+30FC 1
 62
   179
420
  2234388
370
     9
100
AcDbVertex
100
AcDb2dVertex
 10
51.88503728741353
 20
-113.4104708049808
 30
0.0
  0
VERTEX
  5
8F
330
8D
100
AcDbEntity
  8
_U+30EC_U+30A4_U+30E4_U+30FC 1
 62
   179
420
  2234388
370
     9
100
AcDbVertex
100
AcDb2dVertex
 10
49.42522498764372
 20
-113.4104708049808
 30
0.0
  0
SEQEND
  5
90
330
8D
100
AcDbEntity
  8
_U+30EC_U+30A4_U+30E4_U+30FC 1
 62
   179
420
  2234388
370
     9
  0
POLYLINE
  5
91
330
1F
100
AcDbEntity
  8
_U+30EC_U+30A4_U+30E4_U+30FC 1
 62
   179
420
  2234388
370
     9
100
AcDb2dPolyline
 66
     1
 10
0.0
 20
0.0
 30
0.0
  0
VERTEX
  5
92
330
91
100
AcDbEntity
  8
_U+30EC_U+30A4_U+30E4_U+30FC 1
 62
   179
420
  2234388
370
     9
100
AcDbVertex
100
AcDb2dVertex
 10
51.88503728741353
 20
-138.8104707986305
 30
0.0
  0
VERTEX
  5
93
330
91
100
AcDbEntity
  8
_U+30EC_U+30A4_U+30E4_U+30FC 1
 62
   179
420
  2234388
370
     9
100
AcDbVertex
100
AcDb2dVertex
 10
49.42522498764372
 20
-138.8104707986305
 30
0.0
  0
SEQEND
  5
94
330
91
100
AcDbEntity
  8
_U+30EC_U+30A4_U+30E4_U+30FC 1
 62
   179
420
  2234388
370
     9
  0
INSERT
  5
96
330
1F
100
AcDbEntity
  8
_U+30EC_U+30A4_U+30E4_U+30FC 1
100
AcDbBlockReference
  2
block 3
 10
0.0
 20
0.0
 30
0.0
  0
POLYLINE
  5
BA
330
1F
100
AcDbEntity
  8
_U+30EC_U+30A4_U+30E4_U+30FC 1
 62
   179
420
  2234388
370
     9
100
AcDb2dPolyline
 66
     1
 10
0.0
 20
0.0
 30
0.0
  0
VERTEX
  5
BB
330
BA
100
AcDbEntity
  8
_U+30EC_U+30A4_U+30E4_U+30FC 1
 62
   179
420
  2234388
370
     9
100
AcDbVertex
100
AcDb2dVertex
 10
54.42546055593527
 20
-142.8102299642973
 30
0.0
  0
VERTEX
  5
BC
330
BA
100
AcDbEntity
  8
_U+30EC_U+30A4_U+30E4_U+30FC 1
 62
   179
420
  2234388
370
     9
100
AcDbVertex
100
AcDb2dVertex
 10
130.6249294452582
 20
-142.8102299642973
 30
0.0
  0
SEQEND
  5
BD
330
BA
100
AcDbEntity
  8
_U+30EC_U+30A4_U+30E4_U+30FC 1
 62
   179
420
  2234388
370
     9
  0
POLYLINE
  5
BE
330
1F
100
AcDbEntity
  8
_U+30EC_U+30A4_U+30E4_U+30FC 1
 62
   179
420
  2234388
370
     9
100
AcDb2dPolyline
 66
     1
 10
0.0
 20
0.0
 30
0.0
  0
VERTEX
  5
BF
330
BE
100
AcDbEntity
  8
_U+30EC_U+30A4_U+30E4_U+30FC 1
 62
   179
420
  2234388
370
     9
100
AcDbVertex
100
AcDb2dVertex
 10
54.42546055593527
 20
-141.3501885757736
 30
0.0
  0
VERTEX
  5
C0
330
BE
100
AcDbEntity
  8
_U+30EC_U+30A4_U+30E4_U+30FC 1
 62
   179
420
  2234388
370
     9
100
AcDbVertex
100
AcDb2dVertex
 10
54.42546055593527
 20
-143.8100021862699
 30
0.0
  0
SEQEND
  5
C1
330
BE
100
AcDbEntity
  8
_U+30EC_U+30A4_U+30E4_U+30FC 1
 62
   179
420
  2234388
370
     9
  0
POLYLINE
  5
C2
330
1F
100
AcDbEntity
  8
_U+30EC_U+30A4_U+30E4_U+30FC 1
 62
   179
420
  2234388
370
     9
100
AcDb2dPolyline
 66
     1
 10
0.0
 20
0.0
 30
0.0
  0
VERTEX
  5
C3
330
C2
100
AcDbEntity
  8
_U+30EC_U+30A4_U+30E4_U+30FC 1
 62
   179
420
  2234388
370
     9
100
AcDbVertex
100
AcDb2dVertex
 10
130.6249294452582
 20
-141.3501885757736
 30
0.0
  0
VERTEX
  5
C4
330
C2
100
AcDbEntity
  8
_U+30EC_U+30A4_U+30E4_U+30FC 1
 62
   179
420
  2234388
370
     9
100
AcDbVertex
100
AcDb2dVertex
 10
130.6249294452582
 20
-143.8100021862699
 30
0.0
  0
SEQEND
  5
C5
330
C2
100
AcDbEntity
  8
_U+30EC_U+30A4_U+30E4_U+30FC 1
 62
   179
420
  2234388
370
     9
  0
INSERT
  5
C7
330
1F
100
AcDbEntity
  8
_U+30EC_U+30A4_U+30E4_U+30FC 1
100
AcDbBlockReference
  2
block 4
 10
0.0
 20
0.0
 30
0.0
  0
ENDSEC
  0
SECTION
  2
OBJECTS
  0
DICTIONARY
  5
C
330
0
100
AcDbDictionary
281
     1
  3
ACAD_GROUP
350
D
  3
ACAD_LAYOUT
350
1A
  3
ACAD_MATERIAL
350
3B
  3
ACAD_MLEADERSTYLE
350
DA
  3
ACAD_MLINESTYLE
350
17
  3
ACAD_PLOTSETTINGS
350
19
  3
ACAD_PLOTSTYLENAME
350
E
  3
ACAD_TABLESTYLE
350
D9
  3
ACAD_VISUALSTYLE
350
2A
  0
SUN
  5
3F
330
29
100
AcDbSun
 90
        1
290
     0
 63
     7
421
 16777215
 40
1.0
291
     1
 91
  2455826
 92
 54000000
292
     0
 70
     2
 71
   256
280
     1
  0
DICTIONARY
  5
D
102
{ACAD_REACTORS
330
C
102
}
330
C
100
AcDbDictionary
281
     1
  0
DICTIONARY
  5
1A
102
{ACAD_REACTORS
330
C
102
}
330
C
100
AcDbDictionary
281
     1
  3
Layout1
350
1E
  3
Layout2
350
26
  3
Model
350
22
  0
DICTIONARY
  5
3B
102
{ACAD_REACTORS
330
C
102
}
330
C
100
AcDbDictionary
281
     1
  3
ByBlock
350
3D
  3
ByLayer
350
3C
  3
Global
350
3E
  0
DICTIONARY
  5
DA
102
{ACAD_REACTORS
330
C
102
}
330
C
100
AcDbDictionary
281
     1
  0
DICTIONARY
  5
17
102
{ACAD_REACTORS
330
C
102
}
330
C
100
AcDbDictionary
281
     1
  3
Standard
350
18
  0
DICTIONARY
  5
19
102
{ACAD_REACTORS
330
C
102
}
330
C
100
AcDbDictionary
281
     1
  0
ACDBDICTIONARYWDFLT
  5
E
102
{ACAD_REACTORS
330
C
102
}
330
C
100
AcDbDictionary
281
     1
  3
Normal
350
F
100
AcDbDictionaryWithDefault
340
F
  0
DICTIONARY
  5
D9
102
{ACAD_REACTORS
330
C
102
}
330
C
100
AcDbDictionary
281
     1
  0
DICTIONARY
  5
2A
102
{ACAD_REACTORS
330
C
102
}
330
C
100
AcDbDictionary
281
     1
  3
2dWireframe
350
2F
  3
3D Hidden
350
31
  3
3dWireframe
350
30
  3
Basic
350
32
  3
Brighten
350
36
  3
ColorChange
350
3A
  3
Conceptual
350
34
  3
Dim
350
35
  3
Facepattern
350
39
  3
Flat
350
2B
  3
FlatWithEdges
350
2C
  3
Gouraud
350
2D
  3
GouraudWithEdges
350
2E
  3
Linepattern
350
38
  3
Realistic
350
33
  3
Thicken
350
37
  0
LAYOUT
  5
1E
102
{ACAD_REACTORS
330
1A
102
}
330
1A
100
AcDbPlotSettings
  1

  2
none_device
  4

  6

 40
0.0
 41
0.0
 42
0.0
 43
0.0
 44
0.0
 45
0.0
 46
0.0
 47
0.0
 48
0.0
 49
0.0
140
0.0
141
0.0
142
1.0
143
1.0
 70
   688
 72
     0
 73
     0
 74
     5
  7

 75
    16
 76
     0
 77
     2
 78
   300
147
1.0
148
0.0
149
0.0
100
AcDbLayout
  1
Layout1
 70
     1
 71
     1
 10
0.0
 20
0.0
 11
12.0
 21
9.0
 12
0.0
 22
0.0
 32
0.0
 14
1.000000000000000E+20
 24
1.000000000000000E+20
 34
1.000000000000000E+20
 15
-1.000000000000000E+20
 25
-1.000000000000000E+20
 35
-1.000000000000000E+20
146
0.0
 13
0.0
 23
0.0
 33
0.0
 16
1.0
 26
0.0
 36
0.0
 17
0.0
 27
1.0
 37
0.0
 76
     0
330
1B
  0
LAYOUT
  5
26
102
{ACAD_REACTORS
330
1A
102
}
330
1A
100
AcDbPlotSettings
  1

  2
none_device
  4

  6

 40
0.0
 41
0.0
 42
0.0
 43
0.0
 44
0.0
 45
0.0
 46
0.0
 47
0.0
 48
0.0
 49
0.0
140
0.0
141
0.0
142
1.0
143
1.0
 70
   688
 72
     0
 73
     0
 74
     5
  7

 75
    16
 76
     0
 77
     2
 78
   300
147
1.0
148
0.0
149
0.0
100
AcDbLayout
  1
Layout2
 70
     1
 71
     2
 10
0.0
 20
0.0
 11
0.0
 21
0.0
 12
0.0
 22
0.0
 32
0.0
 14
0.0
 24
0.0
 34
0.0
 15
0.0
 25
0.0
 35
0.0
146
0.0
 13
0.0
 23
0.0
 33
0.0
 16
1.0
 26
0.0
 36
0.0
 17
0.0
 27
1.0
 37
0.0
 76
     0
330
23
  0
LAYOUT
  5
22
102
{ACAD_REACTORS
330
1A
102
}
330
1A
100
AcDbPlotSettings
  1

  2
none_device
  4

  6

 40
0.0
 41
0.0
 42
0.0
 43
0.0
 44
0.0
 45
0.0
 46
0.0
 47
0.0
 48
0.0
 49
0.0
140
0.0
141
0.0
142
1.0
143
1.0
 70
  1712
 72
     0
 73
     0
 74
     0
  7

 75
     0
 76
     0
 77
     2
 78
   300
147
1.0
148
0.0
149
0.0
100
AcDbLayout
  1
Model
 70
     1
 71
     0
 10
0.0
 20
0.0
 11
12.0
 21
9.0
 12
0.0
 22
0.0
 32
0.0
 14
1.000000000000000E+20
 24
1.000000000000000E+20
 34
1.000000000000000E+20
 15
-1.000000000000000E+20
 25
-1.000000000000000E+20
 35
-1.000000000000000E+20
146
0.0
 13
0.0
 23
0.0
 33
0.0
 16
1.0
 26
0.0
 36
0.0
 17
0.0
 27
1.0
 37
0.0
 76
     0
330
1F
331
29
  0
MATERIAL
  5
3D
102
{ACAD_REACTORS
330
3B
102
}
330
3B
100
AcDbMaterial
  1
ByBlock
 72
     1
 94
      127
  0
MATERIAL
  5
3C
102
{ACAD_REACTORS
330
3B
102
}
330
3B
100
AcDbMaterial
  1
ByLayer
 72
     1
 94
      127
  0
MATERIAL
  5
3E
102
{ACAD_REACTORS
330
3B
102
}
330
3B
100
AcDbMaterial
  1
Global
 72
     1
 94
      127
  0
MLINESTYLE
  5
18
102
{ACAD_REACTORS
330
17
102
}
330
17
100
AcDbMlineStyle
  2
Standard
 70
     0
  3

 62
   256
 51
90.0
 52
90.0
 71
     2
 49
0.5
 62
   256
  6
BYLAYER
 49
-0.5
 62
   256
  6
BYLAYER
  0
ACDBPLACEHOLDER
  5
F
102
{ACAD_REACTORS
330
E
102
}
330
E
  0
VISUALSTYLE
  5
2F
102
{ACAD_REACTORS
330
2A
102
}
330
2A
100
AcDbVisualStyle
  2
2dWireframe
 70
     4
177
     2
291
     0
 71
     0
176
     1
 72
     2
176
     1
 73
     0
176
     1
 90
        0
176
     1
 40
-0.6
176
     1
 41
-30.0
176
     1
 62
     5
 63
     7
421
 16777215
176
     1
 74
     1
176
     1
 91
        4
176
     1
 64
     7
176
     1
 65
   257
176
     1
 75
     1
176
     1
175
     1
176
     1
 42
1.0
176
     1
 92
        0
176
     1
 66
   257
176
     1
 43
1.0
176
     1
 76
     1
176
     1
 77
     6
176
     1
 78
     2
176
     1
 67
     7
176
     1
 79
     5
176
     1
170
     0
176
     1
171
     0
176
     1
290
     0
176
     1
 93
        1
176
     1
 44
0.0
176
     1
173
     0
176
     1
  0
VISUALSTYLE
  5
31
102
{ACAD_REACTORS
330
2A
102
}
330
2A
100
AcDbVisualStyle
  2
3D Hidden
 70
     6
177
     2
291
     0
 71
     1
176
     1
 72
     2
176
     1
 73
     2
176
     1
 90
        0
176
     1
 40
-0.6
176
     1
 41
-30.0
176
     1
 62
     5
 63
     7
421
 16777215
176
     1
 74
     2
176
     1
 91
        2
176
     1
 64
     7
176
     1
 65
   257
176
     1
 75
     2
176
     1
175
     1
176
     1
 42
40.0
176
     1
 92
        0
176
     1
 66
   257
176
     1
 43
1.0
176
     1
 76
     1
176
     1
 77
     6
176
     1
 78
     2
176
     1
 67
     7
176
     1
 79
     3
176
     1
170
     0
176
     1
171
     0
176
     1
290
     0
176
     1
 93
        1
176
     1
 44
0.0
176
     1
173
     0
176
     1
  0
VISUALSTYLE
  5
30
102
{ACAD_REACTORS
330
2A
102
}
330
2A
100
AcDbVisualStyle
  2
3dWireframe
 70
     5
177
     2
291
     0
 71
     0
176
     1
 72
     2
176
     1
 73
     0
176
     1
 90
        0
176
     1
 40
-0.6
176
     1
 41
-30.0
176
     1
 62
     5
 63
     7
421
 16777215
176
     1
 74
     1
176
     1
 91
        4
176
     1
 64
     7
176
     1
 65
   257
176
     1
 75
     1
176
     1
175
     1
176
     1
 42
1.0
176
     1
 92
        0
176
     1
 66
   257
176
     1
 43
1.0
176
     1
 76
     1
176
     1
 77
     6
176
     1
 78
     2
176
     1
 67
     7
176
     1
 79
     5
176
     1
170
     0
176
     1
171
     0
176
     1
290
     0
176
     1
 93
        1
176
     1
 44
0.0
176
     1
173
     0
176
     1
  0
VISUALSTYLE
  5
32
102
{ACAD_REACTORS
330
2A
102
}
330
2A
100
AcDbVisualStyle
  2
Basic
 70
     7
177
     2
291
     1
 71
     1
176
     1
 72
     0
176
     1
 73
     1
176
     1
 90
        0
176
     1
 40
-0.6
176
     1
 41
-30.0
176
     1
 62
     5
 63
     7
421
 16777215
176
     1
 74
     0
176
     1
 91
        4
176
     1
 64
     7
176
     1
 65
   257
176
     1
 75
     1
176
     1
175
     1
176
     1
 42
1.0
176
     1
 92
        8
176
     1
 66
     7
176
     1
 43
1.0
176
     1
 76
     1
176
     1
 77
     6
176
     1
 78
     2
176
     1
 67
     7
176
     1
 79
     5
176
     1
170
     0
176
     1
171
     0
176
     1
290
     0
176
     1
 93
        1
176
     1
 44
0.0
176
     1
173
     0
176
     1
  0
VISUALSTYLE
  5
36
102
{ACAD_REACTORS
330
2A
102
}
330
2A
100
AcDbVisualStyle
  2
Brighten
 70
    12
177
     2
291
     1
 71
     2
176
     1
 72
     2
176
     1
 73
     0
176
     1
 90
        0
176
     1
 40
-0.6
176
     1
 41
-30.0
176
     1
 62
     5
 63
     7
421
 16777215
176
     1
 74
     1
176
     1
 91
        4
176
     1
 64
     7
176
     1
 65
   257
176
     1
 75
     1
176
     1
175
     1
176
     1
 42
1.0
176
     1
 92
        8
176
     1
 66
     7
176
     1
 43
1.0
176
     1
 76
     1
176
     1
 77
     6
176
     1
 78
     2
176
     1
 67
     7
176
     1
 79
     5
176
     1
170
     0
176
     1
171
     0
176
     1
290
     0
176
     1
 93
        1
176
     1
 44
50.0
176
     1
173
     0
176
     1
  0
VISUALSTYLE
  5
3A
102
{ACAD_REACTORS
330
2A
102
}
330
2A
100
AcDbVisualStyle
  2
ColorChange
 70
    16
177
     2
291
     1
 71
     2
176
     1
 72
     2
176
     1
 73
     3
176
     1
 90
        0
176
     1
 40
-0.6
176
     1
 41
-30.0
176
     1
 62
     5
 63
     8
421
  8421504
176
     1
 74
     1
176
     1
 91
        4
176
     1
 64
     7
176
     1
 65
   257
176
     1
 75
     1
176
     1
175
     1
176
     1
 42
1.0
176
     1
 92
        8
176
     1
 66
     8
424
  8421504
176
     1
 43
1.0
176
     1
 76
     1
176
     1
 77
     6
176
     1
 78
     2
176
     1
 67
     7
176
     1
 79
     5
176
     1
170
     0
176
     1
171
     0
176
     1
290
     0
176
     1
 93
        1
176
     1
 44
0.0
176
     1
173
     0
176
     1
  0
VISUALSTYLE
  5
34
102
{ACAD_REACTORS
330
2A
102
}
330
2A
100
AcDbVisualStyle
  2
Conceptual
 70
     9
177
     2
291
     0
 71
     3
176
     1
 72
     2
176
     1
 73
     0
176
     1
 90
        0
176
     1
 40
-0.6
176
     1
 41
-30.0
176
     1
 62
     5
 63
     7
421
 16777215
176
     1
 74
     2
176
     1
 91
        2
176
     1
 64
     7
176
     1
 65
   257
176
     1
 75
     1
176
     1
175
     1
176
     1
 42
40.0
176
     1
 92
        8
176
     1
 66
     7
176
     1
 43
1.0
176
     1
 76
     1
176
     1
 77
     6
176
     1
 78
     2
176
     1
 67
     7
176
     1
 79
     3
176
     1
170
     0
176
     1
171
     0
176
     1
290
     0
176
     1
 93
        1
176
     1
 44
0.0
176
     1
173
     0
176
     1
  0
VISUALSTYLE
  5
35
102
{ACAD_REACTORS
330
2A
102
}
330
2A
100
AcDbVisualStyle
  2
Dim
 70
    11
177
     2
291
     1
 71
     2
176
     1
 72
     2
176
     1
 73
     0
176
     1
 90
        0
176
     1
 40
-0.6
176
     1
 41
-30.0
176
     1
 62
     5
 63
     7
421
 16777215
176
     1
 74
     1
176
     1
 91
        4
176
     1
 64
     7
176
     1
 65
   257
176
     1
 75
     1
176
     1
175
     1
176
     1
 42
1.0
176
     1
 92
        8
176
     1
 66
     7
176
     1
 43
1.0
176
     1
 76
     1
176
     1
 77
     6
176
     1
 78
     2
176
     1
 67
     7
176
     1
 79
     5
176
     1
170
     0
176
     1
171
     0
176
     1
290
     0
176
     1
 93
        1
176
     1
 44
-50.0
176
     1
173
     0
176
     1
  0
VISUALSTYLE
  5
39
102
{ACAD_REACTORS
330
2A
102
}
330
2A
100
AcDbVisualStyle
  2
Facepattern
 70
    15
177
     2
291
     1
 71
     2
176
     1
 72
     2
176
     1
 73
     0
176
     1
 90
        0
176
     1
 40
-0.6
176
     1
 41
-30.0
176
     1
 62
     5
 63
     7
421
 16777215
176
     1
 74
     1
176
     1
 91
        4
176
     1
 64
     7
176
     1
 65
   257
176
     1
 75
     1
176
     1
175
     1
176
     1
 42
1.0
176
     1
 92
        8
176
     1
 66
     7
176
     1
 43
1.0
176
     1
 76
     1
176
     1
 77
     6
176
     1
 78
     2
176
     1
 67
     7
176
     1
 79
     5
176
     1
170
     0
176
     1
171
     0
176
     1
290
     0
176
     1
 93
        1
176
     1
 44
0.0
176
     1
173
     0
176
     1
  0
VISUALSTYLE
  5
2B
102
{ACAD_REACTORS
330
2A
102
}
330
2A
100
AcDbVisualStyle
  2
Flat
 70
     0
177
     2
291
     1
 71
     2
176
     1
 72
     1
176
     1
 73
     1
176
     1
 90
        2
176
     1
 40
-0.6
176
     1
 41
30.0
176
     1
 62
     5
 63
     7
421
 16777215
176
     1
 74
     0
176
     1
 91
        4
176
     1
 64
     7
176
     1
 65
   257
176
     1
 75
     1
176
     1
175
     1
176
     1
 42
1.0
176
     1
 92
        8
176
     1
 66
     7
176
     1
 43
1.0
176
     1
 76
     1
176
     1
 77
     6
176
     1
 78
     2
176
     1
 67
     7
176
     1
 79
     5
176
     1
170
     0
176
     1
171
     0
176
     1
290
     0
176
     1
 93
       13
176
     1
 44
0.0
176
     1
173
     0
176
     1
  0
VISUALSTYLE
  5
2C
102
{ACAD_REACTORS
330
2A
102
}
330
2A
100
AcDbVisualStyle
  2
FlatWithEdges
 70
     1
177
     2
291
     1
 71
     2
176
     1
 72
     1
176
     1
 73
     1
176
     1
 90
        2
176
     1
 40
-0.6
176
     1
 41
30.0
176
     1
 62
     5
 63
     7
421
 16777215
176
     1
 74
     1
176
     1
 91
        4
176
     1
 64
     7
176
     1
 65
   257
176
     1
 75
     1
176
     1
175
     1
176
     1
 42
1.0
176
     1
 92
        0
176
     1
 66
   257
176
     1
 43
1.0
176
     1
 76
     1
176
     1
 77
     6
176
     1
 78
     2
176
     1
 67
     7
176
     1
 79
     5
176
     1
170
     0
176
     1
171
     0
176
     1
290
     0
176
     1
 93
       13
176
     1
 44
0.0
176
     1
173
     0
176
     1
  0
VISUALSTYLE
  5
2D
102
{ACAD_REACTORS
330
2A
102
}
330
2A
100
AcDbVisualStyle
  2
Gouraud
 70
     2
177
     2
291
     1
 71
     2
176
     1
 72
     2
176
     1
 73
     1
176
     1
 90
        2
176
     1
 40
-0.6
176
     1
 41
30.0
176
     1
 62
     5
 63
     7
421
 16777215
176
     1
 74
     0
176
     1
 91
        4
176
     1
 64
     7
176
     1
 65
   257
176
     1
 75
     1
176
     1
175
     1
176
     1
 42
1.0
176
     1
 92
        0
176
     1
 66
     7
176
     1
 43
1.0
176
     1
 76
     1
176
     1
 77
     6
176
     1
 78
     2
176
     1
 67
     7
176
     1
 79
     5
176
     1
170
     0
176
     1
171
     0
176
     1
290
     0
176
     1
 93
       13
176
     1
 44
0.0
176
     1
173
     0
176
     1
  0
VISUALSTYLE
  5
2E
102
{ACAD_REACTORS
330
2A
102
}
330
2A
100
AcDbVisualStyle
  2
GouraudWithEdges
 70
     3
177
     2
291
     1
 71
     2
176
     1
 72
     2
176
     1
 73
     1
176
     1
 90
        2
176
     1
 40
-0.6
176
     1
 41
30.0
176
     1
 62
     5
 63
     7
421
 16777215
176
     1
 74
     1
176
     1
 91
        4
176
     1
 64
     7
176
     1
 65
   257
176
     1
 75
     1
176
     1
175
     1
176
     1
 42
1.0
176
     1
 92
        0
176
     1
 66
   257
176
     1
 43
1.0
176
     1
 76
     1
176
     1
 77
     6
176
     1
 78
     2
176
     1
 67
     7
176
     1
 79
     5
176
     1
170
     0
176
     1
171
     0
176
     1
290
     0
176
     1
 93
       13
176
     1
 44
0.0
176
     1
173
     0
176
     1
  0
VISUALSTYLE
  5
38
102
{ACAD_REACTORS
330
2A
102
}
330
2A
100
AcDbVisualStyle
  2
Linepattern
 70
    14
177
     2
291
     1
 71
     2
176
     1
 72
     2
176
     1
 73
     0
176
     1
 90
        0
176
     1
 40
-0.6
176
     1
 41
-30.0
176
     1
 62
     5
 63
     7
421
 16777215
176
     1
 74
     1
176
     1
 91
        4
176
     1
 64
     7
176
     1
 65
   257
176
     1
 75
     7
176
     1
175
     7
176
     1
 42
1.0
176
     1
 92
        8
176
     1
 66
     7
176
     1
 43
1.0
176
     1
 76
     1
176
     1
 77
     6
176
     1
 78
     2
176
     1
 67
     7
176
     1
 79
     5
176
     1
170
     0
176
     1
171
     0
176
     1
290
     0
176
     1
 93
        1
176
     1
 44
0.0
176
     1
173
     0
176
     1
  0
VISUALSTYLE
  5
33
102
{ACAD_REACTORS
330
2A
102
}
330
2A
100
AcDbVisualStyle
  2
Realistic
 70
     8
177
     2
291
     0
 71
     2
176
     1
 72
     2
176
     1
 73
     0
176
     1
 90
        0
176
     1
 40
-0.6
176
     1
 41
-30.0
176
     1
 62
     5
 63
     7
421
 16777215
176
     1
 74
     1
176
     1
 91
        0
176
     1
 64
     7
176
     1
 65
   257
176
     1
 75
     1
176
     1
175
     1
176
     1
 42
1.0
176
     1
 92
        8
176
     1
 66
     8
424
  7895160
176
     1
 43
1.0
176
     1
 76
     1
176
     1
 77
     6
176
     1
 78
     2
176
     1
 67
     7
176
     1
 79
     5
176
     1
170
     0
176
     1
171
     0
176
     1
290
     0
176
     1
 93
       13
176
     1
 44
0.0
176
     1
173
     0
176
     1
  0
VISUALSTYLE
  5
37
102
{ACAD_REACTORS
330
2A
102
}
330
2A
100
AcDbVisualStyle
  2
Thicken
 70
    13
177
     2
291
     1
 71
     2
176
     1
 72
     2
176
     1
 73
     0
176
     1
 90
        0
176
     1
 40
-0.6
176
     1
 41
-30.0
176
     1
 62
     5
 63
     7
421
 16777215
176
     1
 74
     1
176
     1
 91
        4
176
     1
 64
     7
176
     1
 65
   257
176
     1
 75
     1
176
     1
175
     1
176
     1
 42
1.0
176
     1
 92
       12
176
     1
 66
     7
176
     1
 43
1.0
176
     1
 76
     1
176
     1
 77
     6
176
     1
 78
     2
176
     1
 67
     7
176
     1
 79
     5
176
     1
170
     0
176
     1
171
     0
176
     1
290
     0
176
     1
 93
        1
176
     1
 44
0.0
176
     1
173
     0
176
     1
  0
ENDSEC
  0
EOF
