  0
SECTION
  2
HEADER
  9
$ACADVER
  1
AC1024
  9
$ACADMAINTVER
 70
     6
  9
$DWGCODEPAGE
  3
UNDEFINED
  9
$INSBASE
 10
0.0
 20
0.0
 30
0.0
  9
$EXTMIN
 10
1.000000000000000E+20
 20
1.000000000000000E+20
 30
1.000000000000000E+20
  9
$EXTMAX
 10
-1.000000000000000E+20
 20
-1.000000000000000E+20
 30
-1.000000000000000E+20
  9
$LIMMIN
 10
0.0
 20
0.0
  9
$LIMMAX
 10
12.0
 20
9.0
  9
$ORTHOMODE
 70
     0
  9
$REGENMODE
 70
     1
  9
$FILLMODE
 70
     1
  9
$QTEXTMODE
 70
     0
  9
$MIRRTEXT
 70
     1
  9
$LTSCALE
 40
1.0
  9
$ATTMODE
 70
     1
  9
$TEXTSIZE
 40
0.2
  9
$TRACEWID
 40
0.05
  9
$TEXTSTYLE
  7
Standard
  9
$CLAYER
  8
0
  9
$CELTYPE
  6
ByLayer
  9
$CECOLOR
 62
   256
  9
$CELTSCALE
 40
1.0
  9
$DISPSILH
 70
     0
  9
$DIMSCALE
 40
1.0
  9
$DIMASZ
 40
0.18
  9
$DIMEXO
 40
0.0625
  9
$DIMDLI
 40
0.38
  9
$DIMRND
 40
0.0
  9
$DIMDLE
 40
0.0
  9
$DIMEXE
 40
0.18
  9
$DIMTP
 40
0.0
  9
$DIMTM
 40
0.0
  9
$DIMTXT
 40
0.18
  9
$DIMCEN
 40
0.09
  9
$DIMTSZ
 40
0.0
  9
$DIMTOL
 70
     0
  9
$DIMLIM
 70
     0
  9
$DIMTIH
 70
     1
  9
$DIMTOH
 70
     1
  9
$DIMSE1
 70
     0
  9
$DIMSE2
 70
     0
  9
$DIMTAD
 70
     0
  9
$DIMZIN
 70
     0
  9
$DIMBLK
  1

  9
$DIMASO
 70
     1
  9
$DIMSHO
 70
     1
  9
$DIMPOST
  1

  9
$DIMAPOST
  1

  9
$DIMALT
 70
     0
  9
$DIMALTD
 70
     2
  9
$DIMALTF
 40
25.4
  9
$DIMLFAC
 40
1.0
  9
$DIMTOFL
 70
     0
  9
$DIMTVP
 40
0.0
  9
$DIMTIX
 70
     0
  9
$DIMSOXD
 70
     0
  9
$DIMSAH
 70
     0
  9
$DIMBLK1
  1

  9
$DIMBLK2
  1

  9
$DIMSTYLE
  2
Standard
  9
$DIMCLRD
 70
     0
  9
$DIMCLRE
 70
     0
  9
$DIMCLRT
 70
     0
  9
$DIMTFAC
 40
1.0
  9
$DIMGAP
 40
0.09
  9
$DIMJUST
 70
     0
  9
$DIMSD1
 70
     0
  9
$DIMSD2
 70
     0
  9
$DIMTOLJ
 70
     1
  9
$DIMTZIN
 70
     0
  9
$DIMALTZ
 70
     0
  9
$DIMALTTZ
 70
     0
  9
$DIMUPT
 70
     0
  9
$DIMDEC
 70
     4
  9
$DIMTDEC
 70
     4
  9
$DIMALTU
 70
     2
  9
$DIMALTTD
 70
     2
  9
$DIMTXSTY
  7
Standard
  9
$DIMAUNIT
 70
     0
  9
$DIMADEC
 70
     0
  9
$DIMALTRND
 40
0.0
  9
$DIMAZIN
 70
     0
  9
$DIMDSEP
 70
    46
  9
$DIMATFIT
 70
     3
  9
$DIMFRAC
 70
     0
  9
$DIMLDRBLK
  1

  9
$DIMLUNIT
 70
     2
  9
$DIMLWD
 70
    -2
  9
$DIMLWE
 70
    -2
  9
$DIMTMOVE
 70
     0
  9
$DIMFXL
 40
1.0
  9
$DIMFXLON
 70
     0
  9
$DIMJOGANG
 40
0.7853981633974483
  9
$DIMTFILL
 70
     0
  9
$DIMTFILLCLR
 70
     0
  9
$DIMARCSYM
 70
     0
  9
$DIMLTYPE
  6

  9
$DIMLTEX1
  6

  9
$DIMLTEX2
  6

  9
$DIMTXTDIRECTION
 70
     0
  9
$LUNITS
 70
     2
  9
$LUPREC
 70
     4
  9
$SKETCHINC
 40
0.1
  9
$FILLETRAD
 40
0.5
  9
$AUNITS
 70
     0
  9
$AUPREC
 70
     0
  9
$MENU
  1
.
  9
$ELEVATION
 40
0.0
  9
$PELEVATION
 40
0.0
  9
$THICKNESS
 40
0.0
  9
$LIMCHECK
 70
     0
  9
$CHAMFERA
 40
0.5
  9
$CHAMFERB
 40
0.5
  9
$CHAMFERC
 40
1.0
  9
$CHAMFERD
 40
0.0
  9
$SKPOLY
 70
     0
  9
$TDCREATE
 40
2457917.620879618
  9
$TDUCREATE
 40
2457917.24587963
  9
$TDUPDATE
 40
2457917.620879618
  9
$TDUUPDATE
 40
2457917.24587963
  9
$TDINDWG
 40
0.0000000116
  9
$TDUSRTIMER
 40
0.0000000116
  9
$USRTIMER
 70
     1
  9
$ANGBASE
 50
0.0
  9
$ANGDIR
 70
     0
  9
$PDMODE
 70
     0
  9
$PDSIZE
 40
0.0
  9
$PLINEWID
 40
0.0
  9
$SPLFRAME
 70
     0
  9
$SPLINETYPE
 70
     6
  9
$SPLINESEGS
 70
     8
  9
$HANDSEED
  5
B5
  9
$SURFTAB1
 70
     6
  9
$SURFTAB2
 70
     6
  9
$SURFTYPE
 70
     6
  9
$SURFU
 70
     6
  9
$SURFV
 70
     6
  9
$UCSBASE
  2

  9
$UCSNAME
  2

  9
$UCSORG
 10
0.0
 20
0.0
 30
0.0
  9
$UCSXDIR
 10
1.0
 20
0.0
 30
0.0
  9
$UCSYDIR
 10
0.0
 20
1.0
 30
0.0
  9
$UCSORTHOREF
  2

  9
$UCSORTHOVIEW
 70
     0
  9
$UCSORGTOP
 10
0.0
 20
0.0
 30
0.0
  9
$UCSORGBOTTOM
 10
0.0
 20
0.0
 30
0.0
  9
$UCSORGLEFT
 10
0.0
 20
0.0
 30
0.0
  9
$UCSORGRIGHT
 10
0.0
 20
0.0
 30
0.0
  9
$UCSORGFRONT
 10
0.0
 20
0.0
 30
0.0
  9
$UCSORGBACK
 10
0.0
 20
0.0
 30
0.0
  9
$PUCSBASE
  2

  9
$PUCSNAME
  2

  9
$PUCSORG
 10
0.0
 20
0.0
 30
0.0
  9
$PUCSXDIR
 10
1.0
 20
0.0
 30
0.0
  9
$PUCSYDIR
 10
0.0
 20
1.0
 30
0.0
  9
$PUCSORTHOREF
  2

  9
$PUCSORTHOVIEW
 70
     0
  9
$PUCSORGTOP
 10
0.0
 20
0.0
 30
0.0
  9
$PUCSORGBOTTOM
 10
0.0
 20
0.0
 30
0.0
  9
$PUCSORGLEFT
 10
0.0
 20
0.0
 30
0.0
  9
$PUCSORGRIGHT
 10
0.0
 20
0.0
 30
0.0
  9
$PUCSORGFRONT
 10
0.0
 20
0.0
 30
0.0
  9
$PUCSORGBACK
 10
0.0
 20
0.0
 30
0.0
  9
$USERI1
 70
     0
  9
$USERI2
 70
     0
  9
$USERI3
 70
     0
  9
$USERI4
 70
     0
  9
$USERI5
 70
     0
  9
$USERR1
 40
0.0
  9
$USERR2
 40
0.0
  9
$USERR3
 40
0.0
  9
$USERR4
 40
0.0
  9
$USERR5
 40
0.0
  9
$WORLDVIEW
 70
     1
  9
$SHADEDGE
 70
     3
  9
$SHADEDIF
 70
    70
  9
$TILEMODE
 70
     1
  9
$MAXACTVP
 70
    64
  9
$PINSBASE
 10
0.0
 20
0.0
 30
0.0
  9
$PLIMCHECK
 70
     0
  9
$PEXTMIN
 10
1.000000000000000E+20
 20
1.000000000000000E+20
 30
1.000000000000000E+20
  9
$PEXTMAX
 10
-1.000000000000000E+20
 20
-1.000000000000000E+20
 30
-1.000000000000000E+20
  9
$PLIMMIN
 10
0.0
 20
0.0
  9
$PLIMMAX
 10
12.0
 20
9.0
  9
$UNITMODE
 70
     0
  9
$VISRETAIN
 70
     1
  9
$PLINEGEN
 70
     0
  9
$PSLTSCALE
 70
     1
  9
$TREEDEPTH
 70
  3020
  9
$CMLSTYLE
  2
Standard
  9
$CMLJUST
 70
     0
  9
$CMLSCALE
 40
1.0
  9
$PROXYGRAPHICS
 70
     1
  9
$MEASUREMENT
 70
     0
  9
$CELWEIGHT
370
    -1
  9
$ENDCAPS
280
     0
  9
$JOINSTYLE
280
     0
  9
$LWDISPLAY
290
     1
  9
$INSUNITS
 70
     1
  9
$HYPERLINKBASE
  1

  9
$STYLESHEET
  1

  9
$XEDIT
290
     1
  9
$CEPSNTYPE
380
     0
  9
$PSTYLEMODE
290
     1
  9
$FINGERPRINTGUID
  2
{EC35C092-5D80-A349-A981-84B1693A60C1}
  9
$VERSIONGUID
  2
{FAEB1C32-E019-11D5-929B-00C0DF256EC4}
  9
$EXTNAMES
290
     1
  9
$PSVPSCALE
 40
0.0
  9
$OLESTARTUP
290
     0
  9
$SORTENTS
280
   127
  9
$INDEXCTL
280
     0
  9
$HIDETEXT
280
     1
  9
$XCLIPFRAME
280
     2
  9
$HALOGAP
280
     0
  9
$OBSCOLOR
 70
   257
  9
$OBSLTYPE
280
     0
  9
$INTERSECTIONDISPLAY
280
     0
  9
$INTERSECTIONCOLOR
 70
   257
  9
$DIMASSOC
280
     2
  9
$PROJECTNAME
  1

  9
$CAMERADISPLAY
290
     0
  9
$LENSLENGTH
 40
50.0
  9
$CAMERAHEIGHT
 40
0.0
  9
$STEPSPERSEC
 40
2.0
  9
$STEPSIZE
 40
6.0
  9
$3DDWFPREC
 40
2.0
  9
$PSOLWIDTH
 40
0.25
  9
$PSOLHEIGHT
 40
4.0
  9
$LOFTANG1
 40
1.570796326794897
  9
$LOFTANG2
 40
1.570796326794897
  9
$LOFTMAG1
 40
0.0
  9
$LOFTMAG2
 40
0.0
  9
$LOFTPARAM
 70
     7
  9
$LOFTNORMALS
280
     1
  9
$LATITUDE
 40
37.795
  9
$LONGITUDE
 40
-122.394
  9
$NORTHDIRECTION
 40
0.0
  9
$TIMEZONE
 70
 -8000
  9
$LIGHTGLYPHDISPLAY
280
     1
  9
$TILEMODELIGHTSYNCH
280
     1
  9
$CMATERIAL
347
3C
  9
$SOLIDHIST
280
     1
  9
$SHOWHIST
280
     1
  9
$DWFFRAME
280
     2
  9
$DGNFRAME
280
     2
  9
$REALWORLDSCALE
290
     1
  9
$INTERFERECOLOR
 62
   256
  9
$CSHADOW
280
     0
  9
$SHADOWPLANELOCATION
 40
0.0
  0
ENDSEC
  0
SECTION
  2
CLASSES
  0
CLASS
  1
ACDBDICTIONARYWDFLT
  2
AcDbDictionaryWithDefault
  3
ObjectDBX Classes
 90
        0
 91
        4
280
     0
281
     0
  0
CLASS
  1
VISUALSTYLE
  2
AcDbVisualStyle
  3
ObjectDBX Classes
 90
     4095
 91
        4
280
     0
281
     0
  0
CLASS
  1
MATERIAL
  2
AcDbMaterial
  3
ObjectDBX Classes
 90
     1153
 91
        4
280
     0
281
     0
  0
CLASS
  1
SUN
  2
AcDbSun
  3
SCENEOE
 90
     1024
 91
        4
280
     0
281
     0
  0
ENDSEC
  0
SECTION
  2
TABLES
  0
TABLE
  2
VPORT
  5
8
330
0
100
AcDbSymbolTable
 70
     1
  0
VPORT
  5
29
330
8
100
AcDbSymbolTableRecord
100
AcDbViewportTableRecord
  2
*Active
 70
     0
 10
0.0
 20
0.0
 11
1.0
 21
1.0
 12
0.0
 22
0.0
 13
0.0
 23
0.0
 14
0.5
 24
0.5
 15
0.5
 25
0.5
 16
0.0
 26
0.0
 36
1.0
 17
91.00082462281999
 27
-128.4993055234307
 37
0.0
 40
256.9986110468615
 41
0.7081814508812795
 42
50.0
 43
0.0
 44
0.0
 50
0.0
 51
0.0
 71
     0
 72
   100
 73
     1
 74
     3
 75
     0
 76
     0
 77
     0
 78
     0
281
     0
 65
     1
110
0.0
120
0.0
130
0.0
111
1.0
121
0.0
131
0.0
112
0.0
122
1.0
132
0.0
 79
     0
146
0.0
 60
     3
 61
     5
292
     1
282
     1
141
0.0
142
0.0
 63
   250
361
3F
  0
ENDTAB
  0
TABLE
  2
LTYPE
  5
5
330
0
100
AcDbSymbolTable
 70
     1
  0
LTYPE
  5
14
330
5
100
AcDbSymbolTableRecord
100
AcDbLinetypeTableRecord
  2
ByBlock
 70
     0
  3

 72
    65
 73
     0
 40
0.0
  0
LTYPE
  5
15
330
5
100
AcDbSymbolTableRecord
100
AcDbLinetypeTableRecord
  2
ByLayer
 70
     0
  3

 72
    65
 73
     0
 40
0.0
  0
LTYPE
  5
16
330
5
100
AcDbSymbolTableRecord
100
AcDbLinetypeTableRecord
  2
Continuous
 70
     0
  3
Solid line
 72
    65
 73
     0
 40
0.0
  0
ENDTAB
  0
TABLE
  2
LAYER
  5
2
330
0
100
AcDbSymbolTable
 70
     2
  0
LAYER
  5
10
330
2
100
AcDbSymbolTableRecord
100
AcDbLayerTableRecord
  2
0
 70
     0
 62
     7
  6
Continuous
370
    -3
390
F
347
3E
  0
LAYER
  5
40
330
2
100
AcDbSymbolTableRecord
100
AcDbLayerTableRecord
  2
_U+30EC_U+30A4_U+30E4_U+30FC 1
 70
     0
 62
     7
  6
Continuous
370
    -3
390
F
347
3E
  0
ENDTAB
  0
TABLE
  2
STYLE
  5
3
330
0
100
AcDbSymbolTable
 70
     1
  0
STYLE
  5
11
330
3
100
AcDbSymbolTableRecord
100
AcDbTextStyleTableRecord
  2
Standard
 70
     0
 40
0.0
 41
1.0
 50
0.0
 71
     0
 42
0.2
  3
txt
  4

  0
ENDTAB
  0
TABLE
  2
VIEW
  5
6
330
0
100
AcDbSymbolTable
 70
     0
  0
ENDTAB
  0
TABLE
  2
UCS
  5
7
330
0
100
AcDbSymbolTable
 70
     0
  0
ENDTAB
  0
TABLE
  2
APPID
  5
9
330
0
100
AcDbSymbolTable
 70
     1
  0
APPID
  5
12
330
9
100
AcDbSymbolTableRecord
100
AcDbRegAppTableRecord
  2
ACAD
 70
     0
  0
ENDTAB
  0
TABLE
  2
DIMSTYLE
  5
A
330
0
100
AcDbSymbolTable
 70
     1
100
AcDbDimStyleTable
  0
DIMSTYLE
105
27
330
A
100
AcDbSymbolTableRecord
100
AcDbDimStyleTableRecord
  2
Standard
 70
     0
178
     0
340
11
  0
ENDTAB
  0
TABLE
  2
BLOCK_RECORD
  5
1
330
0
100
AcDbSymbolTable
 70
     4
  0
BLOCK_RECORD
  5
1F
330
1
100
AcDbSymbolTableRecord
100
AcDbBlockTableRecord
  2
*Model_Space
340
22
 70
     0
280
     1
281
     0
  0
BLOCK_RECORD
  5
1B
330
1
100
AcDbSymbolTableRecord
100
AcDbBlockTableRecord
  2
*Paper_Space
340
1E
 70
     0
280
     1
281
     0
  0
BLOCK_RECORD
  5
23
330
1
100
AcDbSymbolTableRecord
100
AcDbBlockTableRecord
  2
*Paper_Space0
340
26
 70
     0
280
     1
281
     0
  0
BLOCK_RECORD
  5
6F
330
1
100
AcDbSymbolTableRecord
100
AcDbBlockTableRecord
  2
block 2
340
0
102
{BLKREFS
331
70
102
}
 70
     0
280
     1
281
     0
  0
BLOCK_RECORD
  5
8B
330
1
100
AcDbSymbolTableRecord
100
AcDbBlockTableRecord
  2
block 3
340
0
102
{BLKREFS
331
8C
102
}
 70
     0
280
     1
281
     0
  0
BLOCK_RECORD
  5
AA
330
1
100
AcDbSymbolTableRecord
100
AcDbBlockTableRecord
  2
block 4
340
0
102
{BLKREFS
331
AB
102
}
 70
     0
280
     1
281
     0
  0
ENDTAB
  0
ENDSEC
  0
SECTION
  2
BLOCKS
  0
BLOCK
  5
20
330
1F
100
AcDbEntity
  8
0
100
AcDbBlockBegin
  2
*Model_Space
 70
     0
 10
0.0
 20
0.0
 30
0.0
  3
*Model_Space
  1

  0
ENDBLK
  5
21
330
1F
100
AcDbEntity
  8
0
100
AcDbBlockEnd
  0
BLOCK
  5
1C
330
1B
100
AcDbEntity
 67
     1
  8
0
100
AcDbBlockBegin
  2
*Paper_Space
 70
     0
 10
0.0
 20
0.0
 30
0.0
  3
*Paper_Space
  1

  0
ENDBLK
  5
1D
330
1B
100
AcDbEntity
 67
     1
  8
0
100
AcDbBlockEnd
  0
BLOCK
  5
24
330
23
100
AcDbEntity
  8
0
100
AcDbBlockBegin
  2
*Paper_Space0
 70
     0
 10
0.0
 20
0.0
 30
0.0
  3
*Paper_Space0
  1

  0
ENDBLK
  5
25
330
23
100
AcDbEntity
  8
0
100
AcDbBlockEnd
  0
BLOCK
  5
71
330
6F
100
AcDbEntity
  8
0
100
AcDbBlockBegin
  2
block 2
 70
     0
 10
0.0
 20
0.0
 30
0.0
  3
block 2
  1

  0
SPLINE
  5
73
330
6F
100
AcDbEntity
  8
_U+30EC_U+30A4_U+30E4_U+30FC 1
370
     0
100
AcDbSpline
210
0.0
220
0.0
230
1.0
 70
    11
 71
     3
 72
    26
 73
    22
 74
     0
 42
0.0000000001
 43
0.0000000001
 12
1.0
 22
0.0
 32
0.0
 13
1.0
 23
0.0
 33
0.0
 40
0.0
 40
0.0
 40
0.0
 40
0.0
 40
1.0
 40
1.0
 40
1.0
 40
2.0
 40
2.0
 40
2.0
 40
3.0
 40
3.0
 40
3.0
 40
4.0
 40
4.0
 40
4.0
 40
5.0
 40
5.0
 40
5.0
 40
6.0
 40
6.0
 40
6.0
 40
7.0
 40
7.0
 40
7.0
 40
7.0
 10
126.9476345168742
 20
-131.9423339513894
 30
0.0
 10
126.9476345168742
 20
-131.9423339513894
 30
0.0
 10
125.8434814138516
 20
-131.9423339513894
 30
0.0
 10
125.8434814138516
 20
-131.9423339513894
 30
0.0
 10
125.8434814138516
 20
-131.9423339513894
 30
0.0
 10
125.8434814138516
 20
-132.2947672195305
 30
0.0
 10
125.8434814138516
 20
-132.2947672195305
 30
0.0
 10
125.8434814138516
 20
-132.2947672195305
 30
0.0
 10
125.6953423079859
 20
-132.2947672195305
 30
0.0
 10
125.6953423079859
 20
-132.2947672195305
 30
0.0
 10
125.6805283973993
 20
-131.9399223845498
 30
0.0
 10
125.517575380947
 20
-131.8903130095622
 30
0.0
 10
125.4031982108367
 20
-131.8586181310978
 30
0.0
 10
125.4031982108367
 20
-131.8586181310978
 30
0.0
 10
125.4031982108367
 20
-131.702555305616
 30
0.0
 10
125.4031982108367
 20
-131.702555305616
 30
0.0
 10
125.4031982108367
 20
-131.702555305616
 30
0.0
 10
126.9476345168742
 20
-131.702555305616
 30
0.0
 10
126.9476345168742
 20
-131.702555305616
 30
0.0
 10
126.9476345168742
 20
-131.702555305616
 30
0.0
 10
126.9476345168742
 20
-131.9423339513894
 30
0.0
 10
126.9476345168742
 20
-131.9423339513894
 30
0.0
  0
HATCH
  5
74
330
6F
100
AcDbEntity
  8
_U+30EC_U+30A4_U+30E4_U+30FC 1
 62
   179
420
  2234388
100
AcDbHatch
 10
0.0
 20
0.0
 30
0.0
210
0.0
220
0.0
230
1.0
  2
SOLID
 70
     1
 71
     0
 91
        1
 92
        1
 93
        1
 72
     4
 94
        3
 73
     0
 74
     1
 95
       26
 96
       22
 40
0.0
 40
0.0
 40
0.0
 40
0.0
 40
1.0
 40
1.0
 40
1.0
 40
2.0
 40
2.0
 40
2.0
 40
3.0
 40
3.0
 40
3.0
 40
4.0
 40
4.0
 40
4.0
 40
5.0
 40
5.0
 40
5.0
 40
6.0
 40
6.0
 40
6.0
 40
7.0
 40
7.0
 40
7.0
 40
7.0
 10
126.9476345168742
 20
-131.9423339513894
 10
126.9476345168742
 20
-131.9423339513894
 10
125.8434814138516
 20
-131.9423339513894
 10
125.8434814138516
 20
-131.9423339513894
 10
125.8434814138516
 20
-131.9423339513894
 10
125.8434814138516
 20
-132.2947672195305
 10
125.8434814138516
 20
-132.2947672195305
 10
125.8434814138516
 20
-132.2947672195305
 10
125.6953423079859
 20
-132.2947672195305
 10
125.6953423079859
 20
-132.2947672195305
 10
125.6805283973993
 20
-131.9399223845498
 10
125.517575380947
 20
-131.8903130095622
 10
125.4031982108367
 20
-131.8586181310978
 10
125.4031982108367
 20
-131.8586181310978
 10
125.4031982108367
 20
-131.702555305616
 10
125.4031982108367
 20
-131.702555305616
 10
125.4031982108367
 20
-131.702555305616
 10
126.9476345168742
 20
-131.702555305616
 10
126.9476345168742
 20
-131.702555305616
 10
126.9476345168742
 20
-131.702555305616
 10
126.9476345168742
 20
-131.9423339513894
 10
126.9476345168742
 20
-131.9423339513894
 97
        0
 97
        0
 75
     2
 76
     1
 98
        0
  0
POLYLINE
  5
75
330
6F
100
AcDbEntity
  8
_U+30EC_U+30A4_U+30E4_U+30FC 1
370
     0
100
AcDb2dPolyline
 66
     1
 10
0.0
 20
0.0
 30
0.0
  0
VERTEX
  5
76
330
75
100
AcDbEntity
  8
_U+30EC_U+30A4_U+30E4_U+30FC 1
370
     0
100
AcDbVertex
100
AcDb2dVertex
 10
126.9476345168742
 20
-131.102764181634
 30
0.0
  0
VERTEX
  5
77
330
75
100
AcDbEntity
  8
_U+30EC_U+30A4_U+30E4_U+30FC 1
370
     0
100
AcDbVertex
100
AcDb2dVertex
 10
126.6957980369024
 20
-131.102764181634
 30
0.0
  0
VERTEX
  5
78
330
75
100
AcDbEntity
  8
_U+30EC_U+30A4_U+30E4_U+30FC 1
370
     0
100
AcDbVertex
100
AcDb2dVertex
 10
126.6957980369024
 20
-130.833702224236
 30
0.0
  0
VERTEX
  5
79
330
75
100
AcDbEntity
  8
_U+30EC_U+30A4_U+30E4_U+30FC 1
370
     0
100
AcDbVertex
100
AcDb2dVertex
 10
126.9476345168742
 20
-130.833702224236
 30
0.0
  0
VERTEX
  5
7A
330
75
100
AcDbEntity
  8
_U+30EC_U+30A4_U+30E4_U+30FC 1
370
     0
100
AcDbVertex
100
AcDb2dVertex
 10
126.9476345168742
 20
-131.102764181634
 30
0.0
  0
SEQEND
  5
7B
330
75
100
AcDbEntity
  8
_U+30EC_U+30A4_U+30E4_U+30FC 1
370
     0
  0
HATCH
  5
7C
330
6F
100
AcDbEntity
  8
_U+30EC_U+30A4_U+30E4_U+30FC 1
 62
   179
420
  2234388
100
AcDbHatch
 10
0.0
 20
0.0
 30
0.0
210
0.0
220
0.0
230
1.0
  2
SOLID
 70
     1
 71
     0
 91
        1
 92
        1
 93
        4
 72
     1
 10
126.9476345168742
 20
-131.102764181634
 11
126.6957980369024
 21
-131.102764181634
 72
     1
 10
126.6957980369024
 20
-131.102764181634
 11
126.6957980369024
 21
-130.833702224236
 72
     1
 10
126.6957980369024
 20
-130.833702224236
 11
126.9476345168742
 21
-130.833702224236
 72
     1
 10
126.9476345168742
 20
-130.833702224236
 11
126.9476345168742
 21
-131.102764181634
 97
        0
 75
     2
 76
     1
 98
        0
  0
SPLINE
  5
7D
330
6F
100
AcDbEntity
  8
_U+30EC_U+30A4_U+30E4_U+30FC 1
370
     0
100
AcDbSpline
210
0.0
220
0.0
230
1.0
 70
    11
 71
     3
 72
    53
 73
    49
 74
     0
 42
0.0000000001
 43
0.0000000001
 12
1.0
 22
0.0
 32
0.0
 13
1.0
 23
0.0
 33
0.0
 40
0.0
 40
0.0
 40
0.0
 40
0.0
 40
1.0
 40
1.0
 40
1.0
 40
2.0
 40
2.0
 40
2.0
 40
3.0
 40
3.0
 40
3.0
 40
4.0
 40
4.0
 40
4.0
 40
5.0
 40
5.0
 40
5.0
 40
6.0
 40
6.0
 40
6.0
 40
7.0
 40
7.0
 40
7.0
 40
8.0
 40
8.0
 40
8.0
 40
9.0
 40
9.0
 40
9.0
 40
10.0
 40
10.0
 40
10.0
 40
11.0
 40
11.0
 40
11.0
 40
12.0
 40
12.0
 40
12.0
 40
13.0
 40
13.0
 40
13.0
 40
14.0
 40
14.0
 40
14.0
 40
15.0
 40
15.0
 40
15.0
 40
16.0
 40
16.0
 40
16.0
 40
16.0
 10
126.9982774205074
 20
-130.0668239692194
 30
0.0
 10
126.9982774205074
 20
-130.150539789511
 30
0.0
 10
126.9813964526297
 20
-130.2587157877478
 30
0.0
 10
126.9180066957011
 20
-130.3675808050817
 30
0.0
 10
126.8081081497216
 20
-130.5529269421882
 30
0.0
 10
126.6768500117336
 20
-130.5753200628423
 30
0.0
 10
126.5690185230452
 20
-130.5956461262053
 30
0.0
 10
126.5690185230452
 20
-130.5956461262053
 30
0.0
 10
126.5690185230452
 20
-130.3582790472715
 30
0.0
 10
126.5690185230452
 20
-130.3582790472715
 30
0.0
 10
126.7678005325442
 20
-130.2997124240223
 30
0.0
 10
126.7974283537173
 20
-130.1639756619035
 30
0.0
 10
126.7974283537173
 20
-130.0644124023797
 30
0.0
 10
126.7974283537173
 20
-129.9152397678684
 30
0.0
 10
126.6978650941936
 20
-129.7522867514161
 30
0.0
 10
126.4653211489392
 20
-129.7522867514161
 30
0.0
 10
126.2093505543852
 20
-129.7522867514161
 30
0.0
 10
126.1394151160346
 20
-129.9445230794931
 30
0.0
 10
126.1394151160346
 20
-130.0733696506414
 30
0.0
 10
126.1394151160346
 20
-130.1074760959454
 30
0.0
 10
126.1394151160346
 20
-130.2587157877478
 30
0.0
 10
126.2686061967315
 20
-130.3538004231407
 30
0.0
 10
126.2686061967315
 20
-130.3538004231407
 30
0.0
 10
126.2496581715626
 20
-130.5415581270868
 30
0.0
 10
126.2496581715626
 20
-130.5415581270868
 30
0.0
 10
126.2496581715626
 20
-130.5415581270868
 30
0.0
 10
125.4031982108367
 20
-130.4127115559385
 30
0.0
 10
125.4031982108367
 20
-130.4127115559385
 30
0.0
 10
125.4031982108367
 20
-130.4127115559385
 30
0.0
 10
125.4031982108367
 20
-129.5807209962506
 30
0.0
 10
125.4031982108367
 20
-129.5807209962506
 30
0.0
 10
125.4031982108367
 20
-129.5807209962506
 30
0.0
 10
125.5978461057533
 20
-129.5807209962506
 30
0.0
 10
125.5978461057533
 20
-129.5807209962506
 30
0.0
 10
125.5978461057533
 20
-129.5807209962506
 30
0.0
 10
125.5978461057533
 20
-130.2383897243849
 30
0.0
 10
125.5978461057533
 20
-130.2383897243849
 30
0.0
 10
125.5978461057533
 20
-130.2383897243849
 30
0.0
 10
126.020903831342
 20
-130.3086696722839
 30
0.0
 10
126.020903831342
 20
-130.3086696722839
 30
0.0
 10
125.9871418955865
 20
-130.2432128580642
 30
0.0
 10
125.9468342784091
 20
-130.1550184136418
 30
0.0
 10
125.9468342784091
 20
-130.0282388997846
 30
0.0
 10
125.9468342784091
 20
-129.7571098850954
 30
0.0
 10
126.1332139441611
 20
-129.5038953669296
 30
0.0
 10
126.4463731237704
 20
-129.5038953669296
 30
0.0
 10
126.7636664179619
 20
-129.5038953669296
 30
0.0
 10
126.9982774205074
 20
-129.7433295031545
 30
0.0
 10
126.9982774205074
 20
-130.0668239692194
 30
0.0
  0
HATCH
  5
7E
330
6F
100
AcDbEntity
  8
_U+30EC_U+30A4_U+30E4_U+30FC 1
 62
   179
420
  2234388
100
AcDbHatch
 10
0.0
 20
0.0
 30
0.0
210
0.0
220
0.0
230
1.0
  2
SOLID
 70
     1
 71
     0
 91
        1
 92
        1
 93
        1
 72
     4
 94
        3
 73
     0
 74
     1
 95
       53
 96
       49
 40
0.0
 40
0.0
 40
0.0
 40
0.0
 40
1.0
 40
1.0
 40
1.0
 40
2.0
 40
2.0
 40
2.0
 40
3.0
 40
3.0
 40
3.0
 40
4.0
 40
4.0
 40
4.0
 40
5.0
 40
5.0
 40
5.0
 40
6.0
 40
6.0
 40
6.0
 40
7.0
 40
7.0
 40
7.0
 40
8.0
 40
8.0
 40
8.0
 40
9.0
 40
9.0
 40
9.0
 40
10.0
 40
10.0
 40
10.0
 40
11.0
 40
11.0
 40
11.0
 40
12.0
 40
12.0
 40
12.0
 40
13.0
 40
13.0
 40
13.0
 40
14.0
 40
14.0
 40
14.0
 40
15.0
 40
15.0
 40
15.0
 40
16.0
 40
16.0
 40
16.0
 40
16.0
 10
126.9982774205074
 20
-130.0668239692194
 10
126.9982774205074
 20
-130.150539789511
 10
126.9813964526297
 20
-130.2587157877478
 10
126.9180066957011
 20
-130.3675808050817
 10
126.8081081497216
 20
-130.5529269421882
 10
126.6768500117336
 20
-130.5753200628423
 10
126.5690185230452
 20
-130.5956461262053
 10
126.5690185230452
 20
-130.5956461262053
 10
126.5690185230452
 20
-130.3582790472715
 10
126.5690185230452
 20
-130.3582790472715
 10
126.7678005325442
 20
-130.2997124240223
 10
126.7974283537173
 20
-130.1639756619035
 10
126.7974283537173
 20
-130.0644124023797
 10
126.7974283537173
 20
-129.9152397678684
 10
126.6978650941936
 20
-129.7522867514161
 10
126.4653211489392
 20
-129.7522867514161
 10
126.2093505543852
 20
-129.7522867514161
 10
126.1394151160346
 20
-129.9445230794931
 10
126.1394151160346
 20
-130.0733696506414
 10
126.1394151160346
 20
-130.1074760959454
 10
126.1394151160346
 20
-130.2587157877478
 10
126.2686061967315
 20
-130.3538004231407
 10
126.2686061967315
 20
-130.3538004231407
 10
126.2496581715626
 20
-130.5415581270868
 10
126.2496581715626
 20
-130.5415581270868
 10
126.2496581715626
 20
-130.5415581270868
 10
125.4031982108367
 20
-130.4127115559385
 10
125.4031982108367
 20
-130.4127115559385
 10
125.4031982108367
 20
-130.4127115559385
 10
125.4031982108367
 20
-129.5807209962506
 10
125.4031982108367
 20
-129.5807209962506
 10
125.4031982108367
 20
-129.5807209962506
 10
125.5978461057533
 20
-129.5807209962506
 10
125.5978461057533
 20
-129.5807209962506
 10
125.5978461057533
 20
-129.5807209962506
 10
125.5978461057533
 20
-130.2383897243849
 10
125.5978461057533
 20
-130.2383897243849
 10
125.5978461057533
 20
-130.2383897243849
 10
126.020903831342
 20
-130.3086696722839
 10
126.020903831342
 20
-130.3086696722839
 10
125.9871418955865
 20
-130.2432128580642
 10
125.9468342784091
 20
-130.1550184136418
 10
125.9468342784091
 20
-130.0282388997846
 10
125.9468342784091
 20
-129.7571098850954
 10
126.1332139441611
 20
-129.5038953669296
 10
126.4463731237704
 20
-129.5038953669296
 10
126.7636664179619
 20
-129.5038953669296
 10
126.9982774205074
 20
-129.7433295031545
 10
126.9982774205074
 20
-130.0668239692194
 97
        0
 97
        0
 75
     2
 76
     1
 98
        0
  0
ENDBLK
  5
72
330
6F
100
AcDbEntity
  8
0
100
AcDbBlockEnd
  0
BLOCK
  5
8D
330
8B
100
AcDbEntity
  8
0
100
AcDbBlockBegin
  2
block 3
 70
     0
 10
0.0
 20
0.0
 30
0.0
  3
block 3
  1

  0
SPLINE
  5
8F
330
8B
100
AcDbEntity
  8
_U+30EC_U+30A4_U+30E4_U+30FC 1
370
     0
100
AcDbSpline
210
0.0
220
0.0
230
1.0
 70
    11
 71
     3
 72
    32
 73
    28
 74
     0
 42
0.0000000001
 43
0.0000000001
 12
1.0
 22
0.0
 32
0.0
 13
1.0
 23
0.0
 33
0.0
 40
0.0
 40
0.0
 40
0.0
 40
0.0
 40
1.0
 40
1.0
 40
1.0
 40
2.0
 40
2.0
 40
2.0
 40
3.0
 40
3.0
 40
3.0
 40
4.0
 40
4.0
 40
4.0
 40
5.0
 40
5.0
 40
5.0
 40
6.0
 40
6.0
 40
6.0
 40
7.0
 40
7.0
 40
7.0
 40
8.0
 40
8.0
 40
8.0
 40
9.0
 40
9.0
 40
9.0
 40
9.0
 10
90.50575898344995
 20
-139.0695474912743
 30
0.0
 10
89.95419919626146
 20
-139.0695474912743
 30
0.0
 10
89.9452419479998
 20
-138.5155761372461
 30
0.0
 10
89.9452419479998
 20
-138.3016357076121
 30
0.0
 10
89.9452419479998
 20
-138.0711588196489
 30
0.0
 10
89.96556801136278
 20
-137.4238253779704
 30
0.0
 10
90.54675561972442
 20
-137.4238253779704
 30
0.0
 10
90.73210175683087
 20
-137.4238253779704
 30
0.0
 10
90.99427352325839
 20
-137.493760816321
 30
0.0
 10
91.03492564998433
 20
-137.8258680210991
 30
0.0
 10
91.03492564998433
 20
-137.8258680210991
 30
0.0
 10
90.80651581931227
 20
-137.8258680210991
 30
0.0
 10
90.80651581931227
 20
-137.8258680210991
 30
0.0
 10
90.79514700421095
 20
-137.768679436044
 30
0.0
 10
90.7613850684555
 20
-137.6205403301782
 30
0.0
 10
90.54434405288475
 20
-137.6205403301782
 30
0.0
 10
90.23221840192112
 20
-137.6205403301782
 30
0.0
 10
90.18949921790401
 20
-137.948513420374
 30
0.0
 10
90.17571883596302
 20
-138.1534966017464
 30
0.0
 10
90.27528209548674
 20
-138.0752929342312
 30
0.0
 10
90.34762910067698
 20
-138.0160372918849
 30
0.0
 10
90.5422769955936
 20
-138.0160372918849
 30
0.0
 10
90.73416881412201
 20
-138.0160372918849
 30
0.0
 10
91.05766328018697
 20
-138.1242132901217
 30
0.0
 10
91.05766328018697
 20
-138.5303900478327
 30
0.0
 10
91.05766328018697
 20
-138.8497503993154
 30
0.0
 10
90.84510088874707
 20
-139.0695474912743
 30
0.0
 10
90.50575898344995
 20
-139.0695474912743
 30
0.0
  0
SPLINE
  5
90
330
8B
100
AcDbEntity
  8
_U+30EC_U+30A4_U+30E4_U+30FC 1
370
     0
100
AcDbSpline
210
0.0
220
0.0
230
1.0
 70
    11
 71
     3
 72
    17
 73
    13
 74
     0
 42
0.0000000001
 43
0.0000000001
 12
1.0
 22
0.0
 32
0.0
 13
1.0
 23
0.0
 33
0.0
 40
0.0
 40
0.0
 40
0.0
 40
0.0
 40
1.0
 40
1.0
 40
1.0
 40
2.0
 40
2.0
 40
2.0
 40
3.0
 40
3.0
 40
3.0
 40
4.0
 40
4.0
 40
4.0
 40
4.0
 10
90.52401798952178
 20
-138.2106851868015
 30
0.0
 10
90.24358721702244
 20
-138.2106851868015
 30
0.0
 10
90.20293509029649
 20
-138.4222140495959
 30
0.0
 10
90.20293509029649
 20
-138.5386582769973
 30
0.0
 10
90.20293509029649
 20
-138.714358146745
 30
0.0
 10
90.30456540711137
 20
-138.8773111631973
 30
0.0
 10
90.50128035931913
 20
-138.8773111631973
 30
0.0
 10
90.63012693046747
 20
-138.8773111631973
 30
0.0
 10
90.81788463441359
 20
-138.8180555208511
 30
0.0
 10
90.81788463441359
 20
-138.5324571051238
 30
0.0
 10
90.81788463441359
 20
-138.3081813890341
 30
0.0
 10
90.66871199990227
 20
-138.2106851868015
 30
0.0
 10
90.52401798952178
 20
-138.2106851868015
 30
0.0
  0
HATCH
  5
91
330
8B
100
AcDbEntity
  8
_U+30EC_U+30A4_U+30E4_U+30FC 1
 62
   179
420
  2234388
100
AcDbHatch
 10
0.0
 20
0.0
 30
0.0
210
0.0
220
0.0
230
1.0
  2
SOLID
 70
     1
 71
     0
 91
        2
 92
        1
 93
        1
 72
     4
 94
        3
 73
     0
 74
     1
 95
       32
 96
       28
 40
0.0
 40
0.0
 40
0.0
 40
0.0
 40
1.0
 40
1.0
 40
1.0
 40
2.0
 40
2.0
 40
2.0
 40
3.0
 40
3.0
 40
3.0
 40
4.0
 40
4.0
 40
4.0
 40
5.0
 40
5.0
 40
5.0
 40
6.0
 40
6.0
 40
6.0
 40
7.0
 40
7.0
 40
7.0
 40
8.0
 40
8.0
 40
8.0
 40
9.0
 40
9.0
 40
9.0
 40
9.0
 10
90.50575898344995
 20
-139.0695474912743
 10
89.95419919626146
 20
-139.0695474912743
 10
89.9452419479998
 20
-138.5155761372461
 10
89.9452419479998
 20
-138.3016357076121
 10
89.9452419479998
 20
-138.0711588196489
 10
89.96556801136278
 20
-137.4238253779704
 10
90.54675561972442
 20
-137.4238253779704
 10
90.73210175683087
 20
-137.4238253779704
 10
90.99427352325839
 20
-137.493760816321
 10
91.03492564998433
 20
-137.8258680210991
 10
91.03492564998433
 20
-137.8258680210991
 10
90.80651581931227
 20
-137.8258680210991
 10
90.80651581931227
 20
-137.8258680210991
 10
90.79514700421095
 20
-137.768679436044
 10
90.7613850684555
 20
-137.6205403301782
 10
90.54434405288475
 20
-137.6205403301782
 10
90.23221840192112
 20
-137.6205403301782
 10
90.18949921790401
 20
-137.948513420374
 10
90.17571883596302
 20
-138.1534966017464
 10
90.27528209548674
 20
-138.0752929342312
 10
90.34762910067698
 20
-138.0160372918849
 10
90.5422769955936
 20
-138.0160372918849
 10
90.73416881412201
 20
-138.0160372918849
 10
91.05766328018697
 20
-138.1242132901217
 10
91.05766328018697
 20
-138.5303900478327
 10
91.05766328018697
 20
-138.8497503993154
 10
90.84510088874707
 20
-139.0695474912743
 10
90.50575898344995
 20
-139.0695474912743
 97
        0
 97
        0
 92
        1
 93
        1
 72
     4
 94
        3
 73
     0
 74
     1
 95
       17
 96
       13
 40
0.0
 40
0.0
 40
0.0
 40
0.0
 40
1.0
 40
1.0
 40
1.0
 40
2.0
 40
2.0
 40
2.0
 40
3.0
 40
3.0
 40
3.0
 40
4.0
 40
4.0
 40
4.0
 40
4.0
 10
90.52401798952178
 20
-138.2106851868015
 10
90.24358721702244
 20
-138.2106851868015
 10
90.20293509029649
 20
-138.4222140495959
 10
90.20293509029649
 20
-138.5386582769973
 10
90.20293509029649
 20
-138.714358146745
 10
90.30456540711137
 20
-138.8773111631973
 10
90.50128035931913
 20
-138.8773111631973
 10
90.63012693046747
 20
-138.8773111631973
 10
90.81788463441359
 20
-138.8180555208511
 10
90.81788463441359
 20
-138.5324571051238
 10
90.81788463441359
 20
-138.3081813890341
 10
90.66871199990227
 20
-138.2106851868015
 10
90.52401798952178
 20
-138.2106851868015
 97
        0
 97
        0
 75
     2
 76
     1
 98
        0
  0
SPLINE
  5
92
330
8B
100
AcDbEntity
  8
_U+30EC_U+30A4_U+30E4_U+30FC 1
370
     0
100
AcDbSpline
210
0.0
220
0.0
230
1.0
 70
    11
 71
     3
 72
    62
 73
    58
 74
     0
 42
0.0000000001
 43
0.0000000001
 12
1.0
 22
0.0
 32
0.0
 13
1.0
 23
0.0
 33
0.0
 40
0.0
 40
0.0
 40
0.0
 40
0.0
 40
1.0
 40
1.0
 40
1.0
 40
2.0
 40
2.0
 40
2.0
 40
3.0
 40
3.0
 40
3.0
 40
4.0
 40
4.0
 40
4.0
 40
5.0
 40
5.0
 40
5.0
 40
6.0
 40
6.0
 40
6.0
 40
7.0
 40
7.0
 40
7.0
 40
8.0
 40
8.0
 40
8.0
 40
9.0
 40
9.0
 40
9.0
 40
10.0
 40
10.0
 40
10.0
 40
11.0
 40
11.0
 40
11.0
 40
12.0
 40
12.0
 40
12.0
 40
13.0
 40
13.0
 40
13.0
 40
14.0
 40
14.0
 40
14.0
 40
15.0
 40
15.0
 40
15.0
 40
16.0
 40
16.0
 40
16.0
 40
17.0
 40
17.0
 40
17.0
 40
18.0
 40
18.0
 40
18.0
 40
19.0
 40
19.0
 40
19.0
 40
19.0
 10
91.7501274727222
 20
-139.0695474912743
 30
0.0
 10
91.64849715590732
 20
-139.0695474912743
 30
0.0
 10
91.41560870110443
 20
-139.0485324088143
 30
0.0
 10
91.28228350582526
 20
-138.8624972526108
 30
0.0
 10
91.20304630966451
 20
-138.7501871397916
 30
0.0
 10
91.19856768553369
 20
-138.6509683898164
 30
0.0
 10
91.19408906140288
 20
-138.5662190408793
 30
0.0
 10
91.19408906140288
 20
-138.5662190408793
 30
0.0
 10
91.42904457349691
 20
-138.5662190408793
 30
0.0
 10
91.42904457349691
 20
-138.5662190408793
 30
0.0
 10
91.43145614033658
 20
-138.6402885938122
 30
0.0
 10
91.44282495543791
 20
-138.8748995963577
 30
0.0
 10
91.74564884859137
 20
-138.8748995963577
 30
0.0
 10
91.89275442581153
 20
-138.8748995963577
 30
0.0
 10
92.05536293271533
 20
-138.8053086675556
 30
0.0
 10
92.05536293271533
 20
-138.5768988368836
 30
0.0
 10
92.05536293271533
 20
-138.4604546094821
 30
0.0
 10
92.01471080598938
 20
-138.4118787631401
 30
0.0
 10
91.98094887023393
 20
-138.3801838846758
 30
0.0
 10
91.90171167407318
 20
-138.3061143317429
 30
0.0
 10
91.77734372705567
 20
-138.2933674784475
 30
0.0
 10
91.71843259425789
 20
-138.2933674784475
 30
0.0
 10
91.69810653089492
 20
-138.2933674784475
 30
0.0
 10
91.65986597100864
 20
-138.2954345357387
 30
0.0
 10
91.6302381498355
 20
-138.2995686503209
 30
0.0
 10
91.6302381498355
 20
-138.2995686503209
 30
0.0
 10
91.6302381498355
 20
-138.1049207554043
 30
0.0
 10
91.6302381498355
 20
-138.1049207554043
 30
0.0
 10
91.67089027656145
 20
-138.1114664368263
 30
0.0
 10
91.71636553696675
 20
-138.1135334941175
 30
0.0
 10
91.72291121838872
 20
-138.1135334941175
 30
0.0
 10
91.79319116628781
 20
-138.1135334941175
 30
0.0
 10
92.00575355772773
 20
-138.0921739021089
 30
0.0
 10
92.00575355772773
 20
-137.8554958422722
 30
0.0
 10
92.00575355772773
 20
-137.6777289152334
 30
0.0
 10
91.86553817147806
 20
-137.6226073874693
 30
0.0
 10
91.74806041543104
 20
-137.6226073874693
 30
0.0
 10
91.46521807609203
 20
-137.6226073874693
 30
0.0
 10
91.45626082783038
 20
-137.8554958422722
 30
0.0
 10
91.45178220369957
 20
-137.9271538283654
 30
0.0
 10
91.45178220369957
 20
-137.9271538283654
 30
0.0
 10
91.23474118812882
 20
-137.9271538283654
 30
0.0
 10
91.23474118812882
 20
-137.9271538283654
 30
0.0
 10
91.24369843639047
 20
-137.8024413717994
 30
0.0
 10
91.2729817480151
 20
-137.4258924352616
 30
0.0
 10
91.76149628782352
 20
-137.4258924352616
 30
0.0
 10
92.0012749335969
 20
-137.4258924352616
 30
0.0
 10
92.25896807589359
 20
-137.5530164586673
 30
0.0
 10
92.25896807589359
 20
-137.8489501608503
 30
0.0
 10
92.25896807589359
 20
-138.0353298266023
 30
0.0
 10
92.1569932495302
 20
-138.1176676086997
 30
0.0
 10
92.0508843085845
 20
-138.1789903083372
 30
0.0
 10
92.11634112280426
 20
-138.2065510722192
 30
0.0
 10
92.31098901772087
 20
-138.2868217970255
 30
0.0
 10
92.31098901772087
 20
-138.5641519835881
 30
0.0
 10
92.31098901772087
 20
-138.9024603602397
 30
0.0
 10
92.04640568445367
 20
-139.0695474912743
 30
0.0
 10
91.7501274727222
 20
-139.0695474912743
 30
0.0
  0
HATCH
  5
93
330
8B
100
AcDbEntity
  8
_U+30EC_U+30A4_U+30E4_U+30FC 1
 62
   179
420
  2234388
100
AcDbHatch
 10
0.0
 20
0.0
 30
0.0
210
0.0
220
0.0
230
1.0
  2
SOLID
 70
     1
 71
     0
 91
        1
 92
        1
 93
        1
 72
     4
 94
        3
 73
     0
 74
     1
 95
       62
 96
       58
 40
0.0
 40
0.0
 40
0.0
 40
0.0
 40
1.0
 40
1.0
 40
1.0
 40
2.0
 40
2.0
 40
2.0
 40
3.0
 40
3.0
 40
3.0
 40
4.0
 40
4.0
 40
4.0
 40
5.0
 40
5.0
 40
5.0
 40
6.0
 40
6.0
 40
6.0
 40
7.0
 40
7.0
 40
7.0
 40
8.0
 40
8.0
 40
8.0
 40
9.0
 40
9.0
 40
9.0
 40
10.0
 40
10.0
 40
10.0
 40
11.0
 40
11.0
 40
11.0
 40
12.0
 40
12.0
 40
12.0
 40
13.0
 40
13.0
 40
13.0
 40
14.0
 40
14.0
 40
14.0
 40
15.0
 40
15.0
 40
15.0
 40
16.0
 40
16.0
 40
16.0
 40
17.0
 40
17.0
 40
17.0
 40
18.0
 40
18.0
 40
18.0
 40
19.0
 40
19.0
 40
19.0
 40
19.0
 10
91.7501274727222
 20
-139.0695474912743
 10
91.64849715590732
 20
-139.0695474912743
 10
91.41560870110443
 20
-139.0485324088143
 10
91.28228350582526
 20
-138.8624972526108
 10
91.20304630966451
 20
-138.7501871397916
 10
91.19856768553369
 20
-138.6509683898164
 10
91.19408906140288
 20
-138.5662190408793
 10
91.19408906140288
 20
-138.5662190408793
 10
91.42904457349691
 20
-138.5662190408793
 10
91.42904457349691
 20
-138.5662190408793
 10
91.43145614033658
 20
-138.6402885938122
 10
91.44282495543791
 20
-138.8748995963577
 10
91.74564884859137
 20
-138.8748995963577
 10
91.89275442581153
 20
-138.8748995963577
 10
92.05536293271533
 20
-138.8053086675556
 10
92.05536293271533
 20
-138.5768988368836
 10
92.05536293271533
 20
-138.4604546094821
 10
92.01471080598938
 20
-138.4118787631401
 10
91.98094887023393
 20
-138.3801838846758
 10
91.90171167407318
 20
-138.3061143317429
 10
91.77734372705567
 20
-138.2933674784475
 10
91.71843259425789
 20
-138.2933674784475
 10
91.69810653089492
 20
-138.2933674784475
 10
91.65986597100864
 20
-138.2954345357387
 10
91.6302381498355
 20
-138.2995686503209
 10
91.6302381498355
 20
-138.2995686503209
 10
91.6302381498355
 20
-138.1049207554043
 10
91.6302381498355
 20
-138.1049207554043
 10
91.67089027656145
 20
-138.1114664368263
 10
91.71636553696675
 20
-138.1135334941175
 10
91.72291121838872
 20
-138.1135334941175
 10
91.79319116628781
 20
-138.1135334941175
 10
92.00575355772773
 20
-138.0921739021089
 10
92.00575355772773
 20
-137.8554958422722
 10
92.00575355772773
 20
-137.6777289152334
 10
91.86553817147806
 20
-137.6226073874693
 10
91.74806041543104
 20
-137.6226073874693
 10
91.46521807609203
 20
-137.6226073874693
 10
91.45626082783038
 20
-137.8554958422722
 10
91.45178220369957
 20
-137.9271538283654
 10
91.45178220369957
 20
-137.9271538283654
 10
91.23474118812882
 20
-137.9271538283654
 10
91.23474118812882
 20
-137.9271538283654
 10
91.24369843639047
 20
-137.8024413717994
 10
91.2729817480151
 20
-137.4258924352616
 10
91.76149628782352
 20
-137.4258924352616
 10
92.0012749335969
 20
-137.4258924352616
 10
92.25896807589359
 20
-137.5530164586673
 10
92.25896807589359
 20
-137.8489501608503
 10
92.25896807589359
 20
-138.0353298266023
 10
92.1569932495302
 20
-138.1176676086997
 10
92.0508843085845
 20
-138.1789903083372
 10
92.11634112280426
 20
-138.2065510722192
 10
92.31098901772087
 20
-138.2868217970255
 10
92.31098901772087
 20
-138.5641519835881
 10
92.31098901772087
 20
-138.9024603602397
 10
92.04640568445367
 20
-139.0695474912743
 10
91.7501274727222
 20
-139.0695474912743
 97
        0
 97
        0
 75
     2
 76
     1
 98
        0
  0
POLYLINE
  5
94
330
8B
100
AcDbEntity
  8
_U+30EC_U+30A4_U+30E4_U+30FC 1
370
     0
100
AcDb2dPolyline
 66
     1
 10
0.0
 20
0.0
 30
0.0
  0
VERTEX
  5
95
330
94
100
AcDbEntity
  8
_U+30EC_U+30A4_U+30E4_U+30FC 1
370
     0
100
AcDbVertex
100
AcDb2dVertex
 10
92.54663354891196
 20
-139.0189045876411
 30
0.0
  0
VERTEX
  5
96
330
94
100
AcDbEntity
  8
_U+30EC_U+30A4_U+30E4_U+30FC 1
370
     0
100
AcDbVertex
100
AcDb2dVertex
 10
92.54663354891196
 20
-138.7670681076694
 30
0.0
  0
VERTEX
  5
97
330
94
100
AcDbEntity
  8
_U+30EC_U+30A4_U+30E4_U+30FC 1
370
     0
100
AcDbVertex
100
AcDb2dVertex
 10
92.81569550630996
 20
-138.7670681076694
 30
0.0
  0
VERTEX
  5
98
330
94
100
AcDbEntity
  8
_U+30EC_U+30A4_U+30E4_U+30FC 1
370
     0
100
AcDbVertex
100
AcDb2dVertex
 10
92.81569550630996
 20
-139.0189045876411
 30
0.0
  0
VERTEX
  5
99
330
94
100
AcDbEntity
  8
_U+30EC_U+30A4_U+30E4_U+30FC 1
370
     0
100
AcDbVertex
100
AcDb2dVertex
 10
92.54663354891196
 20
-139.0189045876411
 30
0.0
  0
SEQEND
  5
9A
330
94
100
AcDbEntity
  8
_U+30EC_U+30A4_U+30E4_U+30FC 1
370
     0
  0
HATCH
  5
9B
330
8B
100
AcDbEntity
  8
_U+30EC_U+30A4_U+30E4_U+30FC 1
 62
   179
420
  2234388
100
AcDbHatch
 10
0.0
 20
0.0
 30
0.0
210
0.0
220
0.0
230
1.0
  2
SOLID
 70
     1
 71
     0
 91
        1
 92
        1
 93
        4
 72
     1
 10
92.54663354891196
 20
-139.0189045876411
 11
92.54663354891196
 21
-138.7670681076694
 72
     1
 10
92.54663354891196
 20
-138.7670681076694
 11
92.81569550630996
 21
-138.7670681076694
 72
     1
 10
92.81569550630996
 20
-138.7670681076694
 11
92.81569550630996
 21
-139.0189045876411
 72
     1
 10
92.81569550630996
 20
-139.0189045876411
 11
92.54663354891196
 21
-139.0189045876411
 97
        0
 75
     2
 76
     1
 98
        0
  0
SPLINE
  5
9C
330
8B
100
AcDbEntity
  8
_U+30EC_U+30A4_U+30E4_U+30FC 1
370
     0
100
AcDbSpline
210
0.0
220
0.0
230
1.0
 70
    11
 71
     3
 72
    53
 73
    49
 74
     0
 42
0.0000000001
 43
0.0000000001
 12
1.0
 22
0.0
 32
0.0
 13
1.0
 23
0.0
 33
0.0
 40
0.0
 40
0.0
 40
0.0
 40
0.0
 40
1.0
 40
1.0
 40
1.0
 40
2.0
 40
2.0
 40
2.0
 40
3.0
 40
3.0
 40
3.0
 40
4.0
 40
4.0
 40
4.0
 40
5.0
 40
5.0
 40
5.0
 40
6.0
 40
6.0
 40
6.0
 40
7.0
 40
7.0
 40
7.0
 40
8.0
 40
8.0
 40
8.0
 40
9.0
 40
9.0
 40
9.0
 40
10.0
 40
10.0
 40
10.0
 40
11.0
 40
11.0
 40
11.0
 40
12.0
 40
12.0
 40
12.0
 40
13.0
 40
13.0
 40
13.0
 40
14.0
 40
14.0
 40
14.0
 40
15.0
 40
15.0
 40
15.0
 40
16.0
 40
16.0
 40
16.0
 40
16.0
 10
93.58257376132659
 20
-139.0695474912743
 30
0.0
 10
93.49885794103501
 20
-139.0695474912743
 30
0.0
 10
93.39068194279817
 20
-139.0526665233966
 30
0.0
 10
93.28181692546427
 20
-138.989276766468
 30
0.0
 10
93.09647078835783
 20
-138.8793782204885
 30
0.0
 10
93.0740776677037
 20
-138.7481200825005
 30
0.0
 10
93.05375160434073
 20
-138.6402885938122
 30
0.0
 10
93.05375160434073
 20
-138.6402885938122
 30
0.0
 10
93.29111868327445
 20
-138.6402885938122
 30
0.0
 10
93.29111868327445
 20
-138.6402885938122
 30
0.0
 10
93.3496853065237
 20
-138.8390706033111
 30
0.0
 10
93.48542206864254
 20
-138.8686984244842
 30
0.0
 10
93.58498532816625
 20
-138.8686984244842
 30
0.0
 10
93.73415796267757
 20
-138.8686984244842
 30
0.0
 10
93.89711097912989
 20
-138.7691351649605
 30
0.0
 10
93.89711097912989
 20
-138.5365912197061
 30
0.0
 10
93.89711097912989
 20
-138.2806206251521
 30
0.0
 10
93.70487465105295
 20
-138.2106851868015
 30
0.0
 10
93.5760280799046
 20
-138.2106851868015
 30
0.0
 10
93.54192163460064
 20
-138.2106851868015
 30
0.0
 10
93.39068194279817
 20
-138.2106851868015
 30
0.0
 10
93.29559730740527
 20
-138.3398762674984
 30
0.0
 10
93.29559730740527
 20
-138.3398762674984
 30
0.0
 10
93.10783960345915
 20
-138.3209282423295
 30
0.0
 10
93.10783960345915
 20
-138.3209282423295
 30
0.0
 10
93.10783960345915
 20
-138.3209282423295
 30
0.0
 10
93.2366861746075
 20
-137.4744682816036
 30
0.0
 10
93.2366861746075
 20
-137.4744682816036
 30
0.0
 10
93.2366861746075
 20
-137.4744682816036
 30
0.0
 10
94.06867673429534
 20
-137.4744682816036
 30
0.0
 10
94.06867673429534
 20
-137.4744682816036
 30
0.0
 10
94.06867673429534
 20
-137.4744682816036
 30
0.0
 10
94.06867673429534
 20
-137.6691161765202
 30
0.0
 10
94.06867673429534
 20
-137.6691161765202
 30
0.0
 10
94.06867673429534
 20
-137.6691161765202
 30
0.0
 10
93.41100800616114
 20
-137.6691161765202
 30
0.0
 10
93.41100800616114
 20
-137.6691161765202
 30
0.0
 10
93.41100800616114
 20
-137.6691161765202
 30
0.0
 10
93.34072805826204
 20
-138.0921739021089
 30
0.0
 10
93.34072805826204
 20
-138.0921739021089
 30
0.0
 10
93.40618487248179
 20
-138.0584119663534
 30
0.0
 10
93.49437931690419
 20
-138.018104349176
 30
0.0
 10
93.62115883076139
 20
-138.018104349176
 30
0.0
 10
93.89228784545054
 20
-138.018104349176
 30
0.0
 10
94.1455023636164
 20
-138.2044840149281
 30
0.0
 10
94.1455023636164
 20
-138.5176431945373
 30
0.0
 10
94.1455023636164
 20
-138.8349364887288
 30
0.0
 10
93.90606822739154
 20
-139.0695474912743
 30
0.0
 10
93.58257376132659
 20
-139.0695474912743
 30
0.0
  0
HATCH
  5
9D
330
8B
100
AcDbEntity
  8
_U+30EC_U+30A4_U+30E4_U+30FC 1
 62
   179
420
  2234388
100
AcDbHatch
 10
0.0
 20
0.0
 30
0.0
210
0.0
220
0.0
230
1.0
  2
SOLID
 70
     1
 71
     0
 91
        1
 92
        1
 93
        1
 72
     4
 94
        3
 73
     0
 74
     1
 95
       53
 96
       49
 40
0.0
 40
0.0
 40
0.0
 40
0.0
 40
1.0
 40
1.0
 40
1.0
 40
2.0
 40
2.0
 40
2.0
 40
3.0
 40
3.0
 40
3.0
 40
4.0
 40
4.0
 40
4.0
 40
5.0
 40
5.0
 40
5.0
 40
6.0
 40
6.0
 40
6.0
 40
7.0
 40
7.0
 40
7.0
 40
8.0
 40
8.0
 40
8.0
 40
9.0
 40
9.0
 40
9.0
 40
10.0
 40
10.0
 40
10.0
 40
11.0
 40
11.0
 40
11.0
 40
12.0
 40
12.0
 40
12.0
 40
13.0
 40
13.0
 40
13.0
 40
14.0
 40
14.0
 40
14.0
 40
15.0
 40
15.0
 40
15.0
 40
16.0
 40
16.0
 40
16.0
 40
16.0
 10
93.58257376132659
 20
-139.0695474912743
 10
93.49885794103501
 20
-139.0695474912743
 10
93.39068194279817
 20
-139.0526665233966
 10
93.28181692546427
 20
-138.989276766468
 10
93.09647078835783
 20
-138.8793782204885
 10
93.0740776677037
 20
-138.7481200825005
 10
93.05375160434073
 20
-138.6402885938122
 10
93.05375160434073
 20
-138.6402885938122
 10
93.29111868327445
 20
-138.6402885938122
 10
93.29111868327445
 20
-138.6402885938122
 10
93.3496853065237
 20
-138.8390706033111
 10
93.48542206864254
 20
-138.8686984244842
 10
93.58498532816625
 20
-138.8686984244842
 10
93.73415796267757
 20
-138.8686984244842
 10
93.89711097912989
 20
-138.7691351649605
 10
93.89711097912989
 20
-138.5365912197061
 10
93.89711097912989
 20
-138.2806206251521
 10
93.70487465105295
 20
-138.2106851868015
 10
93.5760280799046
 20
-138.2106851868015
 10
93.54192163460064
 20
-138.2106851868015
 10
93.39068194279817
 20
-138.2106851868015
 10
93.29559730740527
 20
-138.3398762674984
 10
93.29559730740527
 20
-138.3398762674984
 10
93.10783960345915
 20
-138.3209282423295
 10
93.10783960345915
 20
-138.3209282423295
 10
93.10783960345915
 20
-138.3209282423295
 10
93.2366861746075
 20
-137.4744682816036
 10
93.2366861746075
 20
-137.4744682816036
 10
93.2366861746075
 20
-137.4744682816036
 10
94.06867673429534
 20
-137.4744682816036
 10
94.06867673429534
 20
-137.4744682816036
 10
94.06867673429534
 20
-137.4744682816036
 10
94.06867673429534
 20
-137.6691161765202
 10
94.06867673429534
 20
-137.6691161765202
 10
94.06867673429534
 20
-137.6691161765202
 10
93.41100800616114
 20
-137.6691161765202
 10
93.41100800616114
 20
-137.6691161765202
 10
93.41100800616114
 20
-137.6691161765202
 10
93.34072805826204
 20
-138.0921739021089
 10
93.34072805826204
 20
-138.0921739021089
 10
93.40618487248179
 20
-138.0584119663534
 10
93.49437931690419
 20
-138.018104349176
 10
93.62115883076139
 20
-138.018104349176
 10
93.89228784545054
 20
-138.018104349176
 10
94.1455023636164
 20
-138.2044840149281
 10
94.1455023636164
 20
-138.5176431945373
 10
94.1455023636164
 20
-138.8349364887288
 10
93.90606822739154
 20
-139.0695474912743
 10
93.58257376132659
 20
-139.0695474912743
 97
        0
 97
        0
 75
     2
 76
     1
 98
        0
  0
ENDBLK
  5
8E
330
8B
100
AcDbEntity
  8
0
100
AcDbBlockEnd
  0
BLOCK
  5
AC
330
AA
100
AcDbEntity
  8
0
100
AcDbBlockBegin
  2
block 4
 70
     0
 10
0.0
 20
0.0
 30
0.0
  3
block 4
  1

  0
SPLINE
  5
AE
330
AA
100
AcDbEntity
  8
_U+30EC_U+30A4_U+30E4_U+30FC 1
370
     0
100
AcDbSpline
210
0.0
220
0.0
230
1.0
 70
    11
 71
     3
 72
    26
 73
    22
 74
     0
 42
0.0000000001
 43
0.0000000001
 12
1.0
 22
0.0
 32
0.0
 13
1.0
 23
0.0
 33
0.0
 40
0.0
 40
0.0
 40
0.0
 40
0.0
 40
1.0
 40
1.0
 40
1.0
 40
2.0
 40
2.0
 40
2.0
 40
3.0
 40
3.0
 40
3.0
 40
4.0
 40
4.0
 40
4.0
 40
5.0
 40
5.0
 40
5.0
 40
6.0
 40
6.0
 40
6.0
 40
7.0
 40
7.0
 40
7.0
 40
7.0
 10
55.4476060516763
 20
-126.7913994366181
 30
0.0
 10
55.4476060516763
 20
-126.7913994366181
 30
0.0
 10
54.34328069387946
 20
-126.7913994366181
 30
0.0
 10
54.34328069387946
 20
-126.7913994366181
 30
0.0
 10
54.34328069387946
 20
-126.7913994366181
 30
0.0
 10
54.34328069387946
 20
-127.1438327047592
 30
0.0
 10
54.34328069387946
 20
-127.1438327047592
 30
0.0
 10
54.34328069387946
 20
-127.1438327047592
 30
0.0
 10
54.19531384278798
 20
-127.1438327047592
 30
0.0
 10
54.19531384278798
 20
-127.1438327047592
 30
0.0
 10
54.18049993220141
 20
-126.7889878697785
 30
0.0
 10
54.01754691574909
 20
-126.7393784947909
 30
0.0
 10
53.90334200041305
 20
-126.7076836163266
 30
0.0
 10
53.90334200041305
 20
-126.7076836163266
 30
0.0
 10
53.90334200041305
 20
-126.5516207908447
 30
0.0
 10
53.90334200041305
 20
-126.5516207908447
 30
0.0
 10
53.90334200041305
 20
-126.5516207908447
 30
0.0
 10
55.4476060516763
 20
-126.5516207908447
 30
0.0
 10
55.4476060516763
 20
-126.5516207908447
 30
0.0
 10
55.4476060516763
 20
-126.5516207908447
 30
0.0
 10
55.4476060516763
 20
-126.7913994366181
 30
0.0
 10
55.4476060516763
 20
-126.7913994366181
 30
0.0
  0
HATCH
  5
AF
330
AA
100
AcDbEntity
  8
_U+30EC_U+30A4_U+30E4_U+30FC 1
 62
   179
420
  2234388
100
AcDbHatch
 10
0.0
 20
0.0
 30
0.0
210
0.0
220
0.0
230
1.0
  2
SOLID
 70
     1
 71
     0
 91
        1
 92
        1
 93
        1
 72
     4
 94
        3
 73
     0
 74
     1
 95
       26
 96
       22
 40
0.0
 40
0.0
 40
0.0
 40
0.0
 40
1.0
 40
1.0
 40
1.0
 40
2.0
 40
2.0
 40
2.0
 40
3.0
 40
3.0
 40
3.0
 40
4.0
 40
4.0
 40
4.0
 40
5.0
 40
5.0
 40
5.0
 40
6.0
 40
6.0
 40
6.0
 40
7.0
 40
7.0
 40
7.0
 40
7.0
 10
55.4476060516763
 20
-126.7913994366181
 10
55.4476060516763
 20
-126.7913994366181
 10
54.34328069387946
 20
-126.7913994366181
 10
54.34328069387946
 20
-126.7913994366181
 10
54.34328069387946
 20
-126.7913994366181
 10
54.34328069387946
 20
-127.1438327047592
 10
54.34328069387946
 20
-127.1438327047592
 10
54.34328069387946
 20
-127.1438327047592
 10
54.19531384278798
 20
-127.1438327047592
 10
54.19531384278798
 20
-127.1438327047592
 10
54.18049993220141
 20
-126.7889878697785
 10
54.01754691574909
 20
-126.7393784947909
 10
53.90334200041305
 20
-126.7076836163266
 10
53.90334200041305
 20
-126.7076836163266
 10
53.90334200041305
 20
-126.5516207908447
 10
53.90334200041305
 20
-126.5516207908447
 10
53.90334200041305
 20
-126.5516207908447
 10
55.4476060516763
 20
-126.5516207908447
 10
55.4476060516763
 20
-126.5516207908447
 10
55.4476060516763
 20
-126.5516207908447
 10
55.4476060516763
 20
-126.7913994366181
 10
55.4476060516763
 20
-126.7913994366181
 97
        0
 97
        0
 75
     2
 76
     1
 98
        0
  0
SPLINE
  5
B0
330
AA
100
AcDbEntity
  8
_U+30EC_U+30A4_U+30E4_U+30FC 1
370
     0
100
AcDbSpline
210
0.0
220
0.0
230
1.0
 70
    11
 71
     3
 72
    32
 73
    28
 74
     0
 42
0.0000000001
 43
0.0000000001
 12
1.0
 22
0.0
 32
0.0
 13
1.0
 23
0.0
 33
0.0
 40
0.0
 40
0.0
 40
0.0
 40
0.0
 40
1.0
 40
1.0
 40
1.0
 40
2.0
 40
2.0
 40
2.0
 40
3.0
 40
3.0
 40
3.0
 40
4.0
 40
4.0
 40
4.0
 40
5.0
 40
5.0
 40
5.0
 40
6.0
 40
6.0
 40
6.0
 40
7.0
 40
7.0
 40
7.0
 40
8.0
 40
8.0
 40
8.0
 40
9.0
 40
9.0
 40
9.0
 40
9.0
 10
55.49842121008373
 20
-125.5267048839829
 30
0.0
 10
55.49842121008373
 20
-125.7120510210894
 30
0.0
 10
55.42848577173316
 20
-125.9742227875169
 30
0.0
 10
55.09637856695507
 20
-126.0148749142428
 30
0.0
 10
55.09637856695507
 20
-126.0148749142428
 30
0.0
 10
55.09637856695507
 20
-125.7868095931193
 30
0.0
 10
55.09637856695507
 20
-125.7868095931193
 30
0.0
 10
55.15563420930137
 20
-125.775440778018
 30
0.0
 10
55.30377331516711
 20
-125.741334332714
 30
0.0
 10
55.30377331516711
 20
-125.5242933171432
 30
0.0
 10
55.30377331516711
 20
-125.2125121757281
 30
0.0
 10
54.97373316768018
 20
-125.1718600490022
 30
0.0
 10
54.76857773153355
 20
-125.1580796670612
 30
0.0
 10
54.84884845633987
 20
-125.2552313597452
 30
0.0
 10
54.90603704139502
 20
-125.3275783649355
 30
0.0
 10
54.90603704139502
 20
-125.5222262598521
 30
0.0
 10
54.90603704139502
 20
-125.714462587929
 30
0.0
 10
54.80027260999785
 20
-126.0376125444455
 30
0.0
 10
54.3940958522869
 20
-126.0376125444455
 30
0.0
 10
54.07456324602997
 20
-126.0376125444455
 30
0.0
 10
53.85459389929677
 20
-125.8250501530055
 30
0.0
 10
53.85459389929677
 20
-125.486052757257
 30
0.0
 10
53.85459389929677
 20
-124.9365600273596
 30
0.0
 10
54.40890976287347
 20
-124.9251912122583
 30
0.0
 10
54.62250568295896
 20
-124.9251912122583
 30
0.0
 10
54.85315482569644
 20
-124.9251912122583
 30
0.0
 10
55.49842121008373
 20
-124.9455172756213
 30
0.0
 10
55.49842121008373
 20
-125.5267048839829
 30
0.0
  0
SPLINE
  5
B1
330
AA
100
AcDbEntity
  8
_U+30EC_U+30A4_U+30E4_U+30FC 1
370
     0
100
AcDbSpline
210
0.0
220
0.0
230
1.0
 70
    11
 71
     3
 72
    17
 73
    13
 74
     0
 42
0.0000000001
 43
0.0000000001
 12
1.0
 22
0.0
 32
0.0
 13
1.0
 23
0.0
 33
0.0
 40
0.0
 40
0.0
 40
0.0
 40
0.0
 40
1.0
 40
1.0
 40
1.0
 40
2.0
 40
2.0
 40
2.0
 40
3.0
 40
3.0
 40
3.0
 40
4.0
 40
4.0
 40
4.0
 40
4.0
 10
54.04717473692224
 20
-125.4836411904173
 30
0.0
 10
54.04717473692224
 20
-125.6104207042745
 30
0.0
 10
54.10419106720312
 20
-125.7978338986721
 30
0.0
 10
54.38978948293033
 20
-125.7978338986721
 30
0.0
 10
54.61613225631125
 20
-125.7978338986721
 30
0.0
 10
54.7113891464784
 20
-125.6486612641608
 30
0.0
 10
54.7113891464784
 20
-125.5039672537803
 30
0.0
 10
54.7113891464784
 20
-125.2235364812809
 30
0.0
 10
54.50192734097521
 20
-125.182884354555
 30
0.0
 10
54.38565536834803
 20
-125.182884354555
 30
0.0
 10
54.20995549860029
 20
-125.182884354555
 30
0.0
 10
54.04717473692224
 20
-125.2848591809184
 30
0.0
 10
54.04717473692224
 20
-125.4836411904173
 30
0.0
  0
HATCH
  5
B2
330
AA
100
AcDbEntity
  8
_U+30EC_U+30A4_U+30E4_U+30FC 1
 62
   179
420
  2234388
100
AcDbHatch
 10
0.0
 20
0.0
 30
0.0
210
0.0
220
0.0
230
1.0
  2
SOLID
 70
     1
 71
     0
 91
        2
 92
        1
 93
        1
 72
     4
 94
        3
 73
     0
 74
     1
 95
       32
 96
       28
 40
0.0
 40
0.0
 40
0.0
 40
0.0
 40
1.0
 40
1.0
 40
1.0
 40
2.0
 40
2.0
 40
2.0
 40
3.0
 40
3.0
 40
3.0
 40
4.0
 40
4.0
 40
4.0
 40
5.0
 40
5.0
 40
5.0
 40
6.0
 40
6.0
 40
6.0
 40
7.0
 40
7.0
 40
7.0
 40
8.0
 40
8.0
 40
8.0
 40
9.0
 40
9.0
 40
9.0
 40
9.0
 10
55.49842121008373
 20
-125.5267048839829
 10
55.49842121008373
 20
-125.7120510210894
 10
55.42848577173316
 20
-125.9742227875169
 10
55.09637856695507
 20
-126.0148749142428
 10
55.09637856695507
 20
-126.0148749142428
 10
55.09637856695507
 20
-125.7868095931193
 10
55.09637856695507
 20
-125.7868095931193
 10
55.15563420930137
 20
-125.775440778018
 10
55.30377331516711
 20
-125.741334332714
 10
55.30377331516711
 20
-125.5242933171432
 10
55.30377331516711
 20
-125.2125121757281
 10
54.97373316768018
 20
-125.1718600490022
 10
54.76857773153355
 20
-125.1580796670612
 10
54.84884845633987
 20
-125.2552313597452
 10
54.90603704139502
 20
-125.3275783649355
 10
54.90603704139502
 20
-125.5222262598521
 10
54.90603704139502
 20
-125.714462587929
 10
54.80027260999785
 20
-126.0376125444455
 10
54.3940958522869
 20
-126.0376125444455
 10
54.07456324602997
 20
-126.0376125444455
 10
53.85459389929677
 20
-125.8250501530055
 10
53.85459389929677
 20
-125.486052757257
 10
53.85459389929677
 20
-124.9365600273596
 10
54.40890976287347
 20
-124.9251912122583
 10
54.62250568295896
 20
-124.9251912122583
 10
54.85315482569644
 20
-124.9251912122583
 10
55.49842121008373
 20
-124.9455172756213
 10
55.49842121008373
 20
-125.5267048839829
 97
        0
 97
        0
 92
        1
 93
        1
 72
     4
 94
        3
 73
     0
 74
     1
 95
       17
 96
       13
 40
0.0
 40
0.0
 40
0.0
 40
0.0
 40
1.0
 40
1.0
 40
1.0
 40
2.0
 40
2.0
 40
2.0
 40
3.0
 40
3.0
 40
3.0
 40
4.0
 40
4.0
 40
4.0
 40
4.0
 10
54.04717473692224
 20
-125.4836411904173
 10
54.04717473692224
 20
-125.6104207042745
 10
54.10419106720312
 20
-125.7978338986721
 10
54.38978948293033
 20
-125.7978338986721
 10
54.61613225631125
 20
-125.7978338986721
 10
54.7113891464784
 20
-125.6486612641608
 10
54.7113891464784
 20
-125.5039672537803
 10
54.7113891464784
 20
-125.2235364812809
 10
54.50192734097521
 20
-125.182884354555
 10
54.38565536834803
 20
-125.182884354555
 10
54.20995549860029
 20
-125.182884354555
 10
54.04717473692224
 20
-125.2848591809184
 10
54.04717473692224
 20
-125.4836411904173
 97
        0
 97
        0
 75
     2
 76
     1
 98
        0
  0
ENDBLK
  5
AD
330
AA
100
AcDbEntity
  8
0
100
AcDbBlockEnd
  0
ENDSEC
  0
SECTION
  2
ENTITIES
  0
POLYLINE
  5
41
330
1F
100
AcDbEntity
  8
_U+30EC_U+30A4_U+30E4_U+30FC 1
370
     0
100
AcDb2dPolyline
 66
     1
 10
0.0
 20
0.0
 30
0.0
  0
VERTEX
  5
42
330
41
100
AcDbEntity
  8
_U+30EC_U+30A4_U+30E4_U+30FC 1
370
     0
100
AcDbVertex
100
AcDb2dVertex
 10
123.5438682370222
 20
-134.1172210775821
 30
0.0
  0
VERTEX
  5
43
330
41
100
AcDbEntity
  8
_U+30EC_U+30A4_U+30E4_U+30FC 1
370
     0
100
AcDbVertex
100
AcDb2dVertex
 10
61.54388092988479
 20
-134.1172210775821
 30
0.0
  0
VERTEX
  5
44
330
41
100
AcDbEntity
  8
_U+30EC_U+30A4_U+30E4_U+30FC 1
370
     0
100
AcDbVertex
100
AcDb2dVertex
 10
61.54388092988479
 20
-116.6168327486235
 30
0.0
  0
VERTEX
  5
45
330
41
100
AcDbEntity
  8
_U+30EC_U+30A4_U+30E4_U+30FC 1
370
     0
100
AcDbVertex
100
AcDb2dVertex
 10
60.04386985704215
 20
-116.6168327486235
 30
0.0
  0
VERTEX
  5
46
330
41
100
AcDbEntity
  8
_U+30EC_U+30A4_U+30E4_U+30FC 1
370
     0
100
AcDbVertex
100
AcDb2dVertex
 10
60.04386985704215
 20
-135.6172321883177
 30
0.0
  0
VERTEX
  5
47
330
41
100
AcDbEntity
  8
_U+30EC_U+30A4_U+30E4_U+30FC 1
370
     0
100
AcDbVertex
100
AcDb2dVertex
 10
123.5438682370222
 20
-135.6172321883177
 30
0.0
  0
VERTEX
  5
48
330
41
100
AcDbEntity
  8
_U+30EC_U+30A4_U+30E4_U+30FC 1
370
     0
100
AcDbVertex
100
AcDb2dVertex
 10
123.5438682370222
 20
-134.1172210775821
 30
0.0
  0
SEQEND
  5
4A
330
41
100
AcDbEntity
  8
_U+30EC_U+30A4_U+30E4_U+30FC 1
370
     0
  0
HATCH
  5
49
330
1F
100
AcDbEntity
  8
_U+30EC_U+30A4_U+30E4_U+30FC 1
 62
   253
420
 11711154
100
AcDbHatch
 10
0.0
 20
0.0
 30
0.0
210
0.0
220
0.0
230
1.0
  2
SOLID
 70
     1
 71
     0
 91
        1
 92
        1
 93
        6
 72
     1
 10
123.5438682370222
 20
-134.1172210775821
 11
61.54388092988479
 21
-134.1172210775821
 72
     1
 10
61.54388092988479
 20
-134.1172210775821
 11
61.54388092988479
 21
-116.6168327486235
 72
     1
 10
61.54388092988479
 20
-116.6168327486235
 11
60.04386985704215
 21
-116.6168327486235
 72
     1
 10
60.04386985704215
 20
-116.6168327486235
 11
60.04386985704215
 21
-135.6172321883177
 72
     1
 10
60.04386985704215
 20
-135.6172321883177
 11
123.5438682370222
 21
-135.6172321883177
 72
     1
 10
123.5438682370222
 20
-135.6172321883177
 11
123.5438682370222
 21
-134.1172210775821
 97
        0
 75
     2
 76
     1
 98
        0
  0
POLYLINE
  5
4B
330
1F
100
AcDbEntity
  8
_U+30EC_U+30A4_U+30E4_U+30FC 1
 62
   179
420
  2234388
370
    25
100
AcDb2dPolyline
 66
     1
 10
0.0
 20
0.0
 30
0.0
  0
VERTEX
  5
4C
330
4B
100
AcDbEntity
  8
_U+30EC_U+30A4_U+30E4_U+30FC 1
 62
   179
420
  2234388
370
    25
100
AcDbVertex
100
AcDb2dVertex
 10
60.04386985704215
 20
-135.6172321883177
 30
0.0
  0
VERTEX
  5
4D
330
4B
100
AcDbEntity
  8
_U+30EC_U+30A4_U+30E4_U+30FC 1
 62
   179
420
  2234388
370
    25
100
AcDbVertex
100
AcDb2dVertex
 10
123.5438682370222
 20
-135.6172321883177
 30
0.0
  0
SEQEND
  5
4E
330
4B
100
AcDbEntity
  8
_U+30EC_U+30A4_U+30E4_U+30FC 1
 62
   179
420
  2234388
370
    25
  0
POLYLINE
  5
4F
330
1F
100
AcDbEntity
  8
_U+30EC_U+30A4_U+30E4_U+30FC 1
 62
   179
420
  2234388
370
    25
100
AcDb2dPolyline
 66
     1
 10
0.0
 20
0.0
 30
0.0
  0
VERTEX
  5
50
330
4F
100
AcDbEntity
  8
_U+30EC_U+30A4_U+30E4_U+30FC 1
 62
   179
420
  2234388
370
    25
100
AcDbVertex
100
AcDb2dVertex
 10
60.04386985704215
 20
-116.6168327486235
 30
0.0
  0
VERTEX
  5
51
330
4F
100
AcDbEntity
  8
_U+30EC_U+30A4_U+30E4_U+30FC 1
 62
   179
420
  2234388
370
    25
100
AcDbVertex
100
AcDb2dVertex
 10
60.04386985704215
 20
-135.6172321883177
 30
0.0
  0
SEQEND
  5
52
330
4F
100
AcDbEntity
  8
_U+30EC_U+30A4_U+30E4_U+30FC 1
 62
   179
420
  2234388
370
    25
  0
POLYLINE
  5
53
330
1F
100
AcDbEntity
  8
_U+30EC_U+30A4_U+30E4_U+30FC 1
 62
   179
420
  2234388
370
    25
100
AcDb2dPolyline
 66
     1
 10
0.0
 20
0.0
 30
0.0
  0
VERTEX
  5
54
330
53
100
AcDbEntity
  8
_U+30EC_U+30A4_U+30E4_U+30FC 1
 62
   179
420
  2234388
370
    25
100
AcDbVertex
100
AcDb2dVertex
 10
123.5438682370222
 20
-134.1172210775821
 30
0.0
  0
VERTEX
  5
55
330
53
100
AcDbEntity
  8
_U+30EC_U+30A4_U+30E4_U+30FC 1
 62
   179
420
  2234388
370
    25
100
AcDbVertex
100
AcDb2dVertex
 10
123.5438682370222
 20
-135.6172321883177
 30
0.0
  0
SEQEND
  5
56
330
53
100
AcDbEntity
  8
_U+30EC_U+30A4_U+30E4_U+30FC 1
 62
   179
420
  2234388
370
    25
  0
POLYLINE
  5
57
330
1F
100
AcDbEntity
  8
_U+30EC_U+30A4_U+30E4_U+30FC 1
 62
   179
420
  2234388
370
    25
100
AcDb2dPolyline
 66
     1
 10
0.0
 20
0.0
 30
0.0
  0
VERTEX
  5
58
330
57
100
AcDbEntity
  8
_U+30EC_U+30A4_U+30E4_U+30FC 1
 62
   179
420
  2234388
370
    25
100
AcDbVertex
100
AcDb2dVertex
 10
61.54388092988479
 20
-134.1172210775821
 30
0.0
  0
VERTEX
  5
59
330
57
100
AcDbEntity
  8
_U+30EC_U+30A4_U+30E4_U+30FC 1
 62
   179
420
  2234388
370
    25
100
AcDbVertex
100
AcDb2dVertex
 10
123.5438682370222
 20
-134.1172210775821
 30
0.0
  0
SEQEND
  5
5A
330
57
100
AcDbEntity
  8
_U+30EC_U+30A4_U+30E4_U+30FC 1
 62
   179
420
  2234388
370
    25
  0
POLYLINE
  5
5B
330
1F
100
AcDbEntity
  8
_U+30EC_U+30A4_U+30E4_U+30FC 1
 62
   179
420
  2234388
370
    25
100
AcDb2dPolyline
 66
     1
 10
0.0
 20
0.0
 30
0.0
  0
VERTEX
  5
5C
330
5B
100
AcDbEntity
  8
_U+30EC_U+30A4_U+30E4_U+30FC 1
 62
   179
420
  2234388
370
    25
100
AcDbVertex
100
AcDb2dVertex
 10
60.04386985704215
 20
-116.6168327486235
 30
0.0
  0
VERTEX
  5
5D
330
5B
100
AcDbEntity
  8
_U+30EC_U+30A4_U+30E4_U+30FC 1
 62
   179
420
  2234388
370
    25
100
AcDbVertex
100
AcDb2dVertex
 10
61.54388092988479
 20
-116.6168327486235
 30
0.0
  0
SEQEND
  5
5E
330
5B
100
AcDbEntity
  8
_U+30EC_U+30A4_U+30E4_U+30FC 1
 62
   179
420
  2234388
370
    25
  0
POLYLINE
  5
5F
330
1F
100
AcDbEntity
  8
_U+30EC_U+30A4_U+30E4_U+30FC 1
 62
   179
420
  2234388
370
    25
100
AcDb2dPolyline
 66
     1
 10
0.0
 20
0.0
 30
0.0
  0
VERTEX
  5
60
330
5F
100
AcDbEntity
  8
_U+30EC_U+30A4_U+30E4_U+30FC 1
 62
   179
420
  2234388
370
    25
100
AcDbVertex
100
AcDb2dVertex
 10
61.54388092988479
 20
-116.6168327486235
 30
0.0
  0
VERTEX
  5
61
330
5F
100
AcDbEntity
  8
_U+30EC_U+30A4_U+30E4_U+30FC 1
 62
   179
420
  2234388
370
    25
100
AcDbVertex
100
AcDb2dVertex
 10
61.54388092988479
 20
-134.1172210775821
 30
0.0
  0
SEQEND
  5
62
330
5F
100
AcDbEntity
  8
_U+30EC_U+30A4_U+30E4_U+30FC 1
 62
   179
420
  2234388
370
    25
  0
SPLINE
  5
63
330
1F
100
AcDbEntity
  8
_U+30EC_U+30A4_U+30E4_U+30FC 1
 62
   179
420
  2234388
370
     9
100
AcDbSpline
210
0.0
220
0.0
230
1.0
 70
    11
 71
     3
 72
    17
 73
    13
 74
     0
 42
0.0000000001
 43
0.0000000001
 12
1.0
 22
0.0
 32
0.0
 13
1.0
 23
0.0
 33
0.0
 40
0.0
 40
0.0
 40
0.0
 40
0.0
 40
1.0
 40
1.0
 40
1.0
 40
2.0
 40
2.0
 40
2.0
 40
3.0
 40
3.0
 40
3.0
 40
4.0
 40
4.0
 40
4.0
 40
4.0
 10
56.14384106765129
 20
-135.6172321883177
 30
0.0
 10
56.14384106765129
 20
-135.5614227438872
 30
0.0
 10
56.09907498597514
 20
-135.5166199661211
 30
0.0
 10
56.04379329242594
 20
-135.5166199661211
 30
0.0
 10
55.98865554155827
 20
-135.5166199661211
 30
0.0
 10
55.9438866283081
 20
-135.5614227438872
 30
0.0
 10
55.9438866283081
 20
-135.6172321883177
 30
0.0
 10
55.9438866283081
 20
-135.6723360771932
 30
0.0
 10
55.98865554155827
 20
-135.7171388549593
 30
0.0
 10
56.04379329242594
 20
-135.7171388549593
 30
0.0
 10
56.09907498597514
 20
-135.7171388549593
 30
0.0
 10
56.14384106765129
 20
-135.6723360771932
 30
0.0
 10
56.14384106765129
 20
-135.6172321883177
 30
0.0
  0
SPLINE
  5
64
330
1F
100
AcDbEntity
  8
_U+30EC_U+30A4_U+30E4_U+30FC 1
 62
   179
420
  2234388
370
     9
100
AcDbSpline
210
0.0
220
0.0
230
1.0
 70
    11
 71
     3
 72
    17
 73
    13
 74
     0
 42
0.0000000001
 43
0.0000000001
 12
1.0
 22
0.0
 32
0.0
 13
1.0
 23
0.0
 33
0.0
 40
0.0
 40
0.0
 40
0.0
 40
0.0
 40
1.0
 40
1.0
 40
1.0
 40
2.0
 40
2.0
 40
2.0
 40
3.0
 40
3.0
 40
3.0
 40
4.0
 40
4.0
 40
4.0
 40
4.0
 10
60.14377652115999
 20
-139.616956076207
 30
0.0
 10
60.14377652115999
 20
-139.5618521873315
 30
0.0
 10
60.0990090223021
 20
-139.5170494095654
 30
0.0
 10
60.04386985704215
 20
-139.5170494095654
 30
0.0
 10
59.98858958067469
 20
-139.5170494095654
 30
0.0
 10
59.94378680403992
 20
-139.5618521873315
 30
0.0
 10
59.94378680403992
 20
-139.616956076207
 30
0.0
 10
59.94378680403992
 20
-139.6720952428595
 30
0.0
 10
59.98858958067469
 20
-139.7168980206262
 30
0.0
 10
60.04386985704215
 20
-139.7168980206262
 30
0.0
 10
60.0990090223021
 20
-139.7168980206262
 30
0.0
 10
60.14377652115999
 20
-139.6720952428595
 30
0.0
 10
60.14377652115999
 20
-139.616956076207
 30
0.0
  0
SPLINE
  5
65
330
1F
100
AcDbEntity
  8
_U+30EC_U+30A4_U+30E4_U+30FC 1
 62
   179
420
  2234388
370
     9
100
AcDbSpline
210
0.0
220
0.0
230
1.0
 70
    11
 71
     3
 72
    17
 73
    13
 74
     0
 42
0.0000000001
 43
0.0000000001
 12
1.0
 22
0.0
 32
0.0
 13
1.0
 23
0.0
 33
0.0
 40
0.0
 40
0.0
 40
0.0
 40
0.0
 40
1.0
 40
1.0
 40
1.0
 40
2.0
 40
2.0
 40
2.0
 40
3.0
 40
3.0
 40
3.0
 40
4.0
 40
4.0
 40
4.0
 40
4.0
 10
123.6437749011401
 20
-139.616956076207
 30
0.0
 10
123.6437749011401
 20
-139.5618521873315
 30
0.0
 10
123.5990074022822
 20
-139.5170494095654
 30
0.0
 10
123.5438682370222
 20
-139.5170494095654
 30
0.0
 10
123.4887643495392
 20
-139.5170494095654
 30
0.0
 10
123.4439615729044
 20
-139.5618521873315
 30
0.0
 10
123.4439615729044
 20
-139.616956076207
 30
0.0
 10
123.4439615729044
 20
-139.6720952428595
 30
0.0
 10
123.4887643495392
 20
-139.7168980206262
 30
0.0
 10
123.5438682370222
 20
-139.7168980206262
 30
0.0
 10
123.5990074022822
 20
-139.7168980206262
 30
0.0
 10
123.6437749011401
 20
-139.6720952428595
 30
0.0
 10
123.6437749011401
 20
-139.616956076207
 30
0.0
  0
SPLINE
  5
66
330
1F
100
AcDbEntity
  8
_U+30EC_U+30A4_U+30E4_U+30FC 1
 62
   179
420
  2234388
370
     9
100
AcDbSpline
210
0.0
220
0.0
230
1.0
 70
    11
 71
     3
 72
    17
 73
    13
 74
     0
 42
0.0000000001
 43
0.0000000001
 12
1.0
 22
0.0
 32
0.0
 13
1.0
 23
0.0
 33
0.0
 40
0.0
 40
0.0
 40
0.0
 40
0.0
 40
1.0
 40
1.0
 40
1.0
 40
2.0
 40
2.0
 40
2.0
 40
3.0
 40
3.0
 40
3.0
 40
4.0
 40
4.0
 40
4.0
 40
4.0
 10
56.14384106765129
 20
-116.6168327486235
 30
0.0
 10
56.14384106765129
 20
-116.5616935819708
 30
0.0
 10
56.09907498597514
 20
-116.5169260819819
 30
0.0
 10
56.04379329242594
 20
-116.5169260819819
 30
0.0
 10
55.98865554155827
 20
-116.5169260819819
 30
0.0
 10
55.9438866283081
 20
-116.5616935819708
 30
0.0
 10
55.9438866283081
 20
-116.6168327486235
 30
0.0
 10
55.9438866283081
 20
-116.6719366374988
 30
0.0
 10
55.98865554155827
 20
-116.7167394152652
 30
0.0
 10
56.04379329242594
 20
-116.7167394152652
 30
0.0
 10
56.09907498597514
 20
-116.7167394152652
 30
0.0
 10
56.14384106765129
 20
-116.6719366374988
 30
0.0
 10
56.14384106765129
 20
-116.6168327486235
 30
0.0
  0
POLYLINE
  5
67
330
1F
100
AcDbEntity
  8
_U+30EC_U+30A4_U+30E4_U+30FC 1
 62
   179
420
  2234388
370
     9
100
AcDb2dPolyline
 66
     1
 10
0.0
 20
0.0
 30
0.0
  0
VERTEX
  5
68
330
67
100
AcDbEntity
  8
_U+30EC_U+30A4_U+30E4_U+30FC 1
 62
   179
420
  2234388
370
     9
100
AcDbVertex
100
AcDb2dVertex
 10
126.0835859500064
 20
-135.6172321883177
 30
0.0
  0
VERTEX
  5
69
330
67
100
AcDbEntity
  8
_U+30EC_U+30A4_U+30E4_U+30FC 1
 62
   179
420
  2234388
370
     9
100
AcDbVertex
100
AcDb2dVertex
 10
128.5441083011975
 20
-135.6172321883177
 30
0.0
  0
SEQEND
  5
6A
330
67
100
AcDbEntity
  8
_U+30EC_U+30A4_U+30E4_U+30FC 1
 62
   179
420
  2234388
370
     9
  0
POLYLINE
  5
6B
330
1F
100
AcDbEntity
  8
_U+30EC_U+30A4_U+30E4_U+30FC 1
 62
   179
420
  2234388
370
     9
100
AcDb2dPolyline
 66
     1
 10
0.0
 20
0.0
 30
0.0
  0
VERTEX
  5
6C
330
6B
100
AcDbEntity
  8
_U+30EC_U+30A4_U+30E4_U+30FC 1
 62
   179
420
  2234388
370
     9
100
AcDbVertex
100
AcDb2dVertex
 10
126.0835859500064
 20
-134.1172210775821
 30
0.0
  0
VERTEX
  5
6D
330
6B
100
AcDbEntity
  8
_U+30EC_U+30A4_U+30E4_U+30FC 1
 62
   179
420
  2234388
370
     9
100
AcDbVertex
100
AcDb2dVertex
 10
128.5441083011975
 20
-134.1172210775821
 30
0.0
  0
SEQEND
  5
6E
330
6B
100
AcDbEntity
  8
_U+30EC_U+30A4_U+30E4_U+30FC 1
 62
   179
420
  2234388
370
     9
  0
INSERT
  5
70
330
1F
100
AcDbEntity
  8
_U+30EC_U+30A4_U+30E4_U+30FC 1
100
AcDbBlockReference
  2
block 2
 10
0.0
 20
0.0
 30
0.0
  0
POLYLINE
  5
7F
330
1F
100
AcDbEntity
  8
_U+30EC_U+30A4_U+30E4_U+30FC 1
 62
   179
420
  2234388
370
     9
100
AcDb2dPolyline
 66
     1
 10
0.0
 20
0.0
 30
0.0
  0
VERTEX
  5
80
330
7F
100
AcDbEntity
  8
_U+30EC_U+30A4_U+30E4_U+30FC 1
 62
   179
420
  2234388
370
     9
100
AcDbVertex
100
AcDb2dVertex
 10
60.04386985704215
 20
-139.616956076207
 30
0.0
  0
VERTEX
  5
81
330
7F
100
AcDbEntity
  8
_U+30EC_U+30A4_U+30E4_U+30FC 1
 62
   179
420
  2234388
370
     9
100
AcDbVertex
100
AcDb2dVertex
 10
123.5438682370222
 20
-139.616956076207
 30
0.0
  0
SEQEND
  5
82
330
7F
100
AcDbEntity
  8
_U+30EC_U+30A4_U+30E4_U+30FC 1
 62
   179
420
  2234388
370
     9
  0
POLYLINE
  5
83
330
1F
100
AcDbEntity
  8
_U+30EC_U+30A4_U+30E4_U+30FC 1
 62
   179
420
  2234388
370
     9
100
AcDb2dPolyline
 66
     1
 10
0.0
 20
0.0
 30
0.0
  0
VERTEX
  5
84
330
83
100
AcDbEntity
  8
_U+30EC_U+30A4_U+30E4_U+30FC 1
 62
   179
420
  2234388
370
     9
100
AcDbVertex
100
AcDb2dVertex
 10
60.04386985704215
 20
-138.1569499654609
 30
0.0
  0
VERTEX
  5
85
330
83
100
AcDbEntity
  8
_U+30EC_U+30A4_U+30E4_U+30FC 1
 62
   179
420
  2234388
370
     9
100
AcDbVertex
100
AcDb2dVertex
 10
60.04386985704215
 20
-140.6167282981789
 30
0.0
  0
SEQEND
  5
86
330
83
100
AcDbEntity
  8
_U+30EC_U+30A4_U+30E4_U+30FC 1
 62
   179
420
  2234388
370
     9
  0
POLYLINE
  5
87
330
1F
100
AcDbEntity
  8
_U+30EC_U+30A4_U+30E4_U+30FC 1
 62
   179
420
  2234388
370
     9
100
AcDb2dPolyline
 66
     1
 10
0.0
 20
0.0
 30
0.0
  0
VERTEX
  5
88
330
87
100
AcDbEntity
  8
_U+30EC_U+30A4_U+30E4_U+30FC 1
 62
   179
420
  2234388
370
     9
100
AcDbVertex
100
AcDb2dVertex
 10
123.5438682370222
 20
-138.1569499654609
 30
0.0
  0
VERTEX
  5
89
330
87
100
AcDbEntity
  8
_U+30EC_U+30A4_U+30E4_U+30FC 1
 62
   179
420
  2234388
370
     9
100
AcDbVertex
100
AcDb2dVertex
 10
123.5438682370222
 20
-140.6167282981789
 30
0.0
  0
SEQEND
  5
8A
330
87
100
AcDbEntity
  8
_U+30EC_U+30A4_U+30E4_U+30FC 1
 62
   179
420
  2234388
370
     9
  0
INSERT
  5
8C
330
1F
100
AcDbEntity
  8
_U+30EC_U+30A4_U+30E4_U+30FC 1
100
AcDbBlockReference
  2
block 3
 10
0.0
 20
0.0
 30
0.0
  0
POLYLINE
  5
9E
330
1F
100
AcDbEntity
  8
_U+30EC_U+30A4_U+30E4_U+30FC 1
 62
   179
420
  2234388
370
     9
100
AcDb2dPolyline
 66
     1
 10
0.0
 20
0.0
 30
0.0
  0
VERTEX
  5
9F
330
9E
100
AcDbEntity
  8
_U+30EC_U+30A4_U+30E4_U+30FC 1
 62
   179
420
  2234388
370
     9
100
AcDbVertex
100
AcDb2dVertex
 10
56.04379329242594
 20
-116.6168327486235
 30
0.0
  0
VERTEX
  5
A0
330
9E
100
AcDbEntity
  8
_U+30EC_U+30A4_U+30E4_U+30FC 1
 62
   179
420
  2234388
370
     9
100
AcDbVertex
100
AcDb2dVertex
 10
56.04379329242594
 20
-135.6172321883177
 30
0.0
  0
SEQEND
  5
A1
330
9E
100
AcDbEntity
  8
_U+30EC_U+30A4_U+30E4_U+30FC 1
 62
   179
420
  2234388
370
     9
  0
POLYLINE
  5
A2
330
1F
100
AcDbEntity
  8
_U+30EC_U+30A4_U+30E4_U+30FC 1
 62
   179
420
  2234388
370
     9
100
AcDb2dPolyline
 66
     1
 10
0.0
 20
0.0
 30
0.0
  0
VERTEX
  5
A3
330
A2
100
AcDbEntity
  8
_U+30EC_U+30A4_U+30E4_U+30FC 1
 62
   179
420
  2234388
370
     9
100
AcDbVertex
100
AcDb2dVertex
 10
57.50379936628919
 20
-116.6168327486235
 30
0.0
  0
VERTEX
  5
A4
330
A2
100
AcDbEntity
  8
_U+30EC_U+30A4_U+30E4_U+30FC 1
 62
   179
420
  2234388
370
     9
100
AcDbVertex
100
AcDb2dVertex
 10
55.04384470682564
 20
-116.6168327486235
 30
0.0
  0
SEQEND
  5
A5
330
A2
100
AcDbEntity
  8
_U+30EC_U+30A4_U+30E4_U+30FC 1
 62
   179
420
  2234388
370
     9
  0
POLYLINE
  5
A6
330
1F
100
AcDbEntity
  8
_U+30EC_U+30A4_U+30E4_U+30FC 1
 62
   179
420
  2234388
370
     9
100
AcDb2dPolyline
 66
     1
 10
0.0
 20
0.0
 30
0.0
  0
VERTEX
  5
A7
330
A6
100
AcDbEntity
  8
_U+30EC_U+30A4_U+30E4_U+30FC 1
 62
   179
420
  2234388
370
     9
100
AcDbVertex
100
AcDb2dVertex
 10
57.50379936628919
 20
-135.6172321883177
 30
0.0
  0
VERTEX
  5
A8
330
A6
100
AcDbEntity
  8
_U+30EC_U+30A4_U+30E4_U+30FC 1
 62
   179
420
  2234388
370
     9
100
AcDbVertex
100
AcDb2dVertex
 10
55.04384470682564
 20
-135.6172321883177
 30
0.0
  0
SEQEND
  5
A9
330
A6
100
AcDbEntity
  8
_U+30EC_U+30A4_U+30E4_U+30FC 1
 62
   179
420
  2234388
370
     9
  0
INSERT
  5
AB
330
1F
100
AcDbEntity
  8
_U+30EC_U+30A4_U+30E4_U+30FC 1
100
AcDbBlockReference
  2
block 4
 10
0.0
 20
0.0
 30
0.0
  0
ENDSEC
  0
SECTION
  2
OBJECTS
  0
DICTIONARY
  5
C
330
0
100
AcDbDictionary
281
     1
  3
ACAD_GROUP
350
D
  3
ACAD_LAYOUT
350
1A
  3
ACAD_MATERIAL
350
3B
  3
ACAD_MLEADERSTYLE
350
B4
  3
ACAD_MLINESTYLE
350
17
  3
ACAD_PLOTSETTINGS
350
19
  3
ACAD_PLOTSTYLENAME
350
E
  3
ACAD_TABLESTYLE
350
B3
  3
ACAD_VISUALSTYLE
350
2A
  0
SUN
  5
3F
330
29
100
AcDbSun
 90
        1
290
     0
 63
     7
421
 16777215
 40
1.0
291
     1
 91
  2455826
 92
 54000000
292
     0
 70
     2
 71
   256
280
     1
  0
DICTIONARY
  5
D
102
{ACAD_REACTORS
330
C
102
}
330
C
100
AcDbDictionary
281
     1
  0
DICTIONARY
  5
1A
102
{ACAD_REACTORS
330
C
102
}
330
C
100
AcDbDictionary
281
     1
  3
Layout1
350
1E
  3
Layout2
350
26
  3
Model
350
22
  0
DICTIONARY
  5
3B
102
{ACAD_REACTORS
330
C
102
}
330
C
100
AcDbDictionary
281
     1
  3
ByBlock
350
3D
  3
ByLayer
350
3C
  3
Global
350
3E
  0
DICTIONARY
  5
B4
102
{ACAD_REACTORS
330
C
102
}
330
C
100
AcDbDictionary
281
     1
  0
DICTIONARY
  5
17
102
{ACAD_REACTORS
330
C
102
}
330
C
100
AcDbDictionary
281
     1
  3
Standard
350
18
  0
DICTIONARY
  5
19
102
{ACAD_REACTORS
330
C
102
}
330
C
100
AcDbDictionary
281
     1
  0
ACDBDICTIONARYWDFLT
  5
E
102
{ACAD_REACTORS
330
C
102
}
330
C
100
AcDbDictionary
281
     1
  3
Normal
350
F
100
AcDbDictionaryWithDefault
340
F
  0
DICTIONARY
  5
B3
102
{ACAD_REACTORS
330
C
102
}
330
C
100
AcDbDictionary
281
     1
  0
DICTIONARY
  5
2A
102
{ACAD_REACTORS
330
C
102
}
330
C
100
AcDbDictionary
281
     1
  3
2dWireframe
350
2F
  3
3D Hidden
350
31
  3
3dWireframe
350
30
  3
Basic
350
32
  3
Brighten
350
36
  3
ColorChange
350
3A
  3
Conceptual
350
34
  3
Dim
350
35
  3
Facepattern
350
39
  3
Flat
350
2B
  3
FlatWithEdges
350
2C
  3
Gouraud
350
2D
  3
GouraudWithEdges
350
2E
  3
Linepattern
350
38
  3
Realistic
350
33
  3
Thicken
350
37
  0
LAYOUT
  5
1E
102
{ACAD_REACTORS
330
1A
102
}
330
1A
100
AcDbPlotSettings
  1

  2
none_device
  4

  6

 40
0.0
 41
0.0
 42
0.0
 43
0.0
 44
0.0
 45
0.0
 46
0.0
 47
0.0
 48
0.0
 49
0.0
140
0.0
141
0.0
142
1.0
143
1.0
 70
   688
 72
     0
 73
     0
 74
     5
  7

 75
    16
 76
     0
 77
     2
 78
   300
147
1.0
148
0.0
149
0.0
100
AcDbLayout
  1
Layout1
 70
     1
 71
     1
 10
0.0
 20
0.0
 11
12.0
 21
9.0
 12
0.0
 22
0.0
 32
0.0
 14
1.000000000000000E+20
 24
1.000000000000000E+20
 34
1.000000000000000E+20
 15
-1.000000000000000E+20
 25
-1.000000000000000E+20
 35
-1.000000000000000E+20
146
0.0
 13
0.0
 23
0.0
 33
0.0
 16
1.0
 26
0.0
 36
0.0
 17
0.0
 27
1.0
 37
0.0
 76
     0
330
1B
  0
LAYOUT
  5
26
102
{ACAD_REACTORS
330
1A
102
}
330
1A
100
AcDbPlotSettings
  1

  2
none_device
  4

  6

 40
0.0
 41
0.0
 42
0.0
 43
0.0
 44
0.0
 45
0.0
 46
0.0
 47
0.0
 48
0.0
 49
0.0
140
0.0
141
0.0
142
1.0
143
1.0
 70
   688
 72
     0
 73
     0
 74
     5
  7

 75
    16
 76
     0
 77
     2
 78
   300
147
1.0
148
0.0
149
0.0
100
AcDbLayout
  1
Layout2
 70
     1
 71
     2
 10
0.0
 20
0.0
 11
0.0
 21
0.0
 12
0.0
 22
0.0
 32
0.0
 14
0.0
 24
0.0
 34
0.0
 15
0.0
 25
0.0
 35
0.0
146
0.0
 13
0.0
 23
0.0
 33
0.0
 16
1.0
 26
0.0
 36
0.0
 17
0.0
 27
1.0
 37
0.0
 76
     0
330
23
  0
LAYOUT
  5
22
102
{ACAD_REACTORS
330
1A
102
}
330
1A
100
AcDbPlotSettings
  1

  2
none_device
  4

  6

 40
0.0
 41
0.0
 42
0.0
 43
0.0
 44
0.0
 45
0.0
 46
0.0
 47
0.0
 48
0.0
 49
0.0
140
0.0
141
0.0
142
1.0
143
1.0
 70
  1712
 72
     0
 73
     0
 74
     0
  7

 75
     0
 76
     0
 77
     2
 78
   300
147
1.0
148
0.0
149
0.0
100
AcDbLayout
  1
Model
 70
     1
 71
     0
 10
0.0
 20
0.0
 11
12.0
 21
9.0
 12
0.0
 22
0.0
 32
0.0
 14
1.000000000000000E+20
 24
1.000000000000000E+20
 34
1.000000000000000E+20
 15
-1.000000000000000E+20
 25
-1.000000000000000E+20
 35
-1.000000000000000E+20
146
0.0
 13
0.0
 23
0.0
 33
0.0
 16
1.0
 26
0.0
 36
0.0
 17
0.0
 27
1.0
 37
0.0
 76
     0
330
1F
331
29
  0
MATERIAL
  5
3D
102
{ACAD_REACTORS
330
3B
102
}
330
3B
100
AcDbMaterial
  1
ByBlock
 72
     1
 94
      127
  0
MATERIAL
  5
3C
102
{ACAD_REACTORS
330
3B
102
}
330
3B
100
AcDbMaterial
  1
ByLayer
 72
     1
 94
      127
  0
MATERIAL
  5
3E
102
{ACAD_REACTORS
330
3B
102
}
330
3B
100
AcDbMaterial
  1
Global
 72
     1
 94
      127
  0
MLINESTYLE
  5
18
102
{ACAD_REACTORS
330
17
102
}
330
17
100
AcDbMlineStyle
  2
Standard
 70
     0
  3

 62
   256
 51
90.0
 52
90.0
 71
     2
 49
0.5
 62
   256
  6
BYLAYER
 49
-0.5
 62
   256
  6
BYLAYER
  0
ACDBPLACEHOLDER
  5
F
102
{ACAD_REACTORS
330
E
102
}
330
E
  0
VISUALSTYLE
  5
2F
102
{ACAD_REACTORS
330
2A
102
}
330
2A
100
AcDbVisualStyle
  2
2dWireframe
 70
     4
177
     2
291
     0
 71
     0
176
     1
 72
     2
176
     1
 73
     0
176
     1
 90
        0
176
     1
 40
-0.6
176
     1
 41
-30.0
176
     1
 62
     5
 63
     7
421
 16777215
176
     1
 74
     1
176
     1
 91
        4
176
     1
 64
     7
176
     1
 65
   257
176
     1
 75
     1
176
     1
175
     1
176
     1
 42
1.0
176
     1
 92
        0
176
     1
 66
   257
176
     1
 43
1.0
176
     1
 76
     1
176
     1
 77
     6
176
     1
 78
     2
176
     1
 67
     7
176
     1
 79
     5
176
     1
170
     0
176
     1
171
     0
176
     1
290
     0
176
     1
 93
        1
176
     1
 44
0.0
176
     1
173
     0
176
     1
  0
VISUALSTYLE
  5
31
102
{ACAD_REACTORS
330
2A
102
}
330
2A
100
AcDbVisualStyle
  2
3D Hidden
 70
     6
177
     2
291
     0
 71
     1
176
     1
 72
     2
176
     1
 73
     2
176
     1
 90
        0
176
     1
 40
-0.6
176
     1
 41
-30.0
176
     1
 62
     5
 63
     7
421
 16777215
176
     1
 74
     2
176
     1
 91
        2
176
     1
 64
     7
176
     1
 65
   257
176
     1
 75
     2
176
     1
175
     1
176
     1
 42
40.0
176
     1
 92
        0
176
     1
 66
   257
176
     1
 43
1.0
176
     1
 76
     1
176
     1
 77
     6
176
     1
 78
     2
176
     1
 67
     7
176
     1
 79
     3
176
     1
170
     0
176
     1
171
     0
176
     1
290
     0
176
     1
 93
        1
176
     1
 44
0.0
176
     1
173
     0
176
     1
  0
VISUALSTYLE
  5
30
102
{ACAD_REACTORS
330
2A
102
}
330
2A
100
AcDbVisualStyle
  2
3dWireframe
 70
     5
177
     2
291
     0
 71
     0
176
     1
 72
     2
176
     1
 73
     0
176
     1
 90
        0
176
     1
 40
-0.6
176
     1
 41
-30.0
176
     1
 62
     5
 63
     7
421
 16777215
176
     1
 74
     1
176
     1
 91
        4
176
     1
 64
     7
176
     1
 65
   257
176
     1
 75
     1
176
     1
175
     1
176
     1
 42
1.0
176
     1
 92
        0
176
     1
 66
   257
176
     1
 43
1.0
176
     1
 76
     1
176
     1
 77
     6
176
     1
 78
     2
176
     1
 67
     7
176
     1
 79
     5
176
     1
170
     0
176
     1
171
     0
176
     1
290
     0
176
     1
 93
        1
176
     1
 44
0.0
176
     1
173
     0
176
     1
  0
VISUALSTYLE
  5
32
102
{ACAD_REACTORS
330
2A
102
}
330
2A
100
AcDbVisualStyle
  2
Basic
 70
     7
177
     2
291
     1
 71
     1
176
     1
 72
     0
176
     1
 73
     1
176
     1
 90
        0
176
     1
 40
-0.6
176
     1
 41
-30.0
176
     1
 62
     5
 63
     7
421
 16777215
176
     1
 74
     0
176
     1
 91
        4
176
     1
 64
     7
176
     1
 65
   257
176
     1
 75
     1
176
     1
175
     1
176
     1
 42
1.0
176
     1
 92
        8
176
     1
 66
     7
176
     1
 43
1.0
176
     1
 76
     1
176
     1
 77
     6
176
     1
 78
     2
176
     1
 67
     7
176
     1
 79
     5
176
     1
170
     0
176
     1
171
     0
176
     1
290
     0
176
     1
 93
        1
176
     1
 44
0.0
176
     1
173
     0
176
     1
  0
VISUALSTYLE
  5
36
102
{ACAD_REACTORS
330
2A
102
}
330
2A
100
AcDbVisualStyle
  2
Brighten
 70
    12
177
     2
291
     1
 71
     2
176
     1
 72
     2
176
     1
 73
     0
176
     1
 90
        0
176
     1
 40
-0.6
176
     1
 41
-30.0
176
     1
 62
     5
 63
     7
421
 16777215
176
     1
 74
     1
176
     1
 91
        4
176
     1
 64
     7
176
     1
 65
   257
176
     1
 75
     1
176
     1
175
     1
176
     1
 42
1.0
176
     1
 92
        8
176
     1
 66
     7
176
     1
 43
1.0
176
     1
 76
     1
176
     1
 77
     6
176
     1
 78
     2
176
     1
 67
     7
176
     1
 79
     5
176
     1
170
     0
176
     1
171
     0
176
     1
290
     0
176
     1
 93
        1
176
     1
 44
50.0
176
     1
173
     0
176
     1
  0
VISUALSTYLE
  5
3A
102
{ACAD_REACTORS
330
2A
102
}
330
2A
100
AcDbVisualStyle
  2
ColorChange
 70
    16
177
     2
291
     1
 71
     2
176
     1
 72
     2
176
     1
 73
     3
176
     1
 90
        0
176
     1
 40
-0.6
176
     1
 41
-30.0
176
     1
 62
     5
 63
     8
421
  8421504
176
     1
 74
     1
176
     1
 91
        4
176
     1
 64
     7
176
     1
 65
   257
176
     1
 75
     1
176
     1
175
     1
176
     1
 42
1.0
176
     1
 92
        8
176
     1
 66
     8
424
  8421504
176
     1
 43
1.0
176
     1
 76
     1
176
     1
 77
     6
176
     1
 78
     2
176
     1
 67
     7
176
     1
 79
     5
176
     1
170
     0
176
     1
171
     0
176
     1
290
     0
176
     1
 93
        1
176
     1
 44
0.0
176
     1
173
     0
176
     1
  0
VISUALSTYLE
  5
34
102
{ACAD_REACTORS
330
2A
102
}
330
2A
100
AcDbVisualStyle
  2
Conceptual
 70
     9
177
     2
291
     0
 71
     3
176
     1
 72
     2
176
     1
 73
     0
176
     1
 90
        0
176
     1
 40
-0.6
176
     1
 41
-30.0
176
     1
 62
     5
 63
     7
421
 16777215
176
     1
 74
     2
176
     1
 91
        2
176
     1
 64
     7
176
     1
 65
   257
176
     1
 75
     1
176
     1
175
     1
176
     1
 42
40.0
176
     1
 92
        8
176
     1
 66
     7
176
     1
 43
1.0
176
     1
 76
     1
176
     1
 77
     6
176
     1
 78
     2
176
     1
 67
     7
176
     1
 79
     3
176
     1
170
     0
176
     1
171
     0
176
     1
290
     0
176
     1
 93
        1
176
     1
 44
0.0
176
     1
173
     0
176
     1
  0
VISUALSTYLE
  5
35
102
{ACAD_REACTORS
330
2A
102
}
330
2A
100
AcDbVisualStyle
  2
Dim
 70
    11
177
     2
291
     1
 71
     2
176
     1
 72
     2
176
     1
 73
     0
176
     1
 90
        0
176
     1
 40
-0.6
176
     1
 41
-30.0
176
     1
 62
     5
 63
     7
421
 16777215
176
     1
 74
     1
176
     1
 91
        4
176
     1
 64
     7
176
     1
 65
   257
176
     1
 75
     1
176
     1
175
     1
176
     1
 42
1.0
176
     1
 92
        8
176
     1
 66
     7
176
     1
 43
1.0
176
     1
 76
     1
176
     1
 77
     6
176
     1
 78
     2
176
     1
 67
     7
176
     1
 79
     5
176
     1
170
     0
176
     1
171
     0
176
     1
290
     0
176
     1
 93
        1
176
     1
 44
-50.0
176
     1
173
     0
176
     1
  0
VISUALSTYLE
  5
39
102
{ACAD_REACTORS
330
2A
102
}
330
2A
100
AcDbVisualStyle
  2
Facepattern
 70
    15
177
     2
291
     1
 71
     2
176
     1
 72
     2
176
     1
 73
     0
176
     1
 90
        0
176
     1
 40
-0.6
176
     1
 41
-30.0
176
     1
 62
     5
 63
     7
421
 16777215
176
     1
 74
     1
176
     1
 91
        4
176
     1
 64
     7
176
     1
 65
   257
176
     1
 75
     1
176
     1
175
     1
176
     1
 42
1.0
176
     1
 92
        8
176
     1
 66
     7
176
     1
 43
1.0
176
     1
 76
     1
176
     1
 77
     6
176
     1
 78
     2
176
     1
 67
     7
176
     1
 79
     5
176
     1
170
     0
176
     1
171
     0
176
     1
290
     0
176
     1
 93
        1
176
     1
 44
0.0
176
     1
173
     0
176
     1
  0
VISUALSTYLE
  5
2B
102
{ACAD_REACTORS
330
2A
102
}
330
2A
100
AcDbVisualStyle
  2
Flat
 70
     0
177
     2
291
     1
 71
     2
176
     1
 72
     1
176
     1
 73
     1
176
     1
 90
        2
176
     1
 40
-0.6
176
     1
 41
30.0
176
     1
 62
     5
 63
     7
421
 16777215
176
     1
 74
     0
176
     1
 91
        4
176
     1
 64
     7
176
     1
 65
   257
176
     1
 75
     1
176
     1
175
     1
176
     1
 42
1.0
176
     1
 92
        8
176
     1
 66
     7
176
     1
 43
1.0
176
     1
 76
     1
176
     1
 77
     6
176
     1
 78
     2
176
     1
 67
     7
176
     1
 79
     5
176
     1
170
     0
176
     1
171
     0
176
     1
290
     0
176
     1
 93
       13
176
     1
 44
0.0
176
     1
173
     0
176
     1
  0
VISUALSTYLE
  5
2C
102
{ACAD_REACTORS
330
2A
102
}
330
2A
100
AcDbVisualStyle
  2
FlatWithEdges
 70
     1
177
     2
291
     1
 71
     2
176
     1
 72
     1
176
     1
 73
     1
176
     1
 90
        2
176
     1
 40
-0.6
176
     1
 41
30.0
176
     1
 62
     5
 63
     7
421
 16777215
176
     1
 74
     1
176
     1
 91
        4
176
     1
 64
     7
176
     1
 65
   257
176
     1
 75
     1
176
     1
175
     1
176
     1
 42
1.0
176
     1
 92
        0
176
     1
 66
   257
176
     1
 43
1.0
176
     1
 76
     1
176
     1
 77
     6
176
     1
 78
     2
176
     1
 67
     7
176
     1
 79
     5
176
     1
170
     0
176
     1
171
     0
176
     1
290
     0
176
     1
 93
       13
176
     1
 44
0.0
176
     1
173
     0
176
     1
  0
VISUALSTYLE
  5
2D
102
{ACAD_REACTORS
330
2A
102
}
330
2A
100
AcDbVisualStyle
  2
Gouraud
 70
     2
177
     2
291
     1
 71
     2
176
     1
 72
     2
176
     1
 73
     1
176
     1
 90
        2
176
     1
 40
-0.6
176
     1
 41
30.0
176
     1
 62
     5
 63
     7
421
 16777215
176
     1
 74
     0
176
     1
 91
        4
176
     1
 64
     7
176
     1
 65
   257
176
     1
 75
     1
176
     1
175
     1
176
     1
 42
1.0
176
     1
 92
        0
176
     1
 66
     7
176
     1
 43
1.0
176
     1
 76
     1
176
     1
 77
     6
176
     1
 78
     2
176
     1
 67
     7
176
     1
 79
     5
176
     1
170
     0
176
     1
171
     0
176
     1
290
     0
176
     1
 93
       13
176
     1
 44
0.0
176
     1
173
     0
176
     1
  0
VISUALSTYLE
  5
2E
102
{ACAD_REACTORS
330
2A
102
}
330
2A
100
AcDbVisualStyle
  2
GouraudWithEdges
 70
     3
177
     2
291
     1
 71
     2
176
     1
 72
     2
176
     1
 73
     1
176
     1
 90
        2
176
     1
 40
-0.6
176
     1
 41
30.0
176
     1
 62
     5
 63
     7
421
 16777215
176
     1
 74
     1
176
     1
 91
        4
176
     1
 64
     7
176
     1
 65
   257
176
     1
 75
     1
176
     1
175
     1
176
     1
 42
1.0
176
     1
 92
        0
176
     1
 66
   257
176
     1
 43
1.0
176
     1
 76
     1
176
     1
 77
     6
176
     1
 78
     2
176
     1
 67
     7
176
     1
 79
     5
176
     1
170
     0
176
     1
171
     0
176
     1
290
     0
176
     1
 93
       13
176
     1
 44
0.0
176
     1
173
     0
176
     1
  0
VISUALSTYLE
  5
38
102
{ACAD_REACTORS
330
2A
102
}
330
2A
100
AcDbVisualStyle
  2
Linepattern
 70
    14
177
     2
291
     1
 71
     2
176
     1
 72
     2
176
     1
 73
     0
176
     1
 90
        0
176
     1
 40
-0.6
176
     1
 41
-30.0
176
     1
 62
     5
 63
     7
421
 16777215
176
     1
 74
     1
176
     1
 91
        4
176
     1
 64
     7
176
     1
 65
   257
176
     1
 75
     7
176
     1
175
     7
176
     1
 42
1.0
176
     1
 92
        8
176
     1
 66
     7
176
     1
 43
1.0
176
     1
 76
     1
176
     1
 77
     6
176
     1
 78
     2
176
     1
 67
     7
176
     1
 79
     5
176
     1
170
     0
176
     1
171
     0
176
     1
290
     0
176
     1
 93
        1
176
     1
 44
0.0
176
     1
173
     0
176
     1
  0
VISUALSTYLE
  5
33
102
{ACAD_REACTORS
330
2A
102
}
330
2A
100
AcDbVisualStyle
  2
Realistic
 70
     8
177
     2
291
     0
 71
     2
176
     1
 72
     2
176
     1
 73
     0
176
     1
 90
        0
176
     1
 40
-0.6
176
     1
 41
-30.0
176
     1
 62
     5
 63
     7
421
 16777215
176
     1
 74
     1
176
     1
 91
        0
176
     1
 64
     7
176
     1
 65
   257
176
     1
 75
     1
176
     1
175
     1
176
     1
 42
1.0
176
     1
 92
        8
176
     1
 66
     8
424
  7895160
176
     1
 43
1.0
176
     1
 76
     1
176
     1
 77
     6
176
     1
 78
     2
176
     1
 67
     7
176
     1
 79
     5
176
     1
170
     0
176
     1
171
     0
176
     1
290
     0
176
     1
 93
       13
176
     1
 44
0.0
176
     1
173
     0
176
     1
  0
VISUALSTYLE
  5
37
102
{ACAD_REACTORS
330
2A
102
}
330
2A
100
AcDbVisualStyle
  2
Thicken
 70
    13
177
     2
291
     1
 71
     2
176
     1
 72
     2
176
     1
 73
     0
176
     1
 90
        0
176
     1
 40
-0.6
176
     1
 41
-30.0
176
     1
 62
     5
 63
     7
421
 16777215
176
     1
 74
     1
176
     1
 91
        4
176
     1
 64
     7
176
     1
 65
   257
176
     1
 75
     1
176
     1
175
     1
176
     1
 42
1.0
176
     1
 92
       12
176
     1
 66
     7
176
     1
 43
1.0
176
     1
 76
     1
176
     1
 77
     6
176
     1
 78
     2
176
     1
 67
     7
176
     1
 79
     5
176
     1
170
     0
176
     1
171
     0
176
     1
290
     0
176
     1
 93
        1
176
     1
 44
0.0
176
     1
173
     0
176
     1
  0
ENDSEC
  0
EOF
