  0
SECTION
  2
HEADER
  9
$ACADVER
  1
AC1024
  9
$ACADMAINTVER
 70
     6
  9
$DWGCODEPAGE
  3
UNDEFINED
  9
$INSBASE
 10
0.0
 20
0.0
 30
0.0
  9
$EXTMIN
 10
1.000000000000000E+20
 20
1.000000000000000E+20
 30
1.000000000000000E+20
  9
$EXTMAX
 10
-1.000000000000000E+20
 20
-1.000000000000000E+20
 30
-1.000000000000000E+20
  9
$LIMMIN
 10
0.0
 20
0.0
  9
$LIMMAX
 10
12.0
 20
9.0
  9
$ORTHOMODE
 70
     0
  9
$REGENMODE
 70
     1
  9
$FILLMODE
 70
     1
  9
$QTEXTMODE
 70
     0
  9
$MIRRTEXT
 70
     1
  9
$LTSCALE
 40
1.0
  9
$ATTMODE
 70
     1
  9
$TEXTSIZE
 40
0.2
  9
$TRACEWID
 40
0.05
  9
$TEXTSTYLE
  7
Standard
  9
$CLAYER
  8
0
  9
$CELTYPE
  6
ByLayer
  9
$CECOLOR
 62
   256
  9
$CELTSCALE
 40
1.0
  9
$DISPSILH
 70
     0
  9
$DIMSCALE
 40
1.0
  9
$DIMASZ
 40
0.18
  9
$DIMEXO
 40
0.0625
  9
$DIMDLI
 40
0.38
  9
$DIMRND
 40
0.0
  9
$DIMDLE
 40
0.0
  9
$DIMEXE
 40
0.18
  9
$DIMTP
 40
0.0
  9
$DIMTM
 40
0.0
  9
$DIMTXT
 40
0.18
  9
$DIMCEN
 40
0.09
  9
$DIMTSZ
 40
0.0
  9
$DIMTOL
 70
     0
  9
$DIMLIM
 70
     0
  9
$DIMTIH
 70
     1
  9
$DIMTOH
 70
     1
  9
$DIMSE1
 70
     0
  9
$DIMSE2
 70
     0
  9
$DIMTAD
 70
     0
  9
$DIMZIN
 70
     0
  9
$DIMBLK
  1

  9
$DIMASO
 70
     1
  9
$DIMSHO
 70
     1
  9
$DIMPOST
  1

  9
$DIMAPOST
  1

  9
$DIMALT
 70
     0
  9
$DIMALTD
 70
     2
  9
$DIMALTF
 40
25.4
  9
$DIMLFAC
 40
1.0
  9
$DIMTOFL
 70
     0
  9
$DIMTVP
 40
0.0
  9
$DIMTIX
 70
     0
  9
$DIMSOXD
 70
     0
  9
$DIMSAH
 70
     0
  9
$DIMBLK1
  1

  9
$DIMBLK2
  1

  9
$DIMSTYLE
  2
Standard
  9
$DIMCLRD
 70
     0
  9
$DIMCLRE
 70
     0
  9
$DIMCLRT
 70
     0
  9
$DIMTFAC
 40
1.0
  9
$DIMGAP
 40
0.09
  9
$DIMJUST
 70
     0
  9
$DIMSD1
 70
     0
  9
$DIMSD2
 70
     0
  9
$DIMTOLJ
 70
     1
  9
$DIMTZIN
 70
     0
  9
$DIMALTZ
 70
     0
  9
$DIMALTTZ
 70
     0
  9
$DIMUPT
 70
     0
  9
$DIMDEC
 70
     4
  9
$DIMTDEC
 70
     4
  9
$DIMALTU
 70
     2
  9
$DIMALTTD
 70
     2
  9
$DIMTXSTY
  7
Standard
  9
$DIMAUNIT
 70
     0
  9
$DIMADEC
 70
     0
  9
$DIMALTRND
 40
0.0
  9
$DIMAZIN
 70
     0
  9
$DIMDSEP
 70
    46
  9
$DIMATFIT
 70
     3
  9
$DIMFRAC
 70
     0
  9
$DIMLDRBLK
  1

  9
$DIMLUNIT
 70
     2
  9
$DIMLWD
 70
    -2
  9
$DIMLWE
 70
    -2
  9
$DIMTMOVE
 70
     0
  9
$DIMFXL
 40
1.0
  9
$DIMFXLON
 70
     0
  9
$DIMJOGANG
 40
0.7853981633974483
  9
$DIMTFILL
 70
     0
  9
$DIMTFILLCLR
 70
     0
  9
$DIMARCSYM
 70
     0
  9
$DIMLTYPE
  6

  9
$DIMLTEX1
  6

  9
$DIMLTEX2
  6

  9
$DIMTXTDIRECTION
 70
     0
  9
$LUNITS
 70
     2
  9
$LUPREC
 70
     4
  9
$SKETCHINC
 40
0.1
  9
$FILLETRAD
 40
0.5
  9
$AUNITS
 70
     0
  9
$AUPREC
 70
     0
  9
$MENU
  1
.
  9
$ELEVATION
 40
0.0
  9
$PELEVATION
 40
0.0
  9
$THICKNESS
 40
0.0
  9
$LIMCHECK
 70
     0
  9
$CHAMFERA
 40
0.5
  9
$CHAMFERB
 40
0.5
  9
$CHAMFERC
 40
1.0
  9
$CHAMFERD
 40
0.0
  9
$SKPOLY
 70
     0
  9
$TDCREATE
 40
2457917.620833322
  9
$TDUCREATE
 40
2457917.245833333
  9
$TDUPDATE
 40
2457917.620833322
  9
$TDUUPDATE
 40
2457917.245833333
  9
$TDINDWG
 40
0.0000000116
  9
$TDUSRTIMER
 40
0.0000000116
  9
$USRTIMER
 70
     1
  9
$ANGBASE
 50
0.0
  9
$ANGDIR
 70
     0
  9
$PDMODE
 70
     0
  9
$PDSIZE
 40
0.0
  9
$PLINEWID
 40
0.0
  9
$SPLFRAME
 70
     0
  9
$SPLINETYPE
 70
     6
  9
$SPLINESEGS
 70
     8
  9
$HANDSEED
  5
B3
  9
$SURFTAB1
 70
     6
  9
$SURFTAB2
 70
     6
  9
$SURFTYPE
 70
     6
  9
$SURFU
 70
     6
  9
$SURFV
 70
     6
  9
$UCSBASE
  2

  9
$UCSNAME
  2

  9
$UCSORG
 10
0.0
 20
0.0
 30
0.0
  9
$UCSXDIR
 10
1.0
 20
0.0
 30
0.0
  9
$UCSYDIR
 10
0.0
 20
1.0
 30
0.0
  9
$UCSORTHOREF
  2

  9
$UCSORTHOVIEW
 70
     0
  9
$UCSORGTOP
 10
0.0
 20
0.0
 30
0.0
  9
$UCSORGBOTTOM
 10
0.0
 20
0.0
 30
0.0
  9
$UCSORGLEFT
 10
0.0
 20
0.0
 30
0.0
  9
$UCSORGRIGHT
 10
0.0
 20
0.0
 30
0.0
  9
$UCSORGFRONT
 10
0.0
 20
0.0
 30
0.0
  9
$UCSORGBACK
 10
0.0
 20
0.0
 30
0.0
  9
$PUCSBASE
  2

  9
$PUCSNAME
  2

  9
$PUCSORG
 10
0.0
 20
0.0
 30
0.0
  9
$PUCSXDIR
 10
1.0
 20
0.0
 30
0.0
  9
$PUCSYDIR
 10
0.0
 20
1.0
 30
0.0
  9
$PUCSORTHOREF
  2

  9
$PUCSORTHOVIEW
 70
     0
  9
$PUCSORGTOP
 10
0.0
 20
0.0
 30
0.0
  9
$PUCSORGBOTTOM
 10
0.0
 20
0.0
 30
0.0
  9
$PUCSORGLEFT
 10
0.0
 20
0.0
 30
0.0
  9
$PUCSORGRIGHT
 10
0.0
 20
0.0
 30
0.0
  9
$PUCSORGFRONT
 10
0.0
 20
0.0
 30
0.0
  9
$PUCSORGBACK
 10
0.0
 20
0.0
 30
0.0
  9
$USERI1
 70
     0
  9
$USERI2
 70
     0
  9
$USERI3
 70
     0
  9
$USERI4
 70
     0
  9
$USERI5
 70
     0
  9
$USERR1
 40
0.0
  9
$USERR2
 40
0.0
  9
$USERR3
 40
0.0
  9
$USERR4
 40
0.0
  9
$USERR5
 40
0.0
  9
$WORLDVIEW
 70
     1
  9
$SHADEDGE
 70
     3
  9
$SHADEDIF
 70
    70
  9
$TILEMODE
 70
     1
  9
$MAXACTVP
 70
    64
  9
$PINSBASE
 10
0.0
 20
0.0
 30
0.0
  9
$PLIMCHECK
 70
     0
  9
$PEXTMIN
 10
1.000000000000000E+20
 20
1.000000000000000E+20
 30
1.000000000000000E+20
  9
$PEXTMAX
 10
-1.000000000000000E+20
 20
-1.000000000000000E+20
 30
-1.000000000000000E+20
  9
$PLIMMIN
 10
0.0
 20
0.0
  9
$PLIMMAX
 10
12.0
 20
9.0
  9
$UNITMODE
 70
     0
  9
$VISRETAIN
 70
     1
  9
$PLINEGEN
 70
     0
  9
$PSLTSCALE
 70
     1
  9
$TREEDEPTH
 70
  3020
  9
$CMLSTYLE
  2
Standard
  9
$CMLJUST
 70
     0
  9
$CMLSCALE
 40
1.0
  9
$PROXYGRAPHICS
 70
     1
  9
$MEASUREMENT
 70
     0
  9
$CELWEIGHT
370
    -1
  9
$ENDCAPS
280
     0
  9
$JOINSTYLE
280
     0
  9
$LWDISPLAY
290
     1
  9
$INSUNITS
 70
     1
  9
$HYPERLINKBASE
  1

  9
$STYLESHEET
  1

  9
$XEDIT
290
     1
  9
$CEPSNTYPE
380
     0
  9
$PSTYLEMODE
290
     1
  9
$FINGERPRINTGUID
  2
{45F805ED-5C93-451C-B24D-4ACC53800B56}
  9
$VERSIONGUID
  2
{FAEB1C32-E019-11D5-929B-00C0DF256EC4}
  9
$EXTNAMES
290
     1
  9
$PSVPSCALE
 40
0.0
  9
$OLESTARTUP
290
     0
  9
$SORTENTS
280
   127
  9
$INDEXCTL
280
     0
  9
$HIDETEXT
280
     1
  9
$XCLIPFRAME
280
     2
  9
$HALOGAP
280
     0
  9
$OBSCOLOR
 70
   257
  9
$OBSLTYPE
280
     0
  9
$INTERSECTIONDISPLAY
280
     0
  9
$INTERSECTIONCOLOR
 70
   257
  9
$DIMASSOC
280
     2
  9
$PROJECTNAME
  1

  9
$CAMERADISPLAY
290
     0
  9
$LENSLENGTH
 40
50.0
  9
$CAMERAHEIGHT
 40
0.0
  9
$STEPSPERSEC
 40
2.0
  9
$STEPSIZE
 40
6.0
  9
$3DDWFPREC
 40
2.0
  9
$PSOLWIDTH
 40
0.25
  9
$PSOLHEIGHT
 40
4.0
  9
$LOFTANG1
 40
1.570796326794897
  9
$LOFTANG2
 40
1.570796326794897
  9
$LOFTMAG1
 40
0.0
  9
$LOFTMAG2
 40
0.0
  9
$LOFTPARAM
 70
     7
  9
$LOFTNORMALS
280
     1
  9
$LATITUDE
 40
37.795
  9
$LONGITUDE
 40
-122.394
  9
$NORTHDIRECTION
 40
0.0
  9
$TIMEZONE
 70
 -8000
  9
$LIGHTGLYPHDISPLAY
280
     1
  9
$TILEMODELIGHTSYNCH
280
     1
  9
$CMATERIAL
347
3C
  9
$SOLIDHIST
280
     1
  9
$SHOWHIST
280
     1
  9
$DWFFRAME
280
     2
  9
$DGNFRAME
280
     2
  9
$REALWORLDSCALE
290
     1
  9
$INTERFERECOLOR
 62
   256
  9
$CSHADOW
280
     0
  9
$SHADOWPLANELOCATION
 40
0.0
  0
ENDSEC
  0
SECTION
  2
CLASSES
  0
CLASS
  1
ACDBDICTIONARYWDFLT
  2
AcDbDictionaryWithDefault
  3
ObjectDBX Classes
 90
        0
 91
        4
280
     0
281
     0
  0
CLASS
  1
VISUALSTYLE
  2
AcDbVisualStyle
  3
ObjectDBX Classes
 90
     4095
 91
        4
280
     0
281
     0
  0
CLASS
  1
MATERIAL
  2
AcDbMaterial
  3
ObjectDBX Classes
 90
     1153
 91
        4
280
     0
281
     0
  0
CLASS
  1
SUN
  2
AcDbSun
  3
SCENEOE
 90
     1024
 91
        4
280
     0
281
     0
  0
ENDSEC
  0
SECTION
  2
TABLES
  0
TABLE
  2
VPORT
  5
8
330
0
100
AcDbSymbolTable
 70
     1
  0
VPORT
  5
29
330
8
100
AcDbSymbolTableRecord
100
AcDbViewportTableRecord
  2
*Active
 70
     0
 10
0.0
 20
0.0
 11
1.0
 21
1.0
 12
0.0
 22
0.0
 13
0.0
 23
0.0
 14
0.5
 24
0.5
 15
0.5
 25
0.5
 16
0.0
 26
0.0
 36
1.0
 17
91.00082462281999
 27
-128.4993055234307
 37
0.0
 40
256.9986110468615
 41
0.7081814508812795
 42
50.0
 43
0.0
 44
0.0
 50
0.0
 51
0.0
 71
     0
 72
   100
 73
     1
 74
     3
 75
     0
 76
     0
 77
     0
 78
     0
281
     0
 65
     1
110
0.0
120
0.0
130
0.0
111
1.0
121
0.0
131
0.0
112
0.0
122
1.0
132
0.0
 79
     0
146
0.0
 60
     3
 61
     5
292
     1
282
     1
141
0.0
142
0.0
 63
   250
361
3F
  0
ENDTAB
  0
TABLE
  2
LTYPE
  5
5
330
0
100
AcDbSymbolTable
 70
     1
  0
LTYPE
  5
14
330
5
100
AcDbSymbolTableRecord
100
AcDbLinetypeTableRecord
  2
ByBlock
 70
     0
  3

 72
    65
 73
     0
 40
0.0
  0
LTYPE
  5
15
330
5
100
AcDbSymbolTableRecord
100
AcDbLinetypeTableRecord
  2
ByLayer
 70
     0
  3

 72
    65
 73
     0
 40
0.0
  0
LTYPE
  5
16
330
5
100
AcDbSymbolTableRecord
100
AcDbLinetypeTableRecord
  2
Continuous
 70
     0
  3
Solid line
 72
    65
 73
     0
 40
0.0
  0
ENDTAB
  0
TABLE
  2
LAYER
  5
2
330
0
100
AcDbSymbolTable
 70
     2
  0
LAYER
  5
10
330
2
100
AcDbSymbolTableRecord
100
AcDbLayerTableRecord
  2
0
 70
     0
 62
     7
  6
Continuous
370
    -3
390
F
347
3E
  0
LAYER
  5
40
330
2
100
AcDbSymbolTableRecord
100
AcDbLayerTableRecord
  2
_U+30EC_U+30A4_U+30E4_U+30FC 1
 70
     0
 62
     7
  6
Continuous
370
    -3
390
F
347
3E
  0
ENDTAB
  0
TABLE
  2
STYLE
  5
3
330
0
100
AcDbSymbolTable
 70
     1
  0
STYLE
  5
11
330
3
100
AcDbSymbolTableRecord
100
AcDbTextStyleTableRecord
  2
Standard
 70
     0
 40
0.0
 41
1.0
 50
0.0
 71
     0
 42
0.2
  3
txt
  4

  0
ENDTAB
  0
TABLE
  2
VIEW
  5
6
330
0
100
AcDbSymbolTable
 70
     0
  0
ENDTAB
  0
TABLE
  2
UCS
  5
7
330
0
100
AcDbSymbolTable
 70
     0
  0
ENDTAB
  0
TABLE
  2
APPID
  5
9
330
0
100
AcDbSymbolTable
 70
     1
  0
APPID
  5
12
330
9
100
AcDbSymbolTableRecord
100
AcDbRegAppTableRecord
  2
ACAD
 70
     0
  0
ENDTAB
  0
TABLE
  2
DIMSTYLE
  5
A
330
0
100
AcDbSymbolTable
 70
     1
100
AcDbDimStyleTable
  0
DIMSTYLE
105
27
330
A
100
AcDbSymbolTableRecord
100
AcDbDimStyleTableRecord
  2
Standard
 70
     0
178
     0
340
11
  0
ENDTAB
  0
TABLE
  2
BLOCK_RECORD
  5
1
330
0
100
AcDbSymbolTable
 70
     4
  0
BLOCK_RECORD
  5
1F
330
1
100
AcDbSymbolTableRecord
100
AcDbBlockTableRecord
  2
*Model_Space
340
22
 70
     0
280
     1
281
     0
  0
BLOCK_RECORD
  5
1B
330
1
100
AcDbSymbolTableRecord
100
AcDbBlockTableRecord
  2
*Paper_Space
340
1E
 70
     0
280
     1
281
     0
  0
BLOCK_RECORD
  5
23
330
1
100
AcDbSymbolTableRecord
100
AcDbBlockTableRecord
  2
*Paper_Space0
340
26
 70
     0
280
     1
281
     0
  0
BLOCK_RECORD
  5
79
330
1
100
AcDbSymbolTableRecord
100
AcDbBlockTableRecord
  2
block 2
340
0
102
{BLKREFS
331
7A
102
}
 70
     0
280
     1
281
     0
  0
BLOCK_RECORD
  5
95
330
1
100
AcDbSymbolTableRecord
100
AcDbBlockTableRecord
  2
block 3
340
0
102
{BLKREFS
331
96
102
}
 70
     0
280
     1
281
     0
  0
BLOCK_RECORD
  5
A9
330
1
100
AcDbSymbolTableRecord
100
AcDbBlockTableRecord
  2
block 4
340
0
102
{BLKREFS
331
AA
102
}
 70
     0
280
     1
281
     0
  0
ENDTAB
  0
ENDSEC
  0
SECTION
  2
BLOCKS
  0
BLOCK
  5
20
330
1F
100
AcDbEntity
  8
0
100
AcDbBlockBegin
  2
*Model_Space
 70
     0
 10
0.0
 20
0.0
 30
0.0
  3
*Model_Space
  1

  0
ENDBLK
  5
21
330
1F
100
AcDbEntity
  8
0
100
AcDbBlockEnd
  0
BLOCK
  5
1C
330
1B
100
AcDbEntity
 67
     1
  8
0
100
AcDbBlockBegin
  2
*Paper_Space
 70
     0
 10
0.0
 20
0.0
 30
0.0
  3
*Paper_Space
  1

  0
ENDBLK
  5
1D
330
1B
100
AcDbEntity
 67
     1
  8
0
100
AcDbBlockEnd
  0
BLOCK
  5
24
330
23
100
AcDbEntity
  8
0
100
AcDbBlockBegin
  2
*Paper_Space0
 70
     0
 10
0.0
 20
0.0
 30
0.0
  3
*Paper_Space0
  1

  0
ENDBLK
  5
25
330
23
100
AcDbEntity
  8
0
100
AcDbBlockEnd
  0
BLOCK
  5
7B
330
79
100
AcDbEntity
  8
0
100
AcDbBlockBegin
  2
block 2
 70
     0
 10
0.0
 20
0.0
 30
0.0
  3
block 2
  1

  0
SPLINE
  5
7D
330
79
100
AcDbEntity
  8
_U+30EC_U+30A4_U+30E4_U+30FC 1
370
     0
100
AcDbSpline
210
0.0
220
0.0
230
1.0
 70
    11
 71
     3
 72
    26
 73
    22
 74
     0
 42
0.0000000001
 43
0.0000000001
 12
1.0
 22
0.0
 32
0.0
 13
1.0
 23
0.0
 33
0.0
 40
0.0
 40
0.0
 40
0.0
 40
0.0
 40
1.0
 40
1.0
 40
1.0
 40
2.0
 40
2.0
 40
2.0
 40
3.0
 40
3.0
 40
3.0
 40
4.0
 40
4.0
 40
4.0
 40
5.0
 40
5.0
 40
5.0
 40
6.0
 40
6.0
 40
6.0
 40
7.0
 40
7.0
 40
7.0
 40
7.0
 10
109.8196532928576
 20
-129.6244737089133
 30
0.0
 10
109.8196532928576
 20
-129.6244737089133
 30
0.0
 10
108.715500189835
 20
-129.6244737089133
 30
0.0
 10
108.715500189835
 20
-129.6244737089133
 30
0.0
 10
108.715500189835
 20
-129.6244737089133
 30
0.0
 10
108.715500189835
 20
-129.9769069770544
 30
0.0
 10
108.715500189835
 20
-129.9769069770544
 30
0.0
 10
108.715500189835
 20
-129.9769069770544
 30
0.0
 10
108.5673610839693
 20
-129.9769069770544
 30
0.0
 10
108.5673610839693
 20
-129.9769069770544
 30
0.0
 10
108.5525471733827
 20
-129.6220621420736
 30
0.0
 10
108.3895941569304
 20
-129.572452767086
 30
0.0
 10
108.2752169868201
 20
-129.5407578886218
 30
0.0
 10
108.2752169868201
 20
-129.5407578886218
 30
0.0
 10
108.2752169868201
 20
-129.3846950631399
 30
0.0
 10
108.2752169868201
 20
-129.3846950631399
 30
0.0
 10
108.2752169868201
 20
-129.3846950631399
 30
0.0
 10
109.8196532928576
 20
-129.3846950631399
 30
0.0
 10
109.8196532928576
 20
-129.3846950631399
 30
0.0
 10
109.8196532928576
 20
-129.3846950631399
 30
0.0
 10
109.8196532928576
 20
-129.6244737089133
 30
0.0
 10
109.8196532928576
 20
-129.6244737089133
 30
0.0
  0
HATCH
  5
7E
330
79
100
AcDbEntity
  8
_U+30EC_U+30A4_U+30E4_U+30FC 1
 62
   179
420
  2234388
100
AcDbHatch
 10
0.0
 20
0.0
 30
0.0
210
0.0
220
0.0
230
1.0
  2
SOLID
 70
     1
 71
     0
 91
        1
 92
        1
 93
        1
 72
     4
 94
        3
 73
     0
 74
     1
 95
       26
 96
       22
 40
0.0
 40
0.0
 40
0.0
 40
0.0
 40
1.0
 40
1.0
 40
1.0
 40
2.0
 40
2.0
 40
2.0
 40
3.0
 40
3.0
 40
3.0
 40
4.0
 40
4.0
 40
4.0
 40
5.0
 40
5.0
 40
5.0
 40
6.0
 40
6.0
 40
6.0
 40
7.0
 40
7.0
 40
7.0
 40
7.0
 10
109.8196532928576
 20
-129.6244737089133
 10
109.8196532928576
 20
-129.6244737089133
 10
108.715500189835
 20
-129.6244737089133
 10
108.715500189835
 20
-129.6244737089133
 10
108.715500189835
 20
-129.6244737089133
 10
108.715500189835
 20
-129.9769069770544
 10
108.715500189835
 20
-129.9769069770544
 10
108.715500189835
 20
-129.9769069770544
 10
108.5673610839693
 20
-129.9769069770544
 10
108.5673610839693
 20
-129.9769069770544
 10
108.5525471733827
 20
-129.6220621420736
 10
108.3895941569304
 20
-129.572452767086
 10
108.2752169868201
 20
-129.5407578886218
 10
108.2752169868201
 20
-129.5407578886218
 10
108.2752169868201
 20
-129.3846950631399
 10
108.2752169868201
 20
-129.3846950631399
 10
108.2752169868201
 20
-129.3846950631399
 10
109.8196532928576
 20
-129.3846950631399
 10
109.8196532928576
 20
-129.3846950631399
 10
109.8196532928576
 20
-129.3846950631399
 10
109.8196532928576
 20
-129.6244737089133
 10
109.8196532928576
 20
-129.6244737089133
 97
        0
 97
        0
 75
     2
 76
     1
 98
        0
  0
POLYLINE
  5
7F
330
79
100
AcDbEntity
  8
_U+30EC_U+30A4_U+30E4_U+30FC 1
370
     0
100
AcDb2dPolyline
 66
     1
 10
0.0
 20
0.0
 30
0.0
  0
VERTEX
  5
80
330
7F
100
AcDbEntity
  8
_U+30EC_U+30A4_U+30E4_U+30FC 1
370
     0
100
AcDbVertex
100
AcDb2dVertex
 10
109.8196532928576
 20
-128.7849039391579
 30
0.0
  0
VERTEX
  5
81
330
7F
100
AcDbEntity
  8
_U+30EC_U+30A4_U+30E4_U+30FC 1
370
     0
100
AcDbVertex
100
AcDb2dVertex
 10
109.5678168128858
 20
-128.7849039391579
 30
0.0
  0
VERTEX
  5
82
330
7F
100
AcDbEntity
  8
_U+30EC_U+30A4_U+30E4_U+30FC 1
370
     0
100
AcDbVertex
100
AcDb2dVertex
 10
109.5678168128858
 20
-128.5158419817599
 30
0.0
  0
VERTEX
  5
83
330
7F
100
AcDbEntity
  8
_U+30EC_U+30A4_U+30E4_U+30FC 1
370
     0
100
AcDbVertex
100
AcDb2dVertex
 10
109.8196532928576
 20
-128.5158419817599
 30
0.0
  0
VERTEX
  5
84
330
7F
100
AcDbEntity
  8
_U+30EC_U+30A4_U+30E4_U+30FC 1
370
     0
100
AcDbVertex
100
AcDb2dVertex
 10
109.8196532928576
 20
-128.7849039391579
 30
0.0
  0
SEQEND
  5
85
330
7F
100
AcDbEntity
  8
_U+30EC_U+30A4_U+30E4_U+30FC 1
370
     0
  0
HATCH
  5
86
330
79
100
AcDbEntity
  8
_U+30EC_U+30A4_U+30E4_U+30FC 1
 62
   179
420
  2234388
100
AcDbHatch
 10
0.0
 20
0.0
 30
0.0
210
0.0
220
0.0
230
1.0
  2
SOLID
 70
     1
 71
     0
 91
        1
 92
        1
 93
        4
 72
     1
 10
109.8196532928576
 20
-128.7849039391579
 11
109.5678168128858
 21
-128.7849039391579
 72
     1
 10
109.5678168128858
 20
-128.7849039391579
 11
109.5678168128858
 21
-128.5158419817599
 72
     1
 10
109.5678168128858
 20
-128.5158419817599
 11
109.8196532928576
 21
-128.5158419817599
 72
     1
 10
109.8196532928576
 20
-128.5158419817599
 11
109.8196532928576
 21
-128.7849039391579
 97
        0
 75
     2
 76
     1
 98
        0
  0
SPLINE
  5
87
330
79
100
AcDbEntity
  8
_U+30EC_U+30A4_U+30E4_U+30FC 1
370
     0
100
AcDbSpline
210
0.0
220
0.0
230
1.0
 70
    11
 71
     3
 72
    53
 73
    49
 74
     0
 42
0.0000000001
 43
0.0000000001
 12
1.0
 22
0.0
 32
0.0
 13
1.0
 23
0.0
 33
0.0
 40
0.0
 40
0.0
 40
0.0
 40
0.0
 40
1.0
 40
1.0
 40
1.0
 40
2.0
 40
2.0
 40
2.0
 40
3.0
 40
3.0
 40
3.0
 40
4.0
 40
4.0
 40
4.0
 40
5.0
 40
5.0
 40
5.0
 40
6.0
 40
6.0
 40
6.0
 40
7.0
 40
7.0
 40
7.0
 40
8.0
 40
8.0
 40
8.0
 40
9.0
 40
9.0
 40
9.0
 40
10.0
 40
10.0
 40
10.0
 40
11.0
 40
11.0
 40
11.0
 40
12.0
 40
12.0
 40
12.0
 40
13.0
 40
13.0
 40
13.0
 40
14.0
 40
14.0
 40
14.0
 40
15.0
 40
15.0
 40
15.0
 40
16.0
 40
16.0
 40
16.0
 40
16.0
 10
109.8702961964908
 20
-127.7489637267433
 30
0.0
 10
109.8702961964908
 20
-127.8326795470349
 30
0.0
 10
109.853415228613
 20
-127.9408555452717
 30
0.0
 10
109.7900254716844
 20
-128.0497205626056
 30
0.0
 10
109.680126925705
 20
-128.2350666997121
 30
0.0
 10
109.548868787717
 20
-128.2574598203662
 30
0.0
 10
109.4410372990286
 20
-128.2777858837292
 30
0.0
 10
109.4410372990286
 20
-128.2777858837292
 30
0.0
 10
109.4410372990286
 20
-128.0404188047955
 30
0.0
 10
109.4410372990286
 20
-128.0404188047955
 30
0.0
 10
109.6398193085275
 20
-127.9818521815462
 30
0.0
 10
109.6694471297007
 20
-127.8461154194274
 30
0.0
 10
109.6694471297007
 20
-127.7465521599036
 30
0.0
 10
109.6694471297007
 20
-127.5973795253923
 30
0.0
 10
109.569883870177
 20
-127.43442650894
 30
0.0
 10
109.3373399249226
 20
-127.43442650894
 30
0.0
 10
109.0813693303685
 20
-127.43442650894
 30
0.0
 10
109.011433892018
 20
-127.626662837017
 30
0.0
 10
109.011433892018
 20
-127.7555094081653
 30
0.0
 10
109.011433892018
 20
-127.7896158534693
 30
0.0
 10
109.011433892018
 20
-127.9408555452717
 30
0.0
 10
109.1406249727148
 20
-128.0359401806646
 30
0.0
 10
109.1406249727148
 20
-128.0359401806646
 30
0.0
 10
109.121676947546
 20
-128.2236978846107
 30
0.0
 10
109.121676947546
 20
-128.2236978846107
 30
0.0
 10
109.121676947546
 20
-128.2236978846107
 30
0.0
 10
108.2752169868201
 20
-128.0948513134624
 30
0.0
 10
108.2752169868201
 20
-128.0948513134624
 30
0.0
 10
108.2752169868201
 20
-128.0948513134624
 30
0.0
 10
108.2752169868201
 20
-127.2628607537746
 30
0.0
 10
108.2752169868201
 20
-127.2628607537746
 30
0.0
 10
108.2752169868201
 20
-127.2628607537746
 30
0.0
 10
108.4698648817367
 20
-127.2628607537746
 30
0.0
 10
108.4698648817367
 20
-127.2628607537746
 30
0.0
 10
108.4698648817367
 20
-127.2628607537746
 30
0.0
 10
108.4698648817367
 20
-127.9205294819088
 30
0.0
 10
108.4698648817367
 20
-127.9205294819088
 30
0.0
 10
108.4698648817367
 20
-127.9205294819088
 30
0.0
 10
108.8929226073254
 20
-127.9908094298079
 30
0.0
 10
108.8929226073254
 20
-127.9908094298079
 30
0.0
 10
108.8591606715699
 20
-127.9253526155881
 30
0.0
 10
108.8188530543925
 20
-127.8371581711657
 30
0.0
 10
108.8188530543925
 20
-127.7103786573085
 30
0.0
 10
108.8188530543925
 20
-127.4392496426194
 30
0.0
 10
109.0052327201445
 20
-127.1860351244535
 30
0.0
 10
109.3183918997537
 20
-127.1860351244535
 30
0.0
 10
109.6356851939452
 20
-127.1860351244535
 30
0.0
 10
109.8702961964908
 20
-127.4254692606784
 30
0.0
 10
109.8702961964908
 20
-127.7489637267433
 30
0.0
  0
HATCH
  5
88
330
79
100
AcDbEntity
  8
_U+30EC_U+30A4_U+30E4_U+30FC 1
 62
   179
420
  2234388
100
AcDbHatch
 10
0.0
 20
0.0
 30
0.0
210
0.0
220
0.0
230
1.0
  2
SOLID
 70
     1
 71
     0
 91
        1
 92
        1
 93
        1
 72
     4
 94
        3
 73
     0
 74
     1
 95
       53
 96
       49
 40
0.0
 40
0.0
 40
0.0
 40
0.0
 40
1.0
 40
1.0
 40
1.0
 40
2.0
 40
2.0
 40
2.0
 40
3.0
 40
3.0
 40
3.0
 40
4.0
 40
4.0
 40
4.0
 40
5.0
 40
5.0
 40
5.0
 40
6.0
 40
6.0
 40
6.0
 40
7.0
 40
7.0
 40
7.0
 40
8.0
 40
8.0
 40
8.0
 40
9.0
 40
9.0
 40
9.0
 40
10.0
 40
10.0
 40
10.0
 40
11.0
 40
11.0
 40
11.0
 40
12.0
 40
12.0
 40
12.0
 40
13.0
 40
13.0
 40
13.0
 40
14.0
 40
14.0
 40
14.0
 40
15.0
 40
15.0
 40
15.0
 40
16.0
 40
16.0
 40
16.0
 40
16.0
 10
109.8702961964908
 20
-127.7489637267433
 10
109.8702961964908
 20
-127.8326795470349
 10
109.853415228613
 20
-127.9408555452717
 10
109.7900254716844
 20
-128.0497205626056
 10
109.680126925705
 20
-128.2350666997121
 10
109.548868787717
 20
-128.2574598203662
 10
109.4410372990286
 20
-128.2777858837292
 10
109.4410372990286
 20
-128.2777858837292
 10
109.4410372990286
 20
-128.0404188047955
 10
109.4410372990286
 20
-128.0404188047955
 10
109.6398193085275
 20
-127.9818521815462
 10
109.6694471297007
 20
-127.8461154194274
 10
109.6694471297007
 20
-127.7465521599036
 10
109.6694471297007
 20
-127.5973795253923
 10
109.569883870177
 20
-127.43442650894
 10
109.3373399249226
 20
-127.43442650894
 10
109.0813693303685
 20
-127.43442650894
 10
109.011433892018
 20
-127.626662837017
 10
109.011433892018
 20
-127.7555094081653
 10
109.011433892018
 20
-127.7896158534693
 10
109.011433892018
 20
-127.9408555452717
 10
109.1406249727148
 20
-128.0359401806646
 10
109.1406249727148
 20
-128.0359401806646
 10
109.121676947546
 20
-128.2236978846107
 10
109.121676947546
 20
-128.2236978846107
 10
109.121676947546
 20
-128.2236978846107
 10
108.2752169868201
 20
-128.0948513134624
 10
108.2752169868201
 20
-128.0948513134624
 10
108.2752169868201
 20
-128.0948513134624
 10
108.2752169868201
 20
-127.2628607537746
 10
108.2752169868201
 20
-127.2628607537746
 10
108.2752169868201
 20
-127.2628607537746
 10
108.4698648817367
 20
-127.2628607537746
 10
108.4698648817367
 20
-127.2628607537746
 10
108.4698648817367
 20
-127.2628607537746
 10
108.4698648817367
 20
-127.9205294819088
 10
108.4698648817367
 20
-127.9205294819088
 10
108.4698648817367
 20
-127.9205294819088
 10
108.8929226073254
 20
-127.9908094298079
 10
108.8929226073254
 20
-127.9908094298079
 10
108.8591606715699
 20
-127.9253526155881
 10
108.8188530543925
 20
-127.8371581711657
 10
108.8188530543925
 20
-127.7103786573085
 10
108.8188530543925
 20
-127.4392496426194
 10
109.0052327201445
 20
-127.1860351244535
 10
109.3183918997537
 20
-127.1860351244535
 10
109.6356851939452
 20
-127.1860351244535
 10
109.8702961964908
 20
-127.4254692606784
 10
109.8702961964908
 20
-127.7489637267433
 97
        0
 97
        0
 75
     2
 76
     1
 98
        0
  0
ENDBLK
  5
7C
330
79
100
AcDbEntity
  8
0
100
AcDbBlockEnd
  0
BLOCK
  5
97
330
95
100
AcDbEntity
  8
0
100
AcDbBlockBegin
  2
block 3
 70
     0
 10
0.0
 20
0.0
 30
0.0
  3
block 3
  1

  0
SPLINE
  5
99
330
95
100
AcDbEntity
  8
_U+30EC_U+30A4_U+30E4_U+30FC 1
370
     0
100
AcDbSpline
210
0.0
220
0.0
230
1.0
 70
    11
 71
     3
 72
    44
 73
    40
 74
     0
 42
0.0000000001
 43
0.0000000001
 12
1.0
 22
0.0
 32
0.0
 13
1.0
 23
0.0
 33
0.0
 40
0.0
 40
0.0
 40
0.0
 40
0.0
 40
1.0
 40
1.0
 40
1.0
 40
2.0
 40
2.0
 40
2.0
 40
3.0
 40
3.0
 40
3.0
 40
4.0
 40
4.0
 40
4.0
 40
5.0
 40
5.0
 40
5.0
 40
6.0
 40
6.0
 40
6.0
 40
7.0
 40
7.0
 40
7.0
 40
8.0
 40
8.0
 40
8.0
 40
9.0
 40
9.0
 40
9.0
 40
10.0
 40
10.0
 40
10.0
 40
11.0
 40
11.0
 40
11.0
 40
12.0
 40
12.0
 40
12.0
 40
13.0
 40
13.0
 40
13.0
 40
13.0
 10
89.42365449153299
 20
-136.1191677177063
 30
0.0
 10
89.1907660367301
 20
-136.2779866195764
 30
0.0
 10
89.09120277720638
 20
-136.3520561725092
 30
0.0
 10
89.03952634492762
 20
-136.4957166542441
 30
0.0
 10
89.03952634492762
 20
-136.4957166542441
 30
0.0
 10
89.87117239506694
 20
-136.4957166542441
 30
0.0
 10
89.87117239506694
 20
-136.4957166542441
 30
0.0
 10
89.87117239506694
 20
-136.4957166542441
 30
0.0
 10
89.87117239506694
 20
-136.701044345165
 30
0.0
 10
89.87117239506694
 20
-136.701044345165
 30
0.0
 10
89.87117239506694
 20
-136.701044345165
 30
0.0
 10
88.77253144482076
 20
-136.701044345165
 30
0.0
 10
88.77253144482076
 20
-136.701044345165
 30
0.0
 10
88.80663789012473
 20
-136.3434434337961
 30
0.0
 10
88.8765733284753
 20
-136.2652397662809
 30
0.0
 10
89.28791772941413
 20
-135.9668944972583
 30
0.0
 10
89.56145831094297
 20
-135.7681124877594
 30
0.0
 10
89.63173825884206
 20
-135.7002441067
 30
0.0
 10
89.63173825884206
 20
-135.5627847968385
 30
0.0
 10
89.63173825884206
 20
-135.4442735121459
 30
0.0
 10
89.554912629521
 20
-135.3133598837064
 30
0.0
 10
89.34441729537224
 20
-135.3133598837064
 30
0.0
 10
89.06639808971258
 20
-135.3133598837064
 30
0.0
 10
89.05744084145093
 20
-135.5438367716696
 30
0.0
 10
89.0529622173201
 20
-135.660280999071
 30
0.0
 10
89.0529622173201
 20
-135.660280999071
 30
0.0
 10
88.8131835715467
 20
-135.660280999071
 30
0.0
 10
88.8131835715467
 20
-135.660280999071
 30
0.0
 10
88.82248532935688
 20
-135.5331569756653
 30
0.0
 10
88.83350963490969
 20
-135.4211913723947
 30
0.0
 10
88.91963702204093
 20
-135.3026800877021
 30
0.0
 10
89.03711477808795
 20
-135.1417941285409
 30
0.0
 10
89.23589678758687
 20
-135.1080321927855
 30
0.0
 10
89.36026473460439
 20
-135.1080321927855
 30
0.0
 10
89.65654294633588
 20
-135.1080321927855
 30
0.0
 10
89.87806258603743
 20
-135.2920002916978
 30
0.0
 10
89.87806258603743
 20
-135.5648518541296
 30
0.0
 10
89.87806258603743
 20
-135.7936061943502
 30
0.0
 10
89.75369463901991
 20
-135.8928249443254
 30
0.0
 10
89.42365449153299
 20
-136.1191677177063
 30
0.0
  0
HATCH
  5
9A
330
95
100
AcDbEntity
  8
_U+30EC_U+30A4_U+30E4_U+30FC 1
 62
   179
420
  2234388
100
AcDbHatch
 10
0.0
 20
0.0
 30
0.0
210
0.0
220
0.0
230
1.0
  2
SOLID
 70
     1
 71
     0
 91
        1
 92
        1
 93
        1
 72
     4
 94
        3
 73
     0
 74
     1
 95
       44
 96
       40
 40
0.0
 40
0.0
 40
0.0
 40
0.0
 40
1.0
 40
1.0
 40
1.0
 40
2.0
 40
2.0
 40
2.0
 40
3.0
 40
3.0
 40
3.0
 40
4.0
 40
4.0
 40
4.0
 40
5.0
 40
5.0
 40
5.0
 40
6.0
 40
6.0
 40
6.0
 40
7.0
 40
7.0
 40
7.0
 40
8.0
 40
8.0
 40
8.0
 40
9.0
 40
9.0
 40
9.0
 40
10.0
 40
10.0
 40
10.0
 40
11.0
 40
11.0
 40
11.0
 40
12.0
 40
12.0
 40
12.0
 40
13.0
 40
13.0
 40
13.0
 40
13.0
 10
89.42365449153299
 20
-136.1191677177063
 10
89.1907660367301
 20
-136.2779866195764
 10
89.09120277720638
 20
-136.3520561725092
 10
89.03952634492762
 20
-136.4957166542441
 10
89.03952634492762
 20
-136.4957166542441
 10
89.87117239506694
 20
-136.4957166542441
 10
89.87117239506694
 20
-136.4957166542441
 10
89.87117239506694
 20
-136.4957166542441
 10
89.87117239506694
 20
-136.701044345165
 10
89.87117239506694
 20
-136.701044345165
 10
89.87117239506694
 20
-136.701044345165
 10
88.77253144482076
 20
-136.701044345165
 10
88.77253144482076
 20
-136.701044345165
 10
88.80663789012473
 20
-136.3434434337961
 10
88.8765733284753
 20
-136.2652397662809
 10
89.28791772941413
 20
-135.9668944972583
 10
89.56145831094297
 20
-135.7681124877594
 10
89.63173825884206
 20
-135.7002441067
 10
89.63173825884206
 20
-135.5627847968385
 10
89.63173825884206
 20
-135.4442735121459
 10
89.554912629521
 20
-135.3133598837064
 10
89.34441729537224
 20
-135.3133598837064
 10
89.06639808971258
 20
-135.3133598837064
 10
89.05744084145093
 20
-135.5438367716696
 10
89.0529622173201
 20
-135.660280999071
 10
89.0529622173201
 20
-135.660280999071
 10
88.8131835715467
 20
-135.660280999071
 10
88.8131835715467
 20
-135.660280999071
 10
88.82248532935688
 20
-135.5331569756653
 10
88.83350963490969
 20
-135.4211913723947
 10
88.91963702204093
 20
-135.3026800877021
 10
89.03711477808795
 20
-135.1417941285409
 10
89.23589678758687
 20
-135.1080321927855
 10
89.36026473460439
 20
-135.1080321927855
 10
89.65654294633588
 20
-135.1080321927855
 10
89.87806258603743
 20
-135.2920002916978
 10
89.87806258603743
 20
-135.5648518541296
 10
89.87806258603743
 20
-135.7936061943502
 10
89.75369463901991
 20
-135.8928249443254
 10
89.42365449153299
 20
-136.1191677177063
 97
        0
 97
        0
 75
     2
 76
     1
 98
        0
  0
SPLINE
  5
9B
330
95
100
AcDbEntity
  8
_U+30EC_U+30A4_U+30E4_U+30FC 1
370
     0
100
AcDbSpline
210
0.0
220
0.0
230
1.0
 70
    11
 71
     3
 72
    53
 73
    49
 74
     0
 42
0.0000000001
 43
0.0000000001
 12
1.0
 22
0.0
 32
0.0
 13
1.0
 23
0.0
 33
0.0
 40
0.0
 40
0.0
 40
0.0
 40
0.0
 40
1.0
 40
1.0
 40
1.0
 40
2.0
 40
2.0
 40
2.0
 40
3.0
 40
3.0
 40
3.0
 40
4.0
 40
4.0
 40
4.0
 40
5.0
 40
5.0
 40
5.0
 40
6.0
 40
6.0
 40
6.0
 40
7.0
 40
7.0
 40
7.0
 40
8.0
 40
8.0
 40
8.0
 40
9.0
 40
9.0
 40
9.0
 40
10.0
 40
10.0
 40
10.0
 40
11.0
 40
11.0
 40
11.0
 40
12.0
 40
12.0
 40
12.0
 40
13.0
 40
13.0
 40
13.0
 40
14.0
 40
14.0
 40
14.0
 40
15.0
 40
15.0
 40
15.0
 40
16.0
 40
16.0
 40
16.0
 40
16.0
 10
90.561569530311
 20
-136.7516872487982
 30
0.0
 10
90.47819821956796
 20
-136.7516872487982
 30
0.0
 10
90.36933320223406
 20
-136.7348062809205
 30
0.0
 10
90.26115720399721
 20
-136.6714165239919
 30
0.0
 10
90.07546655734225
 20
-136.5615179780124
 30
0.0
 10
90.05307343668812
 20
-136.4302598400244
 30
0.0
 10
90.03274737332515
 20
-136.3224283513361
 30
0.0
 10
90.03274737332515
 20
-136.3224283513361
 30
0.0
 10
90.27011445225887
 20
-136.3224283513361
 30
0.0
 10
90.27011445225887
 20
-136.3224283513361
 30
0.0
 10
90.32868107550811
 20
-136.521210360835
 30
0.0
 10
90.46441783762695
 20
-136.5508381820081
 30
0.0
 10
90.56398109715067
 20
-136.5508381820081
 30
0.0
 10
90.71315373166199
 20
-136.5508381820081
 30
0.0
 10
90.87576223856578
 20
-136.4512749224844
 30
0.0
 10
90.87576223856578
 20
-136.2187309772301
 30
0.0
 10
90.87576223856578
 20
-135.962760382676
 30
0.0
 10
90.68387042003737
 20
-135.8928249443254
 30
0.0
 10
90.55502384888902
 20
-135.8928249443254
 30
0.0
 10
90.52091740358506
 20
-135.8928249443254
 30
0.0
 10
90.36933320223406
 20
-135.8928249443254
 30
0.0
 10
90.27459307638969
 20
-136.0220160250223
 30
0.0
 10
90.27459307638969
 20
-136.0220160250223
 30
0.0
 10
90.08683537244357
 20
-136.0030679998534
 30
0.0
 10
90.08683537244357
 20
-136.0030679998534
 30
0.0
 10
90.08683537244357
 20
-136.0030679998534
 30
0.0
 10
90.21568194359192
 20
-135.1566080391275
 30
0.0
 10
90.21568194359192
 20
-135.1566080391275
 30
0.0
 10
90.21568194359192
 20
-135.1566080391275
 30
0.0
 10
91.04767250327976
 20
-135.1566080391275
 30
0.0
 10
91.04767250327976
 20
-135.1566080391275
 30
0.0
 10
91.04767250327976
 20
-135.1566080391275
 30
0.0
 10
91.04767250327976
 20
-135.3512559340441
 30
0.0
 10
91.04767250327976
 20
-135.3512559340441
 30
0.0
 10
91.04767250327976
 20
-135.3512559340441
 30
0.0
 10
90.39000377514556
 20
-135.3512559340441
 30
0.0
 10
90.39000377514556
 20
-135.3512559340441
 30
0.0
 10
90.39000377514556
 20
-135.3512559340441
 30
0.0
 10
90.31972382724646
 20
-135.7743136596328
 30
0.0
 10
90.31972382724646
 20
-135.7743136596328
 30
0.0
 10
90.3851806414662
 20
-135.7405517238774
 30
0.0
 10
90.4733750858886
 20
-135.7002441067
 30
0.0
 10
90.60015459974579
 20
-135.7002441067
 30
0.0
 10
90.87128361443496
 20
-135.7002441067
 30
0.0
 10
91.12449813260082
 20
-135.886623772452
 30
0.0
 10
91.12449813260082
 20
-136.1997829520612
 30
0.0
 10
91.12449813260082
 20
-136.5170762462527
 30
0.0
 10
90.88506399637596
 20
-136.7516872487982
 30
0.0
 10
90.561569530311
 20
-136.7516872487982
 30
0.0
  0
HATCH
  5
9C
330
95
100
AcDbEntity
  8
_U+30EC_U+30A4_U+30E4_U+30FC 1
 62
   179
420
  2234388
100
AcDbHatch
 10
0.0
 20
0.0
 30
0.0
210
0.0
220
0.0
230
1.0
  2
SOLID
 70
     1
 71
     0
 91
        1
 92
        1
 93
        1
 72
     4
 94
        3
 73
     0
 74
     1
 95
       53
 96
       49
 40
0.0
 40
0.0
 40
0.0
 40
0.0
 40
1.0
 40
1.0
 40
1.0
 40
2.0
 40
2.0
 40
2.0
 40
3.0
 40
3.0
 40
3.0
 40
4.0
 40
4.0
 40
4.0
 40
5.0
 40
5.0
 40
5.0
 40
6.0
 40
6.0
 40
6.0
 40
7.0
 40
7.0
 40
7.0
 40
8.0
 40
8.0
 40
8.0
 40
9.0
 40
9.0
 40
9.0
 40
10.0
 40
10.0
 40
10.0
 40
11.0
 40
11.0
 40
11.0
 40
12.0
 40
12.0
 40
12.0
 40
13.0
 40
13.0
 40
13.0
 40
14.0
 40
14.0
 40
14.0
 40
15.0
 40
15.0
 40
15.0
 40
16.0
 40
16.0
 40
16.0
 40
16.0
 10
90.561569530311
 20
-136.7516872487982
 10
90.47819821956796
 20
-136.7516872487982
 10
90.36933320223406
 20
-136.7348062809205
 10
90.26115720399721
 20
-136.6714165239919
 10
90.07546655734225
 20
-136.5615179780124
 10
90.05307343668812
 20
-136.4302598400244
 10
90.03274737332515
 20
-136.3224283513361
 10
90.03274737332515
 20
-136.3224283513361
 10
90.27011445225887
 20
-136.3224283513361
 10
90.27011445225887
 20
-136.3224283513361
 10
90.32868107550811
 20
-136.521210360835
 10
90.46441783762695
 20
-136.5508381820081
 10
90.56398109715067
 20
-136.5508381820081
 10
90.71315373166199
 20
-136.5508381820081
 10
90.87576223856578
 20
-136.4512749224844
 10
90.87576223856578
 20
-136.2187309772301
 10
90.87576223856578
 20
-135.962760382676
 10
90.68387042003737
 20
-135.8928249443254
 10
90.55502384888902
 20
-135.8928249443254
 10
90.52091740358506
 20
-135.8928249443254
 10
90.36933320223406
 20
-135.8928249443254
 10
90.27459307638969
 20
-136.0220160250223
 10
90.27459307638969
 20
-136.0220160250223
 10
90.08683537244357
 20
-136.0030679998534
 10
90.08683537244357
 20
-136.0030679998534
 10
90.08683537244357
 20
-136.0030679998534
 10
90.21568194359192
 20
-135.1566080391275
 10
90.21568194359192
 20
-135.1566080391275
 10
90.21568194359192
 20
-135.1566080391275
 10
91.04767250327976
 20
-135.1566080391275
 10
91.04767250327976
 20
-135.1566080391275
 10
91.04767250327976
 20
-135.1566080391275
 10
91.04767250327976
 20
-135.3512559340441
 10
91.04767250327976
 20
-135.3512559340441
 10
91.04767250327976
 20
-135.3512559340441
 10
90.39000377514556
 20
-135.3512559340441
 10
90.39000377514556
 20
-135.3512559340441
 10
90.39000377514556
 20
-135.3512559340441
 10
90.31972382724646
 20
-135.7743136596328
 10
90.31972382724646
 20
-135.7743136596328
 10
90.3851806414662
 20
-135.7405517238774
 10
90.4733750858886
 20
-135.7002441067
 10
90.60015459974579
 20
-135.7002441067
 10
90.87128361443496
 20
-135.7002441067
 10
91.12449813260082
 20
-135.886623772452
 10
91.12449813260082
 20
-136.1997829520612
 10
91.12449813260082
 20
-136.5170762462527
 10
90.88506399637596
 20
-136.7516872487982
 10
90.561569530311
 20
-136.7516872487982
 97
        0
 97
        0
 75
     2
 76
     1
 98
        0
  0
ENDBLK
  5
98
330
95
100
AcDbEntity
  8
0
100
AcDbBlockEnd
  0
BLOCK
  5
AB
330
A9
100
AcDbEntity
  8
0
100
AcDbBlockBegin
  2
block 4
 70
     0
 10
0.0
 20
0.0
 30
0.0
  3
block 4
  1

  0
SPLINE
  5
AD
330
A9
100
AcDbEntity
  8
_U+30EC_U+30A4_U+30E4_U+30FC 1
370
     0
100
AcDbSpline
210
0.0
220
0.0
230
1.0
 70
    11
 71
     3
 72
    26
 73
    22
 74
     0
 42
0.0000000001
 43
0.0000000001
 12
1.0
 22
0.0
 32
0.0
 13
1.0
 23
0.0
 33
0.0
 40
0.0
 40
0.0
 40
0.0
 40
0.0
 40
1.0
 40
1.0
 40
1.0
 40
2.0
 40
2.0
 40
2.0
 40
3.0
 40
3.0
 40
3.0
 40
4.0
 40
4.0
 40
4.0
 40
5.0
 40
5.0
 40
5.0
 40
6.0
 40
6.0
 40
6.0
 40
7.0
 40
7.0
 40
7.0
 40
7.0
 10
72.85153942406143
 20
-126.4735893781038
 30
0.0
 10
72.85153942406143
 20
-126.4735893781038
 30
0.0
 10
71.74721406626459
 20
-126.4735893781038
 30
0.0
 10
71.74721406626459
 20
-126.4735893781038
 30
0.0
 10
71.74721406626459
 20
-126.4735893781038
 30
0.0
 10
71.74721406626459
 20
-126.8260226462449
 30
0.0
 10
71.74721406626459
 20
-126.8260226462449
 30
0.0
 10
71.74721406626459
 20
-126.8260226462449
 30
0.0
 10
71.59907496039885
 20
-126.8260226462449
 30
0.0
 10
71.59907496039885
 20
-126.8260226462449
 30
0.0
 10
71.58443330458654
 20
-126.4711778112642
 30
0.0
 10
71.42148028813422
 20
-126.4215684362766
 30
0.0
 10
71.30727537279819
 20
-126.3898735578123
 30
0.0
 10
71.30727537279819
 20
-126.3898735578123
 30
0.0
 10
71.30727537279819
 20
-126.2338107323304
 30
0.0
 10
71.30727537279819
 20
-126.2338107323304
 30
0.0
 10
71.30727537279819
 20
-126.2338107323304
 30
0.0
 10
72.85153942406143
 20
-126.2338107323304
 30
0.0
 10
72.85153942406143
 20
-126.2338107323304
 30
0.0
 10
72.85153942406143
 20
-126.2338107323304
 30
0.0
 10
72.85153942406143
 20
-126.4735893781038
 30
0.0
 10
72.85153942406143
 20
-126.4735893781038
 30
0.0
  0
HATCH
  5
AE
330
A9
100
AcDbEntity
  8
_U+30EC_U+30A4_U+30E4_U+30FC 1
 62
   179
420
  2234388
100
AcDbHatch
 10
0.0
 20
0.0
 30
0.0
210
0.0
220
0.0
230
1.0
  2
SOLID
 70
     1
 71
     0
 91
        1
 92
        1
 93
        1
 72
     4
 94
        3
 73
     0
 74
     1
 95
       26
 96
       22
 40
0.0
 40
0.0
 40
0.0
 40
0.0
 40
1.0
 40
1.0
 40
1.0
 40
2.0
 40
2.0
 40
2.0
 40
3.0
 40
3.0
 40
3.0
 40
4.0
 40
4.0
 40
4.0
 40
5.0
 40
5.0
 40
5.0
 40
6.0
 40
6.0
 40
6.0
 40
7.0
 40
7.0
 40
7.0
 40
7.0
 10
72.85153942406143
 20
-126.4735893781038
 10
72.85153942406143
 20
-126.4735893781038
 10
71.74721406626459
 20
-126.4735893781038
 10
71.74721406626459
 20
-126.4735893781038
 10
71.74721406626459
 20
-126.4735893781038
 10
71.74721406626459
 20
-126.8260226462449
 10
71.74721406626459
 20
-126.8260226462449
 10
71.74721406626459
 20
-126.8260226462449
 10
71.59907496039885
 20
-126.8260226462449
 10
71.59907496039885
 20
-126.8260226462449
 10
71.58443330458654
 20
-126.4711778112642
 10
71.42148028813422
 20
-126.4215684362766
 10
71.30727537279819
 20
-126.3898735578123
 10
71.30727537279819
 20
-126.3898735578123
 10
71.30727537279819
 20
-126.2338107323304
 10
71.30727537279819
 20
-126.2338107323304
 10
71.30727537279819
 20
-126.2338107323304
 10
72.85153942406143
 20
-126.2338107323304
 10
72.85153942406143
 20
-126.2338107323304
 10
72.85153942406143
 20
-126.2338107323304
 10
72.85153942406143
 20
-126.4735893781038
 10
72.85153942406143
 20
-126.4735893781038
 97
        0
 97
        0
 75
     2
 76
     1
 98
        0
  0
SPLINE
  5
AF
330
A9
100
AcDbEntity
  8
_U+30EC_U+30A4_U+30E4_U+30FC 1
370
     0
100
AcDbSpline
210
0.0
220
0.0
230
1.0
 70
    11
 71
     3
 72
    53
 73
    49
 74
     0
 42
0.0000000001
 43
0.0000000001
 12
1.0
 22
0.0
 32
0.0
 13
1.0
 23
0.0
 33
0.0
 40
0.0
 40
0.0
 40
0.0
 40
0.0
 40
1.0
 40
1.0
 40
1.0
 40
2.0
 40
2.0
 40
2.0
 40
3.0
 40
3.0
 40
3.0
 40
4.0
 40
4.0
 40
4.0
 40
5.0
 40
5.0
 40
5.0
 40
6.0
 40
6.0
 40
6.0
 40
7.0
 40
7.0
 40
7.0
 40
8.0
 40
8.0
 40
8.0
 40
9.0
 40
9.0
 40
9.0
 40
10.0
 40
10.0
 40
10.0
 40
11.0
 40
11.0
 40
11.0
 40
12.0
 40
12.0
 40
12.0
 40
13.0
 40
13.0
 40
13.0
 40
14.0
 40
14.0
 40
14.0
 40
15.0
 40
15.0
 40
15.0
 40
16.0
 40
16.0
 40
16.0
 40
16.0
 10
72.90235458246886
 20
-125.1840901379748
 30
0.0
 10
72.90235458246886
 20
-125.2674614487179
 30
0.0
 10
72.88547361459113
 20
-125.3763264660518
 30
0.0
 10
72.82191160288828
 20
-125.4845024642886
 30
0.0
 10
72.71184080213455
 20
-125.6701931109436
 30
0.0
 10
72.58075491892079
 20
-125.6925862315977
 30
0.0
 10
72.47292343023247
 20
-125.7129122949607
 30
0.0
 10
72.47292343023247
 20
-125.7129122949607
 30
0.0
 10
72.47292343023247
 20
-125.475545216027
 30
0.0
 10
72.47292343023247
 20
-125.475545216027
 30
0.0
 10
72.67170543973138
 20
-125.4169785927777
 30
0.0
 10
72.70133326090453
 20
-125.2812418306589
 30
0.0
 10
72.70133326090453
 20
-125.1816785711351
 30
0.0
 10
72.70133326090453
 20
-125.0325059366238
 30
0.0
 10
72.60194225615507
 20
-124.86989742972
 30
0.0
 10
72.36922605612645
 20
-124.86989742972
 30
0.0
 10
72.11325546157238
 20
-124.86989742972
 30
0.0
 10
72.04349227799608
 20
-125.0617892482484
 30
0.0
 10
72.04349227799608
 20
-125.1906358193968
 30
0.0
 10
72.04349227799608
 20
-125.2247422647008
 30
0.0
 10
72.04349227799608
 20
-125.3763264660518
 30
0.0
 10
72.17251110391868
 20
-125.4710665918961
 30
0.0
 10
72.17251110391868
 20
-125.4710665918961
 30
0.0
 10
72.15339082397554
 20
-125.6588242958422
 30
0.0
 10
72.15339082397554
 20
-125.6588242958422
 30
0.0
 10
72.15339082397554
 20
-125.6588242958422
 30
0.0
 10
71.30727537279819
 20
-125.5299777246939
 30
0.0
 10
71.30727537279819
 20
-125.5299777246939
 30
0.0
 10
71.30727537279819
 20
-125.5299777246939
 30
0.0
 10
71.30727537279819
 20
-124.6979871650061
 30
0.0
 10
71.30727537279819
 20
-124.6979871650061
 30
0.0
 10
71.30727537279819
 20
-124.6979871650061
 30
0.0
 10
71.5019232677148
 20
-124.6979871650061
 30
0.0
 10
71.5019232677148
 20
-124.6979871650061
 30
0.0
 10
71.5019232677148
 20
-124.6979871650061
 30
0.0
 10
71.5019232677148
 20
-125.3556558931403
 30
0.0
 10
71.5019232677148
 20
-125.3556558931403
 30
0.0
 10
71.5019232677148
 20
-125.3556558931403
 30
0.0
 10
71.92498099330348
 20
-125.4259358410394
 30
0.0
 10
71.92498099330348
 20
-125.4259358410394
 30
0.0
 10
71.89104680277377
 20
-125.3604790268196
 30
0.0
 10
71.85091144037061
 20
-125.2722845823972
 30
0.0
 10
71.85091144037061
 20
-125.14550506854
 30
0.0
 10
71.85091144037061
 20
-124.8743760538509
 30
0.0
 10
72.03711885134837
 20
-124.621161535685
 30
0.0
 10
72.35010577618331
 20
-124.621161535685
 30
0.0
 10
72.66757132514908
 20
-124.621161535685
 30
0.0
 10
72.90235458246886
 20
-124.8605956719099
 30
0.0
 10
72.90235458246886
 20
-125.1840901379748
 30
0.0
  0
HATCH
  5
B0
330
A9
100
AcDbEntity
  8
_U+30EC_U+30A4_U+30E4_U+30FC 1
 62
   179
420
  2234388
100
AcDbHatch
 10
0.0
 20
0.0
 30
0.0
210
0.0
220
0.0
230
1.0
  2
SOLID
 70
     1
 71
     0
 91
        1
 92
        1
 93
        1
 72
     4
 94
        3
 73
     0
 74
     1
 95
       53
 96
       49
 40
0.0
 40
0.0
 40
0.0
 40
0.0
 40
1.0
 40
1.0
 40
1.0
 40
2.0
 40
2.0
 40
2.0
 40
3.0
 40
3.0
 40
3.0
 40
4.0
 40
4.0
 40
4.0
 40
5.0
 40
5.0
 40
5.0
 40
6.0
 40
6.0
 40
6.0
 40
7.0
 40
7.0
 40
7.0
 40
8.0
 40
8.0
 40
8.0
 40
9.0
 40
9.0
 40
9.0
 40
10.0
 40
10.0
 40
10.0
 40
11.0
 40
11.0
 40
11.0
 40
12.0
 40
12.0
 40
12.0
 40
13.0
 40
13.0
 40
13.0
 40
14.0
 40
14.0
 40
14.0
 40
15.0
 40
15.0
 40
15.0
 40
16.0
 40
16.0
 40
16.0
 40
16.0
 10
72.90235458246886
 20
-125.1840901379748
 10
72.90235458246886
 20
-125.2674614487179
 10
72.88547361459113
 20
-125.3763264660518
 10
72.82191160288828
 20
-125.4845024642886
 10
72.71184080213455
 20
-125.6701931109436
 10
72.58075491892079
 20
-125.6925862315977
 10
72.47292343023247
 20
-125.7129122949607
 10
72.47292343023247
 20
-125.7129122949607
 10
72.47292343023247
 20
-125.475545216027
 10
72.47292343023247
 20
-125.475545216027
 10
72.67170543973138
 20
-125.4169785927777
 10
72.70133326090453
 20
-125.2812418306589
 10
72.70133326090453
 20
-125.1816785711351
 10
72.70133326090453
 20
-125.0325059366238
 10
72.60194225615507
 20
-124.86989742972
 10
72.36922605612645
 20
-124.86989742972
 10
72.11325546157238
 20
-124.86989742972
 10
72.04349227799608
 20
-125.0617892482484
 10
72.04349227799608
 20
-125.1906358193968
 10
72.04349227799608
 20
-125.2247422647008
 10
72.04349227799608
 20
-125.3763264660518
 10
72.17251110391868
 20
-125.4710665918961
 10
72.17251110391868
 20
-125.4710665918961
 10
72.15339082397554
 20
-125.6588242958422
 10
72.15339082397554
 20
-125.6588242958422
 10
72.15339082397554
 20
-125.6588242958422
 10
71.30727537279819
 20
-125.5299777246939
 10
71.30727537279819
 20
-125.5299777246939
 10
71.30727537279819
 20
-125.5299777246939
 10
71.30727537279819
 20
-124.6979871650061
 10
71.30727537279819
 20
-124.6979871650061
 10
71.30727537279819
 20
-124.6979871650061
 10
71.5019232677148
 20
-124.6979871650061
 10
71.5019232677148
 20
-124.6979871650061
 10
71.5019232677148
 20
-124.6979871650061
 10
71.5019232677148
 20
-125.3556558931403
 10
71.5019232677148
 20
-125.3556558931403
 10
71.5019232677148
 20
-125.3556558931403
 10
71.92498099330348
 20
-125.4259358410394
 10
71.92498099330348
 20
-125.4259358410394
 10
71.89104680277377
 20
-125.3604790268196
 10
71.85091144037061
 20
-125.2722845823972
 10
71.85091144037061
 20
-125.14550506854
 10
71.85091144037061
 20
-124.8743760538509
 10
72.03711885134837
 20
-124.621161535685
 10
72.35010577618331
 20
-124.621161535685
 10
72.66757132514908
 20
-124.621161535685
 10
72.90235458246886
 20
-124.8605956719099
 10
72.90235458246886
 20
-125.1840901379748
 97
        0
 97
        0
 75
     2
 76
     1
 98
        0
  0
ENDBLK
  5
AC
330
A9
100
AcDbEntity
  8
0
100
AcDbBlockEnd
  0
ENDSEC
  0
SECTION
  2
ENTITIES
  0
POLYLINE
  5
41
330
1F
100
AcDbEntity
  8
_U+30EC_U+30A4_U+30E4_U+30FC 1
370
     0
100
AcDb2dPolyline
 66
     1
 10
0.0
 20
0.0
 30
0.0
  0
VERTEX
  5
42
330
41
100
AcDbEntity
  8
_U+30EC_U+30A4_U+30E4_U+30FC 1
370
     0
100
AcDbVertex
100
AcDb2dVertex
 10
102.4478282196715
 20
-131.7969663559398
 30
0.0
  0
VERTEX
  5
43
330
41
100
AcDbEntity
  8
_U+30EC_U+30A4_U+30E4_U+30FC 1
370
     0
100
AcDbVertex
100
AcDb2dVertex
 10
78.9479957636466
 20
-131.7969663559398
 30
0.0
  0
VERTEX
  5
44
330
41
100
AcDbEntity
  8
_U+30EC_U+30A4_U+30E4_U+30FC 1
370
     0
100
AcDbVertex
100
AcDb2dVertex
 10
78.9479957636466
 20
-118.2970074704258
 30
0.0
  0
VERTEX
  5
45
330
41
100
AcDbEntity
  8
_U+30EC_U+30A4_U+30E4_U+30FC 1
370
     0
100
AcDbVertex
100
AcDb2dVertex
 10
77.44816107968836
 20
-118.2970074704258
 30
0.0
  0
VERTEX
  5
46
330
41
100
AcDbEntity
  8
_U+30EC_U+30A4_U+30E4_U+30FC 1
370
     0
100
AcDbVertex
100
AcDb2dVertex
 10
77.44816107968836
 20
-133.2969421888978
 30
0.0
  0
VERTEX
  5
47
330
41
100
AcDbEntity
  8
_U+30EC_U+30A4_U+30E4_U+30FC 1
370
     0
100
AcDbVertex
100
AcDb2dVertex
 10
102.4478282196715
 20
-133.2969421888978
 30
0.0
  0
VERTEX
  5
48
330
41
100
AcDbEntity
  8
_U+30EC_U+30A4_U+30E4_U+30FC 1
370
     0
100
AcDbVertex
100
AcDb2dVertex
 10
102.4478282196715
 20
-131.7969663559398
 30
0.0
  0
SEQEND
  5
4A
330
41
100
AcDbEntity
  8
_U+30EC_U+30A4_U+30E4_U+30FC 1
370
     0
  0
HATCH
  5
49
330
1F
100
AcDbEntity
  8
_U+30EC_U+30A4_U+30E4_U+30FC 1
 62
   253
420
 11711154
100
AcDbHatch
 10
0.0
 20
0.0
 30
0.0
210
0.0
220
0.0
230
1.0
  2
SOLID
 70
     1
 71
     0
 91
        1
 92
        1
 93
        6
 72
     1
 10
102.4478282196715
 20
-131.7969663559398
 11
78.9479957636466
 21
-131.7969663559398
 72
     1
 10
78.9479957636466
 20
-131.7969663559398
 11
78.9479957636466
 21
-118.2970074704258
 72
     1
 10
78.9479957636466
 20
-118.2970074704258
 11
77.44816107968836
 21
-118.2970074704258
 72
     1
 10
77.44816107968836
 20
-118.2970074704258
 11
77.44816107968836
 21
-133.2969421888978
 72
     1
 10
77.44816107968836
 20
-133.2969421888978
 11
102.4478282196715
 21
-133.2969421888978
 72
     1
 10
102.4478282196715
 20
-133.2969421888978
 11
102.4478282196715
 21
-131.7969663559398
 97
        0
 75
     2
 76
     1
 98
        0
  0
POLYLINE
  5
4B
330
1F
100
AcDbEntity
  8
_U+30EC_U+30A4_U+30E4_U+30FC 1
 62
   179
420
  2234388
370
    25
100
AcDb2dPolyline
 66
     1
 10
0.0
 20
0.0
 30
0.0
  0
VERTEX
  5
4C
330
4B
100
AcDbEntity
  8
_U+30EC_U+30A4_U+30E4_U+30FC 1
 62
   179
420
  2234388
370
    25
100
AcDbVertex
100
AcDb2dVertex
 10
77.44816107968836
 20
-133.2969421888978
 30
0.0
  0
VERTEX
  5
4D
330
4B
100
AcDbEntity
  8
_U+30EC_U+30A4_U+30E4_U+30FC 1
 62
   179
420
  2234388
370
    25
100
AcDbVertex
100
AcDb2dVertex
 10
102.4478282196715
 20
-133.2969421888978
 30
0.0
  0
SEQEND
  5
4E
330
4B
100
AcDbEntity
  8
_U+30EC_U+30A4_U+30E4_U+30FC 1
 62
   179
420
  2234388
370
    25
  0
POLYLINE
  5
4F
330
1F
100
AcDbEntity
  8
_U+30EC_U+30A4_U+30E4_U+30FC 1
 62
   179
420
  2234388
370
    25
100
AcDb2dPolyline
 66
     1
 10
0.0
 20
0.0
 30
0.0
  0
VERTEX
  5
50
330
4F
100
AcDbEntity
  8
_U+30EC_U+30A4_U+30E4_U+30FC 1
 62
   179
420
  2234388
370
    25
100
AcDbVertex
100
AcDb2dVertex
 10
77.44816107968836
 20
-118.2970074704258
 30
0.0
  0
VERTEX
  5
51
330
4F
100
AcDbEntity
  8
_U+30EC_U+30A4_U+30E4_U+30FC 1
 62
   179
420
  2234388
370
    25
100
AcDbVertex
100
AcDb2dVertex
 10
77.44816107968836
 20
-133.2969421888978
 30
0.0
  0
SEQEND
  5
52
330
4F
100
AcDbEntity
  8
_U+30EC_U+30A4_U+30E4_U+30FC 1
 62
   179
420
  2234388
370
    25
  0
POLYLINE
  5
53
330
1F
100
AcDbEntity
  8
_U+30EC_U+30A4_U+30E4_U+30FC 1
 62
   179
420
  2234388
370
    25
100
AcDb2dPolyline
 66
     1
 10
0.0
 20
0.0
 30
0.0
  0
VERTEX
  5
54
330
53
100
AcDbEntity
  8
_U+30EC_U+30A4_U+30E4_U+30FC 1
 62
   179
420
  2234388
370
    25
100
AcDbVertex
100
AcDb2dVertex
 10
102.4478282196715
 20
-131.7969663559398
 30
0.0
  0
VERTEX
  5
55
330
53
100
AcDbEntity
  8
_U+30EC_U+30A4_U+30E4_U+30FC 1
 62
   179
420
  2234388
370
    25
100
AcDbVertex
100
AcDb2dVertex
 10
102.4478282196715
 20
-133.2969421888978
 30
0.0
  0
SEQEND
  5
56
330
53
100
AcDbEntity
  8
_U+30EC_U+30A4_U+30E4_U+30FC 1
 62
   179
420
  2234388
370
    25
  0
POLYLINE
  5
57
330
1F
100
AcDbEntity
  8
_U+30EC_U+30A4_U+30E4_U+30FC 1
 62
   179
420
  2234388
370
    25
100
AcDb2dPolyline
 66
     1
 10
0.0
 20
0.0
 30
0.0
  0
VERTEX
  5
58
330
57
100
AcDbEntity
  8
_U+30EC_U+30A4_U+30E4_U+30FC 1
 62
   179
420
  2234388
370
    25
100
AcDbVertex
100
AcDb2dVertex
 10
78.9479957636466
 20
-131.7969663559398
 30
0.0
  0
VERTEX
  5
59
330
57
100
AcDbEntity
  8
_U+30EC_U+30A4_U+30E4_U+30FC 1
 62
   179
420
  2234388
370
    25
100
AcDbVertex
100
AcDb2dVertex
 10
102.4478282196715
 20
-131.7969663559398
 30
0.0
  0
SEQEND
  5
5A
330
57
100
AcDbEntity
  8
_U+30EC_U+30A4_U+30E4_U+30FC 1
 62
   179
420
  2234388
370
    25
  0
POLYLINE
  5
5B
330
1F
100
AcDbEntity
  8
_U+30EC_U+30A4_U+30E4_U+30FC 1
 62
   179
420
  2234388
370
    25
100
AcDb2dPolyline
 66
     1
 10
0.0
 20
0.0
 30
0.0
  0
VERTEX
  5
5C
330
5B
100
AcDbEntity
  8
_U+30EC_U+30A4_U+30E4_U+30FC 1
 62
   179
420
  2234388
370
    25
100
AcDbVertex
100
AcDb2dVertex
 10
77.44816107968836
 20
-118.2970074704258
 30
0.0
  0
VERTEX
  5
5D
330
5B
100
AcDbEntity
  8
_U+30EC_U+30A4_U+30E4_U+30FC 1
 62
   179
420
  2234388
370
    25
100
AcDbVertex
100
AcDb2dVertex
 10
78.9479957636466
 20
-118.2970074704258
 30
0.0
  0
SEQEND
  5
5E
330
5B
100
AcDbEntity
  8
_U+30EC_U+30A4_U+30E4_U+30FC 1
 62
   179
420
  2234388
370
    25
  0
POLYLINE
  5
5F
330
1F
100
AcDbEntity
  8
_U+30EC_U+30A4_U+30E4_U+30FC 1
 62
   179
420
  2234388
370
    25
100
AcDb2dPolyline
 66
     1
 10
0.0
 20
0.0
 30
0.0
  0
VERTEX
  5
60
330
5F
100
AcDbEntity
  8
_U+30EC_U+30A4_U+30E4_U+30FC 1
 62
   179
420
  2234388
370
    25
100
AcDbVertex
100
AcDb2dVertex
 10
78.9479957636466
 20
-118.2970074704258
 30
0.0
  0
VERTEX
  5
61
330
5F
100
AcDbEntity
  8
_U+30EC_U+30A4_U+30E4_U+30FC 1
 62
   179
420
  2234388
370
    25
100
AcDbVertex
100
AcDb2dVertex
 10
78.9479957636466
 20
-131.7969663559398
 30
0.0
  0
SEQEND
  5
62
330
5F
100
AcDbEntity
  8
_U+30EC_U+30A4_U+30E4_U+30FC 1
 62
   179
420
  2234388
370
    25
  0
SPLINE
  5
63
330
1F
100
AcDbEntity
  8
_U+30EC_U+30A4_U+30E4_U+30FC 1
 62
   179
420
  2234388
370
     9
100
AcDbSpline
210
0.0
220
0.0
230
1.0
 70
    11
 71
     3
 72
    17
 73
    13
 74
     0
 42
0.0000000001
 43
0.0000000001
 12
1.0
 22
0.0
 32
0.0
 13
1.0
 23
0.0
 33
0.0
 40
0.0
 40
0.0
 40
0.0
 40
0.0
 40
1.0
 40
1.0
 40
1.0
 40
2.0
 40
2.0
 40
2.0
 40
3.0
 40
3.0
 40
3.0
 40
4.0
 40
4.0
 40
4.0
 40
4.0
 10
73.54813229029749
 20
-133.2969421888978
 30
0.0
 10
73.54813229029749
 20
-133.2411327444674
 30
0.0
 10
73.50336664829075
 20
-133.1963652444788
 30
0.0
 10
73.44804923729527
 20
-133.1963652444788
 30
0.0
 10
73.39294720387387
 20
-133.1963652444788
 30
0.0
 10
73.34814442610747
 20
-133.2411327444674
 30
0.0
 10
73.34814442610747
 20
-133.2969421888978
 30
0.0
 10
73.34814442610747
 20
-133.3520813555509
 30
0.0
 10
73.39294720387387
 20
-133.3968488555395
 30
0.0
 10
73.44804923729527
 20
-133.3968488555395
 30
0.0
 10
73.50336664829075
 20
-133.3968488555395
 30
0.0
 10
73.54813229029749
 20
-133.3520813555509
 30
0.0
 10
73.54813229029749
 20
-133.2969421888978
 30
0.0
  0
SPLINE
  5
64
330
1F
100
AcDbEntity
  8
_U+30EC_U+30A4_U+30E4_U+30FC 1
 62
   179
420
  2234388
370
     9
100
AcDbSpline
210
0.0
220
0.0
230
1.0
 70
    11
 71
     3
 72
    17
 73
    13
 74
     0
 42
0.0000000001
 43
0.0000000001
 12
1.0
 22
0.0
 32
0.0
 13
1.0
 23
0.0
 33
0.0
 40
0.0
 40
0.0
 40
0.0
 40
0.0
 40
1.0
 40
1.0
 40
1.0
 40
2.0
 40
2.0
 40
2.0
 40
3.0
 40
3.0
 40
3.0
 40
4.0
 40
4.0
 40
4.0
 40
4.0
 10
77.54806774380619
 20
-137.2967013545647
 30
0.0
 10
77.54806774380619
 20
-137.2415974656898
 30
0.0
 10
77.50326496717143
 20
-137.1967946879231
 30
0.0
 10
77.44816107968836
 20
-137.1967946879231
 30
0.0
 10
77.39284552554402
 20
-137.1967946879231
 30
0.0
 10
77.34807802668612
 20
-137.2415974656898
 30
0.0
 10
77.34807802668612
 20
-137.2967013545647
 30
0.0
 10
77.34807802668612
 20
-137.3518405212178
 30
0.0
 10
77.39284552554402
 20
-137.3966080212064
 30
0.0
 10
77.44816107968836
 20
-137.3966080212064
 30
0.0
 10
77.50326496717143
 20
-137.3966080212064
 30
0.0
 10
77.54806774380619
 20
-137.3518405212178
 30
0.0
 10
77.54806774380619
 20
-137.2967013545647
 30
0.0
  0
SPLINE
  5
65
330
1F
100
AcDbEntity
  8
_U+30EC_U+30A4_U+30E4_U+30FC 1
 62
   179
420
  2234388
370
     9
100
AcDbSpline
210
0.0
220
0.0
230
1.0
 70
    11
 71
     3
 72
    17
 73
    13
 74
     0
 42
0.0000000001
 43
0.0000000001
 12
1.0
 22
0.0
 32
0.0
 13
1.0
 23
0.0
 33
0.0
 40
0.0
 40
0.0
 40
0.0
 40
0.0
 40
1.0
 40
1.0
 40
1.0
 40
2.0
 40
2.0
 40
2.0
 40
3.0
 40
3.0
 40
3.0
 40
4.0
 40
4.0
 40
4.0
 40
4.0
 10
102.5477348837893
 20
-137.2967013545647
 30
0.0
 10
102.5477348837893
 20
-137.2415974656898
 30
0.0
 10
102.5036376626921
 20
-137.1967946879231
 30
0.0
 10
102.4478282196715
 20
-137.1967946879231
 30
0.0
 10
102.3927243321884
 20
-137.1967946879231
 30
0.0
 10
102.3479215555537
 20
-137.2415974656898
 30
0.0
 10
102.3479215555537
 20
-137.2967013545647
 30
0.0
 10
102.3479215555537
 20
-137.3518405212178
 30
0.0
 10
102.3927243321884
 20
-137.3966080212064
 30
0.0
 10
102.4478282196715
 20
-137.3966080212064
 30
0.0
 10
102.5036376626921
 20
-137.3966080212064
 30
0.0
 10
102.5477348837893
 20
-137.3518405212178
 30
0.0
 10
102.5477348837893
 20
-137.2967013545647
 30
0.0
  0
SPLINE
  5
66
330
1F
100
AcDbEntity
  8
_U+30EC_U+30A4_U+30E4_U+30FC 1
 62
   179
420
  2234388
370
     9
100
AcDbSpline
210
0.0
220
0.0
230
1.0
 70
    11
 71
     3
 72
    17
 73
    13
 74
     0
 42
0.0000000001
 43
0.0000000001
 12
1.0
 22
0.0
 32
0.0
 13
1.0
 23
0.0
 33
0.0
 40
0.0
 40
0.0
 40
0.0
 40
0.0
 40
1.0
 40
1.0
 40
1.0
 40
2.0
 40
2.0
 40
2.0
 40
3.0
 40
3.0
 40
3.0
 40
4.0
 40
4.0
 40
4.0
 40
4.0
 10
110.5155735694017
 20
-131.7969663559398
 30
0.0
 10
110.5155735694017
 20
-131.7411569115093
 30
0.0
 10
110.470770792767
 20
-131.6963541337426
 30
0.0
 10
110.4156669052839
 20
-131.6963541337426
 30
0.0
 10
110.3605305279656
 20
-131.6963541337426
 30
0.0
 10
110.315760241166
 20
-131.7411569115093
 30
0.0
 10
110.315760241166
 20
-131.7969663559398
 30
0.0
 10
110.315760241166
 20
-131.8520702448147
 30
0.0
 10
110.3605305279656
 20
-131.8968730225814
 30
0.0
 10
110.4156669052839
 20
-131.8968730225814
 30
0.0
 10
110.470770792767
 20
-131.8968730225814
 30
0.0
 10
110.5155735694017
 20
-131.8520702448147
 30
0.0
 10
110.5155735694017
 20
-131.7969663559398
 30
0.0
  0
SPLINE
  5
67
330
1F
100
AcDbEntity
  8
_U+30EC_U+30A4_U+30E4_U+30FC 1
 62
   179
420
  2234388
370
     9
100
AcDbSpline
210
0.0
220
0.0
230
1.0
 70
    11
 71
     3
 72
    17
 73
    13
 74
     0
 42
0.0000000001
 43
0.0000000001
 12
1.0
 22
0.0
 32
0.0
 13
1.0
 23
0.0
 33
0.0
 40
0.0
 40
0.0
 40
0.0
 40
0.0
 40
1.0
 40
1.0
 40
1.0
 40
2.0
 40
2.0
 40
2.0
 40
3.0
 40
3.0
 40
3.0
 40
4.0
 40
4.0
 40
4.0
 40
4.0
 10
110.5155735694017
 20
-133.2969421888978
 30
0.0
 10
110.5155735694017
 20
-133.2411327444674
 30
0.0
 10
110.470770792767
 20
-133.1963652444788
 30
0.0
 10
110.4156669052839
 20
-133.1963652444788
 30
0.0
 10
110.3605305279656
 20
-133.1963652444788
 30
0.0
 10
110.315760241166
 20
-133.2411327444674
 30
0.0
 10
110.315760241166
 20
-133.2969421888978
 30
0.0
 10
110.315760241166
 20
-133.3520813555509
 30
0.0
 10
110.3605305279656
 20
-133.3968488555395
 30
0.0
 10
110.4156669052839
 20
-133.3968488555395
 30
0.0
 10
110.470770792767
 20
-133.3968488555395
 30
0.0
 10
110.5155735694017
 20
-133.3520813555509
 30
0.0
 10
110.5155735694017
 20
-133.2969421888978
 30
0.0
  0
SPLINE
  5
68
330
1F
100
AcDbEntity
  8
_U+30EC_U+30A4_U+30E4_U+30FC 1
 62
   179
420
  2234388
370
     9
100
AcDbSpline
210
0.0
220
0.0
230
1.0
 70
    11
 71
     3
 72
    17
 73
    13
 74
     0
 42
0.0000000001
 43
0.0000000001
 12
1.0
 22
0.0
 32
0.0
 13
1.0
 23
0.0
 33
0.0
 40
0.0
 40
0.0
 40
0.0
 40
0.0
 40
1.0
 40
1.0
 40
1.0
 40
2.0
 40
2.0
 40
2.0
 40
3.0
 40
3.0
 40
3.0
 40
4.0
 40
4.0
 40
4.0
 40
4.0
 10
73.54813229029749
 20
-118.2970074704258
 30
0.0
 10
73.54813229029749
 20
-118.2415508037728
 30
0.0
 10
73.50336664829075
 20
-118.1971008037842
 30
0.0
 10
73.44804923729527
 20
-118.1971008037842
 30
0.0
 10
73.39294720387387
 20
-118.1971008037842
 30
0.0
 10
73.34814442610747
 20
-118.2415508037728
 30
0.0
 10
73.34814442610747
 20
-118.2970074704258
 30
0.0
 10
73.34814442610747
 20
-118.352111359301
 30
0.0
 10
73.39294720387387
 20
-118.3969141370674
 30
0.0
 10
73.44804923729527
 20
-118.3969141370674
 30
0.0
 10
73.50336664829075
 20
-118.3969141370674
 30
0.0
 10
73.54813229029749
 20
-118.352111359301
 30
0.0
 10
73.54813229029749
 20
-118.2970074704258
 30
0.0
  0
POLYLINE
  5
69
330
1F
100
AcDbEntity
  8
_U+30EC_U+30A4_U+30E4_U+30FC 1
 62
   179
420
  2234388
370
     9
100
AcDb2dPolyline
 66
     1
 10
0.0
 20
0.0
 30
0.0
  0
VERTEX
  5
6A
330
69
100
AcDbEntity
  8
_U+30EC_U+30A4_U+30E4_U+30FC 1
 62
   179
420
  2234388
370
     9
100
AcDbVertex
100
AcDb2dVertex
 10
110.4156669052839
 20
-131.7969663559398
 30
0.0
  0
VERTEX
  5
6B
330
69
100
AcDbEntity
  8
_U+30EC_U+30A4_U+30E4_U+30FC 1
 62
   179
420
  2234388
370
     9
100
AcDbVertex
100
AcDb2dVertex
 10
110.4156669052839
 20
-126.5390605239208
 30
0.0
  0
SEQEND
  5
6C
330
69
100
AcDbEntity
  8
_U+30EC_U+30A4_U+30E4_U+30FC 1
 62
   179
420
  2234388
370
     9
  0
POLYLINE
  5
6D
330
1F
100
AcDbEntity
  8
_U+30EC_U+30A4_U+30E4_U+30FC 1
 62
   179
420
  2234388
370
     9
100
AcDb2dPolyline
 66
     1
 10
0.0
 20
0.0
 30
0.0
  0
VERTEX
  5
6E
330
6D
100
AcDbEntity
  8
_U+30EC_U+30A4_U+30E4_U+30FC 1
 62
   179
420
  2234388
370
     9
100
AcDbVertex
100
AcDb2dVertex
 10
110.4156669052839
 20
-134.2967144108704
 30
0.0
  0
VERTEX
  5
6F
330
6D
100
AcDbEntity
  8
_U+30EC_U+30A4_U+30E4_U+30FC 1
 62
   179
420
  2234388
370
     9
100
AcDbVertex
100
AcDb2dVertex
 10
110.4156669052839
 20
-131.7969663559398
 30
0.0
  0
SEQEND
  5
70
330
6D
100
AcDbEntity
  8
_U+30EC_U+30A4_U+30E4_U+30FC 1
 62
   179
420
  2234388
370
     9
  0
POLYLINE
  5
71
330
1F
100
AcDbEntity
  8
_U+30EC_U+30A4_U+30E4_U+30FC 1
 62
   179
420
  2234388
370
     9
100
AcDb2dPolyline
 66
     1
 10
0.0
 20
0.0
 30
0.0
  0
VERTEX
  5
72
330
71
100
AcDbEntity
  8
_U+30EC_U+30A4_U+30E4_U+30FC 1
 62
   179
420
  2234388
370
     9
100
AcDbVertex
100
AcDb2dVertex
 10
108.9556255536437
 20
-133.2969421888978
 30
0.0
  0
VERTEX
  5
73
330
71
100
AcDbEntity
  8
_U+30EC_U+30A4_U+30E4_U+30FC 1
 62
   179
420
  2234388
370
     9
100
AcDbVertex
100
AcDb2dVertex
 10
111.4161093797605
 20
-133.2969421888978
 30
0.0
  0
SEQEND
  5
74
330
71
100
AcDbEntity
  8
_U+30EC_U+30A4_U+30E4_U+30FC 1
 62
   179
420
  2234388
370
     9
  0
POLYLINE
  5
75
330
1F
100
AcDbEntity
  8
_U+30EC_U+30A4_U+30E4_U+30FC 1
 62
   179
420
  2234388
370
     9
100
AcDb2dPolyline
 66
     1
 10
0.0
 20
0.0
 30
0.0
  0
VERTEX
  5
76
330
75
100
AcDbEntity
  8
_U+30EC_U+30A4_U+30E4_U+30FC 1
 62
   179
420
  2234388
370
     9
100
AcDbVertex
100
AcDb2dVertex
 10
108.9556255536437
 20
-131.7969663559398
 30
0.0
  0
VERTEX
  5
77
330
75
100
AcDbEntity
  8
_U+30EC_U+30A4_U+30E4_U+30FC 1
 62
   179
420
  2234388
370
     9
100
AcDbVertex
100
AcDb2dVertex
 10
111.4161093797605
 20
-131.7969663559398
 30
0.0
  0
SEQEND
  5
78
330
75
100
AcDbEntity
  8
_U+30EC_U+30A4_U+30E4_U+30FC 1
 62
   179
420
  2234388
370
     9
  0
INSERT
  5
7A
330
1F
100
AcDbEntity
  8
_U+30EC_U+30A4_U+30E4_U+30FC 1
100
AcDbBlockReference
  2
block 2
 10
0.0
 20
0.0
 30
0.0
  0
POLYLINE
  5
89
330
1F
100
AcDbEntity
  8
_U+30EC_U+30A4_U+30E4_U+30FC 1
 62
   179
420
  2234388
370
     9
100
AcDb2dPolyline
 66
     1
 10
0.0
 20
0.0
 30
0.0
  0
VERTEX
  5
8A
330
89
100
AcDbEntity
  8
_U+30EC_U+30A4_U+30E4_U+30FC 1
 62
   179
420
  2234388
370
     9
100
AcDbVertex
100
AcDb2dVertex
 10
77.44816107968836
 20
-137.2967013545647
 30
0.0
  0
VERTEX
  5
8B
330
89
100
AcDbEntity
  8
_U+30EC_U+30A4_U+30E4_U+30FC 1
 62
   179
420
  2234388
370
     9
100
AcDbVertex
100
AcDb2dVertex
 10
102.4478282196715
 20
-137.2967013545647
 30
0.0
  0
SEQEND
  5
8C
330
89
100
AcDbEntity
  8
_U+30EC_U+30A4_U+30E4_U+30FC 1
 62
   179
420
  2234388
370
     9
  0
POLYLINE
  5
8D
330
1F
100
AcDbEntity
  8
_U+30EC_U+30A4_U+30E4_U+30FC 1
 62
   179
420
  2234388
370
     9
100
AcDb2dPolyline
 66
     1
 10
0.0
 20
0.0
 30
0.0
  0
VERTEX
  5
8E
330
8D
100
AcDbEntity
  8
_U+30EC_U+30A4_U+30E4_U+30FC 1
 62
   179
420
  2234388
370
     9
100
AcDbVertex
100
AcDb2dVertex
 10
77.44816107968836
 20
-135.836659966041
 30
0.0
  0
VERTEX
  5
8F
330
8D
100
AcDbEntity
  8
_U+30EC_U+30A4_U+30E4_U+30FC 1
 62
   179
420
  2234388
370
     9
100
AcDbVertex
100
AcDb2dVertex
 10
77.44816107968836
 20
-138.2964735765373
 30
0.0
  0
SEQEND
  5
90
330
8D
100
AcDbEntity
  8
_U+30EC_U+30A4_U+30E4_U+30FC 1
 62
   179
420
  2234388
370
     9
  0
POLYLINE
  5
91
330
1F
100
AcDbEntity
  8
_U+30EC_U+30A4_U+30E4_U+30FC 1
 62
   179
420
  2234388
370
     9
100
AcDb2dPolyline
 66
     1
 10
0.0
 20
0.0
 30
0.0
  0
VERTEX
  5
92
330
91
100
AcDbEntity
  8
_U+30EC_U+30A4_U+30E4_U+30FC 1
 62
   179
420
  2234388
370
     9
100
AcDbVertex
100
AcDb2dVertex
 10
102.4478282196715
 20
-135.836659966041
 30
0.0
  0
VERTEX
  5
93
330
91
100
AcDbEntity
  8
_U+30EC_U+30A4_U+30E4_U+30FC 1
 62
   179
420
  2234388
370
     9
100
AcDbVertex
100
AcDb2dVertex
 10
102.4478282196715
 20
-138.2964735765373
 30
0.0
  0
SEQEND
  5
94
330
91
100
AcDbEntity
  8
_U+30EC_U+30A4_U+30E4_U+30FC 1
 62
   179
420
  2234388
370
     9
  0
INSERT
  5
96
330
1F
100
AcDbEntity
  8
_U+30EC_U+30A4_U+30E4_U+30FC 1
100
AcDbBlockReference
  2
block 3
 10
0.0
 20
0.0
 30
0.0
  0
POLYLINE
  5
9D
330
1F
100
AcDbEntity
  8
_U+30EC_U+30A4_U+30E4_U+30FC 1
 62
   179
420
  2234388
370
     9
100
AcDb2dPolyline
 66
     1
 10
0.0
 20
0.0
 30
0.0
  0
VERTEX
  5
9E
330
9D
100
AcDbEntity
  8
_U+30EC_U+30A4_U+30E4_U+30FC 1
 62
   179
420
  2234388
370
     9
100
AcDbVertex
100
AcDb2dVertex
 10
73.44804923729527
 20
-118.2970074704258
 30
0.0
  0
VERTEX
  5
9F
330
9D
100
AcDbEntity
  8
_U+30EC_U+30A4_U+30E4_U+30FC 1
 62
   179
420
  2234388
370
     9
100
AcDbVertex
100
AcDb2dVertex
 10
73.44804923729527
 20
-133.2969421888978
 30
0.0
  0
SEQEND
  5
A0
330
9D
100
AcDbEntity
  8
_U+30EC_U+30A4_U+30E4_U+30FC 1
 62
   179
420
  2234388
370
     9
  0
POLYLINE
  5
A1
330
1F
100
AcDbEntity
  8
_U+30EC_U+30A4_U+30E4_U+30FC 1
 62
   179
420
  2234388
370
     9
100
AcDb2dPolyline
 66
     1
 10
0.0
 20
0.0
 30
0.0
  0
VERTEX
  5
A2
330
A1
100
AcDbEntity
  8
_U+30EC_U+30A4_U+30E4_U+30FC 1
 62
   179
420
  2234388
370
     9
100
AcDbVertex
100
AcDb2dVertex
 10
74.9080905889354
 20
-118.2970074704258
 30
0.0
  0
VERTEX
  5
A3
330
A1
100
AcDbEntity
  8
_U+30EC_U+30A4_U+30E4_U+30FC 1
 62
   179
420
  2234388
370
     9
100
AcDbVertex
100
AcDb2dVertex
 10
72.44810065169497
 20
-118.2970074704258
 30
0.0
  0
SEQEND
  5
A4
330
A1
100
AcDbEntity
  8
_U+30EC_U+30A4_U+30E4_U+30FC 1
 62
   179
420
  2234388
370
     9
  0
POLYLINE
  5
A5
330
1F
100
AcDbEntity
  8
_U+30EC_U+30A4_U+30E4_U+30FC 1
 62
   179
420
  2234388
370
     9
100
AcDb2dPolyline
 66
     1
 10
0.0
 20
0.0
 30
0.0
  0
VERTEX
  5
A6
330
A5
100
AcDbEntity
  8
_U+30EC_U+30A4_U+30E4_U+30FC 1
 62
   179
420
  2234388
370
     9
100
AcDbVertex
100
AcDb2dVertex
 10
74.9080905889354
 20
-133.2969421888978
 30
0.0
  0
VERTEX
  5
A7
330
A5
100
AcDbEntity
  8
_U+30EC_U+30A4_U+30E4_U+30FC 1
 62
   179
420
  2234388
370
     9
100
AcDbVertex
100
AcDb2dVertex
 10
72.44810065169497
 20
-133.2969421888978
 30
0.0
  0
SEQEND
  5
A8
330
A5
100
AcDbEntity
  8
_U+30EC_U+30A4_U+30E4_U+30FC 1
 62
   179
420
  2234388
370
     9
  0
INSERT
  5
AA
330
1F
100
AcDbEntity
  8
_U+30EC_U+30A4_U+30E4_U+30FC 1
100
AcDbBlockReference
  2
block 4
 10
0.0
 20
0.0
 30
0.0
  0
ENDSEC
  0
SECTION
  2
OBJECTS
  0
DICTIONARY
  5
C
330
0
100
AcDbDictionary
281
     1
  3
ACAD_GROUP
350
D
  3
ACAD_LAYOUT
350
1A
  3
ACAD_MATERIAL
350
3B
  3
ACAD_MLEADERSTYLE
350
B2
  3
ACAD_MLINESTYLE
350
17
  3
ACAD_PLOTSETTINGS
350
19
  3
ACAD_PLOTSTYLENAME
350
E
  3
ACAD_TABLESTYLE
350
B1
  3
ACAD_VISUALSTYLE
350
2A
  0
SUN
  5
3F
330
29
100
AcDbSun
 90
        1
290
     0
 63
     7
421
 16777215
 40
1.0
291
     1
 91
  2455826
 92
 54000000
292
     0
 70
     2
 71
   256
280
     1
  0
DICTIONARY
  5
D
102
{ACAD_REACTORS
330
C
102
}
330
C
100
AcDbDictionary
281
     1
  0
DICTIONARY
  5
1A
102
{ACAD_REACTORS
330
C
102
}
330
C
100
AcDbDictionary
281
     1
  3
Layout1
350
1E
  3
Layout2
350
26
  3
Model
350
22
  0
DICTIONARY
  5
3B
102
{ACAD_REACTORS
330
C
102
}
330
C
100
AcDbDictionary
281
     1
  3
ByBlock
350
3D
  3
ByLayer
350
3C
  3
Global
350
3E
  0
DICTIONARY
  5
B2
102
{ACAD_REACTORS
330
C
102
}
330
C
100
AcDbDictionary
281
     1
  0
DICTIONARY
  5
17
102
{ACAD_REACTORS
330
C
102
}
330
C
100
AcDbDictionary
281
     1
  3
Standard
350
18
  0
DICTIONARY
  5
19
102
{ACAD_REACTORS
330
C
102
}
330
C
100
AcDbDictionary
281
     1
  0
ACDBDICTIONARYWDFLT
  5
E
102
{ACAD_REACTORS
330
C
102
}
330
C
100
AcDbDictionary
281
     1
  3
Normal
350
F
100
AcDbDictionaryWithDefault
340
F
  0
DICTIONARY
  5
B1
102
{ACAD_REACTORS
330
C
102
}
330
C
100
AcDbDictionary
281
     1
  0
DICTIONARY
  5
2A
102
{ACAD_REACTORS
330
C
102
}
330
C
100
AcDbDictionary
281
     1
  3
2dWireframe
350
2F
  3
3D Hidden
350
31
  3
3dWireframe
350
30
  3
Basic
350
32
  3
Brighten
350
36
  3
ColorChange
350
3A
  3
Conceptual
350
34
  3
Dim
350
35
  3
Facepattern
350
39
  3
Flat
350
2B
  3
FlatWithEdges
350
2C
  3
Gouraud
350
2D
  3
GouraudWithEdges
350
2E
  3
Linepattern
350
38
  3
Realistic
350
33
  3
Thicken
350
37
  0
LAYOUT
  5
1E
102
{ACAD_REACTORS
330
1A
102
}
330
1A
100
AcDbPlotSettings
  1

  2
none_device
  4

  6

 40
0.0
 41
0.0
 42
0.0
 43
0.0
 44
0.0
 45
0.0
 46
0.0
 47
0.0
 48
0.0
 49
0.0
140
0.0
141
0.0
142
1.0
143
1.0
 70
   688
 72
     0
 73
     0
 74
     5
  7

 75
    16
 76
     0
 77
     2
 78
   300
147
1.0
148
0.0
149
0.0
100
AcDbLayout
  1
Layout1
 70
     1
 71
     1
 10
0.0
 20
0.0
 11
12.0
 21
9.0
 12
0.0
 22
0.0
 32
0.0
 14
1.000000000000000E+20
 24
1.000000000000000E+20
 34
1.000000000000000E+20
 15
-1.000000000000000E+20
 25
-1.000000000000000E+20
 35
-1.000000000000000E+20
146
0.0
 13
0.0
 23
0.0
 33
0.0
 16
1.0
 26
0.0
 36
0.0
 17
0.0
 27
1.0
 37
0.0
 76
     0
330
1B
  0
LAYOUT
  5
26
102
{ACAD_REACTORS
330
1A
102
}
330
1A
100
AcDbPlotSettings
  1

  2
none_device
  4

  6

 40
0.0
 41
0.0
 42
0.0
 43
0.0
 44
0.0
 45
0.0
 46
0.0
 47
0.0
 48
0.0
 49
0.0
140
0.0
141
0.0
142
1.0
143
1.0
 70
   688
 72
     0
 73
     0
 74
     5
  7

 75
    16
 76
     0
 77
     2
 78
   300
147
1.0
148
0.0
149
0.0
100
AcDbLayout
  1
Layout2
 70
     1
 71
     2
 10
0.0
 20
0.0
 11
0.0
 21
0.0
 12
0.0
 22
0.0
 32
0.0
 14
0.0
 24
0.0
 34
0.0
 15
0.0
 25
0.0
 35
0.0
146
0.0
 13
0.0
 23
0.0
 33
0.0
 16
1.0
 26
0.0
 36
0.0
 17
0.0
 27
1.0
 37
0.0
 76
     0
330
23
  0
LAYOUT
  5
22
102
{ACAD_REACTORS
330
1A
102
}
330
1A
100
AcDbPlotSettings
  1

  2
none_device
  4

  6

 40
0.0
 41
0.0
 42
0.0
 43
0.0
 44
0.0
 45
0.0
 46
0.0
 47
0.0
 48
0.0
 49
0.0
140
0.0
141
0.0
142
1.0
143
1.0
 70
  1712
 72
     0
 73
     0
 74
     0
  7

 75
     0
 76
     0
 77
     2
 78
   300
147
1.0
148
0.0
149
0.0
100
AcDbLayout
  1
Model
 70
     1
 71
     0
 10
0.0
 20
0.0
 11
12.0
 21
9.0
 12
0.0
 22
0.0
 32
0.0
 14
1.000000000000000E+20
 24
1.000000000000000E+20
 34
1.000000000000000E+20
 15
-1.000000000000000E+20
 25
-1.000000000000000E+20
 35
-1.000000000000000E+20
146
0.0
 13
0.0
 23
0.0
 33
0.0
 16
1.0
 26
0.0
 36
0.0
 17
0.0
 27
1.0
 37
0.0
 76
     0
330
1F
331
29
  0
MATERIAL
  5
3D
102
{ACAD_REACTORS
330
3B
102
}
330
3B
100
AcDbMaterial
  1
ByBlock
 72
     1
 94
      127
  0
MATERIAL
  5
3C
102
{ACAD_REACTORS
330
3B
102
}
330
3B
100
AcDbMaterial
  1
ByLayer
 72
     1
 94
      127
  0
MATERIAL
  5
3E
102
{ACAD_REACTORS
330
3B
102
}
330
3B
100
AcDbMaterial
  1
Global
 72
     1
 94
      127
  0
MLINESTYLE
  5
18
102
{ACAD_REACTORS
330
17
102
}
330
17
100
AcDbMlineStyle
  2
Standard
 70
     0
  3

 62
   256
 51
90.0
 52
90.0
 71
     2
 49
0.5
 62
   256
  6
BYLAYER
 49
-0.5
 62
   256
  6
BYLAYER
  0
ACDBPLACEHOLDER
  5
F
102
{ACAD_REACTORS
330
E
102
}
330
E
  0
VISUALSTYLE
  5
2F
102
{ACAD_REACTORS
330
2A
102
}
330
2A
100
AcDbVisualStyle
  2
2dWireframe
 70
     4
177
     2
291
     0
 71
     0
176
     1
 72
     2
176
     1
 73
     0
176
     1
 90
        0
176
     1
 40
-0.6
176
     1
 41
-30.0
176
     1
 62
     5
 63
     7
421
 16777215
176
     1
 74
     1
176
     1
 91
        4
176
     1
 64
     7
176
     1
 65
   257
176
     1
 75
     1
176
     1
175
     1
176
     1
 42
1.0
176
     1
 92
        0
176
     1
 66
   257
176
     1
 43
1.0
176
     1
 76
     1
176
     1
 77
     6
176
     1
 78
     2
176
     1
 67
     7
176
     1
 79
     5
176
     1
170
     0
176
     1
171
     0
176
     1
290
     0
176
     1
 93
        1
176
     1
 44
0.0
176
     1
173
     0
176
     1
  0
VISUALSTYLE
  5
31
102
{ACAD_REACTORS
330
2A
102
}
330
2A
100
AcDbVisualStyle
  2
3D Hidden
 70
     6
177
     2
291
     0
 71
     1
176
     1
 72
     2
176
     1
 73
     2
176
     1
 90
        0
176
     1
 40
-0.6
176
     1
 41
-30.0
176
     1
 62
     5
 63
     7
421
 16777215
176
     1
 74
     2
176
     1
 91
        2
176
     1
 64
     7
176
     1
 65
   257
176
     1
 75
     2
176
     1
175
     1
176
     1
 42
40.0
176
     1
 92
        0
176
     1
 66
   257
176
     1
 43
1.0
176
     1
 76
     1
176
     1
 77
     6
176
     1
 78
     2
176
     1
 67
     7
176
     1
 79
     3
176
     1
170
     0
176
     1
171
     0
176
     1
290
     0
176
     1
 93
        1
176
     1
 44
0.0
176
     1
173
     0
176
     1
  0
VISUALSTYLE
  5
30
102
{ACAD_REACTORS
330
2A
102
}
330
2A
100
AcDbVisualStyle
  2
3dWireframe
 70
     5
177
     2
291
     0
 71
     0
176
     1
 72
     2
176
     1
 73
     0
176
     1
 90
        0
176
     1
 40
-0.6
176
     1
 41
-30.0
176
     1
 62
     5
 63
     7
421
 16777215
176
     1
 74
     1
176
     1
 91
        4
176
     1
 64
     7
176
     1
 65
   257
176
     1
 75
     1
176
     1
175
     1
176
     1
 42
1.0
176
     1
 92
        0
176
     1
 66
   257
176
     1
 43
1.0
176
     1
 76
     1
176
     1
 77
     6
176
     1
 78
     2
176
     1
 67
     7
176
     1
 79
     5
176
     1
170
     0
176
     1
171
     0
176
     1
290
     0
176
     1
 93
        1
176
     1
 44
0.0
176
     1
173
     0
176
     1
  0
VISUALSTYLE
  5
32
102
{ACAD_REACTORS
330
2A
102
}
330
2A
100
AcDbVisualStyle
  2
Basic
 70
     7
177
     2
291
     1
 71
     1
176
     1
 72
     0
176
     1
 73
     1
176
     1
 90
        0
176
     1
 40
-0.6
176
     1
 41
-30.0
176
     1
 62
     5
 63
     7
421
 16777215
176
     1
 74
     0
176
     1
 91
        4
176
     1
 64
     7
176
     1
 65
   257
176
     1
 75
     1
176
     1
175
     1
176
     1
 42
1.0
176
     1
 92
        8
176
     1
 66
     7
176
     1
 43
1.0
176
     1
 76
     1
176
     1
 77
     6
176
     1
 78
     2
176
     1
 67
     7
176
     1
 79
     5
176
     1
170
     0
176
     1
171
     0
176
     1
290
     0
176
     1
 93
        1
176
     1
 44
0.0
176
     1
173
     0
176
     1
  0
VISUALSTYLE
  5
36
102
{ACAD_REACTORS
330
2A
102
}
330
2A
100
AcDbVisualStyle
  2
Brighten
 70
    12
177
     2
291
     1
 71
     2
176
     1
 72
     2
176
     1
 73
     0
176
     1
 90
        0
176
     1
 40
-0.6
176
     1
 41
-30.0
176
     1
 62
     5
 63
     7
421
 16777215
176
     1
 74
     1
176
     1
 91
        4
176
     1
 64
     7
176
     1
 65
   257
176
     1
 75
     1
176
     1
175
     1
176
     1
 42
1.0
176
     1
 92
        8
176
     1
 66
     7
176
     1
 43
1.0
176
     1
 76
     1
176
     1
 77
     6
176
     1
 78
     2
176
     1
 67
     7
176
     1
 79
     5
176
     1
170
     0
176
     1
171
     0
176
     1
290
     0
176
     1
 93
        1
176
     1
 44
50.0
176
     1
173
     0
176
     1
  0
VISUALSTYLE
  5
3A
102
{ACAD_REACTORS
330
2A
102
}
330
2A
100
AcDbVisualStyle
  2
ColorChange
 70
    16
177
     2
291
     1
 71
     2
176
     1
 72
     2
176
     1
 73
     3
176
     1
 90
        0
176
     1
 40
-0.6
176
     1
 41
-30.0
176
     1
 62
     5
 63
     8
421
  8421504
176
     1
 74
     1
176
     1
 91
        4
176
     1
 64
     7
176
     1
 65
   257
176
     1
 75
     1
176
     1
175
     1
176
     1
 42
1.0
176
     1
 92
        8
176
     1
 66
     8
424
  8421504
176
     1
 43
1.0
176
     1
 76
     1
176
     1
 77
     6
176
     1
 78
     2
176
     1
 67
     7
176
     1
 79
     5
176
     1
170
     0
176
     1
171
     0
176
     1
290
     0
176
     1
 93
        1
176
     1
 44
0.0
176
     1
173
     0
176
     1
  0
VISUALSTYLE
  5
34
102
{ACAD_REACTORS
330
2A
102
}
330
2A
100
AcDbVisualStyle
  2
Conceptual
 70
     9
177
     2
291
     0
 71
     3
176
     1
 72
     2
176
     1
 73
     0
176
     1
 90
        0
176
     1
 40
-0.6
176
     1
 41
-30.0
176
     1
 62
     5
 63
     7
421
 16777215
176
     1
 74
     2
176
     1
 91
        2
176
     1
 64
     7
176
     1
 65
   257
176
     1
 75
     1
176
     1
175
     1
176
     1
 42
40.0
176
     1
 92
        8
176
     1
 66
     7
176
     1
 43
1.0
176
     1
 76
     1
176
     1
 77
     6
176
     1
 78
     2
176
     1
 67
     7
176
     1
 79
     3
176
     1
170
     0
176
     1
171
     0
176
     1
290
     0
176
     1
 93
        1
176
     1
 44
0.0
176
     1
173
     0
176
     1
  0
VISUALSTYLE
  5
35
102
{ACAD_REACTORS
330
2A
102
}
330
2A
100
AcDbVisualStyle
  2
Dim
 70
    11
177
     2
291
     1
 71
     2
176
     1
 72
     2
176
     1
 73
     0
176
     1
 90
        0
176
     1
 40
-0.6
176
     1
 41
-30.0
176
     1
 62
     5
 63
     7
421
 16777215
176
     1
 74
     1
176
     1
 91
        4
176
     1
 64
     7
176
     1
 65
   257
176
     1
 75
     1
176
     1
175
     1
176
     1
 42
1.0
176
     1
 92
        8
176
     1
 66
     7
176
     1
 43
1.0
176
     1
 76
     1
176
     1
 77
     6
176
     1
 78
     2
176
     1
 67
     7
176
     1
 79
     5
176
     1
170
     0
176
     1
171
     0
176
     1
290
     0
176
     1
 93
        1
176
     1
 44
-50.0
176
     1
173
     0
176
     1
  0
VISUALSTYLE
  5
39
102
{ACAD_REACTORS
330
2A
102
}
330
2A
100
AcDbVisualStyle
  2
Facepattern
 70
    15
177
     2
291
     1
 71
     2
176
     1
 72
     2
176
     1
 73
     0
176
     1
 90
        0
176
     1
 40
-0.6
176
     1
 41
-30.0
176
     1
 62
     5
 63
     7
421
 16777215
176
     1
 74
     1
176
     1
 91
        4
176
     1
 64
     7
176
     1
 65
   257
176
     1
 75
     1
176
     1
175
     1
176
     1
 42
1.0
176
     1
 92
        8
176
     1
 66
     7
176
     1
 43
1.0
176
     1
 76
     1
176
     1
 77
     6
176
     1
 78
     2
176
     1
 67
     7
176
     1
 79
     5
176
     1
170
     0
176
     1
171
     0
176
     1
290
     0
176
     1
 93
        1
176
     1
 44
0.0
176
     1
173
     0
176
     1
  0
VISUALSTYLE
  5
2B
102
{ACAD_REACTORS
330
2A
102
}
330
2A
100
AcDbVisualStyle
  2
Flat
 70
     0
177
     2
291
     1
 71
     2
176
     1
 72
     1
176
     1
 73
     1
176
     1
 90
        2
176
     1
 40
-0.6
176
     1
 41
30.0
176
     1
 62
     5
 63
     7
421
 16777215
176
     1
 74
     0
176
     1
 91
        4
176
     1
 64
     7
176
     1
 65
   257
176
     1
 75
     1
176
     1
175
     1
176
     1
 42
1.0
176
     1
 92
        8
176
     1
 66
     7
176
     1
 43
1.0
176
     1
 76
     1
176
     1
 77
     6
176
     1
 78
     2
176
     1
 67
     7
176
     1
 79
     5
176
     1
170
     0
176
     1
171
     0
176
     1
290
     0
176
     1
 93
       13
176
     1
 44
0.0
176
     1
173
     0
176
     1
  0
VISUALSTYLE
  5
2C
102
{ACAD_REACTORS
330
2A
102
}
330
2A
100
AcDbVisualStyle
  2
FlatWithEdges
 70
     1
177
     2
291
     1
 71
     2
176
     1
 72
     1
176
     1
 73
     1
176
     1
 90
        2
176
     1
 40
-0.6
176
     1
 41
30.0
176
     1
 62
     5
 63
     7
421
 16777215
176
     1
 74
     1
176
     1
 91
        4
176
     1
 64
     7
176
     1
 65
   257
176
     1
 75
     1
176
     1
175
     1
176
     1
 42
1.0
176
     1
 92
        0
176
     1
 66
   257
176
     1
 43
1.0
176
     1
 76
     1
176
     1
 77
     6
176
     1
 78
     2
176
     1
 67
     7
176
     1
 79
     5
176
     1
170
     0
176
     1
171
     0
176
     1
290
     0
176
     1
 93
       13
176
     1
 44
0.0
176
     1
173
     0
176
     1
  0
VISUALSTYLE
  5
2D
102
{ACAD_REACTORS
330
2A
102
}
330
2A
100
AcDbVisualStyle
  2
Gouraud
 70
     2
177
     2
291
     1
 71
     2
176
     1
 72
     2
176
     1
 73
     1
176
     1
 90
        2
176
     1
 40
-0.6
176
     1
 41
30.0
176
     1
 62
     5
 63
     7
421
 16777215
176
     1
 74
     0
176
     1
 91
        4
176
     1
 64
     7
176
     1
 65
   257
176
     1
 75
     1
176
     1
175
     1
176
     1
 42
1.0
176
     1
 92
        0
176
     1
 66
     7
176
     1
 43
1.0
176
     1
 76
     1
176
     1
 77
     6
176
     1
 78
     2
176
     1
 67
     7
176
     1
 79
     5
176
     1
170
     0
176
     1
171
     0
176
     1
290
     0
176
     1
 93
       13
176
     1
 44
0.0
176
     1
173
     0
176
     1
  0
VISUALSTYLE
  5
2E
102
{ACAD_REACTORS
330
2A
102
}
330
2A
100
AcDbVisualStyle
  2
GouraudWithEdges
 70
     3
177
     2
291
     1
 71
     2
176
     1
 72
     2
176
     1
 73
     1
176
     1
 90
        2
176
     1
 40
-0.6
176
     1
 41
30.0
176
     1
 62
     5
 63
     7
421
 16777215
176
     1
 74
     1
176
     1
 91
        4
176
     1
 64
     7
176
     1
 65
   257
176
     1
 75
     1
176
     1
175
     1
176
     1
 42
1.0
176
     1
 92
        0
176
     1
 66
   257
176
     1
 43
1.0
176
     1
 76
     1
176
     1
 77
     6
176
     1
 78
     2
176
     1
 67
     7
176
     1
 79
     5
176
     1
170
     0
176
     1
171
     0
176
     1
290
     0
176
     1
 93
       13
176
     1
 44
0.0
176
     1
173
     0
176
     1
  0
VISUALSTYLE
  5
38
102
{ACAD_REACTORS
330
2A
102
}
330
2A
100
AcDbVisualStyle
  2
Linepattern
 70
    14
177
     2
291
     1
 71
     2
176
     1
 72
     2
176
     1
 73
     0
176
     1
 90
        0
176
     1
 40
-0.6
176
     1
 41
-30.0
176
     1
 62
     5
 63
     7
421
 16777215
176
     1
 74
     1
176
     1
 91
        4
176
     1
 64
     7
176
     1
 65
   257
176
     1
 75
     7
176
     1
175
     7
176
     1
 42
1.0
176
     1
 92
        8
176
     1
 66
     7
176
     1
 43
1.0
176
     1
 76
     1
176
     1
 77
     6
176
     1
 78
     2
176
     1
 67
     7
176
     1
 79
     5
176
     1
170
     0
176
     1
171
     0
176
     1
290
     0
176
     1
 93
        1
176
     1
 44
0.0
176
     1
173
     0
176
     1
  0
VISUALSTYLE
  5
33
102
{ACAD_REACTORS
330
2A
102
}
330
2A
100
AcDbVisualStyle
  2
Realistic
 70
     8
177
     2
291
     0
 71
     2
176
     1
 72
     2
176
     1
 73
     0
176
     1
 90
        0
176
     1
 40
-0.6
176
     1
 41
-30.0
176
     1
 62
     5
 63
     7
421
 16777215
176
     1
 74
     1
176
     1
 91
        0
176
     1
 64
     7
176
     1
 65
   257
176
     1
 75
     1
176
     1
175
     1
176
     1
 42
1.0
176
     1
 92
        8
176
     1
 66
     8
424
  7895160
176
     1
 43
1.0
176
     1
 76
     1
176
     1
 77
     6
176
     1
 78
     2
176
     1
 67
     7
176
     1
 79
     5
176
     1
170
     0
176
     1
171
     0
176
     1
290
     0
176
     1
 93
       13
176
     1
 44
0.0
176
     1
173
     0
176
     1
  0
VISUALSTYLE
  5
37
102
{ACAD_REACTORS
330
2A
102
}
330
2A
100
AcDbVisualStyle
  2
Thicken
 70
    13
177
     2
291
     1
 71
     2
176
     1
 72
     2
176
     1
 73
     0
176
     1
 90
        0
176
     1
 40
-0.6
176
     1
 41
-30.0
176
     1
 62
     5
 63
     7
421
 16777215
176
     1
 74
     1
176
     1
 91
        4
176
     1
 64
     7
176
     1
 65
   257
176
     1
 75
     1
176
     1
175
     1
176
     1
 42
1.0
176
     1
 92
       12
176
     1
 66
     7
176
     1
 43
1.0
176
     1
 76
     1
176
     1
 77
     6
176
     1
 78
     2
176
     1
 67
     7
176
     1
 79
     5
176
     1
170
     0
176
     1
171
     0
176
     1
290
     0
176
     1
 93
        1
176
     1
 44
0.0
176
     1
173
     0
176
     1
  0
ENDSEC
  0
EOF
