  0
SECTION
  2
HEADER
  9
$ACADVER
  1
AC1024
  9
$ACADMAINTVER
 70
     6
  9
$DWGCODEPAGE
  3
UNDEFINED
  9
$INSBASE
 10
0.0
 20
0.0
 30
0.0
  9
$EXTMIN
 10
1.000000000000000E+20
 20
1.000000000000000E+20
 30
1.000000000000000E+20
  9
$EXTMAX
 10
-1.000000000000000E+20
 20
-1.000000000000000E+20
 30
-1.000000000000000E+20
  9
$LIMMIN
 10
0.0
 20
0.0
  9
$LIMMAX
 10
12.0
 20
9.0
  9
$ORTHOMODE
 70
     0
  9
$REGENMODE
 70
     1
  9
$FILLMODE
 70
     1
  9
$QTEXTMODE
 70
     0
  9
$MIRRTEXT
 70
     1
  9
$LTSCALE
 40
1.0
  9
$ATTMODE
 70
     1
  9
$TEXTSIZE
 40
0.2
  9
$TRACEWID
 40
0.05
  9
$TEXTSTYLE
  7
Standard
  9
$CLAYER
  8
0
  9
$CELTYPE
  6
ByLayer
  9
$CECOLOR
 62
   256
  9
$CELTSCALE
 40
1.0
  9
$DISPSILH
 70
     0
  9
$DIMSCALE
 40
1.0
  9
$DIMASZ
 40
0.18
  9
$DIMEXO
 40
0.0625
  9
$DIMDLI
 40
0.38
  9
$DIMRND
 40
0.0
  9
$DIMDLE
 40
0.0
  9
$DIMEXE
 40
0.18
  9
$DIMTP
 40
0.0
  9
$DIMTM
 40
0.0
  9
$DIMTXT
 40
0.18
  9
$DIMCEN
 40
0.09
  9
$DIMTSZ
 40
0.0
  9
$DIMTOL
 70
     0
  9
$DIMLIM
 70
     0
  9
$DIMTIH
 70
     1
  9
$DIMTOH
 70
     1
  9
$DIMSE1
 70
     0
  9
$DIMSE2
 70
     0
  9
$DIMTAD
 70
     0
  9
$DIMZIN
 70
     0
  9
$DIMBLK
  1

  9
$DIMASO
 70
     1
  9
$DIMSHO
 70
     1
  9
$DIMPOST
  1

  9
$DIMAPOST
  1

  9
$DIMALT
 70
     0
  9
$DIMALTD
 70
     2
  9
$DIMALTF
 40
25.4
  9
$DIMLFAC
 40
1.0
  9
$DIMTOFL
 70
     0
  9
$DIMTVP
 40
0.0
  9
$DIMTIX
 70
     0
  9
$DIMSOXD
 70
     0
  9
$DIMSAH
 70
     0
  9
$DIMBLK1
  1

  9
$DIMBLK2
  1

  9
$DIMSTYLE
  2
Standard
  9
$DIMCLRD
 70
     0
  9
$DIMCLRE
 70
     0
  9
$DIMCLRT
 70
     0
  9
$DIMTFAC
 40
1.0
  9
$DIMGAP
 40
0.09
  9
$DIMJUST
 70
     0
  9
$DIMSD1
 70
     0
  9
$DIMSD2
 70
     0
  9
$DIMTOLJ
 70
     1
  9
$DIMTZIN
 70
     0
  9
$DIMALTZ
 70
     0
  9
$DIMALTTZ
 70
     0
  9
$DIMUPT
 70
     0
  9
$DIMDEC
 70
     4
  9
$DIMTDEC
 70
     4
  9
$DIMALTU
 70
     2
  9
$DIMALTTD
 70
     2
  9
$DIMTXSTY
  7
Standard
  9
$DIMAUNIT
 70
     0
  9
$DIMADEC
 70
     0
  9
$DIMALTRND
 40
0.0
  9
$DIMAZIN
 70
     0
  9
$DIMDSEP
 70
    46
  9
$DIMATFIT
 70
     3
  9
$DIMFRAC
 70
     0
  9
$DIMLDRBLK
  1

  9
$DIMLUNIT
 70
     2
  9
$DIMLWD
 70
    -2
  9
$DIMLWE
 70
    -2
  9
$DIMTMOVE
 70
     0
  9
$DIMFXL
 40
1.0
  9
$DIMFXLON
 70
     0
  9
$DIMJOGANG
 40
0.7853981633974483
  9
$DIMTFILL
 70
     0
  9
$DIMTFILLCLR
 70
     0
  9
$DIMARCSYM
 70
     0
  9
$DIMLTYPE
  6

  9
$DIMLTEX1
  6

  9
$DIMLTEX2
  6

  9
$DIMTXTDIRECTION
 70
     0
  9
$LUNITS
 70
     2
  9
$LUPREC
 70
     4
  9
$SKETCHINC
 40
0.1
  9
$FILLETRAD
 40
0.5
  9
$AUNITS
 70
     0
  9
$AUPREC
 70
     0
  9
$MENU
  1
.
  9
$ELEVATION
 40
0.0
  9
$PELEVATION
 40
0.0
  9
$THICKNESS
 40
0.0
  9
$LIMCHECK
 70
     0
  9
$CHAMFERA
 40
0.5
  9
$CHAMFERB
 40
0.5
  9
$CHAMFERC
 40
1.0
  9
$CHAMFERD
 40
0.0
  9
$SKPOLY
 70
     0
  9
$TDCREATE
 40
2457917.620601852
  9
$TDUCREATE
 40
2457917.245601852
  9
$TDUPDATE
 40
2457917.620601852
  9
$TDUUPDATE
 40
2457917.245601852
  9
$TDINDWG
 40
0.0000000116
  9
$TDUSRTIMER
 40
0.0000000116
  9
$USRTIMER
 70
     1
  9
$ANGBASE
 50
0.0
  9
$ANGDIR
 70
     0
  9
$PDMODE
 70
     0
  9
$PDSIZE
 40
0.0
  9
$PLINEWID
 40
0.0
  9
$SPLFRAME
 70
     0
  9
$SPLINETYPE
 70
     6
  9
$SPLINESEGS
 70
     8
  9
$HANDSEED
  5
A7
  9
$SURFTAB1
 70
     6
  9
$SURFTAB2
 70
     6
  9
$SURFTYPE
 70
     6
  9
$SURFU
 70
     6
  9
$SURFV
 70
     6
  9
$UCSBASE
  2

  9
$UCSNAME
  2

  9
$UCSORG
 10
0.0
 20
0.0
 30
0.0
  9
$UCSXDIR
 10
1.0
 20
0.0
 30
0.0
  9
$UCSYDIR
 10
0.0
 20
1.0
 30
0.0
  9
$UCSORTHOREF
  2

  9
$UCSORTHOVIEW
 70
     0
  9
$UCSORGTOP
 10
0.0
 20
0.0
 30
0.0
  9
$UCSORGBOTTOM
 10
0.0
 20
0.0
 30
0.0
  9
$UCSORGLEFT
 10
0.0
 20
0.0
 30
0.0
  9
$UCSORGRIGHT
 10
0.0
 20
0.0
 30
0.0
  9
$UCSORGFRONT
 10
0.0
 20
0.0
 30
0.0
  9
$UCSORGBACK
 10
0.0
 20
0.0
 30
0.0
  9
$PUCSBASE
  2

  9
$PUCSNAME
  2

  9
$PUCSORG
 10
0.0
 20
0.0
 30
0.0
  9
$PUCSXDIR
 10
1.0
 20
0.0
 30
0.0
  9
$PUCSYDIR
 10
0.0
 20
1.0
 30
0.0
  9
$PUCSORTHOREF
  2

  9
$PUCSORTHOVIEW
 70
     0
  9
$PUCSORGTOP
 10
0.0
 20
0.0
 30
0.0
  9
$PUCSORGBOTTOM
 10
0.0
 20
0.0
 30
0.0
  9
$PUCSORGLEFT
 10
0.0
 20
0.0
 30
0.0
  9
$PUCSORGRIGHT
 10
0.0
 20
0.0
 30
0.0
  9
$PUCSORGFRONT
 10
0.0
 20
0.0
 30
0.0
  9
$PUCSORGBACK
 10
0.0
 20
0.0
 30
0.0
  9
$USERI1
 70
     0
  9
$USERI2
 70
     0
  9
$USERI3
 70
     0
  9
$USERI4
 70
     0
  9
$USERI5
 70
     0
  9
$USERR1
 40
0.0
  9
$USERR2
 40
0.0
  9
$USERR3
 40
0.0
  9
$USERR4
 40
0.0
  9
$USERR5
 40
0.0
  9
$WORLDVIEW
 70
     1
  9
$SHADEDGE
 70
     3
  9
$SHADEDIF
 70
    70
  9
$TILEMODE
 70
     1
  9
$MAXACTVP
 70
    64
  9
$PINSBASE
 10
0.0
 20
0.0
 30
0.0
  9
$PLIMCHECK
 70
     0
  9
$PEXTMIN
 10
1.000000000000000E+20
 20
1.000000000000000E+20
 30
1.000000000000000E+20
  9
$PEXTMAX
 10
-1.000000000000000E+20
 20
-1.000000000000000E+20
 30
-1.000000000000000E+20
  9
$PLIMMIN
 10
0.0
 20
0.0
  9
$PLIMMAX
 10
12.0
 20
9.0
  9
$UNITMODE
 70
     0
  9
$VISRETAIN
 70
     1
  9
$PLINEGEN
 70
     0
  9
$PSLTSCALE
 70
     1
  9
$TREEDEPTH
 70
  3020
  9
$CMLSTYLE
  2
Standard
  9
$CMLJUST
 70
     0
  9
$CMLSCALE
 40
1.0
  9
$PROXYGRAPHICS
 70
     1
  9
$MEASUREMENT
 70
     0
  9
$CELWEIGHT
370
    -1
  9
$ENDCAPS
280
     0
  9
$JOINSTYLE
280
     0
  9
$LWDISPLAY
290
     1
  9
$INSUNITS
 70
     1
  9
$HYPERLINKBASE
  1

  9
$STYLESHEET
  1

  9
$XEDIT
290
     1
  9
$CEPSNTYPE
380
     0
  9
$PSTYLEMODE
290
     1
  9
$FINGERPRINTGUID
  2
{1288DCEB-FDFB-EF41-6C53-BE3B29C6DEA8}
  9
$VERSIONGUID
  2
{FAEB1C32-E019-11D5-929B-00C0DF256EC4}
  9
$EXTNAMES
290
     1
  9
$PSVPSCALE
 40
0.0
  9
$OLESTARTUP
290
     0
  9
$SORTENTS
280
   127
  9
$INDEXCTL
280
     0
  9
$HIDETEXT
280
     1
  9
$XCLIPFRAME
280
     2
  9
$HALOGAP
280
     0
  9
$OBSCOLOR
 70
   257
  9
$OBSLTYPE
280
     0
  9
$INTERSECTIONDISPLAY
280
     0
  9
$INTERSECTIONCOLOR
 70
   257
  9
$DIMASSOC
280
     2
  9
$PROJECTNAME
  1

  9
$CAMERADISPLAY
290
     0
  9
$LENSLENGTH
 40
50.0
  9
$CAMERAHEIGHT
 40
0.0
  9
$STEPSPERSEC
 40
2.0
  9
$STEPSIZE
 40
6.0
  9
$3DDWFPREC
 40
2.0
  9
$PSOLWIDTH
 40
0.25
  9
$PSOLHEIGHT
 40
4.0
  9
$LOFTANG1
 40
1.570796326794897
  9
$LOFTANG2
 40
1.570796326794897
  9
$LOFTMAG1
 40
0.0
  9
$LOFTMAG2
 40
0.0
  9
$LOFTPARAM
 70
     7
  9
$LOFTNORMALS
280
     1
  9
$LATITUDE
 40
37.795
  9
$LONGITUDE
 40
-122.394
  9
$NORTHDIRECTION
 40
0.0
  9
$TIMEZONE
 70
 -8000
  9
$LIGHTGLYPHDISPLAY
280
     1
  9
$TILEMODELIGHTSYNCH
280
     1
  9
$CMATERIAL
347
3C
  9
$SOLIDHIST
280
     1
  9
$SHOWHIST
280
     1
  9
$DWFFRAME
280
     2
  9
$DGNFRAME
280
     2
  9
$REALWORLDSCALE
290
     1
  9
$INTERFERECOLOR
 62
   256
  9
$CSHADOW
280
     0
  9
$SHADOWPLANELOCATION
 40
0.0
  0
ENDSEC
  0
SECTION
  2
CLASSES
  0
CLASS
  1
ACDBDICTIONARYWDFLT
  2
AcDbDictionaryWithDefault
  3
ObjectDBX Classes
 90
        0
 91
        4
280
     0
281
     0
  0
CLASS
  1
VISUALSTYLE
  2
AcDbVisualStyle
  3
ObjectDBX Classes
 90
     4095
 91
        4
280
     0
281
     0
  0
CLASS
  1
MATERIAL
  2
AcDbMaterial
  3
ObjectDBX Classes
 90
     1153
 91
        4
280
     0
281
     0
  0
CLASS
  1
SUN
  2
AcDbSun
  3
SCENEOE
 90
     1024
 91
        4
280
     0
281
     0
  0
ENDSEC
  0
SECTION
  2
TABLES
  0
TABLE
  2
VPORT
  5
8
330
0
100
AcDbSymbolTable
 70
     1
  0
VPORT
  5
29
330
8
100
AcDbSymbolTableRecord
100
AcDbViewportTableRecord
  2
*Active
 70
     0
 10
0.0
 20
0.0
 11
1.0
 21
1.0
 12
0.0
 22
0.0
 13
0.0
 23
0.0
 14
0.5
 24
0.5
 15
0.5
 25
0.5
 16
0.0
 26
0.0
 36
1.0
 17
91.00082462281999
 27
-128.4993055234307
 37
0.0
 40
256.9986110468615
 41
0.7081814508812795
 42
50.0
 43
0.0
 44
0.0
 50
0.0
 51
0.0
 71
     0
 72
   100
 73
     1
 74
     3
 75
     0
 76
     0
 77
     0
 78
     0
281
     0
 65
     1
110
0.0
120
0.0
130
0.0
111
1.0
121
0.0
131
0.0
112
0.0
122
1.0
132
0.0
 79
     0
146
0.0
 60
     3
 61
     5
292
     1
282
     1
141
0.0
142
0.0
 63
   250
361
3F
  0
ENDTAB
  0
TABLE
  2
LTYPE
  5
5
330
0
100
AcDbSymbolTable
 70
     1
  0
LTYPE
  5
14
330
5
100
AcDbSymbolTableRecord
100
AcDbLinetypeTableRecord
  2
ByBlock
 70
     0
  3

 72
    65
 73
     0
 40
0.0
  0
LTYPE
  5
15
330
5
100
AcDbSymbolTableRecord
100
AcDbLinetypeTableRecord
  2
ByLayer
 70
     0
  3

 72
    65
 73
     0
 40
0.0
  0
LTYPE
  5
16
330
5
100
AcDbSymbolTableRecord
100
AcDbLinetypeTableRecord
  2
Continuous
 70
     0
  3
Solid line
 72
    65
 73
     0
 40
0.0
  0
ENDTAB
  0
TABLE
  2
LAYER
  5
2
330
0
100
AcDbSymbolTable
 70
     2
  0
LAYER
  5
10
330
2
100
AcDbSymbolTableRecord
100
AcDbLayerTableRecord
  2
0
 70
     0
 62
     7
  6
Continuous
370
    -3
390
F
347
3E
  0
LAYER
  5
40
330
2
100
AcDbSymbolTableRecord
100
AcDbLayerTableRecord
  2
_U+30EC_U+30A4_U+30E4_U+30FC 1
 70
     0
 62
     7
  6
Continuous
370
    -3
390
F
347
3E
  0
ENDTAB
  0
TABLE
  2
STYLE
  5
3
330
0
100
AcDbSymbolTable
 70
     1
  0
STYLE
  5
11
330
3
100
AcDbSymbolTableRecord
100
AcDbTextStyleTableRecord
  2
Standard
 70
     0
 40
0.0
 41
1.0
 50
0.0
 71
     0
 42
0.2
  3
txt
  4

  0
ENDTAB
  0
TABLE
  2
VIEW
  5
6
330
0
100
AcDbSymbolTable
 70
     0
  0
ENDTAB
  0
TABLE
  2
UCS
  5
7
330
0
100
AcDbSymbolTable
 70
     0
  0
ENDTAB
  0
TABLE
  2
APPID
  5
9
330
0
100
AcDbSymbolTable
 70
     1
  0
APPID
  5
12
330
9
100
AcDbSymbolTableRecord
100
AcDbRegAppTableRecord
  2
ACAD
 70
     0
  0
ENDTAB
  0
TABLE
  2
DIMSTYLE
  5
A
330
0
100
AcDbSymbolTable
 70
     1
100
AcDbDimStyleTable
  0
DIMSTYLE
105
27
330
A
100
AcDbSymbolTableRecord
100
AcDbDimStyleTableRecord
  2
Standard
 70
     0
178
     0
340
11
  0
ENDTAB
  0
TABLE
  2
BLOCK_RECORD
  5
1
330
0
100
AcDbSymbolTable
 70
     4
  0
BLOCK_RECORD
  5
1F
330
1
100
AcDbSymbolTableRecord
100
AcDbBlockTableRecord
  2
*Model_Space
340
22
 70
     0
280
     1
281
     0
  0
BLOCK_RECORD
  5
1B
330
1
100
AcDbSymbolTableRecord
100
AcDbBlockTableRecord
  2
*Paper_Space
340
1E
 70
     0
280
     1
281
     0
  0
BLOCK_RECORD
  5
23
330
1
100
AcDbSymbolTableRecord
100
AcDbBlockTableRecord
  2
*Paper_Space0
340
26
 70
     0
280
     1
281
     0
  0
BLOCK_RECORD
  5
75
330
1
100
AcDbSymbolTableRecord
100
AcDbBlockTableRecord
  2
block 2
340
0
102
{BLKREFS
331
76
102
}
 70
     0
280
     1
281
     0
  0
BLOCK_RECORD
  5
8A
330
1
100
AcDbSymbolTableRecord
100
AcDbBlockTableRecord
  2
block 3
340
0
102
{BLKREFS
331
8B
102
}
 70
     0
280
     1
281
     0
  0
BLOCK_RECORD
  5
9F
330
1
100
AcDbSymbolTableRecord
100
AcDbBlockTableRecord
  2
block 4
340
0
102
{BLKREFS
331
A0
102
}
 70
     0
280
     1
281
     0
  0
ENDTAB
  0
ENDSEC
  0
SECTION
  2
BLOCKS
  0
BLOCK
  5
20
330
1F
100
AcDbEntity
  8
0
100
AcDbBlockBegin
  2
*Model_Space
 70
     0
 10
0.0
 20
0.0
 30
0.0
  3
*Model_Space
  1

  0
ENDBLK
  5
21
330
1F
100
AcDbEntity
  8
0
100
AcDbBlockEnd
  0
BLOCK
  5
1C
330
1B
100
AcDbEntity
 67
     1
  8
0
100
AcDbBlockBegin
  2
*Paper_Space
 70
     0
 10
0.0
 20
0.0
 30
0.0
  3
*Paper_Space
  1

  0
ENDBLK
  5
1D
330
1B
100
AcDbEntity
 67
     1
  8
0
100
AcDbBlockEnd
  0
BLOCK
  5
24
330
23
100
AcDbEntity
  8
0
100
AcDbBlockBegin
  2
*Paper_Space0
 70
     0
 10
0.0
 20
0.0
 30
0.0
  3
*Paper_Space0
  1

  0
ENDBLK
  5
25
330
23
100
AcDbEntity
  8
0
100
AcDbBlockEnd
  0
BLOCK
  5
77
330
75
100
AcDbEntity
  8
0
100
AcDbBlockBegin
  2
block 2
 70
     0
 10
0.0
 20
0.0
 30
0.0
  3
block 2
  1

  0
SPLINE
  5
79
330
75
100
AcDbEntity
  8
_U+30EC_U+30A4_U+30E4_U+30FC 1
370
     0
100
AcDbSpline
210
0.0
220
0.0
230
1.0
 70
    11
 71
     3
 72
    62
 73
    58
 74
     0
 42
0.0000000001
 43
0.0000000001
 12
1.0
 22
0.0
 32
0.0
 13
1.0
 23
0.0
 33
0.0
 40
0.0
 40
0.0
 40
0.0
 40
0.0
 40
1.0
 40
1.0
 40
1.0
 40
2.0
 40
2.0
 40
2.0
 40
3.0
 40
3.0
 40
3.0
 40
4.0
 40
4.0
 40
4.0
 40
5.0
 40
5.0
 40
5.0
 40
6.0
 40
6.0
 40
6.0
 40
7.0
 40
7.0
 40
7.0
 40
8.0
 40
8.0
 40
8.0
 40
9.0
 40
9.0
 40
9.0
 40
10.0
 40
10.0
 40
10.0
 40
11.0
 40
11.0
 40
11.0
 40
12.0
 40
12.0
 40
12.0
 40
13.0
 40
13.0
 40
13.0
 40
14.0
 40
14.0
 40
14.0
 40
15.0
 40
15.0
 40
15.0
 40
16.0
 40
16.0
 40
16.0
 40
17.0
 40
17.0
 40
17.0
 40
18.0
 40
18.0
 40
18.0
 40
19.0
 40
19.0
 40
19.0
 40
19.0
 10
72.43261581305504
 20
-126.5230264983172
 30
0.0
 10
72.43261581305504
 20
-126.6184556432586
 30
0.0
 10
72.41142847582076
 20
-126.8361856779264
 30
0.0
 10
72.225221064843
 20
-126.961242644041
 30
0.0
 10
72.11308320679812
 20
-127.0353121969738
 30
0.0
 10
72.01369220204866
 20
-127.0394463115561
 30
0.0
 10
71.92911510788578
 20
-127.0435804261384
 30
0.0
 10
71.92911510788578
 20
-127.0435804261384
 30
0.0
 10
71.92911510788578
 20
-126.823438824631
 30
0.0
 10
71.92911510788578
 20
-126.823438824631
 30
0.0
 10
72.00318466081865
 20
-126.8213717673398
 30
0.0
 10
72.23796791813842
 20
-126.8110364808841
 30
0.0
 10
72.23796791813842
 20
-126.527505122448
 30
0.0
 10
72.23796791813842
 20
-126.3900458125865
 30
0.0
 10
72.16820473456212
 20
-126.23742808259
 30
0.0
 10
71.93962264911579
 20
-126.23742808259
 30
0.0
 10
71.82335067648862
 20
-126.23742808259
 30
0.0
 10
71.77460257537233
 20
-126.2756686424762
 30
0.0
 10
71.74290769690802
 20
-126.3073635209405
 30
0.0
 10
71.66883814397515
 20
-126.3814330738734
 30
0.0
 10
71.656263545454
 20
-126.4978773012748
 30
0.0
 10
71.656263545454
 20
-126.5526543194903
 30
0.0
 10
71.656263545454
 20
-126.5719468542077
 30
0.0
 10
71.65833060274514
 20
-126.6077758472543
 30
0.0
 10
71.66246471732744
 20
-126.6353366111363
 30
0.0
 10
71.66246471732744
 20
-126.6353366111363
 30
0.0
 10
71.4679890771851
 20
-126.6353366111363
 30
0.0
 10
71.4679890771851
 20
-126.6353366111363
 30
0.0
 10
71.47419024905854
 20
-126.59709605125
 30
0.0
 10
71.47642956112395
 20
-126.55506588633
 30
0.0
 10
71.47642956112395
 20
-126.548520204908
 30
0.0
 10
71.47642956112395
 20
-126.4830633906883
 30
0.0
 10
71.45524222388967
 20
-126.2842813811894
 30
0.0
 10
71.21821965450448
 20
-126.2842813811894
 30
0.0
 10
71.04062498223985
 20
-126.2842813811894
 30
0.0
 10
70.98550345447585
 20
-126.4151950096288
 30
0.0
 10
70.98550345447585
 20
-126.5254380651568
 30
0.0
 10
70.98550345447585
 20
-126.7896768888755
 30
0.0
 10
71.21821965450448
 20
-126.7982896275886
 30
0.0
 10
71.29022215014619
 20
-126.8024237421709
 30
0.0
 10
71.29022215014619
 20
-126.8024237421709
 30
0.0
 10
71.29022215014619
 20
-127.0056843758007
 30
0.0
 10
71.29022215014619
 20
-127.0056843758007
 30
0.0
 10
71.16533743880589
 20
-126.9970716370875
 30
0.0
 10
70.78878850226809
 20
-126.9695108732056
 30
0.0
 10
70.78878850226809
 20
-126.5126912118614
 30
0.0
 10
70.78878850226809
 20
-126.2884154957717
 30
0.0
 10
70.91574027089953
 20
-126.0472588118042
 30
0.0
 10
71.21184622785677
 20
-126.0472588118042
 30
0.0
 10
71.39805363883451
 20
-126.0472588118042
 30
0.0
 10
71.48056367570625
 20
-126.1423434471971
 30
0.0
 10
71.5418863753437
 20
-126.2419067067208
 30
0.0
 10
71.5694471392257
 20
-126.1805840070833
 30
0.0
 10
71.64989011880628
 20
-125.9986829654621
 30
0.0
 10
71.92704805059464
 20
-125.9986829654621
 30
0.0
 10
72.26552868202043
 20
-125.9986829654621
 30
0.0
 10
72.43261581305504
 20
-126.2460408213031
 30
0.0
 10
72.43261581305504
 20
-126.5230264983172
 30
0.0
  0
HATCH
  5
7A
330
75
100
AcDbEntity
  8
_U+30EC_U+30A4_U+30E4_U+30FC 1
 62
   179
420
  2234388
100
AcDbHatch
 10
0.0
 20
0.0
 30
0.0
210
0.0
220
0.0
230
1.0
  2
SOLID
 70
     1
 71
     0
 91
        1
 92
        1
 93
        1
 72
     4
 94
        3
 73
     0
 74
     1
 95
       62
 96
       58
 40
0.0
 40
0.0
 40
0.0
 40
0.0
 40
1.0
 40
1.0
 40
1.0
 40
2.0
 40
2.0
 40
2.0
 40
3.0
 40
3.0
 40
3.0
 40
4.0
 40
4.0
 40
4.0
 40
5.0
 40
5.0
 40
5.0
 40
6.0
 40
6.0
 40
6.0
 40
7.0
 40
7.0
 40
7.0
 40
8.0
 40
8.0
 40
8.0
 40
9.0
 40
9.0
 40
9.0
 40
10.0
 40
10.0
 40
10.0
 40
11.0
 40
11.0
 40
11.0
 40
12.0
 40
12.0
 40
12.0
 40
13.0
 40
13.0
 40
13.0
 40
14.0
 40
14.0
 40
14.0
 40
15.0
 40
15.0
 40
15.0
 40
16.0
 40
16.0
 40
16.0
 40
17.0
 40
17.0
 40
17.0
 40
18.0
 40
18.0
 40
18.0
 40
19.0
 40
19.0
 40
19.0
 40
19.0
 10
72.43261581305504
 20
-126.5230264983172
 10
72.43261581305504
 20
-126.6184556432586
 10
72.41142847582076
 20
-126.8361856779264
 10
72.225221064843
 20
-126.961242644041
 10
72.11308320679812
 20
-127.0353121969738
 10
72.01369220204866
 20
-127.0394463115561
 10
71.92911510788578
 20
-127.0435804261384
 10
71.92911510788578
 20
-127.0435804261384
 10
71.92911510788578
 20
-126.823438824631
 10
71.92911510788578
 20
-126.823438824631
 10
72.00318466081865
 20
-126.8213717673398
 10
72.23796791813842
 20
-126.8110364808841
 10
72.23796791813842
 20
-126.527505122448
 10
72.23796791813842
 20
-126.3900458125865
 10
72.16820473456212
 20
-126.23742808259
 10
71.93962264911579
 20
-126.23742808259
 10
71.82335067648862
 20
-126.23742808259
 10
71.77460257537233
 20
-126.2756686424762
 10
71.74290769690802
 20
-126.3073635209405
 10
71.66883814397515
 20
-126.3814330738734
 10
71.656263545454
 20
-126.4978773012748
 10
71.656263545454
 20
-126.5526543194903
 10
71.656263545454
 20
-126.5719468542077
 10
71.65833060274514
 20
-126.6077758472543
 10
71.66246471732744
 20
-126.6353366111363
 10
71.66246471732744
 20
-126.6353366111363
 10
71.4679890771851
 20
-126.6353366111363
 10
71.4679890771851
 20
-126.6353366111363
 10
71.47419024905854
 20
-126.59709605125
 10
71.47642956112395
 20
-126.55506588633
 10
71.47642956112395
 20
-126.548520204908
 10
71.47642956112395
 20
-126.4830633906883
 10
71.45524222388967
 20
-126.2842813811894
 10
71.21821965450448
 20
-126.2842813811894
 10
71.04062498223985
 20
-126.2842813811894
 10
70.98550345447585
 20
-126.4151950096288
 10
70.98550345447585
 20
-126.5254380651568
 10
70.98550345447585
 20
-126.7896768888755
 10
71.21821965450448
 20
-126.7982896275886
 10
71.29022215014619
 20
-126.8024237421709
 10
71.29022215014619
 20
-126.8024237421709
 10
71.29022215014619
 20
-127.0056843758007
 10
71.29022215014619
 20
-127.0056843758007
 10
71.16533743880589
 20
-126.9970716370875
 10
70.78878850226809
 20
-126.9695108732056
 10
70.78878850226809
 20
-126.5126912118614
 10
70.78878850226809
 20
-126.2884154957717
 10
70.91574027089953
 20
-126.0472588118042
 10
71.21184622785677
 20
-126.0472588118042
 10
71.39805363883451
 20
-126.0472588118042
 10
71.48056367570625
 20
-126.1423434471971
 10
71.5418863753437
 20
-126.2419067067208
 10
71.5694471392257
 20
-126.1805840070833
 10
71.64989011880628
 20
-125.9986829654621
 10
71.92704805059464
 20
-125.9986829654621
 10
72.26552868202043
 20
-125.9986829654621
 10
72.43261581305504
 20
-126.2460408213031
 10
72.43261581305504
 20
-126.5230264983172
 97
        0
 97
        0
 75
     2
 76
     1
 98
        0
  0
SPLINE
  5
7B
330
75
100
AcDbEntity
  8
_U+30EC_U+30A4_U+30E4_U+30FC 1
370
     0
100
AcDbSpline
210
0.0
220
0.0
230
1.0
 70
    11
 71
     3
 72
    29
 73
    25
 74
     0
 42
0.0000000001
 43
0.0000000001
 12
1.0
 22
0.0
 32
0.0
 13
1.0
 23
0.0
 33
0.0
 40
0.0
 40
0.0
 40
0.0
 40
0.0
 40
1.0
 40
1.0
 40
1.0
 40
2.0
 40
2.0
 40
2.0
 40
3.0
 40
3.0
 40
3.0
 40
4.0
 40
4.0
 40
4.0
 40
5.0
 40
5.0
 40
5.0
 40
6.0
 40
6.0
 40
6.0
 40
7.0
 40
7.0
 40
7.0
 40
8.0
 40
8.0
 40
8.0
 40
8.0
 10
72.20403372760872
 20
-124.9400051228449
 30
0.0
 10
72.41349553311191
 20
-125.0481811210817
 30
0.0
 10
72.43261581305504
 20
-125.2214694239898
 30
0.0
 10
72.43261581305504
 20
-125.3379136513912
 30
0.0
 10
72.43261581305504
 20
-125.4987996105524
 30
0.0
 10
72.38610702400418
 20
-125.6403930349962
 30
0.0
 10
72.20403372760872
 20
-125.7354776703891
 30
0.0
 10
72.00955808746636
 20
-125.8391750444951
 30
0.0
 10
71.77253551808117
 20
-125.8584675792125
 30
0.0
 10
71.60958250162886
 20
-125.8584675792125
 30
0.0
 10
71.46574976511968
 20
-125.8584675792125
 30
0.0
 10
71.21408553992218
 20
-125.8412421017862
 30
0.0
 10
71.015131275649
 20
-125.7354776703891
 30
0.0
 10
70.81204289679351
 20
-125.6276461817007
 30
0.0
 10
70.78878850226809
 20
-125.4667602225396
 30
0.0
 10
70.78878850226809
 20
-125.3379136513912
 30
0.0
 10
70.78878850226809
 20
-125.1790947495212
 30
0.0
 10
70.83323023402781
 20
-125.0354342677863
 30
0.0
 10
71.015131275649
 20
-124.9400051228449
 30
0.0
 10
71.20771211327447
 20
-124.8407863728697
 30
0.0
 10
71.43612194394653
 20
-124.81735972357
 30
0.0
 10
71.60958250162886
 20
-124.81735972357
 30
0.0
 10
71.78097600202004
 20
-124.81735972357
 30
0.0
 10
72.01162514475752
 20
-124.8387193155785
 30
0.0
 10
72.20403372760872
 20
-124.9400051228449
 30
0.0
  0
SPLINE
  5
7C
330
75
100
AcDbEntity
  8
_U+30EC_U+30A4_U+30E4_U+30FC 1
370
     0
100
AcDbSpline
210
0.0
220
0.0
230
1.0
 70
    11
 71
     3
 72
    17
 73
    13
 74
     0
 42
0.0000000001
 43
0.0000000001
 12
1.0
 22
0.0
 32
0.0
 13
1.0
 23
0.0
 33
0.0
 40
0.0
 40
0.0
 40
0.0
 40
0.0
 40
1.0
 40
1.0
 40
1.0
 40
2.0
 40
2.0
 40
2.0
 40
3.0
 40
3.0
 40
3.0
 40
4.0
 40
4.0
 40
4.0
 40
4.0
 10
70.98136933989355
 20
-125.3379136513912
 30
0.0
 10
70.98136933989355
 20
-125.5876830740718
 30
0.0
 10
71.26472844355536
 20
-125.6341918631227
 30
0.0
 10
71.60958250162886
 20
-125.6341918631227
 30
0.0
 10
71.92911510788578
 20
-125.6341918631227
 30
0.0
 10
72.23796791813842
 20
-125.5980183605276
 30
0.0
 10
72.23796791813842
 20
-125.3379136513912
 30
0.0
 10
72.23796791813842
 20
-125.0902112860018
 30
0.0
 10
71.95650361699352
 20
-125.0416354396597
 30
0.0
 10
71.60958250162886
 20
-125.0416354396597
 30
0.0
 10
71.29022215014619
 20
-125.0416354396597
 30
0.0
 10
70.98136933989355
 20
-125.079875999546
 30
0.0
 10
70.98136933989355
 20
-125.3379136513912
 30
0.0
  0
HATCH
  5
7D
330
75
100
AcDbEntity
  8
_U+30EC_U+30A4_U+30E4_U+30FC 1
 62
   179
420
  2234388
100
AcDbHatch
 10
0.0
 20
0.0
 30
0.0
210
0.0
220
0.0
230
1.0
  2
SOLID
 70
     1
 71
     0
 91
        2
 92
        1
 93
        1
 72
     4
 94
        3
 73
     0
 74
     1
 95
       29
 96
       25
 40
0.0
 40
0.0
 40
0.0
 40
0.0
 40
1.0
 40
1.0
 40
1.0
 40
2.0
 40
2.0
 40
2.0
 40
3.0
 40
3.0
 40
3.0
 40
4.0
 40
4.0
 40
4.0
 40
5.0
 40
5.0
 40
5.0
 40
6.0
 40
6.0
 40
6.0
 40
7.0
 40
7.0
 40
7.0
 40
8.0
 40
8.0
 40
8.0
 40
8.0
 10
72.20403372760872
 20
-124.9400051228449
 10
72.41349553311191
 20
-125.0481811210817
 10
72.43261581305504
 20
-125.2214694239898
 10
72.43261581305504
 20
-125.3379136513912
 10
72.43261581305504
 20
-125.4987996105524
 10
72.38610702400418
 20
-125.6403930349962
 10
72.20403372760872
 20
-125.7354776703891
 10
72.00955808746636
 20
-125.8391750444951
 10
71.77253551808117
 20
-125.8584675792125
 10
71.60958250162886
 20
-125.8584675792125
 10
71.46574976511968
 20
-125.8584675792125
 10
71.21408553992218
 20
-125.8412421017862
 10
71.015131275649
 20
-125.7354776703891
 10
70.81204289679351
 20
-125.6276461817007
 10
70.78878850226809
 20
-125.4667602225396
 10
70.78878850226809
 20
-125.3379136513912
 10
70.78878850226809
 20
-125.1790947495212
 10
70.83323023402781
 20
-125.0354342677863
 10
71.015131275649
 20
-124.9400051228449
 10
71.20771211327447
 20
-124.8407863728697
 10
71.43612194394653
 20
-124.81735972357
 10
71.60958250162886
 20
-124.81735972357
 10
71.78097600202004
 20
-124.81735972357
 10
72.01162514475752
 20
-124.8387193155785
 10
72.20403372760872
 20
-124.9400051228449
 97
        0
 97
        0
 92
        1
 93
        1
 72
     4
 94
        3
 73
     0
 74
     1
 95
       17
 96
       13
 40
0.0
 40
0.0
 40
0.0
 40
0.0
 40
1.0
 40
1.0
 40
1.0
 40
2.0
 40
2.0
 40
2.0
 40
3.0
 40
3.0
 40
3.0
 40
4.0
 40
4.0
 40
4.0
 40
4.0
 10
70.98136933989355
 20
-125.3379136513912
 10
70.98136933989355
 20
-125.5876830740718
 10
71.26472844355536
 20
-125.6341918631227
 10
71.60958250162886
 20
-125.6341918631227
 10
71.92911510788578
 20
-125.6341918631227
 10
72.23796791813842
 20
-125.5980183605276
 10
72.23796791813842
 20
-125.3379136513912
 10
72.23796791813842
 20
-125.0902112860018
 10
71.95650361699352
 20
-125.0416354396597
 10
71.60958250162886
 20
-125.0416354396597
 10
71.29022215014619
 20
-125.0416354396597
 10
70.98136933989355
 20
-125.079875999546
 10
70.98136933989355
 20
-125.3379136513912
 97
        0
 97
        0
 75
     2
 76
     1
 98
        0
  0
ENDBLK
  5
78
330
75
100
AcDbEntity
  8
0
100
AcDbBlockEnd
  0
BLOCK
  5
8C
330
8A
100
AcDbEntity
  8
0
100
AcDbBlockBegin
  2
block 3
 70
     0
 10
0.0
 20
0.0
 30
0.0
  3
block 3
  1

  0
SPLINE
  5
8E
330
8A
100
AcDbEntity
  8
_U+30EC_U+30A4_U+30E4_U+30FC 1
370
     0
100
AcDbSpline
210
0.0
220
0.0
230
1.0
 70
    11
 71
     3
 72
    62
 73
    58
 74
     0
 42
0.0000000001
 43
0.0000000001
 12
1.0
 22
0.0
 32
0.0
 13
1.0
 23
0.0
 33
0.0
 40
0.0
 40
0.0
 40
0.0
 40
0.0
 40
1.0
 40
1.0
 40
1.0
 40
2.0
 40
2.0
 40
2.0
 40
3.0
 40
3.0
 40
3.0
 40
4.0
 40
4.0
 40
4.0
 40
5.0
 40
5.0
 40
5.0
 40
6.0
 40
6.0
 40
6.0
 40
7.0
 40
7.0
 40
7.0
 40
8.0
 40
8.0
 40
8.0
 40
9.0
 40
9.0
 40
9.0
 40
10.0
 40
10.0
 40
10.0
 40
11.0
 40
11.0
 40
11.0
 40
12.0
 40
12.0
 40
12.0
 40
13.0
 40
13.0
 40
13.0
 40
14.0
 40
14.0
 40
14.0
 40
15.0
 40
15.0
 40
15.0
 40
16.0
 40
16.0
 40
16.0
 40
17.0
 40
17.0
 40
17.0
 40
18.0
 40
18.0
 40
18.0
 40
19.0
 40
19.0
 40
19.0
 40
19.0
 10
91.3055379003507
 20
-144.3047145906599
 30
0.0
 10
91.21010875540928
 20
-144.3047145906599
 30
0.0
 10
90.9923787207415
 20
-144.2840440177484
 30
0.0
 10
90.86732175462693
 20
-144.0980088615449
 30
0.0
 10
90.79359671124257
 20
-143.9856987487258
 30
0.0
 10
90.78911808711175
 20
-143.8864799987506
 30
0.0
 10
90.78498397252945
 20
-143.8017306498135
 30
0.0
 10
90.78498397252945
 20
-143.8017306498135
 30
0.0
 10
91.00512557403692
 20
-143.8017306498135
 30
0.0
 10
91.00512557403692
 20
-143.8017306498135
 30
0.0
 10
91.00719263132807
 20
-143.8754556931978
 30
0.0
 10
91.01752791778382
 20
-144.1104112052919
 30
0.0
 10
91.30105927621987
 20
-144.1104112052919
 30
0.0
 10
91.43834633130709
 20
-144.1104112052919
 30
0.0
 10
91.59130857085218
 20
-144.0408202764898
 30
0.0
 10
91.59130857085218
 20
-143.8120659362692
 30
0.0
 10
91.59130857085218
 20
-143.6956217088678
 30
0.0
 10
91.55272350141738
 20
-143.6473903720743
 30
0.0
 10
91.52102862295308
 20
-143.61569549361
 30
0.0
 10
91.44730357956874
 20
-143.5412814311286
 30
0.0
 10
91.33068709739302
 20
-143.5288790873817
 30
0.0
 10
91.27591007917755
 20
-143.5288790873817
 30
0.0
 10
91.25661754446016
 20
-143.5288790873817
 30
0.0
 10
91.22078855141356
 20
-143.5309461446728
 30
0.0
 10
91.19322778753155
 20
-143.5350802592551
 30
0.0
 10
91.19322778753155
 20
-143.5350802592551
 30
0.0
 10
91.19322778753155
 20
-143.34008785479
 30
0.0
 10
91.19322778753155
 20
-143.34008785479
 30
0.0
 10
91.23146834741783
 20
-143.3469780457605
 30
0.0
 10
91.27349851233788
 20
-143.3490451030516
 30
0.0
 10
91.28004419375985
 20
-143.3490451030516
 30
0.0
 10
91.3455010079796
 20
-143.3490451030516
 30
0.0
 10
91.54445527225278
 20
-143.3276855110431
 30
0.0
 10
91.54445527225278
 20
-143.0906629416579
 30
0.0
 10
91.54445527225278
 20
-142.912896014619
 30
0.0
 10
91.41354164381329
 20
-142.857774486855
 30
0.0
 10
91.30312633351103
 20
-142.857774486855
 30
0.0
 10
91.03888750979236
 20
-142.857774486855
 30
0.0
 10
91.03027477107923
 20
-143.0906629416579
 30
0.0
 10
91.02614065649693
 20
-143.1623209277511
 30
0.0
 10
91.02614065649693
 20
-143.1623209277511
 30
0.0
 10
90.8228800228672
 20
-143.1623209277511
 30
0.0
 10
90.8228800228672
 20
-143.1623209277511
 30
0.0
 10
90.83149276158032
 20
-143.0376084711851
 30
0.0
 10
90.85905352546233
 20
-142.6614040441958
 30
0.0
 10
91.31587318680646
 20
-142.6614040441958
 30
0.0
 10
91.54032115767048
 20
-142.6614040441958
 30
0.0
 10
91.78147784163797
 20
-142.788183558053
 30
0.0
 10
91.78147784163797
 20
-143.0844617697844
 30
0.0
 10
91.78147784163797
 20
-143.2704969259879
 30
0.0
 10
91.68639320624507
 20
-143.3531792176339
 30
0.0
 10
91.58648543717283
 20
-143.4145019172714
 30
0.0
 10
91.64780813681027
 20
-143.4420626811534
 30
0.0
 10
91.82970917843147
 20
-143.5219888964112
 30
0.0
 10
91.82970917843147
 20
-143.7996635925223
 30
0.0
 10
91.82970917843147
 20
-144.1379719691738
 30
0.0
 10
91.58235132259053
 20
-144.3047145906599
 30
0.0
 10
91.3055379003507
 20
-144.3047145906599
 30
0.0
  0
HATCH
  5
8F
330
8A
100
AcDbEntity
  8
_U+30EC_U+30A4_U+30E4_U+30FC 1
 62
   179
420
  2234388
100
AcDbHatch
 10
0.0
 20
0.0
 30
0.0
210
0.0
220
0.0
230
1.0
  2
SOLID
 70
     1
 71
     0
 91
        1
 92
        1
 93
        1
 72
     4
 94
        3
 73
     0
 74
     1
 95
       62
 96
       58
 40
0.0
 40
0.0
 40
0.0
 40
0.0
 40
1.0
 40
1.0
 40
1.0
 40
2.0
 40
2.0
 40
2.0
 40
3.0
 40
3.0
 40
3.0
 40
4.0
 40
4.0
 40
4.0
 40
5.0
 40
5.0
 40
5.0
 40
6.0
 40
6.0
 40
6.0
 40
7.0
 40
7.0
 40
7.0
 40
8.0
 40
8.0
 40
8.0
 40
9.0
 40
9.0
 40
9.0
 40
10.0
 40
10.0
 40
10.0
 40
11.0
 40
11.0
 40
11.0
 40
12.0
 40
12.0
 40
12.0
 40
13.0
 40
13.0
 40
13.0
 40
14.0
 40
14.0
 40
14.0
 40
15.0
 40
15.0
 40
15.0
 40
16.0
 40
16.0
 40
16.0
 40
17.0
 40
17.0
 40
17.0
 40
18.0
 40
18.0
 40
18.0
 40
19.0
 40
19.0
 40
19.0
 40
19.0
 10
91.3055379003507
 20
-144.3047145906599
 10
91.21010875540928
 20
-144.3047145906599
 10
90.9923787207415
 20
-144.2840440177484
 10
90.86732175462693
 20
-144.0980088615449
 10
90.79359671124257
 20
-143.9856987487258
 10
90.78911808711175
 20
-143.8864799987506
 10
90.78498397252945
 20
-143.8017306498135
 10
90.78498397252945
 20
-143.8017306498135
 10
91.00512557403692
 20
-143.8017306498135
 10
91.00512557403692
 20
-143.8017306498135
 10
91.00719263132807
 20
-143.8754556931978
 10
91.01752791778382
 20
-144.1104112052919
 10
91.30105927621987
 20
-144.1104112052919
 10
91.43834633130709
 20
-144.1104112052919
 10
91.59130857085218
 20
-144.0408202764898
 10
91.59130857085218
 20
-143.8120659362692
 10
91.59130857085218
 20
-143.6956217088678
 10
91.55272350141738
 20
-143.6473903720743
 10
91.52102862295308
 20
-143.61569549361
 10
91.44730357956874
 20
-143.5412814311286
 10
91.33068709739302
 20
-143.5288790873817
 10
91.27591007917755
 20
-143.5288790873817
 10
91.25661754446016
 20
-143.5288790873817
 10
91.22078855141356
 20
-143.5309461446728
 10
91.19322778753155
 20
-143.5350802592551
 10
91.19322778753155
 20
-143.5350802592551
 10
91.19322778753155
 20
-143.34008785479
 10
91.19322778753155
 20
-143.34008785479
 10
91.23146834741783
 20
-143.3469780457605
 10
91.27349851233788
 20
-143.3490451030516
 10
91.28004419375985
 20
-143.3490451030516
 10
91.3455010079796
 20
-143.3490451030516
 10
91.54445527225278
 20
-143.3276855110431
 10
91.54445527225278
 20
-143.0906629416579
 10
91.54445527225278
 20
-142.912896014619
 10
91.41354164381329
 20
-142.857774486855
 10
91.30312633351103
 20
-142.857774486855
 10
91.03888750979236
 20
-142.857774486855
 10
91.03027477107923
 20
-143.0906629416579
 10
91.02614065649693
 20
-143.1623209277511
 10
91.02614065649693
 20
-143.1623209277511
 10
90.8228800228672
 20
-143.1623209277511
 10
90.8228800228672
 20
-143.1623209277511
 10
90.83149276158032
 20
-143.0376084711851
 10
90.85905352546233
 20
-142.6614040441958
 10
91.31587318680646
 20
-142.6614040441958
 10
91.54032115767048
 20
-142.6614040441958
 10
91.78147784163797
 20
-142.788183558053
 10
91.78147784163797
 20
-143.0844617697844
 10
91.78147784163797
 20
-143.2704969259879
 10
91.68639320624507
 20
-143.3531792176339
 10
91.58648543717283
 20
-143.4145019172714
 10
91.64780813681027
 20
-143.4420626811534
 10
91.82970917843147
 20
-143.5219888964112
 10
91.82970917843147
 20
-143.7996635925223
 10
91.82970917843147
 20
-144.1379719691738
 10
91.58235132259053
 20
-144.3047145906599
 10
91.3055379003507
 20
-144.3047145906599
 97
        0
 97
        0
 75
     2
 76
     1
 98
        0
  0
SPLINE
  5
90
330
8A
100
AcDbEntity
  8
_U+30EC_U+30A4_U+30E4_U+30FC 1
370
     0
100
AcDbSpline
210
0.0
220
0.0
230
1.0
 70
    11
 71
     3
 72
    29
 73
    25
 74
     0
 42
0.0000000001
 43
0.0000000001
 12
1.0
 22
0.0
 32
0.0
 13
1.0
 23
0.0
 33
0.0
 40
0.0
 40
0.0
 40
0.0
 40
0.0
 40
1.0
 40
1.0
 40
1.0
 40
2.0
 40
2.0
 40
2.0
 40
3.0
 40
3.0
 40
3.0
 40
4.0
 40
4.0
 40
4.0
 40
5.0
 40
5.0
 40
5.0
 40
6.0
 40
6.0
 40
6.0
 40
7.0
 40
7.0
 40
7.0
 40
8.0
 40
8.0
 40
8.0
 40
8.0
 10
92.88873153059727
 20
-144.0766492695364
 30
0.0
 10
92.78055553236042
 20
-144.2861110750396
 30
0.0
 10
92.60692271990384
 20
-144.3047145906599
 30
0.0
 10
92.49047849250239
 20
-144.3047145906599
 30
0.0
 10
92.32993704288974
 20
-144.3047145906599
 30
0.0
 10
92.18799910889744
 20
-144.2585503111576
 30
0.0
 10
92.09291447350455
 20
-144.0766492695364
 30
0.0
 10
91.98956160894706
 20
-143.8816568650712
 30
0.0
 10
91.97026907422966
 20
-143.6446342956861
 30
0.0
 10
91.97026907422966
 20
-143.4820257887823
 30
0.0
 10
91.97026907422966
 20
-143.3380207974988
 30
0.0
 10
91.98749455165591
 20
-143.0865288270756
 30
0.0
 10
92.09291447350455
 20
-142.8874023080282
 30
0.0
 10
92.2010904717414
 20
-142.6848306934955
 30
0.0
 10
92.36163192135405
 20
-142.6614040441958
 30
0.0
 10
92.49047849250239
 20
-142.6614040441958
 30
0.0
 10
92.64964190392092
 20
-142.6614040441958
 30
0.0
 10
92.79295787610732
 20
-142.705501266407
 30
0.0
 10
92.88873153059727
 20
-142.8874023080282
 30
0.0
 10
92.98795028057246
 20
-143.0803276552022
 30
0.0
 10
93.01137692987216
 20
-143.3083929763257
 30
0.0
 10
93.01137692987216
 20
-143.4820257887823
 30
0.0
 10
93.01137692987216
 20
-143.6535915439477
 30
0.0
 10
92.9900173378636
 20
-143.8837239223624
 30
0.0
 10
92.88873153059727
 20
-144.0766492695364
 30
0.0
  0
SPLINE
  5
91
330
8A
100
AcDbEntity
  8
_U+30EC_U+30A4_U+30E4_U+30FC 1
370
     0
100
AcDbSpline
210
0.0
220
0.0
230
1.0
 70
    11
 71
     3
 72
    17
 73
    13
 74
     0
 42
0.0000000001
 43
0.0000000001
 12
1.0
 22
0.0
 32
0.0
 13
1.0
 23
0.0
 33
0.0
 40
0.0
 40
0.0
 40
0.0
 40
0.0
 40
1.0
 40
1.0
 40
1.0
 40
2.0
 40
2.0
 40
2.0
 40
3.0
 40
3.0
 40
3.0
 40
4.0
 40
4.0
 40
4.0
 40
4.0
 10
92.49047849250239
 20
-142.8536403722727
 30
0.0
 10
92.2410535793703
 20
-142.8536403722727
 30
0.0
 10
92.1942002807709
 20
-143.1375162402573
 30
0.0
 10
92.1942002807709
 20
-143.4820257887823
 30
0.0
 10
92.1942002807709
 20
-143.8017306498135
 30
0.0
 10
92.23071829291455
 20
-144.1104112052919
 30
0.0
 10
92.49047849250239
 20
-144.1104112052919
 30
0.0
 10
92.73852536744037
 20
-144.1104112052919
 30
0.0
 10
92.78675670423387
 20
-143.8292914136955
 30
0.0
 10
92.78675670423387
 20
-143.4820257887823
 30
0.0
 10
92.78675670423387
 20
-143.1623209277511
 30
0.0
 10
92.74886065389612
 20
-142.8536403722727
 30
0.0
 10
92.49047849250239
 20
-142.8536403722727
 30
0.0
  0
HATCH
  5
92
330
8A
100
AcDbEntity
  8
_U+30EC_U+30A4_U+30E4_U+30FC 1
 62
   179
420
  2234388
100
AcDbHatch
 10
0.0
 20
0.0
 30
0.0
210
0.0
220
0.0
230
1.0
  2
SOLID
 70
     1
 71
     0
 91
        2
 92
        1
 93
        1
 72
     4
 94
        3
 73
     0
 74
     1
 95
       29
 96
       25
 40
0.0
 40
0.0
 40
0.0
 40
0.0
 40
1.0
 40
1.0
 40
1.0
 40
2.0
 40
2.0
 40
2.0
 40
3.0
 40
3.0
 40
3.0
 40
4.0
 40
4.0
 40
4.0
 40
5.0
 40
5.0
 40
5.0
 40
6.0
 40
6.0
 40
6.0
 40
7.0
 40
7.0
 40
7.0
 40
8.0
 40
8.0
 40
8.0
 40
8.0
 10
92.88873153059727
 20
-144.0766492695364
 10
92.78055553236042
 20
-144.2861110750396
 10
92.60692271990384
 20
-144.3047145906599
 10
92.49047849250239
 20
-144.3047145906599
 10
92.32993704288974
 20
-144.3047145906599
 10
92.18799910889744
 20
-144.2585503111576
 10
92.09291447350455
 20
-144.0766492695364
 10
91.98956160894706
 20
-143.8816568650712
 10
91.97026907422966
 20
-143.6446342956861
 10
91.97026907422966
 20
-143.4820257887823
 10
91.97026907422966
 20
-143.3380207974988
 10
91.98749455165591
 20
-143.0865288270756
 10
92.09291447350455
 20
-142.8874023080282
 10
92.2010904717414
 20
-142.6848306934955
 10
92.36163192135405
 20
-142.6614040441958
 10
92.49047849250239
 20
-142.6614040441958
 10
92.64964190392092
 20
-142.6614040441958
 10
92.79295787610732
 20
-142.705501266407
 10
92.88873153059727
 20
-142.8874023080282
 10
92.98795028057246
 20
-143.0803276552022
 10
93.01137692987216
 20
-143.3083929763257
 10
93.01137692987216
 20
-143.4820257887823
 10
93.01137692987216
 20
-143.6535915439477
 10
92.9900173378636
 20
-143.8837239223624
 10
92.88873153059727
 20
-144.0766492695364
 97
        0
 97
        0
 92
        1
 93
        1
 72
     4
 94
        3
 73
     0
 74
     1
 95
       17
 96
       13
 40
0.0
 40
0.0
 40
0.0
 40
0.0
 40
1.0
 40
1.0
 40
1.0
 40
2.0
 40
2.0
 40
2.0
 40
3.0
 40
3.0
 40
3.0
 40
4.0
 40
4.0
 40
4.0
 40
4.0
 10
92.49047849250239
 20
-142.8536403722727
 10
92.2410535793703
 20
-142.8536403722727
 10
92.1942002807709
 20
-143.1375162402573
 10
92.1942002807709
 20
-143.4820257887823
 10
92.1942002807709
 20
-143.8017306498135
 10
92.23071829291455
 20
-144.1104112052919
 10
92.49047849250239
 20
-144.1104112052919
 10
92.73852536744037
 20
-144.1104112052919
 10
92.78675670423387
 20
-143.8292914136955
 10
92.78675670423387
 20
-143.4820257887823
 10
92.78675670423387
 20
-143.1623209277511
 10
92.74886065389612
 20
-142.8536403722727
 10
92.49047849250239
 20
-142.8536403722727
 97
        0
 97
        0
 75
     2
 76
     1
 98
        0
  0
ENDBLK
  5
8D
330
8A
100
AcDbEntity
  8
0
100
AcDbBlockEnd
  0
BLOCK
  5
A1
330
9F
100
AcDbEntity
  8
0
100
AcDbBlockBegin
  2
block 4
 70
     0
 10
0.0
 20
0.0
 30
0.0
  3
block 4
  1

  0
SPLINE
  5
A3
330
9F
100
AcDbEntity
  8
_U+30EC_U+30A4_U+30E4_U+30FC 1
370
     0
100
AcDbSpline
210
0.0
220
0.0
230
1.0
 70
    11
 71
     3
 72
    62
 73
    58
 74
     0
 42
0.0000000001
 43
0.0000000001
 12
1.0
 22
0.0
 32
0.0
 13
1.0
 23
0.0
 33
0.0
 40
0.0
 40
0.0
 40
0.0
 40
0.0
 40
1.0
 40
1.0
 40
1.0
 40
2.0
 40
2.0
 40
2.0
 40
3.0
 40
3.0
 40
3.0
 40
4.0
 40
4.0
 40
4.0
 40
5.0
 40
5.0
 40
5.0
 40
6.0
 40
6.0
 40
6.0
 40
7.0
 40
7.0
 40
7.0
 40
8.0
 40
8.0
 40
8.0
 40
9.0
 40
9.0
 40
9.0
 40
10.0
 40
10.0
 40
10.0
 40
11.0
 40
11.0
 40
11.0
 40
12.0
 40
12.0
 40
12.0
 40
13.0
 40
13.0
 40
13.0
 40
14.0
 40
14.0
 40
14.0
 40
15.0
 40
15.0
 40
15.0
 40
16.0
 40
16.0
 40
16.0
 40
17.0
 40
17.0
 40
17.0
 40
18.0
 40
18.0
 40
18.0
 40
19.0
 40
19.0
 40
19.0
 40
19.0
 10
110.7849690478246
 20
-139.3572129642926
 30
0.0
 10
110.7849690478246
 20
-139.4526421092341
 30
0.0
 10
110.7639539653646
 20
-139.6703721439019
 30
0.0
 10
110.5779188091611
 20
-139.7954291100164
 30
0.0
 10
110.4656086963419
 20
-139.8694986629493
 30
0.0
 10
110.3663899463667
 20
-139.8736327775316
 30
0.0
 10
110.2816405974296
 20
-139.8777668921139
 30
0.0
 10
110.2816405974296
 20
-139.8777668921139
 30
0.0
 10
110.2816405974296
 20
-139.6576252906064
 30
0.0
 10
110.2816405974296
 20
-139.6576252906064
 30
0.0
 10
110.3557101503625
 20
-139.6555582333153
 30
0.0
 10
110.590321152908
 20
-139.6452229468595
 30
0.0
 10
110.590321152908
 20
-139.3616915884235
 30
0.0
 10
110.590321152908
 20
-139.224232278562
 30
0.0
 10
110.5207302241059
 20
-139.0716145485654
 30
0.0
 10
110.2923203934339
 20
-139.0716145485654
 30
0.0
 10
110.1758761660324
 20
-139.0716145485654
 30
0.0
 10
110.1273003196904
 20
-139.1098551084517
 30
0.0
 10
110.0956054412261
 20
-139.141549986916
 30
0.0
 10
110.0215358882932
 20
-139.2156195398489
 30
0.0
 10
110.0087890349978
 20
-139.3320637672503
 30
0.0
 10
110.0087890349978
 20
-139.3868407854658
 30
0.0
 10
110.0087890349978
 20
-139.4061333201832
 30
0.0
 10
110.010856092289
 20
-139.4419623132298
 30
0.0
 10
110.0149902068713
 20
-139.4695230771118
 30
0.0
 10
110.0149902068713
 20
-139.4695230771118
 30
0.0
 10
109.8203423119546
 20
-139.4695230771118
 30
0.0
 10
109.8203423119546
 20
-139.4695230771118
 30
0.0
 10
109.8268879933766
 20
-139.4312825172255
 30
0.0
 10
109.8289550506678
 20
-139.3892523523055
 30
0.0
 10
109.8289550506678
 20
-139.3827066708835
 30
0.0
 10
109.8289550506678
 20
-139.3172498566638
 30
0.0
 10
109.8075954586592
 20
-139.1184678471648
 30
0.0
 10
109.5709173988226
 20
-139.1184678471648
 30
0.0
 10
109.3931504717837
 20
-139.1184678471648
 30
0.0
 10
109.3380289440197
 20
-139.2493814756043
 30
0.0
 10
109.3380289440197
 20
-139.3596245311323
 30
0.0
 10
109.3380289440197
 20
-139.623863354851
 30
0.0
 10
109.5709173988226
 20
-139.6324760935641
 30
0.0
 10
109.6425753849157
 20
-139.6366102081464
 30
0.0
 10
109.6425753849157
 20
-139.6366102081464
 30
0.0
 10
109.6425753849157
 20
-139.8398708417762
 30
0.0
 10
109.6425753849157
 20
-139.8398708417762
 30
0.0
 10
109.5178629283497
 20
-139.831258103063
 30
0.0
 10
109.1413139918119
 20
-139.803697339181
 30
0.0
 10
109.1413139918119
 20
-139.3468776778369
 30
0.0
 10
109.1413139918119
 20
-139.1226019617471
 30
0.0
 10
109.2684380152176
 20
-138.8814452777796
 30
0.0
 10
109.5643717174006
 20
-138.8814452777796
 30
0.0
 10
109.7507513831526
 20
-138.8814452777796
 30
0.0
 10
109.8330891652501
 20
-138.9765299131725
 30
0.0
 10
109.8944118648875
 20
-139.0760931726963
 30
0.0
 10
109.9219726287695
 20
-139.0147704730588
 30
0.0
 10
110.0022433535758
 20
-138.8328694314376
 30
0.0
 10
110.2795735401384
 20
-138.8328694314376
 30
0.0
 10
110.61788191679
 20
-138.8328694314376
 30
0.0
 10
110.7849690478246
 20
-139.0802272872785
 30
0.0
 10
110.7849690478246
 20
-139.3572129642926
 30
0.0
  0
HATCH
  5
A4
330
9F
100
AcDbEntity
  8
_U+30EC_U+30A4_U+30E4_U+30FC 1
 62
   179
420
  2234388
100
AcDbHatch
 10
0.0
 20
0.0
 30
0.0
210
0.0
220
0.0
230
1.0
  2
SOLID
 70
     1
 71
     0
 91
        1
 92
        1
 93
        1
 72
     4
 94
        3
 73
     0
 74
     1
 95
       62
 96
       58
 40
0.0
 40
0.0
 40
0.0
 40
0.0
 40
1.0
 40
1.0
 40
1.0
 40
2.0
 40
2.0
 40
2.0
 40
3.0
 40
3.0
 40
3.0
 40
4.0
 40
4.0
 40
4.0
 40
5.0
 40
5.0
 40
5.0
 40
6.0
 40
6.0
 40
6.0
 40
7.0
 40
7.0
 40
7.0
 40
8.0
 40
8.0
 40
8.0
 40
9.0
 40
9.0
 40
9.0
 40
10.0
 40
10.0
 40
10.0
 40
11.0
 40
11.0
 40
11.0
 40
12.0
 40
12.0
 40
12.0
 40
13.0
 40
13.0
 40
13.0
 40
14.0
 40
14.0
 40
14.0
 40
15.0
 40
15.0
 40
15.0
 40
16.0
 40
16.0
 40
16.0
 40
17.0
 40
17.0
 40
17.0
 40
18.0
 40
18.0
 40
18.0
 40
19.0
 40
19.0
 40
19.0
 40
19.0
 10
110.7849690478246
 20
-139.3572129642926
 10
110.7849690478246
 20
-139.4526421092341
 10
110.7639539653646
 20
-139.6703721439019
 10
110.5779188091611
 20
-139.7954291100164
 10
110.4656086963419
 20
-139.8694986629493
 10
110.3663899463667
 20
-139.8736327775316
 10
110.2816405974296
 20
-139.8777668921139
 10
110.2816405974296
 20
-139.8777668921139
 10
110.2816405974296
 20
-139.6576252906064
 10
110.2816405974296
 20
-139.6576252906064
 10
110.3557101503625
 20
-139.6555582333153
 10
110.590321152908
 20
-139.6452229468595
 10
110.590321152908
 20
-139.3616915884235
 10
110.590321152908
 20
-139.224232278562
 10
110.5207302241059
 20
-139.0716145485654
 10
110.2923203934339
 20
-139.0716145485654
 10
110.1758761660324
 20
-139.0716145485654
 10
110.1273003196904
 20
-139.1098551084517
 10
110.0956054412261
 20
-139.141549986916
 10
110.0215358882932
 20
-139.2156195398489
 10
110.0087890349978
 20
-139.3320637672503
 10
110.0087890349978
 20
-139.3868407854658
 10
110.0087890349978
 20
-139.4061333201832
 10
110.010856092289
 20
-139.4419623132298
 10
110.0149902068713
 20
-139.4695230771118
 10
110.0149902068713
 20
-139.4695230771118
 10
109.8203423119546
 20
-139.4695230771118
 10
109.8203423119546
 20
-139.4695230771118
 10
109.8268879933766
 20
-139.4312825172255
 10
109.8289550506678
 20
-139.3892523523055
 10
109.8289550506678
 20
-139.3827066708835
 10
109.8289550506678
 20
-139.3172498566638
 10
109.8075954586592
 20
-139.1184678471648
 10
109.5709173988226
 20
-139.1184678471648
 10
109.3931504717837
 20
-139.1184678471648
 10
109.3380289440197
 20
-139.2493814756043
 10
109.3380289440197
 20
-139.3596245311323
 10
109.3380289440197
 20
-139.623863354851
 10
109.5709173988226
 20
-139.6324760935641
 10
109.6425753849157
 20
-139.6366102081464
 10
109.6425753849157
 20
-139.6366102081464
 10
109.6425753849157
 20
-139.8398708417762
 10
109.6425753849157
 20
-139.8398708417762
 10
109.5178629283497
 20
-139.831258103063
 10
109.1413139918119
 20
-139.803697339181
 10
109.1413139918119
 20
-139.3468776778369
 10
109.1413139918119
 20
-139.1226019617471
 10
109.2684380152176
 20
-138.8814452777796
 10
109.5643717174006
 20
-138.8814452777796
 10
109.7507513831526
 20
-138.8814452777796
 10
109.8330891652501
 20
-138.9765299131725
 10
109.8944118648875
 20
-139.0760931726963
 10
109.9219726287695
 20
-139.0147704730588
 10
110.0022433535758
 20
-138.8328694314376
 10
110.2795735401384
 20
-138.8328694314376
 10
110.61788191679
 20
-138.8328694314376
 10
110.7849690478246
 20
-139.0802272872785
 10
110.7849690478246
 20
-139.3572129642926
 97
        0
 97
        0
 75
     2
 76
     1
 98
        0
  0
ENDBLK
  5
A2
330
9F
100
AcDbEntity
  8
0
100
AcDbBlockEnd
  0
ENDSEC
  0
SECTION
  2
ENTITIES
  0
POLYLINE
  5
41
330
1F
100
AcDbEntity
  8
_U+30EC_U+30A4_U+30E4_U+30FC 1
370
     0
100
AcDb2dPolyline
 66
     1
 10
0.0
 20
0.0
 30
0.0
  0
VERTEX
  5
42
330
41
100
AcDbEntity
  8
_U+30EC_U+30A4_U+30E4_U+30FC 1
370
     0
100
AcDbVertex
100
AcDb2dVertex
 10
79.97824998000546
 20
-110.8511033056207
 30
0.0
  0
VERTEX
  5
43
330
41
100
AcDbEntity
  8
_U+30EC_U+30A4_U+30E4_U+30FC 1
370
     0
100
AcDbVertex
100
AcDb2dVertex
 10
76.9782610916765
 20
-110.8511033056207
 30
0.0
  0
VERTEX
  5
44
330
41
100
AcDbEntity
  8
_U+30EC_U+30A4_U+30E4_U+30FC 1
370
     0
100
AcDbVertex
100
AcDb2dVertex
 10
76.9782610916765
 20
-140.8510080203426
 30
0.0
  0
VERTEX
  5
45
330
41
100
AcDbEntity
  8
_U+30EC_U+30A4_U+30E4_U+30FC 1
370
     0
100
AcDbVertex
100
AcDb2dVertex
 10
106.9784825485293
 20
-140.8510080203426
 30
0.0
  0
VERTEX
  5
46
330
41
100
AcDbEntity
  8
_U+30EC_U+30A4_U+30E4_U+30FC 1
370
     0
100
AcDbVertex
100
AcDb2dVertex
 10
106.9784825485293
 20
-137.8510210766482
 30
0.0
  0
VERTEX
  5
47
330
41
100
AcDbEntity
  8
_U+30EC_U+30A4_U+30E4_U+30FC 1
370
     0
100
AcDbVertex
100
AcDb2dVertex
 10
79.97824998000546
 20
-137.8510210766482
 30
0.0
  0
VERTEX
  5
48
330
41
100
AcDbEntity
  8
_U+30EC_U+30A4_U+30E4_U+30FC 1
370
     0
100
AcDbVertex
100
AcDb2dVertex
 10
79.97824998000546
 20
-110.8511033056207
 30
0.0
  0
SEQEND
  5
4A
330
41
100
AcDbEntity
  8
_U+30EC_U+30A4_U+30E4_U+30FC 1
370
     0
  0
HATCH
  5
49
330
1F
100
AcDbEntity
  8
_U+30EC_U+30A4_U+30E4_U+30FC 1
 62
   253
420
 11711154
100
AcDbHatch
 10
0.0
 20
0.0
 30
0.0
210
0.0
220
0.0
230
1.0
  2
SOLID
 70
     1
 71
     0
 91
        1
 92
        1
 93
        6
 72
     1
 10
79.97824998000546
 20
-110.8511033056207
 11
76.9782610916765
 21
-110.8511033056207
 72
     1
 10
76.9782610916765
 20
-110.8511033056207
 11
76.9782610916765
 21
-140.8510080203426
 72
     1
 10
76.9782610916765
 20
-140.8510080203426
 11
106.9784825485293
 21
-140.8510080203426
 72
     1
 10
106.9784825485293
 20
-140.8510080203426
 11
106.9784825485293
 21
-137.8510210766482
 72
     1
 10
106.9784825485293
 20
-137.8510210766482
 11
79.97824998000546
 21
-137.8510210766482
 72
     1
 10
79.97824998000546
 20
-137.8510210766482
 11
79.97824998000546
 21
-110.8511033056207
 97
        0
 75
     2
 76
     1
 98
        0
  0
POLYLINE
  5
4B
330
1F
100
AcDbEntity
  8
_U+30EC_U+30A4_U+30E4_U+30FC 1
 62
   179
420
  2234388
370
    25
100
AcDb2dPolyline
 66
     1
 10
0.0
 20
0.0
 30
0.0
  0
VERTEX
  5
4C
330
4B
100
AcDbEntity
  8
_U+30EC_U+30A4_U+30E4_U+30FC 1
 62
   179
420
  2234388
370
    25
100
AcDbVertex
100
AcDb2dVertex
 10
76.9782610916765
 20
-140.8510080203426
 30
0.0
  0
VERTEX
  5
4D
330
4B
100
AcDbEntity
  8
_U+30EC_U+30A4_U+30E4_U+30FC 1
 62
   179
420
  2234388
370
    25
100
AcDbVertex
100
AcDb2dVertex
 10
106.9784825485293
 20
-140.8510080203426
 30
0.0
  0
SEQEND
  5
4E
330
4B
100
AcDbEntity
  8
_U+30EC_U+30A4_U+30E4_U+30FC 1
 62
   179
420
  2234388
370
    25
  0
POLYLINE
  5
4F
330
1F
100
AcDbEntity
  8
_U+30EC_U+30A4_U+30E4_U+30FC 1
 62
   179
420
  2234388
370
    25
100
AcDb2dPolyline
 66
     1
 10
0.0
 20
0.0
 30
0.0
  0
VERTEX
  5
50
330
4F
100
AcDbEntity
  8
_U+30EC_U+30A4_U+30E4_U+30FC 1
 62
   179
420
  2234388
370
    25
100
AcDbVertex
100
AcDb2dVertex
 10
76.9782610916765
 20
-110.8511033056207
 30
0.0
  0
VERTEX
  5
51
330
4F
100
AcDbEntity
  8
_U+30EC_U+30A4_U+30E4_U+30FC 1
 62
   179
420
  2234388
370
    25
100
AcDbVertex
100
AcDb2dVertex
 10
76.9782610916765
 20
-140.8510080203426
 30
0.0
  0
SEQEND
  5
52
330
4F
100
AcDbEntity
  8
_U+30EC_U+30A4_U+30E4_U+30FC 1
 62
   179
420
  2234388
370
    25
  0
POLYLINE
  5
53
330
1F
100
AcDbEntity
  8
_U+30EC_U+30A4_U+30E4_U+30FC 1
 62
   179
420
  2234388
370
    25
100
AcDb2dPolyline
 66
     1
 10
0.0
 20
0.0
 30
0.0
  0
VERTEX
  5
54
330
53
100
AcDbEntity
  8
_U+30EC_U+30A4_U+30E4_U+30FC 1
 62
   179
420
  2234388
370
    25
100
AcDbVertex
100
AcDb2dVertex
 10
76.9782610916765
 20
-110.8511033056207
 30
0.0
  0
VERTEX
  5
55
330
53
100
AcDbEntity
  8
_U+30EC_U+30A4_U+30E4_U+30FC 1
 62
   179
420
  2234388
370
    25
100
AcDbVertex
100
AcDb2dVertex
 10
79.97824998000546
 20
-110.8511033056207
 30
0.0
  0
SEQEND
  5
56
330
53
100
AcDbEntity
  8
_U+30EC_U+30A4_U+30E4_U+30FC 1
 62
   179
420
  2234388
370
    25
  0
POLYLINE
  5
57
330
1F
100
AcDbEntity
  8
_U+30EC_U+30A4_U+30E4_U+30FC 1
 62
   179
420
  2234388
370
    25
100
AcDb2dPolyline
 66
     1
 10
0.0
 20
0.0
 30
0.0
  0
VERTEX
  5
58
330
57
100
AcDbEntity
  8
_U+30EC_U+30A4_U+30E4_U+30FC 1
 62
   179
420
  2234388
370
    25
100
AcDbVertex
100
AcDb2dVertex
 10
106.9784825485293
 20
-137.8510210766482
 30
0.0
  0
VERTEX
  5
59
330
57
100
AcDbEntity
  8
_U+30EC_U+30A4_U+30E4_U+30FC 1
 62
   179
420
  2234388
370
    25
100
AcDbVertex
100
AcDb2dVertex
 10
106.9784825485293
 20
-140.8510080203426
 30
0.0
  0
SEQEND
  5
5A
330
57
100
AcDbEntity
  8
_U+30EC_U+30A4_U+30E4_U+30FC 1
 62
   179
420
  2234388
370
    25
  0
POLYLINE
  5
5B
330
1F
100
AcDbEntity
  8
_U+30EC_U+30A4_U+30E4_U+30FC 1
 62
   179
420
  2234388
370
    25
100
AcDb2dPolyline
 66
     1
 10
0.0
 20
0.0
 30
0.0
  0
VERTEX
  5
5C
330
5B
100
AcDbEntity
  8
_U+30EC_U+30A4_U+30E4_U+30FC 1
 62
   179
420
  2234388
370
    25
100
AcDbVertex
100
AcDb2dVertex
 10
79.97824998000546
 20
-137.8510210766482
 30
0.0
  0
VERTEX
  5
5D
330
5B
100
AcDbEntity
  8
_U+30EC_U+30A4_U+30E4_U+30FC 1
 62
   179
420
  2234388
370
    25
100
AcDbVertex
100
AcDb2dVertex
 10
106.9784825485293
 20
-137.8510210766482
 30
0.0
  0
SEQEND
  5
5E
330
5B
100
AcDbEntity
  8
_U+30EC_U+30A4_U+30E4_U+30FC 1
 62
   179
420
  2234388
370
    25
  0
POLYLINE
  5
5F
330
1F
100
AcDbEntity
  8
_U+30EC_U+30A4_U+30E4_U+30FC 1
 62
   179
420
  2234388
370
    25
100
AcDb2dPolyline
 66
     1
 10
0.0
 20
0.0
 30
0.0
  0
VERTEX
  5
60
330
5F
100
AcDbEntity
  8
_U+30EC_U+30A4_U+30E4_U+30FC 1
 62
   179
420
  2234388
370
    25
100
AcDbVertex
100
AcDb2dVertex
 10
79.97824998000546
 20
-110.8511033056207
 30
0.0
  0
VERTEX
  5
61
330
5F
100
AcDbEntity
  8
_U+30EC_U+30A4_U+30E4_U+30FC 1
 62
   179
420
  2234388
370
    25
100
AcDbVertex
100
AcDb2dVertex
 10
79.97824998000546
 20
-137.8510210766482
 30
0.0
  0
SEQEND
  5
62
330
5F
100
AcDbEntity
  8
_U+30EC_U+30A4_U+30E4_U+30FC 1
 62
   179
420
  2234388
370
    25
  0
SPLINE
  5
63
330
1F
100
AcDbEntity
  8
_U+30EC_U+30A4_U+30E4_U+30FC 1
 62
   179
420
  2234388
370
     9
100
AcDbSpline
210
0.0
220
0.0
230
1.0
 70
    11
 71
     3
 72
    17
 73
    13
 74
     0
 42
0.0000000001
 43
0.0000000001
 12
1.0
 22
0.0
 32
0.0
 13
1.0
 23
0.0
 33
0.0
 40
0.0
 40
0.0
 40
0.0
 40
0.0
 40
1.0
 40
1.0
 40
1.0
 40
2.0
 40
2.0
 40
2.0
 40
3.0
 40
3.0
 40
3.0
 40
4.0
 40
4.0
 40
4.0
 40
4.0
 10
73.07770313563248
 20
-140.8510080203426
 30
0.0
 10
73.07770313563248
 20
-140.7958688536901
 30
0.0
 10
73.03293563677458
 20
-140.7511013537009
 30
0.0
 10
72.97779647151464
 20
-140.7511013537009
 30
0.0
 10
72.92269442621378
 20
-140.7511013537009
 30
0.0
 10
72.87789164844706
 20
-140.7958688536901
 30
0.0
 10
72.87789164844706
 20
-140.8510080203426
 30
0.0
 10
72.87789164844706
 20
-140.9064646869959
 30
0.0
 10
72.92269442621378
 20
-140.9509146869842
 30
0.0
 10
72.97779647151464
 20
-140.9509146869842
 30
0.0
 10
73.03293563677458
 20
-140.9509146869842
 30
0.0
 10
73.07770313563248
 20
-140.9064646869959
 30
0.0
 10
73.07770313563248
 20
-140.8510080203426
 30
0.0
  0
SPLINE
  5
64
330
1F
100
AcDbEntity
  8
_U+30EC_U+30A4_U+30E4_U+30FC 1
 62
   179
420
  2234388
370
     9
100
AcDbSpline
210
0.0
220
0.0
230
1.0
 70
    11
 71
     3
 72
    17
 73
    13
 74
     0
 42
0.0000000001
 43
0.0000000001
 12
1.0
 22
0.0
 32
0.0
 13
1.0
 23
0.0
 33
0.0
 40
0.0
 40
0.0
 40
0.0
 40
0.0
 40
1.0
 40
1.0
 40
1.0
 40
2.0
 40
2.0
 40
2.0
 40
3.0
 40
3.0
 40
3.0
 40
4.0
 40
4.0
 40
4.0
 40
4.0
 10
77.07816775579434
 20
-144.8511199637872
 30
0.0
 10
77.07816775579434
 20
-144.7959807971341
 30
0.0
 10
77.03336497915957
 20
-144.7512132971456
 30
0.0
 10
76.9782610916765
 20
-144.7512132971456
 30
0.0
 10
76.92245164865588
 20
-144.7512132971456
 30
0.0
 10
76.87764887202111
 20
-144.7959807971341
 30
0.0
 10
76.87764887202111
 20
-144.8511199637872
 30
0.0
 10
76.87764887202111
 20
-144.9062238526621
 30
0.0
 10
76.92245164865588
 20
-144.9510266304289
 30
0.0
 10
76.9782610916765
 20
-144.9510266304289
 30
0.0
 10
77.03336497915957
 20
-144.9510266304289
 30
0.0
 10
77.07816775579434
 20
-144.9062238526621
 30
0.0
 10
77.07816775579434
 20
-144.8511199637872
 30
0.0
  0
SPLINE
  5
65
330
1F
100
AcDbEntity
  8
_U+30EC_U+30A4_U+30E4_U+30FC 1
 62
   179
420
  2234388
370
     9
100
AcDbSpline
210
0.0
220
0.0
230
1.0
 70
    11
 71
     3
 72
    17
 73
    13
 74
     0
 42
0.0000000001
 43
0.0000000001
 12
1.0
 22
0.0
 32
0.0
 13
1.0
 23
0.0
 33
0.0
 40
0.0
 40
0.0
 40
0.0
 40
0.0
 40
1.0
 40
1.0
 40
1.0
 40
2.0
 40
2.0
 40
2.0
 40
3.0
 40
3.0
 40
3.0
 40
4.0
 40
4.0
 40
4.0
 40
4.0
 10
111.0781482772715
 20
-137.8510210766482
 30
0.0
 10
111.0781482772715
 20
-137.7958819099958
 30
0.0
 10
111.0333455006367
 20
-137.7511144100066
 30
0.0
 10
110.9782444167002
 20
-137.7511144100066
 30
0.0
 10
110.9231024478937
 20
-137.7511144100066
 30
0.0
 10
110.8783349490358
 20
-137.7958819099958
 30
0.0
 10
110.8783349490358
 20
-137.8510210766482
 30
0.0
 10
110.8783349490358
 20
-137.9061249655238
 30
0.0
 10
110.9231024478937
 20
-137.9509277432899
 30
0.0
 10
110.9782444167002
 20
-137.9509277432899
 30
0.0
 10
111.0333455006367
 20
-137.9509277432899
 30
0.0
 10
111.0781482772715
 20
-137.9061249655238
 30
0.0
 10
111.0781482772715
 20
-137.8510210766482
 30
0.0
  0
SPLINE
  5
66
330
1F
100
AcDbEntity
  8
_U+30EC_U+30A4_U+30E4_U+30FC 1
 62
   179
420
  2234388
370
     9
100
AcDbSpline
210
0.0
220
0.0
230
1.0
 70
    11
 71
     3
 72
    17
 73
    13
 74
     0
 42
0.0000000001
 43
0.0000000001
 12
1.0
 22
0.0
 32
0.0
 13
1.0
 23
0.0
 33
0.0
 40
0.0
 40
0.0
 40
0.0
 40
0.0
 40
1.0
 40
1.0
 40
1.0
 40
2.0
 40
2.0
 40
2.0
 40
3.0
 40
3.0
 40
3.0
 40
4.0
 40
4.0
 40
4.0
 40
4.0
 10
111.0781482772715
 20
-140.8510080203426
 30
0.0
 10
111.0781482772715
 20
-140.7958688536901
 30
0.0
 10
111.0333455006367
 20
-140.7511013537009
 30
0.0
 10
110.9782444167002
 20
-140.7511013537009
 30
0.0
 10
110.9231024478937
 20
-140.7511013537009
 30
0.0
 10
110.8783349490358
 20
-140.7958688536901
 30
0.0
 10
110.8783349490358
 20
-140.8510080203426
 30
0.0
 10
110.8783349490358
 20
-140.9064646869959
 30
0.0
 10
110.9231024478937
 20
-140.9509146869842
 30
0.0
 10
110.9782444167002
 20
-140.9509146869842
 30
0.0
 10
111.0333455006367
 20
-140.9509146869842
 30
0.0
 10
111.0781482772715
 20
-140.9064646869959
 30
0.0
 10
111.0781482772715
 20
-140.8510080203426
 30
0.0
  0
SPLINE
  5
67
330
1F
100
AcDbEntity
  8
_U+30EC_U+30A4_U+30E4_U+30FC 1
 62
   179
420
  2234388
370
     9
100
AcDbSpline
210
0.0
220
0.0
230
1.0
 70
    11
 71
     3
 72
    17
 73
    13
 74
     0
 42
0.0000000001
 43
0.0000000001
 12
1.0
 22
0.0
 32
0.0
 13
1.0
 23
0.0
 33
0.0
 40
0.0
 40
0.0
 40
0.0
 40
0.0
 40
1.0
 40
1.0
 40
1.0
 40
2.0
 40
2.0
 40
2.0
 40
3.0
 40
3.0
 40
3.0
 40
4.0
 40
4.0
 40
4.0
 40
4.0
 10
73.07770313563248
 20
-110.8511033056207
 30
0.0
 10
73.07770313563248
 20
-110.7959994167454
 30
0.0
 10
73.03293563677458
 20
-110.751196638979
 30
0.0
 10
72.97779647151464
 20
-110.751196638979
 30
0.0
 10
72.92269442621378
 20
-110.751196638979
 30
0.0
 10
72.87789164844706
 20
-110.7959994167454
 30
0.0
 10
72.87789164844706
 20
-110.8511033056207
 30
0.0
 10
72.87789164844706
 20
-110.9062424722734
 30
0.0
 10
72.92269442621378
 20
-110.9510099722623
 30
0.0
 10
72.97779647151464
 20
-110.9510099722623
 30
0.0
 10
73.03293563677458
 20
-110.9510099722623
 30
0.0
 10
73.07770313563248
 20
-110.9062424722734
 30
0.0
 10
73.07770313563248
 20
-110.8511033056207
 30
0.0
  0
SPLINE
  5
68
330
1F
100
AcDbEntity
  8
_U+30EC_U+30A4_U+30E4_U+30FC 1
 62
   179
420
  2234388
370
     9
100
AcDbSpline
210
0.0
220
0.0
230
1.0
 70
    11
 71
     3
 72
    17
 73
    13
 74
     0
 42
0.0000000001
 43
0.0000000001
 12
1.0
 22
0.0
 32
0.0
 13
1.0
 23
0.0
 33
0.0
 40
0.0
 40
0.0
 40
0.0
 40
0.0
 40
1.0
 40
1.0
 40
1.0
 40
2.0
 40
2.0
 40
2.0
 40
3.0
 40
3.0
 40
3.0
 40
4.0
 40
4.0
 40
4.0
 40
4.0
 10
107.0783892126472
 20
-144.8511199637872
 30
0.0
 10
107.0783892126472
 20
-144.7959807971341
 30
0.0
 10
107.0335864360124
 20
-144.7512132971456
 30
0.0
 10
106.9784825485293
 20
-144.7512132971456
 30
0.0
 10
106.9226731055087
 20
-144.7512132971456
 30
0.0
 10
106.8778703288739
 20
-144.7959807971341
 30
0.0
 10
106.8778703288739
 20
-144.8511199637872
 30
0.0
 10
106.8778703288739
 20
-144.9062238526621
 30
0.0
 10
106.9226731055087
 20
-144.9510266304289
 30
0.0
 10
106.9784825485293
 20
-144.9510266304289
 30
0.0
 10
107.0335864360124
 20
-144.9510266304289
 30
0.0
 10
107.0783892126472
 20
-144.9062238526621
 30
0.0
 10
107.0783892126472
 20
-144.8511199637872
 30
0.0
  0
POLYLINE
  5
69
330
1F
100
AcDbEntity
  8
_U+30EC_U+30A4_U+30E4_U+30FC 1
 62
   179
420
  2234388
370
     9
100
AcDb2dPolyline
 66
     1
 10
0.0
 20
0.0
 30
0.0
  0
VERTEX
  5
6A
330
69
100
AcDbEntity
  8
_U+30EC_U+30A4_U+30E4_U+30FC 1
 62
   179
420
  2234388
370
     9
100
AcDbVertex
100
AcDb2dVertex
 10
72.97779647151464
 20
-110.8511033056207
 30
0.0
  0
VERTEX
  5
6B
330
69
100
AcDbEntity
  8
_U+30EC_U+30A4_U+30E4_U+30FC 1
 62
   179
420
  2234388
370
     9
100
AcDbVertex
100
AcDb2dVertex
 10
72.97779647151464
 20
-140.8510080203426
 30
0.0
  0
SEQEND
  5
6C
330
69
100
AcDbEntity
  8
_U+30EC_U+30A4_U+30E4_U+30FC 1
 62
   179
420
  2234388
370
     9
  0
POLYLINE
  5
6D
330
1F
100
AcDbEntity
  8
_U+30EC_U+30A4_U+30E4_U+30FC 1
 62
   179
420
  2234388
370
     9
100
AcDb2dPolyline
 66
     1
 10
0.0
 20
0.0
 30
0.0
  0
VERTEX
  5
6E
330
6D
100
AcDbEntity
  8
_U+30EC_U+30A4_U+30E4_U+30FC 1
 62
   179
420
  2234388
370
     9
100
AcDbVertex
100
AcDb2dVertex
 10
74.43783782315477
 20
-110.8511033056207
 30
0.0
  0
VERTEX
  5
6F
330
6D
100
AcDbEntity
  8
_U+30EC_U+30A4_U+30E4_U+30FC 1
 62
   179
420
  2234388
370
     9
100
AcDbVertex
100
AcDb2dVertex
 10
71.97802427479873
 20
-110.8511033056207
 30
0.0
  0
SEQEND
  5
70
330
6D
100
AcDbEntity
  8
_U+30EC_U+30A4_U+30E4_U+30FC 1
 62
   179
420
  2234388
370
     9
  0
POLYLINE
  5
71
330
1F
100
AcDbEntity
  8
_U+30EC_U+30A4_U+30E4_U+30FC 1
 62
   179
420
  2234388
370
     9
100
AcDb2dPolyline
 66
     1
 10
0.0
 20
0.0
 30
0.0
  0
VERTEX
  5
72
330
71
100
AcDbEntity
  8
_U+30EC_U+30A4_U+30E4_U+30FC 1
 62
   179
420
  2234388
370
     9
100
AcDbVertex
100
AcDb2dVertex
 10
74.43783782315477
 20
-140.8510080203426
 30
0.0
  0
VERTEX
  5
73
330
71
100
AcDbEntity
  8
_U+30EC_U+30A4_U+30E4_U+30FC 1
 62
   179
420
  2234388
370
     9
100
AcDbVertex
100
AcDb2dVertex
 10
71.97802427479873
 20
-140.8510080203426
 30
0.0
  0
SEQEND
  5
74
330
71
100
AcDbEntity
  8
_U+30EC_U+30A4_U+30E4_U+30FC 1
 62
   179
420
  2234388
370
     9
  0
INSERT
  5
76
330
1F
100
AcDbEntity
  8
_U+30EC_U+30A4_U+30E4_U+30FC 1
100
AcDbBlockReference
  2
block 2
 10
0.0
 20
0.0
 30
0.0
  0
POLYLINE
  5
7E
330
1F
100
AcDbEntity
  8
_U+30EC_U+30A4_U+30E4_U+30FC 1
 62
   179
420
  2234388
370
     9
100
AcDb2dPolyline
 66
     1
 10
0.0
 20
0.0
 30
0.0
  0
VERTEX
  5
7F
330
7E
100
AcDbEntity
  8
_U+30EC_U+30A4_U+30E4_U+30FC 1
 62
   179
420
  2234388
370
     9
100
AcDbVertex
100
AcDb2dVertex
 10
76.9782610916765
 20
-144.8511199637872
 30
0.0
  0
VERTEX
  5
80
330
7E
100
AcDbEntity
  8
_U+30EC_U+30A4_U+30E4_U+30FC 1
 62
   179
420
  2234388
370
     9
100
AcDbVertex
100
AcDb2dVertex
 10
106.9784825485293
 20
-144.8511199637872
 30
0.0
  0
SEQEND
  5
81
330
7E
100
AcDbEntity
  8
_U+30EC_U+30A4_U+30E4_U+30FC 1
 62
   179
420
  2234388
370
     9
  0
POLYLINE
  5
82
330
1F
100
AcDbEntity
  8
_U+30EC_U+30A4_U+30E4_U+30FC 1
 62
   179
420
  2234388
370
     9
100
AcDb2dPolyline
 66
     1
 10
0.0
 20
0.0
 30
0.0
  0
VERTEX
  5
83
330
82
100
AcDbEntity
  8
_U+30EC_U+30A4_U+30E4_U+30FC 1
 62
   179
420
  2234388
370
     9
100
AcDbVertex
100
AcDb2dVertex
 10
76.9782610916765
 20
-143.3910785752635
 30
0.0
  0
VERTEX
  5
84
330
82
100
AcDbEntity
  8
_U+30EC_U+30A4_U+30E4_U+30FC 1
 62
   179
420
  2234388
370
     9
100
AcDbVertex
100
AcDb2dVertex
 10
76.9782610916765
 20
-145.8512096857594
 30
0.0
  0
SEQEND
  5
85
330
82
100
AcDbEntity
  8
_U+30EC_U+30A4_U+30E4_U+30FC 1
 62
   179
420
  2234388
370
     9
  0
POLYLINE
  5
86
330
1F
100
AcDbEntity
  8
_U+30EC_U+30A4_U+30E4_U+30FC 1
 62
   179
420
  2234388
370
     9
100
AcDb2dPolyline
 66
     1
 10
0.0
 20
0.0
 30
0.0
  0
VERTEX
  5
87
330
86
100
AcDbEntity
  8
_U+30EC_U+30A4_U+30E4_U+30FC 1
 62
   179
420
  2234388
370
     9
100
AcDbVertex
100
AcDb2dVertex
 10
106.9784825485293
 20
-143.3910785752635
 30
0.0
  0
VERTEX
  5
88
330
86
100
AcDbEntity
  8
_U+30EC_U+30A4_U+30E4_U+30FC 1
 62
   179
420
  2234388
370
     9
100
AcDbVertex
100
AcDb2dVertex
 10
106.9784825485293
 20
-145.8512096857594
 30
0.0
  0
SEQEND
  5
89
330
86
100
AcDbEntity
  8
_U+30EC_U+30A4_U+30E4_U+30FC 1
 62
   179
420
  2234388
370
     9
  0
INSERT
  5
8B
330
1F
100
AcDbEntity
  8
_U+30EC_U+30A4_U+30E4_U+30FC 1
100
AcDbBlockReference
  2
block 3
 10
0.0
 20
0.0
 30
0.0
  0
POLYLINE
  5
93
330
1F
100
AcDbEntity
  8
_U+30EC_U+30A4_U+30E4_U+30FC 1
 62
   179
420
  2234388
370
     9
100
AcDb2dPolyline
 66
     1
 10
0.0
 20
0.0
 30
0.0
  0
VERTEX
  5
94
330
93
100
AcDbEntity
  8
_U+30EC_U+30A4_U+30E4_U+30FC 1
 62
   179
420
  2234388
370
     9
100
AcDbVertex
100
AcDb2dVertex
 10
110.9782444167002
 20
-137.8510210766482
 30
0.0
  0
VERTEX
  5
95
330
93
100
AcDbEntity
  8
_U+30EC_U+30A4_U+30E4_U+30FC 1
 62
   179
420
  2234388
370
     9
100
AcDbVertex
100
AcDb2dVertex
 10
110.9782444167002
 20
-140.8510080203426
 30
0.0
  0
SEQEND
  5
96
330
93
100
AcDbEntity
  8
_U+30EC_U+30A4_U+30E4_U+30FC 1
 62
   179
420
  2234388
370
     9
  0
POLYLINE
  5
97
330
1F
100
AcDbEntity
  8
_U+30EC_U+30A4_U+30E4_U+30FC 1
 62
   179
420
  2234388
370
     9
100
AcDb2dPolyline
 66
     1
 10
0.0
 20
0.0
 30
0.0
  0
VERTEX
  5
98
330
97
100
AcDbEntity
  8
_U+30EC_U+30A4_U+30E4_U+30FC 1
 62
   179
420
  2234388
370
     9
100
AcDbVertex
100
AcDb2dVertex
 10
109.5182002615135
 20
-137.8510210766482
 30
0.0
  0
VERTEX
  5
99
330
97
100
AcDbEntity
  8
_U+30EC_U+30A4_U+30E4_U+30FC 1
 62
   179
420
  2234388
370
     9
100
AcDbVertex
100
AcDb2dVertex
 10
111.978016638672
 20
-137.8510210766482
 30
0.0
  0
SEQEND
  5
9A
330
97
100
AcDbEntity
  8
_U+30EC_U+30A4_U+30E4_U+30FC 1
 62
   179
420
  2234388
370
     9
  0
POLYLINE
  5
9B
330
1F
100
AcDbEntity
  8
_U+30EC_U+30A4_U+30E4_U+30FC 1
 62
   179
420
  2234388
370
     9
100
AcDb2dPolyline
 66
     1
 10
0.0
 20
0.0
 30
0.0
  0
VERTEX
  5
9C
330
9B
100
AcDbEntity
  8
_U+30EC_U+30A4_U+30E4_U+30FC 1
 62
   179
420
  2234388
370
     9
100
AcDbVertex
100
AcDb2dVertex
 10
109.5182002615135
 20
-140.8510080203426
 30
0.0
  0
VERTEX
  5
9D
330
9B
100
AcDbEntity
  8
_U+30EC_U+30A4_U+30E4_U+30FC 1
 62
   179
420
  2234388
370
     9
100
AcDbVertex
100
AcDb2dVertex
 10
111.978016638672
 20
-140.8510080203426
 30
0.0
  0
SEQEND
  5
9E
330
9B
100
AcDbEntity
  8
_U+30EC_U+30A4_U+30E4_U+30FC 1
 62
   179
420
  2234388
370
     9
  0
INSERT
  5
A0
330
1F
100
AcDbEntity
  8
_U+30EC_U+30A4_U+30E4_U+30FC 1
100
AcDbBlockReference
  2
block 4
 10
0.0
 20
0.0
 30
0.0
  0
ENDSEC
  0
SECTION
  2
OBJECTS
  0
DICTIONARY
  5
C
330
0
100
AcDbDictionary
281
     1
  3
ACAD_GROUP
350
D
  3
ACAD_LAYOUT
350
1A
  3
ACAD_MATERIAL
350
3B
  3
ACAD_MLEADERSTYLE
350
A6
  3
ACAD_MLINESTYLE
350
17
  3
ACAD_PLOTSETTINGS
350
19
  3
ACAD_PLOTSTYLENAME
350
E
  3
ACAD_TABLESTYLE
350
A5
  3
ACAD_VISUALSTYLE
350
2A
  0
SUN
  5
3F
330
29
100
AcDbSun
 90
        1
290
     0
 63
     7
421
 16777215
 40
1.0
291
     1
 91
  2455826
 92
 54000000
292
     0
 70
     2
 71
   256
280
     1
  0
DICTIONARY
  5
D
102
{ACAD_REACTORS
330
C
102
}
330
C
100
AcDbDictionary
281
     1
  0
DICTIONARY
  5
1A
102
{ACAD_REACTORS
330
C
102
}
330
C
100
AcDbDictionary
281
     1
  3
Layout1
350
1E
  3
Layout2
350
26
  3
Model
350
22
  0
DICTIONARY
  5
3B
102
{ACAD_REACTORS
330
C
102
}
330
C
100
AcDbDictionary
281
     1
  3
ByBlock
350
3D
  3
ByLayer
350
3C
  3
Global
350
3E
  0
DICTIONARY
  5
A6
102
{ACAD_REACTORS
330
C
102
}
330
C
100
AcDbDictionary
281
     1
  0
DICTIONARY
  5
17
102
{ACAD_REACTORS
330
C
102
}
330
C
100
AcDbDictionary
281
     1
  3
Standard
350
18
  0
DICTIONARY
  5
19
102
{ACAD_REACTORS
330
C
102
}
330
C
100
AcDbDictionary
281
     1
  0
ACDBDICTIONARYWDFLT
  5
E
102
{ACAD_REACTORS
330
C
102
}
330
C
100
AcDbDictionary
281
     1
  3
Normal
350
F
100
AcDbDictionaryWithDefault
340
F
  0
DICTIONARY
  5
A5
102
{ACAD_REACTORS
330
C
102
}
330
C
100
AcDbDictionary
281
     1
  0
DICTIONARY
  5
2A
102
{ACAD_REACTORS
330
C
102
}
330
C
100
AcDbDictionary
281
     1
  3
2dWireframe
350
2F
  3
3D Hidden
350
31
  3
3dWireframe
350
30
  3
Basic
350
32
  3
Brighten
350
36
  3
ColorChange
350
3A
  3
Conceptual
350
34
  3
Dim
350
35
  3
Facepattern
350
39
  3
Flat
350
2B
  3
FlatWithEdges
350
2C
  3
Gouraud
350
2D
  3
GouraudWithEdges
350
2E
  3
Linepattern
350
38
  3
Realistic
350
33
  3
Thicken
350
37
  0
LAYOUT
  5
1E
102
{ACAD_REACTORS
330
1A
102
}
330
1A
100
AcDbPlotSettings
  1

  2
none_device
  4

  6

 40
0.0
 41
0.0
 42
0.0
 43
0.0
 44
0.0
 45
0.0
 46
0.0
 47
0.0
 48
0.0
 49
0.0
140
0.0
141
0.0
142
1.0
143
1.0
 70
   688
 72
     0
 73
     0
 74
     5
  7

 75
    16
 76
     0
 77
     2
 78
   300
147
1.0
148
0.0
149
0.0
100
AcDbLayout
  1
Layout1
 70
     1
 71
     1
 10
0.0
 20
0.0
 11
12.0
 21
9.0
 12
0.0
 22
0.0
 32
0.0
 14
1.000000000000000E+20
 24
1.000000000000000E+20
 34
1.000000000000000E+20
 15
-1.000000000000000E+20
 25
-1.000000000000000E+20
 35
-1.000000000000000E+20
146
0.0
 13
0.0
 23
0.0
 33
0.0
 16
1.0
 26
0.0
 36
0.0
 17
0.0
 27
1.0
 37
0.0
 76
     0
330
1B
  0
LAYOUT
  5
26
102
{ACAD_REACTORS
330
1A
102
}
330
1A
100
AcDbPlotSettings
  1

  2
none_device
  4

  6

 40
0.0
 41
0.0
 42
0.0
 43
0.0
 44
0.0
 45
0.0
 46
0.0
 47
0.0
 48
0.0
 49
0.0
140
0.0
141
0.0
142
1.0
143
1.0
 70
   688
 72
     0
 73
     0
 74
     5
  7

 75
    16
 76
     0
 77
     2
 78
   300
147
1.0
148
0.0
149
0.0
100
AcDbLayout
  1
Layout2
 70
     1
 71
     2
 10
0.0
 20
0.0
 11
0.0
 21
0.0
 12
0.0
 22
0.0
 32
0.0
 14
0.0
 24
0.0
 34
0.0
 15
0.0
 25
0.0
 35
0.0
146
0.0
 13
0.0
 23
0.0
 33
0.0
 16
1.0
 26
0.0
 36
0.0
 17
0.0
 27
1.0
 37
0.0
 76
     0
330
23
  0
LAYOUT
  5
22
102
{ACAD_REACTORS
330
1A
102
}
330
1A
100
AcDbPlotSettings
  1

  2
none_device
  4

  6

 40
0.0
 41
0.0
 42
0.0
 43
0.0
 44
0.0
 45
0.0
 46
0.0
 47
0.0
 48
0.0
 49
0.0
140
0.0
141
0.0
142
1.0
143
1.0
 70
  1712
 72
     0
 73
     0
 74
     0
  7

 75
     0
 76
     0
 77
     2
 78
   300
147
1.0
148
0.0
149
0.0
100
AcDbLayout
  1
Model
 70
     1
 71
     0
 10
0.0
 20
0.0
 11
12.0
 21
9.0
 12
0.0
 22
0.0
 32
0.0
 14
1.000000000000000E+20
 24
1.000000000000000E+20
 34
1.000000000000000E+20
 15
-1.000000000000000E+20
 25
-1.000000000000000E+20
 35
-1.000000000000000E+20
146
0.0
 13
0.0
 23
0.0
 33
0.0
 16
1.0
 26
0.0
 36
0.0
 17
0.0
 27
1.0
 37
0.0
 76
     0
330
1F
331
29
  0
MATERIAL
  5
3D
102
{ACAD_REACTORS
330
3B
102
}
330
3B
100
AcDbMaterial
  1
ByBlock
 72
     1
 94
      127
  0
MATERIAL
  5
3C
102
{ACAD_REACTORS
330
3B
102
}
330
3B
100
AcDbMaterial
  1
ByLayer
 72
     1
 94
      127
  0
MATERIAL
  5
3E
102
{ACAD_REACTORS
330
3B
102
}
330
3B
100
AcDbMaterial
  1
Global
 72
     1
 94
      127
  0
MLINESTYLE
  5
18
102
{ACAD_REACTORS
330
17
102
}
330
17
100
AcDbMlineStyle
  2
Standard
 70
     0
  3

 62
   256
 51
90.0
 52
90.0
 71
     2
 49
0.5
 62
   256
  6
BYLAYER
 49
-0.5
 62
   256
  6
BYLAYER
  0
ACDBPLACEHOLDER
  5
F
102
{ACAD_REACTORS
330
E
102
}
330
E
  0
VISUALSTYLE
  5
2F
102
{ACAD_REACTORS
330
2A
102
}
330
2A
100
AcDbVisualStyle
  2
2dWireframe
 70
     4
177
     2
291
     0
 71
     0
176
     1
 72
     2
176
     1
 73
     0
176
     1
 90
        0
176
     1
 40
-0.6
176
     1
 41
-30.0
176
     1
 62
     5
 63
     7
421
 16777215
176
     1
 74
     1
176
     1
 91
        4
176
     1
 64
     7
176
     1
 65
   257
176
     1
 75
     1
176
     1
175
     1
176
     1
 42
1.0
176
     1
 92
        0
176
     1
 66
   257
176
     1
 43
1.0
176
     1
 76
     1
176
     1
 77
     6
176
     1
 78
     2
176
     1
 67
     7
176
     1
 79
     5
176
     1
170
     0
176
     1
171
     0
176
     1
290
     0
176
     1
 93
        1
176
     1
 44
0.0
176
     1
173
     0
176
     1
  0
VISUALSTYLE
  5
31
102
{ACAD_REACTORS
330
2A
102
}
330
2A
100
AcDbVisualStyle
  2
3D Hidden
 70
     6
177
     2
291
     0
 71
     1
176
     1
 72
     2
176
     1
 73
     2
176
     1
 90
        0
176
     1
 40
-0.6
176
     1
 41
-30.0
176
     1
 62
     5
 63
     7
421
 16777215
176
     1
 74
     2
176
     1
 91
        2
176
     1
 64
     7
176
     1
 65
   257
176
     1
 75
     2
176
     1
175
     1
176
     1
 42
40.0
176
     1
 92
        0
176
     1
 66
   257
176
     1
 43
1.0
176
     1
 76
     1
176
     1
 77
     6
176
     1
 78
     2
176
     1
 67
     7
176
     1
 79
     3
176
     1
170
     0
176
     1
171
     0
176
     1
290
     0
176
     1
 93
        1
176
     1
 44
0.0
176
     1
173
     0
176
     1
  0
VISUALSTYLE
  5
30
102
{ACAD_REACTORS
330
2A
102
}
330
2A
100
AcDbVisualStyle
  2
3dWireframe
 70
     5
177
     2
291
     0
 71
     0
176
     1
 72
     2
176
     1
 73
     0
176
     1
 90
        0
176
     1
 40
-0.6
176
     1
 41
-30.0
176
     1
 62
     5
 63
     7
421
 16777215
176
     1
 74
     1
176
     1
 91
        4
176
     1
 64
     7
176
     1
 65
   257
176
     1
 75
     1
176
     1
175
     1
176
     1
 42
1.0
176
     1
 92
        0
176
     1
 66
   257
176
     1
 43
1.0
176
     1
 76
     1
176
     1
 77
     6
176
     1
 78
     2
176
     1
 67
     7
176
     1
 79
     5
176
     1
170
     0
176
     1
171
     0
176
     1
290
     0
176
     1
 93
        1
176
     1
 44
0.0
176
     1
173
     0
176
     1
  0
VISUALSTYLE
  5
32
102
{ACAD_REACTORS
330
2A
102
}
330
2A
100
AcDbVisualStyle
  2
Basic
 70
     7
177
     2
291
     1
 71
     1
176
     1
 72
     0
176
     1
 73
     1
176
     1
 90
        0
176
     1
 40
-0.6
176
     1
 41
-30.0
176
     1
 62
     5
 63
     7
421
 16777215
176
     1
 74
     0
176
     1
 91
        4
176
     1
 64
     7
176
     1
 65
   257
176
     1
 75
     1
176
     1
175
     1
176
     1
 42
1.0
176
     1
 92
        8
176
     1
 66
     7
176
     1
 43
1.0
176
     1
 76
     1
176
     1
 77
     6
176
     1
 78
     2
176
     1
 67
     7
176
     1
 79
     5
176
     1
170
     0
176
     1
171
     0
176
     1
290
     0
176
     1
 93
        1
176
     1
 44
0.0
176
     1
173
     0
176
     1
  0
VISUALSTYLE
  5
36
102
{ACAD_REACTORS
330
2A
102
}
330
2A
100
AcDbVisualStyle
  2
Brighten
 70
    12
177
     2
291
     1
 71
     2
176
     1
 72
     2
176
     1
 73
     0
176
     1
 90
        0
176
     1
 40
-0.6
176
     1
 41
-30.0
176
     1
 62
     5
 63
     7
421
 16777215
176
     1
 74
     1
176
     1
 91
        4
176
     1
 64
     7
176
     1
 65
   257
176
     1
 75
     1
176
     1
175
     1
176
     1
 42
1.0
176
     1
 92
        8
176
     1
 66
     7
176
     1
 43
1.0
176
     1
 76
     1
176
     1
 77
     6
176
     1
 78
     2
176
     1
 67
     7
176
     1
 79
     5
176
     1
170
     0
176
     1
171
     0
176
     1
290
     0
176
     1
 93
        1
176
     1
 44
50.0
176
     1
173
     0
176
     1
  0
VISUALSTYLE
  5
3A
102
{ACAD_REACTORS
330
2A
102
}
330
2A
100
AcDbVisualStyle
  2
ColorChange
 70
    16
177
     2
291
     1
 71
     2
176
     1
 72
     2
176
     1
 73
     3
176
     1
 90
        0
176
     1
 40
-0.6
176
     1
 41
-30.0
176
     1
 62
     5
 63
     8
421
  8421504
176
     1
 74
     1
176
     1
 91
        4
176
     1
 64
     7
176
     1
 65
   257
176
     1
 75
     1
176
     1
175
     1
176
     1
 42
1.0
176
     1
 92
        8
176
     1
 66
     8
424
  8421504
176
     1
 43
1.0
176
     1
 76
     1
176
     1
 77
     6
176
     1
 78
     2
176
     1
 67
     7
176
     1
 79
     5
176
     1
170
     0
176
     1
171
     0
176
     1
290
     0
176
     1
 93
        1
176
     1
 44
0.0
176
     1
173
     0
176
     1
  0
VISUALSTYLE
  5
34
102
{ACAD_REACTORS
330
2A
102
}
330
2A
100
AcDbVisualStyle
  2
Conceptual
 70
     9
177
     2
291
     0
 71
     3
176
     1
 72
     2
176
     1
 73
     0
176
     1
 90
        0
176
     1
 40
-0.6
176
     1
 41
-30.0
176
     1
 62
     5
 63
     7
421
 16777215
176
     1
 74
     2
176
     1
 91
        2
176
     1
 64
     7
176
     1
 65
   257
176
     1
 75
     1
176
     1
175
     1
176
     1
 42
40.0
176
     1
 92
        8
176
     1
 66
     7
176
     1
 43
1.0
176
     1
 76
     1
176
     1
 77
     6
176
     1
 78
     2
176
     1
 67
     7
176
     1
 79
     3
176
     1
170
     0
176
     1
171
     0
176
     1
290
     0
176
     1
 93
        1
176
     1
 44
0.0
176
     1
173
     0
176
     1
  0
VISUALSTYLE
  5
35
102
{ACAD_REACTORS
330
2A
102
}
330
2A
100
AcDbVisualStyle
  2
Dim
 70
    11
177
     2
291
     1
 71
     2
176
     1
 72
     2
176
     1
 73
     0
176
     1
 90
        0
176
     1
 40
-0.6
176
     1
 41
-30.0
176
     1
 62
     5
 63
     7
421
 16777215
176
     1
 74
     1
176
     1
 91
        4
176
     1
 64
     7
176
     1
 65
   257
176
     1
 75
     1
176
     1
175
     1
176
     1
 42
1.0
176
     1
 92
        8
176
     1
 66
     7
176
     1
 43
1.0
176
     1
 76
     1
176
     1
 77
     6
176
     1
 78
     2
176
     1
 67
     7
176
     1
 79
     5
176
     1
170
     0
176
     1
171
     0
176
     1
290
     0
176
     1
 93
        1
176
     1
 44
-50.0
176
     1
173
     0
176
     1
  0
VISUALSTYLE
  5
39
102
{ACAD_REACTORS
330
2A
102
}
330
2A
100
AcDbVisualStyle
  2
Facepattern
 70
    15
177
     2
291
     1
 71
     2
176
     1
 72
     2
176
     1
 73
     0
176
     1
 90
        0
176
     1
 40
-0.6
176
     1
 41
-30.0
176
     1
 62
     5
 63
     7
421
 16777215
176
     1
 74
     1
176
     1
 91
        4
176
     1
 64
     7
176
     1
 65
   257
176
     1
 75
     1
176
     1
175
     1
176
     1
 42
1.0
176
     1
 92
        8
176
     1
 66
     7
176
     1
 43
1.0
176
     1
 76
     1
176
     1
 77
     6
176
     1
 78
     2
176
     1
 67
     7
176
     1
 79
     5
176
     1
170
     0
176
     1
171
     0
176
     1
290
     0
176
     1
 93
        1
176
     1
 44
0.0
176
     1
173
     0
176
     1
  0
VISUALSTYLE
  5
2B
102
{ACAD_REACTORS
330
2A
102
}
330
2A
100
AcDbVisualStyle
  2
Flat
 70
     0
177
     2
291
     1
 71
     2
176
     1
 72
     1
176
     1
 73
     1
176
     1
 90
        2
176
     1
 40
-0.6
176
     1
 41
30.0
176
     1
 62
     5
 63
     7
421
 16777215
176
     1
 74
     0
176
     1
 91
        4
176
     1
 64
     7
176
     1
 65
   257
176
     1
 75
     1
176
     1
175
     1
176
     1
 42
1.0
176
     1
 92
        8
176
     1
 66
     7
176
     1
 43
1.0
176
     1
 76
     1
176
     1
 77
     6
176
     1
 78
     2
176
     1
 67
     7
176
     1
 79
     5
176
     1
170
     0
176
     1
171
     0
176
     1
290
     0
176
     1
 93
       13
176
     1
 44
0.0
176
     1
173
     0
176
     1
  0
VISUALSTYLE
  5
2C
102
{ACAD_REACTORS
330
2A
102
}
330
2A
100
AcDbVisualStyle
  2
FlatWithEdges
 70
     1
177
     2
291
     1
 71
     2
176
     1
 72
     1
176
     1
 73
     1
176
     1
 90
        2
176
     1
 40
-0.6
176
     1
 41
30.0
176
     1
 62
     5
 63
     7
421
 16777215
176
     1
 74
     1
176
     1
 91
        4
176
     1
 64
     7
176
     1
 65
   257
176
     1
 75
     1
176
     1
175
     1
176
     1
 42
1.0
176
     1
 92
        0
176
     1
 66
   257
176
     1
 43
1.0
176
     1
 76
     1
176
     1
 77
     6
176
     1
 78
     2
176
     1
 67
     7
176
     1
 79
     5
176
     1
170
     0
176
     1
171
     0
176
     1
290
     0
176
     1
 93
       13
176
     1
 44
0.0
176
     1
173
     0
176
     1
  0
VISUALSTYLE
  5
2D
102
{ACAD_REACTORS
330
2A
102
}
330
2A
100
AcDbVisualStyle
  2
Gouraud
 70
     2
177
     2
291
     1
 71
     2
176
     1
 72
     2
176
     1
 73
     1
176
     1
 90
        2
176
     1
 40
-0.6
176
     1
 41
30.0
176
     1
 62
     5
 63
     7
421
 16777215
176
     1
 74
     0
176
     1
 91
        4
176
     1
 64
     7
176
     1
 65
   257
176
     1
 75
     1
176
     1
175
     1
176
     1
 42
1.0
176
     1
 92
        0
176
     1
 66
     7
176
     1
 43
1.0
176
     1
 76
     1
176
     1
 77
     6
176
     1
 78
     2
176
     1
 67
     7
176
     1
 79
     5
176
     1
170
     0
176
     1
171
     0
176
     1
290
     0
176
     1
 93
       13
176
     1
 44
0.0
176
     1
173
     0
176
     1
  0
VISUALSTYLE
  5
2E
102
{ACAD_REACTORS
330
2A
102
}
330
2A
100
AcDbVisualStyle
  2
GouraudWithEdges
 70
     3
177
     2
291
     1
 71
     2
176
     1
 72
     2
176
     1
 73
     1
176
     1
 90
        2
176
     1
 40
-0.6
176
     1
 41
30.0
176
     1
 62
     5
 63
     7
421
 16777215
176
     1
 74
     1
176
     1
 91
        4
176
     1
 64
     7
176
     1
 65
   257
176
     1
 75
     1
176
     1
175
     1
176
     1
 42
1.0
176
     1
 92
        0
176
     1
 66
   257
176
     1
 43
1.0
176
     1
 76
     1
176
     1
 77
     6
176
     1
 78
     2
176
     1
 67
     7
176
     1
 79
     5
176
     1
170
     0
176
     1
171
     0
176
     1
290
     0
176
     1
 93
       13
176
     1
 44
0.0
176
     1
173
     0
176
     1
  0
VISUALSTYLE
  5
38
102
{ACAD_REACTORS
330
2A
102
}
330
2A
100
AcDbVisualStyle
  2
Linepattern
 70
    14
177
     2
291
     1
 71
     2
176
     1
 72
     2
176
     1
 73
     0
176
     1
 90
        0
176
     1
 40
-0.6
176
     1
 41
-30.0
176
     1
 62
     5
 63
     7
421
 16777215
176
     1
 74
     1
176
     1
 91
        4
176
     1
 64
     7
176
     1
 65
   257
176
     1
 75
     7
176
     1
175
     7
176
     1
 42
1.0
176
     1
 92
        8
176
     1
 66
     7
176
     1
 43
1.0
176
     1
 76
     1
176
     1
 77
     6
176
     1
 78
     2
176
     1
 67
     7
176
     1
 79
     5
176
     1
170
     0
176
     1
171
     0
176
     1
290
     0
176
     1
 93
        1
176
     1
 44
0.0
176
     1
173
     0
176
     1
  0
VISUALSTYLE
  5
33
102
{ACAD_REACTORS
330
2A
102
}
330
2A
100
AcDbVisualStyle
  2
Realistic
 70
     8
177
     2
291
     0
 71
     2
176
     1
 72
     2
176
     1
 73
     0
176
     1
 90
        0
176
     1
 40
-0.6
176
     1
 41
-30.0
176
     1
 62
     5
 63
     7
421
 16777215
176
     1
 74
     1
176
     1
 91
        0
176
     1
 64
     7
176
     1
 65
   257
176
     1
 75
     1
176
     1
175
     1
176
     1
 42
1.0
176
     1
 92
        8
176
     1
 66
     8
424
  7895160
176
     1
 43
1.0
176
     1
 76
     1
176
     1
 77
     6
176
     1
 78
     2
176
     1
 67
     7
176
     1
 79
     5
176
     1
170
     0
176
     1
171
     0
176
     1
290
     0
176
     1
 93
       13
176
     1
 44
0.0
176
     1
173
     0
176
     1
  0
VISUALSTYLE
  5
37
102
{ACAD_REACTORS
330
2A
102
}
330
2A
100
AcDbVisualStyle
  2
Thicken
 70
    13
177
     2
291
     1
 71
     2
176
     1
 72
     2
176
     1
 73
     0
176
     1
 90
        0
176
     1
 40
-0.6
176
     1
 41
-30.0
176
     1
 62
     5
 63
     7
421
 16777215
176
     1
 74
     1
176
     1
 91
        4
176
     1
 64
     7
176
     1
 65
   257
176
     1
 75
     1
176
     1
175
     1
176
     1
 42
1.0
176
     1
 92
       12
176
     1
 66
     7
176
     1
 43
1.0
176
     1
 76
     1
176
     1
 77
     6
176
     1
 78
     2
176
     1
 67
     7
176
     1
 79
     5
176
     1
170
     0
176
     1
171
     0
176
     1
290
     0
176
     1
 93
        1
176
     1
 44
0.0
176
     1
173
     0
176
     1
  0
ENDSEC
  0
EOF
