  0
SECTION
  2
HEADER
  9
$ACADVER
  1
AC1024
  9
$ACADMAINTVER
 70
     6
  9
$DWGCODEPAGE
  3
UNDEFINED
  9
$INSBASE
 10
0.0
 20
0.0
 30
0.0
  9
$EXTMIN
 10
1.000000000000000E+20
 20
1.000000000000000E+20
 30
1.000000000000000E+20
  9
$EXTMAX
 10
-1.000000000000000E+20
 20
-1.000000000000000E+20
 30
-1.000000000000000E+20
  9
$LIMMIN
 10
0.0
 20
0.0
  9
$LIMMAX
 10
12.0
 20
9.0
  9
$ORTHOMODE
 70
     0
  9
$REGENMODE
 70
     1
  9
$FILLMODE
 70
     1
  9
$QTEXTMODE
 70
     0
  9
$MIRRTEXT
 70
     1
  9
$LTSCALE
 40
1.0
  9
$ATTMODE
 70
     1
  9
$TEXTSIZE
 40
0.2
  9
$TRACEWID
 40
0.05
  9
$TEXTSTYLE
  7
Standard
  9
$CLAYER
  8
0
  9
$CELTYPE
  6
ByLayer
  9
$CECOLOR
 62
   256
  9
$CELTSCALE
 40
1.0
  9
$DISPSILH
 70
     0
  9
$DIMSCALE
 40
1.0
  9
$DIMASZ
 40
0.18
  9
$DIMEXO
 40
0.0625
  9
$DIMDLI
 40
0.38
  9
$DIMRND
 40
0.0
  9
$DIMDLE
 40
0.0
  9
$DIMEXE
 40
0.18
  9
$DIMTP
 40
0.0
  9
$DIMTM
 40
0.0
  9
$DIMTXT
 40
0.18
  9
$DIMCEN
 40
0.09
  9
$DIMTSZ
 40
0.0
  9
$DIMTOL
 70
     0
  9
$DIMLIM
 70
     0
  9
$DIMTIH
 70
     1
  9
$DIMTOH
 70
     1
  9
$DIMSE1
 70
     0
  9
$DIMSE2
 70
     0
  9
$DIMTAD
 70
     0
  9
$DIMZIN
 70
     0
  9
$DIMBLK
  1

  9
$DIMASO
 70
     1
  9
$DIMSHO
 70
     1
  9
$DIMPOST
  1

  9
$DIMAPOST
  1

  9
$DIMALT
 70
     0
  9
$DIMALTD
 70
     2
  9
$DIMALTF
 40
25.4
  9
$DIMLFAC
 40
1.0
  9
$DIMTOFL
 70
     0
  9
$DIMTVP
 40
0.0
  9
$DIMTIX
 70
     0
  9
$DIMSOXD
 70
     0
  9
$DIMSAH
 70
     0
  9
$DIMBLK1
  1

  9
$DIMBLK2
  1

  9
$DIMSTYLE
  2
Standard
  9
$DIMCLRD
 70
     0
  9
$DIMCLRE
 70
     0
  9
$DIMCLRT
 70
     0
  9
$DIMTFAC
 40
1.0
  9
$DIMGAP
 40
0.09
  9
$DIMJUST
 70
     0
  9
$DIMSD1
 70
     0
  9
$DIMSD2
 70
     0
  9
$DIMTOLJ
 70
     1
  9
$DIMTZIN
 70
     0
  9
$DIMALTZ
 70
     0
  9
$DIMALTTZ
 70
     0
  9
$DIMUPT
 70
     0
  9
$DIMDEC
 70
     4
  9
$DIMTDEC
 70
     4
  9
$DIMALTU
 70
     2
  9
$DIMALTTD
 70
     2
  9
$DIMTXSTY
  7
Standard
  9
$DIMAUNIT
 70
     0
  9
$DIMADEC
 70
     0
  9
$DIMALTRND
 40
0.0
  9
$DIMAZIN
 70
     0
  9
$DIMDSEP
 70
    46
  9
$DIMATFIT
 70
     3
  9
$DIMFRAC
 70
     0
  9
$DIMLDRBLK
  1

  9
$DIMLUNIT
 70
     2
  9
$DIMLWD
 70
    -2
  9
$DIMLWE
 70
    -2
  9
$DIMTMOVE
 70
     0
  9
$DIMFXL
 40
1.0
  9
$DIMFXLON
 70
     0
  9
$DIMJOGANG
 40
0.7853981633974483
  9
$DIMTFILL
 70
     0
  9
$DIMTFILLCLR
 70
     0
  9
$DIMARCSYM
 70
     0
  9
$DIMLTYPE
  6

  9
$DIMLTEX1
  6

  9
$DIMLTEX2
  6

  9
$DIMTXTDIRECTION
 70
     0
  9
$LUNITS
 70
     2
  9
$LUPREC
 70
     4
  9
$SKETCHINC
 40
0.1
  9
$FILLETRAD
 40
0.5
  9
$AUNITS
 70
     0
  9
$AUPREC
 70
     0
  9
$MENU
  1
.
  9
$ELEVATION
 40
0.0
  9
$PELEVATION
 40
0.0
  9
$THICKNESS
 40
0.0
  9
$LIMCHECK
 70
     0
  9
$CHAMFERA
 40
0.5
  9
$CHAMFERB
 40
0.5
  9
$CHAMFERC
 40
1.0
  9
$CHAMFERD
 40
0.0
  9
$SKPOLY
 70
     0
  9
$TDCREATE
 40
2457917.620578704
  9
$TDUCREATE
 40
2457917.245578704
  9
$TDUPDATE
 40
2457917.620578704
  9
$TDUUPDATE
 40
2457917.245578704
  9
$TDINDWG
 40
0.0000000116
  9
$TDUSRTIMER
 40
0.0000000116
  9
$USRTIMER
 70
     1
  9
$ANGBASE
 50
0.0
  9
$ANGDIR
 70
     0
  9
$PDMODE
 70
     0
  9
$PDSIZE
 40
0.0
  9
$PLINEWID
 40
0.0
  9
$SPLFRAME
 70
     0
  9
$SPLINETYPE
 70
     6
  9
$SPLINESEGS
 70
     8
  9
$HANDSEED
  5
A7
  9
$SURFTAB1
 70
     6
  9
$SURFTAB2
 70
     6
  9
$SURFTYPE
 70
     6
  9
$SURFU
 70
     6
  9
$SURFV
 70
     6
  9
$UCSBASE
  2

  9
$UCSNAME
  2

  9
$UCSORG
 10
0.0
 20
0.0
 30
0.0
  9
$UCSXDIR
 10
1.0
 20
0.0
 30
0.0
  9
$UCSYDIR
 10
0.0
 20
1.0
 30
0.0
  9
$UCSORTHOREF
  2

  9
$UCSORTHOVIEW
 70
     0
  9
$UCSORGTOP
 10
0.0
 20
0.0
 30
0.0
  9
$UCSORGBOTTOM
 10
0.0
 20
0.0
 30
0.0
  9
$UCSORGLEFT
 10
0.0
 20
0.0
 30
0.0
  9
$UCSORGRIGHT
 10
0.0
 20
0.0
 30
0.0
  9
$UCSORGFRONT
 10
0.0
 20
0.0
 30
0.0
  9
$UCSORGBACK
 10
0.0
 20
0.0
 30
0.0
  9
$PUCSBASE
  2

  9
$PUCSNAME
  2

  9
$PUCSORG
 10
0.0
 20
0.0
 30
0.0
  9
$PUCSXDIR
 10
1.0
 20
0.0
 30
0.0
  9
$PUCSYDIR
 10
0.0
 20
1.0
 30
0.0
  9
$PUCSORTHOREF
  2

  9
$PUCSORTHOVIEW
 70
     0
  9
$PUCSORGTOP
 10
0.0
 20
0.0
 30
0.0
  9
$PUCSORGBOTTOM
 10
0.0
 20
0.0
 30
0.0
  9
$PUCSORGLEFT
 10
0.0
 20
0.0
 30
0.0
  9
$PUCSORGRIGHT
 10
0.0
 20
0.0
 30
0.0
  9
$PUCSORGFRONT
 10
0.0
 20
0.0
 30
0.0
  9
$PUCSORGBACK
 10
0.0
 20
0.0
 30
0.0
  9
$USERI1
 70
     0
  9
$USERI2
 70
     0
  9
$USERI3
 70
     0
  9
$USERI4
 70
     0
  9
$USERI5
 70
     0
  9
$USERR1
 40
0.0
  9
$USERR2
 40
0.0
  9
$USERR3
 40
0.0
  9
$USERR4
 40
0.0
  9
$USERR5
 40
0.0
  9
$WORLDVIEW
 70
     1
  9
$SHADEDGE
 70
     3
  9
$SHADEDIF
 70
    70
  9
$TILEMODE
 70
     1
  9
$MAXACTVP
 70
    64
  9
$PINSBASE
 10
0.0
 20
0.0
 30
0.0
  9
$PLIMCHECK
 70
     0
  9
$PEXTMIN
 10
1.000000000000000E+20
 20
1.000000000000000E+20
 30
1.000000000000000E+20
  9
$PEXTMAX
 10
-1.000000000000000E+20
 20
-1.000000000000000E+20
 30
-1.000000000000000E+20
  9
$PLIMMIN
 10
0.0
 20
0.0
  9
$PLIMMAX
 10
12.0
 20
9.0
  9
$UNITMODE
 70
     0
  9
$VISRETAIN
 70
     1
  9
$PLINEGEN
 70
     0
  9
$PSLTSCALE
 70
     1
  9
$TREEDEPTH
 70
  3020
  9
$CMLSTYLE
  2
Standard
  9
$CMLJUST
 70
     0
  9
$CMLSCALE
 40
1.0
  9
$PROXYGRAPHICS
 70
     1
  9
$MEASUREMENT
 70
     0
  9
$CELWEIGHT
370
    -1
  9
$ENDCAPS
280
     0
  9
$JOINSTYLE
280
     0
  9
$LWDISPLAY
290
     1
  9
$INSUNITS
 70
     1
  9
$HYPERLINKBASE
  1

  9
$STYLESHEET
  1

  9
$XEDIT
290
     1
  9
$CEPSNTYPE
380
     0
  9
$PSTYLEMODE
290
     1
  9
$FINGERPRINTGUID
  2
{C13792FE-2228-FBDA-E3D1-0C69515203EF}
  9
$VERSIONGUID
  2
{FAEB1C32-E019-11D5-929B-00C0DF256EC4}
  9
$EXTNAMES
290
     1
  9
$PSVPSCALE
 40
0.0
  9
$OLESTARTUP
290
     0
  9
$SORTENTS
280
   127
  9
$INDEXCTL
280
     0
  9
$HIDETEXT
280
     1
  9
$XCLIPFRAME
280
     2
  9
$HALOGAP
280
     0
  9
$OBSCOLOR
 70
   257
  9
$OBSLTYPE
280
     0
  9
$INTERSECTIONDISPLAY
280
     0
  9
$INTERSECTIONCOLOR
 70
   257
  9
$DIMASSOC
280
     2
  9
$PROJECTNAME
  1

  9
$CAMERADISPLAY
290
     0
  9
$LENSLENGTH
 40
50.0
  9
$CAMERAHEIGHT
 40
0.0
  9
$STEPSPERSEC
 40
2.0
  9
$STEPSIZE
 40
6.0
  9
$3DDWFPREC
 40
2.0
  9
$PSOLWIDTH
 40
0.25
  9
$PSOLHEIGHT
 40
4.0
  9
$LOFTANG1
 40
1.570796326794897
  9
$LOFTANG2
 40
1.570796326794897
  9
$LOFTMAG1
 40
0.0
  9
$LOFTMAG2
 40
0.0
  9
$LOFTPARAM
 70
     7
  9
$LOFTNORMALS
280
     1
  9
$LATITUDE
 40
37.795
  9
$LONGITUDE
 40
-122.394
  9
$NORTHDIRECTION
 40
0.0
  9
$TIMEZONE
 70
 -8000
  9
$LIGHTGLYPHDISPLAY
280
     1
  9
$TILEMODELIGHTSYNCH
280
     1
  9
$CMATERIAL
347
3C
  9
$SOLIDHIST
280
     1
  9
$SHOWHIST
280
     1
  9
$DWFFRAME
280
     2
  9
$DGNFRAME
280
     2
  9
$REALWORLDSCALE
290
     1
  9
$INTERFERECOLOR
 62
   256
  9
$CSHADOW
280
     0
  9
$SHADOWPLANELOCATION
 40
0.0
  0
ENDSEC
  0
SECTION
  2
CLASSES
  0
CLASS
  1
ACDBDICTIONARYWDFLT
  2
AcDbDictionaryWithDefault
  3
ObjectDBX Classes
 90
        0
 91
        4
280
     0
281
     0
  0
CLASS
  1
VISUALSTYLE
  2
AcDbVisualStyle
  3
ObjectDBX Classes
 90
     4095
 91
        4
280
     0
281
     0
  0
CLASS
  1
MATERIAL
  2
AcDbMaterial
  3
ObjectDBX Classes
 90
     1153
 91
        4
280
     0
281
     0
  0
CLASS
  1
SUN
  2
AcDbSun
  3
SCENEOE
 90
     1024
 91
        4
280
     0
281
     0
  0
ENDSEC
  0
SECTION
  2
TABLES
  0
TABLE
  2
VPORT
  5
8
330
0
100
AcDbSymbolTable
 70
     1
  0
VPORT
  5
29
330
8
100
AcDbSymbolTableRecord
100
AcDbViewportTableRecord
  2
*Active
 70
     0
 10
0.0
 20
0.0
 11
1.0
 21
1.0
 12
0.0
 22
0.0
 13
0.0
 23
0.0
 14
0.5
 24
0.5
 15
0.5
 25
0.5
 16
0.0
 26
0.0
 36
1.0
 17
91.00082462281999
 27
-128.4993055234307
 37
0.0
 40
256.9986110468615
 41
0.7081814508812795
 42
50.0
 43
0.0
 44
0.0
 50
0.0
 51
0.0
 71
     0
 72
   100
 73
     1
 74
     3
 75
     0
 76
     0
 77
     0
 78
     0
281
     0
 65
     1
110
0.0
120
0.0
130
0.0
111
1.0
121
0.0
131
0.0
112
0.0
122
1.0
132
0.0
 79
     0
146
0.0
 60
     3
 61
     5
292
     1
282
     1
141
0.0
142
0.0
 63
   250
361
3F
  0
ENDTAB
  0
TABLE
  2
LTYPE
  5
5
330
0
100
AcDbSymbolTable
 70
     1
  0
LTYPE
  5
14
330
5
100
AcDbSymbolTableRecord
100
AcDbLinetypeTableRecord
  2
ByBlock
 70
     0
  3

 72
    65
 73
     0
 40
0.0
  0
LTYPE
  5
15
330
5
100
AcDbSymbolTableRecord
100
AcDbLinetypeTableRecord
  2
ByLayer
 70
     0
  3

 72
    65
 73
     0
 40
0.0
  0
LTYPE
  5
16
330
5
100
AcDbSymbolTableRecord
100
AcDbLinetypeTableRecord
  2
Continuous
 70
     0
  3
Solid line
 72
    65
 73
     0
 40
0.0
  0
ENDTAB
  0
TABLE
  2
LAYER
  5
2
330
0
100
AcDbSymbolTable
 70
     2
  0
LAYER
  5
10
330
2
100
AcDbSymbolTableRecord
100
AcDbLayerTableRecord
  2
0
 70
     0
 62
     7
  6
Continuous
370
    -3
390
F
347
3E
  0
LAYER
  5
40
330
2
100
AcDbSymbolTableRecord
100
AcDbLayerTableRecord
  2
_U+30EC_U+30A4_U+30E4_U+30FC 1
 70
     0
 62
     7
  6
Continuous
370
    -3
390
F
347
3E
  0
ENDTAB
  0
TABLE
  2
STYLE
  5
3
330
0
100
AcDbSymbolTable
 70
     1
  0
STYLE
  5
11
330
3
100
AcDbSymbolTableRecord
100
AcDbTextStyleTableRecord
  2
Standard
 70
     0
 40
0.0
 41
1.0
 50
0.0
 71
     0
 42
0.2
  3
txt
  4

  0
ENDTAB
  0
TABLE
  2
VIEW
  5
6
330
0
100
AcDbSymbolTable
 70
     0
  0
ENDTAB
  0
TABLE
  2
UCS
  5
7
330
0
100
AcDbSymbolTable
 70
     0
  0
ENDTAB
  0
TABLE
  2
APPID
  5
9
330
0
100
AcDbSymbolTable
 70
     1
  0
APPID
  5
12
330
9
100
AcDbSymbolTableRecord
100
AcDbRegAppTableRecord
  2
ACAD
 70
     0
  0
ENDTAB
  0
TABLE
  2
DIMSTYLE
  5
A
330
0
100
AcDbSymbolTable
 70
     1
100
AcDbDimStyleTable
  0
DIMSTYLE
105
27
330
A
100
AcDbSymbolTableRecord
100
AcDbDimStyleTableRecord
  2
Standard
 70
     0
178
     0
340
11
  0
ENDTAB
  0
TABLE
  2
BLOCK_RECORD
  5
1
330
0
100
AcDbSymbolTable
 70
     4
  0
BLOCK_RECORD
  5
1F
330
1
100
AcDbSymbolTableRecord
100
AcDbBlockTableRecord
  2
*Model_Space
340
22
 70
     0
280
     1
281
     0
  0
BLOCK_RECORD
  5
1B
330
1
100
AcDbSymbolTableRecord
100
AcDbBlockTableRecord
  2
*Paper_Space
340
1E
 70
     0
280
     1
281
     0
  0
BLOCK_RECORD
  5
23
330
1
100
AcDbSymbolTableRecord
100
AcDbBlockTableRecord
  2
*Paper_Space0
340
26
 70
     0
280
     1
281
     0
  0
BLOCK_RECORD
  5
75
330
1
100
AcDbSymbolTableRecord
100
AcDbBlockTableRecord
  2
block 2
340
0
102
{BLKREFS
331
76
102
}
 70
     0
280
     1
281
     0
  0
BLOCK_RECORD
  5
87
330
1
100
AcDbSymbolTableRecord
100
AcDbBlockTableRecord
  2
block 3
340
0
102
{BLKREFS
331
88
102
}
 70
     0
280
     1
281
     0
  0
BLOCK_RECORD
  5
9C
330
1
100
AcDbSymbolTableRecord
100
AcDbBlockTableRecord
  2
block 4
340
0
102
{BLKREFS
331
9D
102
}
 70
     0
280
     1
281
     0
  0
ENDTAB
  0
ENDSEC
  0
SECTION
  2
BLOCKS
  0
BLOCK
  5
20
330
1F
100
AcDbEntity
  8
0
100
AcDbBlockBegin
  2
*Model_Space
 70
     0
 10
0.0
 20
0.0
 30
0.0
  3
*Model_Space
  1

  0
ENDBLK
  5
21
330
1F
100
AcDbEntity
  8
0
100
AcDbBlockEnd
  0
BLOCK
  5
1C
330
1B
100
AcDbEntity
 67
     1
  8
0
100
AcDbBlockBegin
  2
*Paper_Space
 70
     0
 10
0.0
 20
0.0
 30
0.0
  3
*Paper_Space
  1

  0
ENDBLK
  5
1D
330
1B
100
AcDbEntity
 67
     1
  8
0
100
AcDbBlockEnd
  0
BLOCK
  5
24
330
23
100
AcDbEntity
  8
0
100
AcDbBlockBegin
  2
*Paper_Space0
 70
     0
 10
0.0
 20
0.0
 30
0.0
  3
*Paper_Space0
  1

  0
ENDBLK
  5
25
330
23
100
AcDbEntity
  8
0
100
AcDbBlockEnd
  0
BLOCK
  5
77
330
75
100
AcDbEntity
  8
0
100
AcDbBlockBegin
  2
block 2
 70
     0
 10
0.0
 20
0.0
 30
0.0
  3
block 2
  1

  0
SPLINE
  5
79
330
75
100
AcDbEntity
  8
_U+30EC_U+30A4_U+30E4_U+30FC 1
370
     0
100
AcDbSpline
210
0.0
220
0.0
230
1.0
 70
    11
 71
     3
 72
    44
 73
    40
 74
     0
 42
0.0000000001
 43
0.0000000001
 12
1.0
 22
0.0
 32
0.0
 13
1.0
 23
0.0
 33
0.0
 40
0.0
 40
0.0
 40
0.0
 40
0.0
 40
1.0
 40
1.0
 40
1.0
 40
2.0
 40
2.0
 40
2.0
 40
3.0
 40
3.0
 40
3.0
 40
4.0
 40
4.0
 40
4.0
 40
5.0
 40
5.0
 40
5.0
 40
6.0
 40
6.0
 40
6.0
 40
7.0
 40
7.0
 40
7.0
 40
8.0
 40
8.0
 40
8.0
 40
9.0
 40
9.0
 40
9.0
 40
10.0
 40
10.0
 40
10.0
 40
11.0
 40
11.0
 40
11.0
 40
12.0
 40
12.0
 40
12.0
 40
13.0
 40
13.0
 40
13.0
 40
13.0
 10
109.6315510793629
 20
-139.8512396568775
 30
0.0
 10
109.790369981233
 20
-140.0689696915453
 30
0.0
 10
109.8644395341658
 20
-140.161987269647
 30
0.0
 10
110.0081000159008
 20
-140.2109076255375
 30
0.0
 10
110.0081000159008
 20
-140.2109076255375
 30
0.0
 10
110.0081000159008
 20
-139.4323160458711
 30
0.0
 10
110.0081000159008
 20
-139.4323160458711
 30
0.0
 10
110.0081000159008
 20
-139.4323160458711
 30
0.0
 10
110.2134277068216
 20
-139.4323160458711
 30
0.0
 10
110.2134277068216
 20
-139.4323160458711
 30
0.0
 10
110.2134277068216
 20
-139.4323160458711
 30
0.0
 10
110.2134277068216
 20
-140.4603325386696
 30
0.0
 10
110.2134277068216
 20
-140.4603325386696
 30
0.0
 10
109.8558267954527
 20
-140.4286376602053
 30
0.0
 10
109.7776231279375
 20
-140.3631808459856
 30
0.0
 10
109.4792778589149
 20
-139.9780191707347
 30
0.0
 10
109.280495849416
 20
-139.7220485761806
 30
0.0
 10
109.2126274683566
 20
-139.6565917619609
 30
0.0
 10
109.0751681584951
 20
-139.6565917619609
 30
0.0
 10
108.9566568738025
 20
-139.6565917619609
 30
0.0
 10
108.825743245363
 20
-139.7285942576026
 30
0.0
 10
108.825743245363
 20
-139.9253092098103
 30
0.0
 10
108.825743245363
 20
-140.1854139189467
 30
0.0
 10
109.0562201333262
 20
-140.1940266576598
 30
0.0
 10
109.1726643607277
 20
-140.1981607722421
 30
0.0
 10
109.1726643607277
 20
-140.1981607722421
 30
0.0
 10
109.1726643607277
 20
-140.4224364883319
 30
0.0
 10
109.1726643607277
 20
-140.4224364883319
 30
0.0
 10
109.045540337322
 20
-140.4138237496188
 30
0.0
 10
108.9335747340513
 20
-140.4031439536145
 30
0.0
 10
108.8150634493587
 20
-140.3228732288082
 30
0.0
 10
108.6541774901976
 20
-140.2129746828287
 30
0.0
 10
108.6204155544421
 20
-140.0265950170767
 30
0.0
 10
108.6204155544421
 20
-139.9104952992238
 30
0.0
 10
108.6204155544421
 20
-139.6331651126611
 30
0.0
 10
108.8043836533545
 20
-139.4257703644491
 30
0.0
 10
109.0772352157862
 20
-139.4257703644491
 30
0.0
 10
109.3059895560068
 20
-139.4257703644491
 30
0.0
 10
109.405208305982
 20
-139.5422145918506
 30
0.0
 10
109.6315510793629
 20
-139.8512396568775
 30
0.0
  0
HATCH
  5
7A
330
75
100
AcDbEntity
  8
_U+30EC_U+30A4_U+30E4_U+30FC 1
 62
   179
420
  2234388
100
AcDbHatch
 10
0.0
 20
0.0
 30
0.0
210
0.0
220
0.0
230
1.0
  2
SOLID
 70
     1
 71
     0
 91
        1
 92
        1
 93
        1
 72
     4
 94
        3
 73
     0
 74
     1
 95
       44
 96
       40
 40
0.0
 40
0.0
 40
0.0
 40
0.0
 40
1.0
 40
1.0
 40
1.0
 40
2.0
 40
2.0
 40
2.0
 40
3.0
 40
3.0
 40
3.0
 40
4.0
 40
4.0
 40
4.0
 40
5.0
 40
5.0
 40
5.0
 40
6.0
 40
6.0
 40
6.0
 40
7.0
 40
7.0
 40
7.0
 40
8.0
 40
8.0
 40
8.0
 40
9.0
 40
9.0
 40
9.0
 40
10.0
 40
10.0
 40
10.0
 40
11.0
 40
11.0
 40
11.0
 40
12.0
 40
12.0
 40
12.0
 40
13.0
 40
13.0
 40
13.0
 40
13.0
 10
109.6315510793629
 20
-139.8512396568775
 10
109.790369981233
 20
-140.0689696915453
 10
109.8644395341658
 20
-140.161987269647
 10
110.0081000159008
 20
-140.2109076255375
 10
110.0081000159008
 20
-140.2109076255375
 10
110.0081000159008
 20
-139.4323160458711
 10
110.0081000159008
 20
-139.4323160458711
 10
110.0081000159008
 20
-139.4323160458711
 10
110.2134277068216
 20
-139.4323160458711
 10
110.2134277068216
 20
-139.4323160458711
 10
110.2134277068216
 20
-139.4323160458711
 10
110.2134277068216
 20
-140.4603325386696
 10
110.2134277068216
 20
-140.4603325386696
 10
109.8558267954527
 20
-140.4286376602053
 10
109.7776231279375
 20
-140.3631808459856
 10
109.4792778589149
 20
-139.9780191707347
 10
109.280495849416
 20
-139.7220485761806
 10
109.2126274683566
 20
-139.6565917619609
 10
109.0751681584951
 20
-139.6565917619609
 10
108.9566568738025
 20
-139.6565917619609
 10
108.825743245363
 20
-139.7285942576026
 10
108.825743245363
 20
-139.9253092098103
 10
108.825743245363
 20
-140.1854139189467
 10
109.0562201333262
 20
-140.1940266576598
 10
109.1726643607277
 20
-140.1981607722421
 10
109.1726643607277
 20
-140.1981607722421
 10
109.1726643607277
 20
-140.4224364883319
 10
109.1726643607277
 20
-140.4224364883319
 10
109.045540337322
 20
-140.4138237496188
 10
108.9335747340513
 20
-140.4031439536145
 10
108.8150634493587
 20
-140.3228732288082
 10
108.6541774901976
 20
-140.2129746828287
 10
108.6204155544421
 20
-140.0265950170767
 10
108.6204155544421
 20
-139.9104952992238
 10
108.6204155544421
 20
-139.6331651126611
 10
108.8043836533545
 20
-139.4257703644491
 10
109.0772352157862
 20
-139.4257703644491
 10
109.3059895560068
 20
-139.4257703644491
 10
109.405208305982
 20
-139.5422145918506
 10
109.6315510793629
 20
-139.8512396568775
 97
        0
 97
        0
 75
     2
 76
     1
 98
        0
  0
ENDBLK
  5
78
330
75
100
AcDbEntity
  8
0
100
AcDbBlockEnd
  0
BLOCK
  5
89
330
87
100
AcDbEntity
  8
0
100
AcDbBlockBegin
  2
block 3
 70
     0
 10
0.0
 20
0.0
 30
0.0
  3
block 3
  1

  0
SPLINE
  5
8B
330
87
100
AcDbEntity
  8
_U+30EC_U+30A4_U+30E4_U+30FC 1
370
     0
100
AcDbSpline
210
0.0
220
0.0
230
1.0
 70
    11
 71
     3
 72
    62
 73
    58
 74
     0
 42
0.0000000001
 43
0.0000000001
 12
1.0
 22
0.0
 32
0.0
 13
1.0
 23
0.0
 33
0.0
 40
0.0
 40
0.0
 40
0.0
 40
0.0
 40
1.0
 40
1.0
 40
1.0
 40
2.0
 40
2.0
 40
2.0
 40
3.0
 40
3.0
 40
3.0
 40
4.0
 40
4.0
 40
4.0
 40
5.0
 40
5.0
 40
5.0
 40
6.0
 40
6.0
 40
6.0
 40
7.0
 40
7.0
 40
7.0
 40
8.0
 40
8.0
 40
8.0
 40
9.0
 40
9.0
 40
9.0
 40
10.0
 40
10.0
 40
10.0
 40
11.0
 40
11.0
 40
11.0
 40
12.0
 40
12.0
 40
12.0
 40
13.0
 40
13.0
 40
13.0
 40
14.0
 40
14.0
 40
14.0
 40
15.0
 40
15.0
 40
15.0
 40
16.0
 40
16.0
 40
16.0
 40
17.0
 40
17.0
 40
17.0
 40
18.0
 40
18.0
 40
18.0
 40
19.0
 40
19.0
 40
19.0
 40
19.0
 10
72.3823174189704
 20
-126.6208672100983
 30
0.0
 10
72.3823174189704
 20
-126.7162963550397
 30
0.0
 10
72.3611300817361
 20
-126.9340263897075
 30
0.0
 10
72.17492267075835
 20
-127.059083355822
 30
0.0
 10
72.06278481271347
 20
-127.1331529087549
 30
0.0
 10
71.96339380796401
 20
-127.1372870233372
 30
0.0
 10
71.87881671380113
 20
-127.1414211379195
 30
0.0
 10
71.87881671380113
 20
-127.1414211379195
 30
0.0
 10
71.87881671380113
 20
-126.921279536412
 30
0.0
 10
71.87881671380113
 20
-126.921279536412
 30
0.0
 10
71.952886266734
 20
-126.9192124791209
 30
0.0
 10
72.18766952405377
 20
-126.9088771926651
 30
0.0
 10
72.18766952405377
 20
-126.6253458342291
 30
0.0
 10
72.18766952405377
 20
-126.4878865243676
 30
0.0
 10
72.11790634047748
 20
-126.335268794371
 30
0.0
 10
71.88932425503114
 20
-126.335268794371
 30
0.0
 10
71.77305228240397
 20
-126.335268794371
 30
0.0
 10
71.72430418128768
 20
-126.3735093542573
 30
0.0
 10
71.69260930282339
 20
-126.4052042327216
 30
0.0
 10
71.6185397498905
 20
-126.4792737856545
 30
0.0
 10
71.60596515136935
 20
-126.5957180130559
 30
0.0
 10
71.60596515136935
 20
-126.6504950312714
 30
0.0
 10
71.60596515136935
 20
-126.6697875659888
 30
0.0
 10
71.60803220866049
 20
-126.7056165590354
 30
0.0
 10
71.61216632324279
 20
-126.7331773229174
 30
0.0
 10
71.61216632324279
 20
-126.7331773229174
 30
0.0
 10
71.41769068310045
 20
-126.7331773229174
 30
0.0
 10
71.41769068310045
 20
-126.7331773229174
 30
0.0
 10
71.42389185497389
 20
-126.6949367630311
 30
0.0
 10
71.4261311670393
 20
-126.6529065981111
 30
0.0
 10
71.4261311670393
 20
-126.6463609166891
 30
0.0
 10
71.4261311670393
 20
-126.5809041024694
 30
0.0
 10
71.40494382980502
 20
-126.3821220929704
 30
0.0
 10
71.16792126041983
 20
-126.3821220929704
 30
0.0
 10
70.9903265881552
 20
-126.3821220929704
 30
0.0
 10
70.9352050603912
 20
-126.5130357214099
 30
0.0
 10
70.9352050603912
 20
-126.6232787769379
 30
0.0
 10
70.9352050603912
 20
-126.8875176006566
 30
0.0
 10
71.16792126041983
 20
-126.8961303393697
 30
0.0
 10
71.23992375606154
 20
-126.900264453952
 30
0.0
 10
71.23992375606154
 20
-126.900264453952
 30
0.0
 10
71.23992375606154
 20
-127.1035250875818
 30
0.0
 10
71.23992375606154
 20
-127.1035250875818
 30
0.0
 10
71.11503904472124
 20
-127.0949123488686
 30
0.0
 10
70.73849010818344
 20
-127.0673515849866
 30
0.0
 10
70.73849010818344
 20
-126.6105319236425
 30
0.0
 10
70.73849010818344
 20
-126.3862562075527
 30
0.0
 10
70.8654418768149
 20
-126.1450995235853
 30
0.0
 10
71.16154783377212
 20
-126.1450995235853
 30
0.0
 10
71.34775524474988
 20
-126.1450995235853
 30
0.0
 10
71.4302652816216
 20
-126.2401841589782
 30
0.0
 10
71.49158798125904
 20
-126.3397474185019
 30
0.0
 10
71.51914874514105
 20
-126.2784247188644
 30
0.0
 10
71.59959172472163
 20
-126.0965236772432
 30
0.0
 10
71.87674965650999
 20
-126.0965236772432
 30
0.0
 10
72.21523028793578
 20
-126.0965236772432
 30
0.0
 10
72.3823174189704
 20
-126.3438815330842
 30
0.0
 10
72.3823174189704
 20
-126.6208672100983
 30
0.0
  0
HATCH
  5
8C
330
87
100
AcDbEntity
  8
_U+30EC_U+30A4_U+30E4_U+30FC 1
 62
   179
420
  2234388
100
AcDbHatch
 10
0.0
 20
0.0
 30
0.0
210
0.0
220
0.0
230
1.0
  2
SOLID
 70
     1
 71
     0
 91
        1
 92
        1
 93
        1
 72
     4
 94
        3
 73
     0
 74
     1
 95
       62
 96
       58
 40
0.0
 40
0.0
 40
0.0
 40
0.0
 40
1.0
 40
1.0
 40
1.0
 40
2.0
 40
2.0
 40
2.0
 40
3.0
 40
3.0
 40
3.0
 40
4.0
 40
4.0
 40
4.0
 40
5.0
 40
5.0
 40
5.0
 40
6.0
 40
6.0
 40
6.0
 40
7.0
 40
7.0
 40
7.0
 40
8.0
 40
8.0
 40
8.0
 40
9.0
 40
9.0
 40
9.0
 40
10.0
 40
10.0
 40
10.0
 40
11.0
 40
11.0
 40
11.0
 40
12.0
 40
12.0
 40
12.0
 40
13.0
 40
13.0
 40
13.0
 40
14.0
 40
14.0
 40
14.0
 40
15.0
 40
15.0
 40
15.0
 40
16.0
 40
16.0
 40
16.0
 40
17.0
 40
17.0
 40
17.0
 40
18.0
 40
18.0
 40
18.0
 40
19.0
 40
19.0
 40
19.0
 40
19.0
 10
72.3823174189704
 20
-126.6208672100983
 10
72.3823174189704
 20
-126.7162963550397
 10
72.3611300817361
 20
-126.9340263897075
 10
72.17492267075835
 20
-127.059083355822
 10
72.06278481271347
 20
-127.1331529087549
 10
71.96339380796401
 20
-127.1372870233372
 10
71.87881671380113
 20
-127.1414211379195
 10
71.87881671380113
 20
-127.1414211379195
 10
71.87881671380113
 20
-126.921279536412
 10
71.87881671380113
 20
-126.921279536412
 10
71.952886266734
 20
-126.9192124791209
 10
72.18766952405377
 20
-126.9088771926651
 10
72.18766952405377
 20
-126.6253458342291
 10
72.18766952405377
 20
-126.4878865243676
 10
72.11790634047748
 20
-126.335268794371
 10
71.88932425503114
 20
-126.335268794371
 10
71.77305228240397
 20
-126.335268794371
 10
71.72430418128768
 20
-126.3735093542573
 10
71.69260930282339
 20
-126.4052042327216
 10
71.6185397498905
 20
-126.4792737856545
 10
71.60596515136935
 20
-126.5957180130559
 10
71.60596515136935
 20
-126.6504950312714
 10
71.60596515136935
 20
-126.6697875659888
 10
71.60803220866049
 20
-126.7056165590354
 10
71.61216632324279
 20
-126.7331773229174
 10
71.61216632324279
 20
-126.7331773229174
 10
71.41769068310045
 20
-126.7331773229174
 10
71.41769068310045
 20
-126.7331773229174
 10
71.42389185497389
 20
-126.6949367630311
 10
71.4261311670393
 20
-126.6529065981111
 10
71.4261311670393
 20
-126.6463609166891
 10
71.4261311670393
 20
-126.5809041024694
 10
71.40494382980502
 20
-126.3821220929704
 10
71.16792126041983
 20
-126.3821220929704
 10
70.9903265881552
 20
-126.3821220929704
 10
70.9352050603912
 20
-126.5130357214099
 10
70.9352050603912
 20
-126.6232787769379
 10
70.9352050603912
 20
-126.8875176006566
 10
71.16792126041983
 20
-126.8961303393697
 10
71.23992375606154
 20
-126.900264453952
 10
71.23992375606154
 20
-126.900264453952
 10
71.23992375606154
 20
-127.1035250875818
 10
71.23992375606154
 20
-127.1035250875818
 10
71.11503904472124
 20
-127.0949123488686
 10
70.73849010818344
 20
-127.0673515849866
 10
70.73849010818344
 20
-126.6105319236425
 10
70.73849010818344
 20
-126.3862562075527
 10
70.8654418768149
 20
-126.1450995235853
 10
71.16154783377212
 20
-126.1450995235853
 10
71.34775524474988
 20
-126.1450995235853
 10
71.4302652816216
 20
-126.2401841589782
 10
71.49158798125904
 20
-126.3397474185019
 10
71.51914874514105
 20
-126.2784247188644
 10
71.59959172472163
 20
-126.0965236772432
 10
71.87674965650999
 20
-126.0965236772432
 10
72.21523028793578
 20
-126.0965236772432
 10
72.3823174189704
 20
-126.3438815330842
 10
72.3823174189704
 20
-126.6208672100983
 97
        0
 97
        0
 75
     2
 76
     1
 98
        0
  0
SPLINE
  5
8D
330
87
100
AcDbEntity
  8
_U+30EC_U+30A4_U+30E4_U+30FC 1
370
     0
100
AcDbSpline
210
0.0
220
0.0
230
1.0
 70
    11
 71
     3
 72
    29
 73
    25
 74
     0
 42
0.0000000001
 43
0.0000000001
 12
1.0
 22
0.0
 32
0.0
 13
1.0
 23
0.0
 33
0.0
 40
0.0
 40
0.0
 40
0.0
 40
0.0
 40
1.0
 40
1.0
 40
1.0
 40
2.0
 40
2.0
 40
2.0
 40
3.0
 40
3.0
 40
3.0
 40
4.0
 40
4.0
 40
4.0
 40
5.0
 40
5.0
 40
5.0
 40
6.0
 40
6.0
 40
6.0
 40
7.0
 40
7.0
 40
7.0
 40
8.0
 40
8.0
 40
8.0
 40
8.0
 10
72.15373533352407
 20
-125.037845834626
 30
0.0
 10
72.36319713902726
 20
-125.1460218328628
 30
0.0
 10
72.3823174189704
 20
-125.3193101357709
 30
0.0
 10
72.3823174189704
 20
-125.4357543631723
 30
0.0
 10
72.3823174189704
 20
-125.5966403223335
 30
0.0
 10
72.33580862991953
 20
-125.7382337467773
 30
0.0
 10
72.15373533352407
 20
-125.8333183821701
 30
0.0
 10
71.95925969338171
 20
-125.9370157562762
 30
0.0
 10
71.72223712399652
 20
-125.9563082909936
 30
0.0
 10
71.55928410754422
 20
-125.9563082909936
 30
0.0
 10
71.41545137103503
 20
-125.9563082909936
 30
0.0
 10
71.16378714583753
 20
-125.9390828135673
 30
0.0
 10
70.96483288156435
 20
-125.8333183821701
 30
0.0
 10
70.76174450270888
 20
-125.7254868934818
 30
0.0
 10
70.73849010818344
 20
-125.5646009343207
 30
0.0
 10
70.73849010818344
 20
-125.4357543631723
 30
0.0
 10
70.73849010818344
 20
-125.2769354613023
 30
0.0
 10
70.78293183994316
 20
-125.1332749795674
 30
0.0
 10
70.96483288156435
 20
-125.037845834626
 30
0.0
 10
71.15741371918982
 20
-124.9386270846508
 30
0.0
 10
71.38582354986188
 20
-124.9152004353511
 30
0.0
 10
71.55928410754422
 20
-124.9152004353511
 30
0.0
 10
71.73067760793539
 20
-124.9152004353511
 30
0.0
 10
71.96132675067287
 20
-124.9365600273596
 30
0.0
 10
72.15373533352407
 20
-125.037845834626
 30
0.0
  0
SPLINE
  5
8E
330
87
100
AcDbEntity
  8
_U+30EC_U+30A4_U+30E4_U+30FC 1
370
     0
100
AcDbSpline
210
0.0
220
0.0
230
1.0
 70
    11
 71
     3
 72
    17
 73
    13
 74
     0
 42
0.0000000001
 43
0.0000000001
 12
1.0
 22
0.0
 32
0.0
 13
1.0
 23
0.0
 33
0.0
 40
0.0
 40
0.0
 40
0.0
 40
0.0
 40
1.0
 40
1.0
 40
1.0
 40
2.0
 40
2.0
 40
2.0
 40
3.0
 40
3.0
 40
3.0
 40
4.0
 40
4.0
 40
4.0
 40
4.0
 10
70.9310709458089
 20
-125.4357543631723
 30
0.0
 10
70.9310709458089
 20
-125.6855237858529
 30
0.0
 10
71.2144300494707
 20
-125.7320325749038
 30
0.0
 10
71.55928410754422
 20
-125.7320325749038
 30
0.0
 10
71.87881671380113
 20
-125.7320325749038
 30
0.0
 10
72.18766952405377
 20
-125.6958590723087
 30
0.0
 10
72.18766952405377
 20
-125.4357543631723
 30
0.0
 10
72.18766952405377
 20
-125.1880519977828
 30
0.0
 10
71.90620522290887
 20
-125.1394761514408
 30
0.0
 10
71.55928410754422
 20
-125.1394761514408
 30
0.0
 10
71.23992375606154
 20
-125.1394761514408
 30
0.0
 10
70.9310709458089
 20
-125.1777167113271
 30
0.0
 10
70.9310709458089
 20
-125.4357543631723
 30
0.0
  0
HATCH
  5
8F
330
87
100
AcDbEntity
  8
_U+30EC_U+30A4_U+30E4_U+30FC 1
 62
   179
420
  2234388
100
AcDbHatch
 10
0.0
 20
0.0
 30
0.0
210
0.0
220
0.0
230
1.0
  2
SOLID
 70
     1
 71
     0
 91
        2
 92
        1
 93
        1
 72
     4
 94
        3
 73
     0
 74
     1
 95
       29
 96
       25
 40
0.0
 40
0.0
 40
0.0
 40
0.0
 40
1.0
 40
1.0
 40
1.0
 40
2.0
 40
2.0
 40
2.0
 40
3.0
 40
3.0
 40
3.0
 40
4.0
 40
4.0
 40
4.0
 40
5.0
 40
5.0
 40
5.0
 40
6.0
 40
6.0
 40
6.0
 40
7.0
 40
7.0
 40
7.0
 40
8.0
 40
8.0
 40
8.0
 40
8.0
 10
72.15373533352407
 20
-125.037845834626
 10
72.36319713902726
 20
-125.1460218328628
 10
72.3823174189704
 20
-125.3193101357709
 10
72.3823174189704
 20
-125.4357543631723
 10
72.3823174189704
 20
-125.5966403223335
 10
72.33580862991953
 20
-125.7382337467773
 10
72.15373533352407
 20
-125.8333183821701
 10
71.95925969338171
 20
-125.9370157562762
 10
71.72223712399652
 20
-125.9563082909936
 10
71.55928410754422
 20
-125.9563082909936
 10
71.41545137103503
 20
-125.9563082909936
 10
71.16378714583753
 20
-125.9390828135673
 10
70.96483288156435
 20
-125.8333183821701
 10
70.76174450270888
 20
-125.7254868934818
 10
70.73849010818344
 20
-125.5646009343207
 10
70.73849010818344
 20
-125.4357543631723
 10
70.73849010818344
 20
-125.2769354613023
 10
70.78293183994316
 20
-125.1332749795674
 10
70.96483288156435
 20
-125.037845834626
 10
71.15741371918982
 20
-124.9386270846508
 10
71.38582354986188
 20
-124.9152004353511
 10
71.55928410754422
 20
-124.9152004353511
 10
71.73067760793539
 20
-124.9152004353511
 10
71.96132675067287
 20
-124.9365600273596
 10
72.15373533352407
 20
-125.037845834626
 97
        0
 97
        0
 92
        1
 93
        1
 72
     4
 94
        3
 73
     0
 74
     1
 95
       17
 96
       13
 40
0.0
 40
0.0
 40
0.0
 40
0.0
 40
1.0
 40
1.0
 40
1.0
 40
2.0
 40
2.0
 40
2.0
 40
3.0
 40
3.0
 40
3.0
 40
4.0
 40
4.0
 40
4.0
 40
4.0
 10
70.9310709458089
 20
-125.4357543631723
 10
70.9310709458089
 20
-125.6855237858529
 10
71.2144300494707
 20
-125.7320325749038
 10
71.55928410754422
 20
-125.7320325749038
 10
71.87881671380113
 20
-125.7320325749038
 10
72.18766952405377
 20
-125.6958590723087
 10
72.18766952405377
 20
-125.4357543631723
 10
72.18766952405377
 20
-125.1880519977828
 10
71.90620522290887
 20
-125.1394761514408
 10
71.55928410754422
 20
-125.1394761514408
 10
71.23992375606154
 20
-125.1394761514408
 10
70.9310709458089
 20
-125.1777167113271
 10
70.9310709458089
 20
-125.4357543631723
 97
        0
 97
        0
 75
     2
 76
     1
 98
        0
  0
ENDBLK
  5
8A
330
87
100
AcDbEntity
  8
0
100
AcDbBlockEnd
  0
BLOCK
  5
9E
330
9C
100
AcDbEntity
  8
0
100
AcDbBlockBegin
  2
block 4
 70
     0
 10
0.0
 20
0.0
 30
0.0
  3
block 4
  1

  0
SPLINE
  5
A0
330
9C
100
AcDbEntity
  8
_U+30EC_U+30A4_U+30E4_U+30FC 1
370
     0
100
AcDbSpline
210
0.0
220
0.0
230
1.0
 70
    11
 71
     3
 72
    62
 73
    58
 74
     0
 42
0.0000000001
 43
0.0000000001
 12
1.0
 22
0.0
 32
0.0
 13
1.0
 23
0.0
 33
0.0
 40
0.0
 40
0.0
 40
0.0
 40
0.0
 40
1.0
 40
1.0
 40
1.0
 40
2.0
 40
2.0
 40
2.0
 40
3.0
 40
3.0
 40
3.0
 40
4.0
 40
4.0
 40
4.0
 40
5.0
 40
5.0
 40
5.0
 40
6.0
 40
6.0
 40
6.0
 40
7.0
 40
7.0
 40
7.0
 40
8.0
 40
8.0
 40
8.0
 40
9.0
 40
9.0
 40
9.0
 40
10.0
 40
10.0
 40
10.0
 40
11.0
 40
11.0
 40
11.0
 40
12.0
 40
12.0
 40
12.0
 40
13.0
 40
13.0
 40
13.0
 40
14.0
 40
14.0
 40
14.0
 40
15.0
 40
15.0
 40
15.0
 40
16.0
 40
16.0
 40
16.0
 40
17.0
 40
17.0
 40
17.0
 40
18.0
 40
18.0
 40
18.0
 40
19.0
 40
19.0
 40
19.0
 40
19.0
 10
91.25523950626605
 20
-144.402555302441
 30
0.0
 10
91.15981036132463
 20
-144.402555302441
 30
0.0
 10
90.94208032665685
 20
-144.3811957104325
 30
0.0
 10
90.81702336054228
 20
-144.195160554229
 30
0.0
 10
90.74295380760941
 20
-144.0828504414098
 30
0.0
 10
90.73881969302711
 20
-143.9836316914347
 30
0.0
 10
90.73468557844481
 20
-143.8988823424975
 30
0.0
 10
90.73468557844481
 20
-143.8988823424975
 30
0.0
 10
90.95482717995228
 20
-143.8988823424975
 30
0.0
 10
90.95482717995228
 20
-143.8988823424975
 30
0.0
 10
90.95689423724342
 20
-143.9732964049789
 30
0.0
 10
90.96722952369917
 20
-144.2075628979759
 30
0.0
 10
91.25076088213522
 20
-144.2075628979759
 30
0.0
 10
91.38804793722244
 20
-144.2075628979759
 30
0.0
 10
91.540665667219
 20
-144.1379719691738
 30
0.0
 10
91.540665667219
 20
-143.9099066480503
 30
0.0
 10
91.540665667219
 20
-143.7934624206489
 30
0.0
 10
91.50242510733273
 20
-143.7445420647583
 30
0.0
 10
91.47073022886843
 20
-143.712847186294
 30
0.0
 10
91.39666067593556
 20
-143.6391221429097
 30
0.0
 10
91.28038870330838
 20
-143.6260307800657
 30
0.0
 10
91.2256116850929
 20
-143.6260307800657
 30
0.0
 10
91.2063191503755
 20
-143.6260307800657
 30
0.0
 10
91.17049015732891
 20
-143.6280978373569
 30
0.0
 10
91.1429293934469
 20
-143.6322319519392
 30
0.0
 10
91.1429293934469
 20
-143.6322319519392
 30
0.0
 10
91.1429293934469
 20
-143.4379285665711
 30
0.0
 10
91.1429293934469
 20
-143.4379285665711
 30
0.0
 10
91.18116995333318
 20
-143.4441297384445
 30
0.0
 10
91.22320011825323
 20
-143.4461967957357
 30
0.0
 10
91.2297457996752
 20
-143.4461967957357
 30
0.0
 10
91.29520261389496
 20
-143.4461967957357
 30
0.0
 10
91.4938123686196
 20
-143.4248372037271
 30
0.0
 10
91.4938123686196
 20
-143.188503653439
 30
0.0
 10
91.4938123686196
 20
-143.0107367264001
 30
0.0
 10
91.36307099495437
 20
-142.9556151986361
 30
0.0
 10
91.25282793942638
 20
-142.9556151986361
 30
0.0
 10
90.98858911570771
 20
-142.9556151986361
 30
0.0
 10
90.9799763769946
 20
-143.188503653439
 30
0.0
 10
90.9758422624123
 20
-143.2601616395322
 30
0.0
 10
90.9758422624123
 20
-143.2601616395322
 30
0.0
 10
90.77258162878255
 20
-143.2601616395322
 30
0.0
 10
90.77258162878255
 20
-143.2601616395322
 30
0.0
 10
90.78119436749567
 20
-143.1354491829661
 30
0.0
 10
90.80875513137768
 20
-142.7585557368798
 30
0.0
 10
91.26557479272181
 20
-142.7585557368798
 30
0.0
 10
91.4896782540373
 20
-142.7585557368798
 30
0.0
 10
91.73083493800479
 20
-142.8860242698341
 30
0.0
 10
91.73083493800479
 20
-143.1816134624685
 30
0.0
 10
91.73083493800479
 20
-143.368337637769
 30
0.0
 10
91.6357503026119
 20
-143.450330910318
 30
0.0
 10
91.53618704308818
 20
-143.5116536099554
 30
0.0
 10
91.59750974272562
 20
-143.5392143738374
 30
0.0
 10
91.77941078434682
 20
-143.6198296081923
 30
0.0
 10
91.77941078434682
 20
-143.8968152852064
 30
0.0
 10
91.77941078434682
 20
-144.2351236618579
 30
0.0
 10
91.53205292850588
 20
-144.402555302441
 30
0.0
 10
91.25523950626605
 20
-144.402555302441
 30
0.0
  0
HATCH
  5
A1
330
9C
100
AcDbEntity
  8
_U+30EC_U+30A4_U+30E4_U+30FC 1
 62
   179
420
  2234388
100
AcDbHatch
 10
0.0
 20
0.0
 30
0.0
210
0.0
220
0.0
230
1.0
  2
SOLID
 70
     1
 71
     0
 91
        1
 92
        1
 93
        1
 72
     4
 94
        3
 73
     0
 74
     1
 95
       62
 96
       58
 40
0.0
 40
0.0
 40
0.0
 40
0.0
 40
1.0
 40
1.0
 40
1.0
 40
2.0
 40
2.0
 40
2.0
 40
3.0
 40
3.0
 40
3.0
 40
4.0
 40
4.0
 40
4.0
 40
5.0
 40
5.0
 40
5.0
 40
6.0
 40
6.0
 40
6.0
 40
7.0
 40
7.0
 40
7.0
 40
8.0
 40
8.0
 40
8.0
 40
9.0
 40
9.0
 40
9.0
 40
10.0
 40
10.0
 40
10.0
 40
11.0
 40
11.0
 40
11.0
 40
12.0
 40
12.0
 40
12.0
 40
13.0
 40
13.0
 40
13.0
 40
14.0
 40
14.0
 40
14.0
 40
15.0
 40
15.0
 40
15.0
 40
16.0
 40
16.0
 40
16.0
 40
17.0
 40
17.0
 40
17.0
 40
18.0
 40
18.0
 40
18.0
 40
19.0
 40
19.0
 40
19.0
 40
19.0
 10
91.25523950626605
 20
-144.402555302441
 10
91.15981036132463
 20
-144.402555302441
 10
90.94208032665685
 20
-144.3811957104325
 10
90.81702336054228
 20
-144.195160554229
 10
90.74295380760941
 20
-144.0828504414098
 10
90.73881969302711
 20
-143.9836316914347
 10
90.73468557844481
 20
-143.8988823424975
 10
90.73468557844481
 20
-143.8988823424975
 10
90.95482717995228
 20
-143.8988823424975
 10
90.95482717995228
 20
-143.8988823424975
 10
90.95689423724342
 20
-143.9732964049789
 10
90.96722952369917
 20
-144.2075628979759
 10
91.25076088213522
 20
-144.2075628979759
 10
91.38804793722244
 20
-144.2075628979759
 10
91.540665667219
 20
-144.1379719691738
 10
91.540665667219
 20
-143.9099066480503
 10
91.540665667219
 20
-143.7934624206489
 10
91.50242510733273
 20
-143.7445420647583
 10
91.47073022886843
 20
-143.712847186294
 10
91.39666067593556
 20
-143.6391221429097
 10
91.28038870330838
 20
-143.6260307800657
 10
91.2256116850929
 20
-143.6260307800657
 10
91.2063191503755
 20
-143.6260307800657
 10
91.17049015732891
 20
-143.6280978373569
 10
91.1429293934469
 20
-143.6322319519392
 10
91.1429293934469
 20
-143.6322319519392
 10
91.1429293934469
 20
-143.4379285665711
 10
91.1429293934469
 20
-143.4379285665711
 10
91.18116995333318
 20
-143.4441297384445
 10
91.22320011825323
 20
-143.4461967957357
 10
91.2297457996752
 20
-143.4461967957357
 10
91.29520261389496
 20
-143.4461967957357
 10
91.4938123686196
 20
-143.4248372037271
 10
91.4938123686196
 20
-143.188503653439
 10
91.4938123686196
 20
-143.0107367264001
 10
91.36307099495437
 20
-142.9556151986361
 10
91.25282793942638
 20
-142.9556151986361
 10
90.98858911570771
 20
-142.9556151986361
 10
90.9799763769946
 20
-143.188503653439
 10
90.9758422624123
 20
-143.2601616395322
 10
90.9758422624123
 20
-143.2601616395322
 10
90.77258162878255
 20
-143.2601616395322
 10
90.77258162878255
 20
-143.2601616395322
 10
90.78119436749567
 20
-143.1354491829661
 10
90.80875513137768
 20
-142.7585557368798
 10
91.26557479272181
 20
-142.7585557368798
 10
91.4896782540373
 20
-142.7585557368798
 10
91.73083493800479
 20
-142.8860242698341
 10
91.73083493800479
 20
-143.1816134624685
 10
91.73083493800479
 20
-143.368337637769
 10
91.6357503026119
 20
-143.450330910318
 10
91.53618704308818
 20
-143.5116536099554
 10
91.59750974272562
 20
-143.5392143738374
 10
91.77941078434682
 20
-143.6198296081923
 10
91.77941078434682
 20
-143.8968152852064
 10
91.77941078434682
 20
-144.2351236618579
 10
91.53205292850588
 20
-144.402555302441
 10
91.25523950626605
 20
-144.402555302441
 97
        0
 97
        0
 75
     2
 76
     1
 98
        0
  0
SPLINE
  5
A2
330
9C
100
AcDbEntity
  8
_U+30EC_U+30A4_U+30E4_U+30FC 1
370
     0
100
AcDbSpline
210
0.0
220
0.0
230
1.0
 70
    11
 71
     3
 72
    29
 73
    25
 74
     0
 42
0.0000000001
 43
0.0000000001
 12
1.0
 22
0.0
 32
0.0
 13
1.0
 23
0.0
 33
0.0
 40
0.0
 40
0.0
 40
0.0
 40
0.0
 40
1.0
 40
1.0
 40
1.0
 40
2.0
 40
2.0
 40
2.0
 40
3.0
 40
3.0
 40
3.0
 40
4.0
 40
4.0
 40
4.0
 40
5.0
 40
5.0
 40
5.0
 40
6.0
 40
6.0
 40
6.0
 40
7.0
 40
7.0
 40
7.0
 40
8.0
 40
8.0
 40
8.0
 40
8.0
 10
92.8380886269641
 20
-144.1738009622204
 30
0.0
 10
92.72991262872725
 20
-144.3832627677236
 30
0.0
 10
92.55662432581919
 20
-144.402555302441
 30
0.0
 10
92.44018009841774
 20
-144.402555302441
 30
0.0
 10
92.27929413925656
 20
-144.402555302441
 30
0.0
 10
92.1377007148128
 20
-144.3557020038416
 30
0.0
 10
92.0426160794199
 20
-144.1738009622204
 30
0.0
 10
91.93891870531388
 20
-143.9794975768524
 30
0.0
 10
91.91962617059649
 20
-143.7424750074672
 30
0.0
 10
91.91962617059649
 20
-143.5798665005634
 30
0.0
 10
91.91962617059649
 20
-143.4358615092799
 30
0.0
 10
91.93685164802274
 20
-143.1836805197596
 30
0.0
 10
92.0426160794199
 20
-142.9852430198092
 30
0.0
 10
92.15044756810822
 20
-142.7819823861795
 30
0.0
 10
92.3113335272694
 20
-142.7585557368798
 30
0.0
 10
92.44018009841774
 20
-142.7585557368798
 30
0.0
 10
92.59899900028775
 20
-142.7585557368798
 30
0.0
 10
92.74265948202267
 20
-142.8033419781881
 30
0.0
 10
92.8380886269641
 20
-142.9852430198092
 30
0.0
 10
92.93730737693929
 20
-143.1774793478862
 30
0.0
 10
92.96073402623898
 20
-143.4062336881068
 30
0.0
 10
92.96073402623898
 20
-143.5798665005634
 30
0.0
 10
92.96073402623898
 20
-143.7507432366318
 30
0.0
 10
92.93937443423044
 20
-143.9815646341435
 30
0.0
 10
92.8380886269641
 20
-144.1738009622204
 30
0.0
  0
SPLINE
  5
A3
330
9C
100
AcDbEntity
  8
_U+30EC_U+30A4_U+30E4_U+30FC 1
370
     0
100
AcDbSpline
210
0.0
220
0.0
230
1.0
 70
    11
 71
     3
 72
    17
 73
    13
 74
     0
 42
0.0000000001
 43
0.0000000001
 12
1.0
 22
0.0
 32
0.0
 13
1.0
 23
0.0
 33
0.0
 40
0.0
 40
0.0
 40
0.0
 40
0.0
 40
1.0
 40
1.0
 40
1.0
 40
2.0
 40
2.0
 40
2.0
 40
3.0
 40
3.0
 40
3.0
 40
4.0
 40
4.0
 40
4.0
 40
4.0
 10
92.44018009841774
 20
-142.9514810840538
 30
0.0
 10
92.19041067573713
 20
-142.9514810840538
 30
0.0
 10
92.14390188668625
 20
-143.2346679329413
 30
0.0
 10
92.14390188668625
 20
-143.5798665005634
 30
0.0
 10
92.14390188668625
 20
-143.8988823424975
 30
0.0
 10
92.18007538928137
 20
-144.2075628979759
 30
0.0
 10
92.44018009841774
 20
-144.2075628979759
 30
0.0
 10
92.6878824638072
 20
-144.2075628979759
 30
0.0
 10
92.73645831014922
 20
-143.9264431063795
 30
0.0
 10
92.73645831014922
 20
-143.5798665005634
 30
0.0
 10
92.73645831014922
 20
-143.2601616395322
 30
0.0
 10
92.69821775026296
 20
-142.9514810840538
 30
0.0
 10
92.44018009841774
 20
-142.9514810840538
 30
0.0
  0
HATCH
  5
A4
330
9C
100
AcDbEntity
  8
_U+30EC_U+30A4_U+30E4_U+30FC 1
 62
   179
420
  2234388
100
AcDbHatch
 10
0.0
 20
0.0
 30
0.0
210
0.0
220
0.0
230
1.0
  2
SOLID
 70
     1
 71
     0
 91
        2
 92
        1
 93
        1
 72
     4
 94
        3
 73
     0
 74
     1
 95
       29
 96
       25
 40
0.0
 40
0.0
 40
0.0
 40
0.0
 40
1.0
 40
1.0
 40
1.0
 40
2.0
 40
2.0
 40
2.0
 40
3.0
 40
3.0
 40
3.0
 40
4.0
 40
4.0
 40
4.0
 40
5.0
 40
5.0
 40
5.0
 40
6.0
 40
6.0
 40
6.0
 40
7.0
 40
7.0
 40
7.0
 40
8.0
 40
8.0
 40
8.0
 40
8.0
 10
92.8380886269641
 20
-144.1738009622204
 10
92.72991262872725
 20
-144.3832627677236
 10
92.55662432581919
 20
-144.402555302441
 10
92.44018009841774
 20
-144.402555302441
 10
92.27929413925656
 20
-144.402555302441
 10
92.1377007148128
 20
-144.3557020038416
 10
92.0426160794199
 20
-144.1738009622204
 10
91.93891870531388
 20
-143.9794975768524
 10
91.91962617059649
 20
-143.7424750074672
 10
91.91962617059649
 20
-143.5798665005634
 10
91.91962617059649
 20
-143.4358615092799
 10
91.93685164802274
 20
-143.1836805197596
 10
92.0426160794199
 20
-142.9852430198092
 10
92.15044756810822
 20
-142.7819823861795
 10
92.3113335272694
 20
-142.7585557368798
 10
92.44018009841774
 20
-142.7585557368798
 10
92.59899900028775
 20
-142.7585557368798
 10
92.74265948202267
 20
-142.8033419781881
 10
92.8380886269641
 20
-142.9852430198092
 10
92.93730737693929
 20
-143.1774793478862
 10
92.96073402623898
 20
-143.4062336881068
 10
92.96073402623898
 20
-143.5798665005634
 10
92.96073402623898
 20
-143.7507432366318
 10
92.93937443423044
 20
-143.9815646341435
 10
92.8380886269641
 20
-144.1738009622204
 97
        0
 97
        0
 92
        1
 93
        1
 72
     4
 94
        3
 73
     0
 74
     1
 95
       17
 96
       13
 40
0.0
 40
0.0
 40
0.0
 40
0.0
 40
1.0
 40
1.0
 40
1.0
 40
2.0
 40
2.0
 40
2.0
 40
3.0
 40
3.0
 40
3.0
 40
4.0
 40
4.0
 40
4.0
 40
4.0
 10
92.44018009841774
 20
-142.9514810840538
 10
92.19041067573713
 20
-142.9514810840538
 10
92.14390188668625
 20
-143.2346679329413
 10
92.14390188668625
 20
-143.5798665005634
 10
92.14390188668625
 20
-143.8988823424975
 10
92.18007538928137
 20
-144.2075628979759
 10
92.44018009841774
 20
-144.2075628979759
 10
92.6878824638072
 20
-144.2075628979759
 10
92.73645831014922
 20
-143.9264431063795
 10
92.73645831014922
 20
-143.5798665005634
 10
92.73645831014922
 20
-143.2601616395322
 10
92.69821775026296
 20
-142.9514810840538
 10
92.44018009841774
 20
-142.9514810840538
 97
        0
 97
        0
 75
     2
 76
     1
 98
        0
  0
ENDBLK
  5
9F
330
9C
100
AcDbEntity
  8
0
100
AcDbBlockEnd
  0
ENDSEC
  0
SECTION
  2
ENTITIES
  0
POLYLINE
  5
41
330
1F
100
AcDbEntity
  8
_U+30EC_U+30A4_U+30E4_U+30FC 1
370
     0
100
AcDb2dPolyline
 66
     1
 10
0.0
 20
0.0
 30
0.0
  0
VERTEX
  5
42
330
41
100
AcDbEntity
  8
_U+30EC_U+30A4_U+30E4_U+30FC 1
370
     0
100
AcDbVertex
100
AcDb2dVertex
 10
78.92746409750374
 20
-110.948611083374
 30
0.0
  0
VERTEX
  5
43
330
41
100
AcDbEntity
  8
_U+30EC_U+30A4_U+30E4_U+30FC 1
370
     0
100
AcDbVertex
100
AcDb2dVertex
 10
76.92724942631125
 20
-110.948611083374
 30
0.0
  0
VERTEX
  5
44
330
41
100
AcDbEntity
  8
_U+30EC_U+30A4_U+30E4_U+30FC 1
370
     0
100
AcDbVertex
100
AcDb2dVertex
 10
76.92724942631125
 20
-140.9485157980962
 30
0.0
  0
VERTEX
  5
45
330
41
100
AcDbEntity
  8
_U+30EC_U+30A4_U+30E4_U+30FC 1
370
     0
100
AcDbVertex
100
AcDb2dVertex
 10
106.9278236609328
 20
-140.9485157980962
 30
0.0
  0
VERTEX
  5
46
330
41
100
AcDbEntity
  8
_U+30EC_U+30A4_U+30E4_U+30FC 1
370
     0
100
AcDbVertex
100
AcDb2dVertex
 10
106.9278236609328
 20
-138.948618576374
 30
0.0
  0
VERTEX
  5
47
330
41
100
AcDbEntity
  8
_U+30EC_U+30A4_U+30E4_U+30FC 1
370
     0
100
AcDbVertex
100
AcDb2dVertex
 10
78.92746409750374
 20
-138.948618576374
 30
0.0
  0
VERTEX
  5
48
330
41
100
AcDbEntity
  8
_U+30EC_U+30A4_U+30E4_U+30FC 1
370
     0
100
AcDbVertex
100
AcDb2dVertex
 10
78.92746409750374
 20
-110.948611083374
 30
0.0
  0
SEQEND
  5
4A
330
41
100
AcDbEntity
  8
_U+30EC_U+30A4_U+30E4_U+30FC 1
370
     0
  0
HATCH
  5
49
330
1F
100
AcDbEntity
  8
_U+30EC_U+30A4_U+30E4_U+30FC 1
 62
   253
420
 11711154
100
AcDbHatch
 10
0.0
 20
0.0
 30
0.0
210
0.0
220
0.0
230
1.0
  2
SOLID
 70
     1
 71
     0
 91
        1
 92
        1
 93
        6
 72
     1
 10
78.92746409750374
 20
-110.948611083374
 11
76.92724942631125
 21
-110.948611083374
 72
     1
 10
76.92724942631125
 20
-110.948611083374
 11
76.92724942631125
 21
-140.9485157980962
 72
     1
 10
76.92724942631125
 20
-140.9485157980962
 11
106.9278236609328
 21
-140.9485157980962
 72
     1
 10
106.9278236609328
 20
-140.9485157980962
 11
106.9278236609328
 21
-138.948618576374
 72
     1
 10
106.9278236609328
 20
-138.948618576374
 11
78.92746409750374
 21
-138.948618576374
 72
     1
 10
78.92746409750374
 20
-138.948618576374
 11
78.92746409750374
 21
-110.948611083374
 97
        0
 75
     2
 76
     1
 98
        0
  0
POLYLINE
  5
4B
330
1F
100
AcDbEntity
  8
_U+30EC_U+30A4_U+30E4_U+30FC 1
 62
   179
420
  2234388
370
    25
100
AcDb2dPolyline
 66
     1
 10
0.0
 20
0.0
 30
0.0
  0
VERTEX
  5
4C
330
4B
100
AcDbEntity
  8
_U+30EC_U+30A4_U+30E4_U+30FC 1
 62
   179
420
  2234388
370
    25
100
AcDbVertex
100
AcDb2dVertex
 10
76.92724942631125
 20
-140.9485157980962
 30
0.0
  0
VERTEX
  5
4D
330
4B
100
AcDbEntity
  8
_U+30EC_U+30A4_U+30E4_U+30FC 1
 62
   179
420
  2234388
370
    25
100
AcDbVertex
100
AcDb2dVertex
 10
106.9278236609328
 20
-140.9485157980962
 30
0.0
  0
SEQEND
  5
4E
330
4B
100
AcDbEntity
  8
_U+30EC_U+30A4_U+30E4_U+30FC 1
 62
   179
420
  2234388
370
    25
  0
POLYLINE
  5
4F
330
1F
100
AcDbEntity
  8
_U+30EC_U+30A4_U+30E4_U+30FC 1
 62
   179
420
  2234388
370
    25
100
AcDb2dPolyline
 66
     1
 10
0.0
 20
0.0
 30
0.0
  0
VERTEX
  5
50
330
4F
100
AcDbEntity
  8
_U+30EC_U+30A4_U+30E4_U+30FC 1
 62
   179
420
  2234388
370
    25
100
AcDbVertex
100
AcDb2dVertex
 10
76.92724942631125
 20
-110.948611083374
 30
0.0
  0
VERTEX
  5
51
330
4F
100
AcDbEntity
  8
_U+30EC_U+30A4_U+30E4_U+30FC 1
 62
   179
420
  2234388
370
    25
100
AcDbVertex
100
AcDb2dVertex
 10
76.92724942631125
 20
-140.9485157980962
 30
0.0
  0
SEQEND
  5
52
330
4F
100
AcDbEntity
  8
_U+30EC_U+30A4_U+30E4_U+30FC 1
 62
   179
420
  2234388
370
    25
  0
POLYLINE
  5
53
330
1F
100
AcDbEntity
  8
_U+30EC_U+30A4_U+30E4_U+30FC 1
 62
   179
420
  2234388
370
    25
100
AcDb2dPolyline
 66
     1
 10
0.0
 20
0.0
 30
0.0
  0
VERTEX
  5
54
330
53
100
AcDbEntity
  8
_U+30EC_U+30A4_U+30E4_U+30FC 1
 62
   179
420
  2234388
370
    25
100
AcDbVertex
100
AcDb2dVertex
 10
78.92746409750374
 20
-138.948618576374
 30
0.0
  0
VERTEX
  5
55
330
53
100
AcDbEntity
  8
_U+30EC_U+30A4_U+30E4_U+30FC 1
 62
   179
420
  2234388
370
    25
100
AcDbVertex
100
AcDb2dVertex
 10
106.9278236609328
 20
-138.948618576374
 30
0.0
  0
SEQEND
  5
56
330
53
100
AcDbEntity
  8
_U+30EC_U+30A4_U+30E4_U+30FC 1
 62
   179
420
  2234388
370
    25
  0
POLYLINE
  5
57
330
1F
100
AcDbEntity
  8
_U+30EC_U+30A4_U+30E4_U+30FC 1
 62
   179
420
  2234388
370
    25
100
AcDb2dPolyline
 66
     1
 10
0.0
 20
0.0
 30
0.0
  0
VERTEX
  5
58
330
57
100
AcDbEntity
  8
_U+30EC_U+30A4_U+30E4_U+30FC 1
 62
   179
420
  2234388
370
    25
100
AcDbVertex
100
AcDb2dVertex
 10
78.92746409750374
 20
-110.948611083374
 30
0.0
  0
VERTEX
  5
59
330
57
100
AcDbEntity
  8
_U+30EC_U+30A4_U+30E4_U+30FC 1
 62
   179
420
  2234388
370
    25
100
AcDbVertex
100
AcDb2dVertex
 10
78.92746409750374
 20
-138.948618576374
 30
0.0
  0
SEQEND
  5
5A
330
57
100
AcDbEntity
  8
_U+30EC_U+30A4_U+30E4_U+30FC 1
 62
   179
420
  2234388
370
    25
  0
POLYLINE
  5
5B
330
1F
100
AcDbEntity
  8
_U+30EC_U+30A4_U+30E4_U+30FC 1
 62
   179
420
  2234388
370
    25
100
AcDb2dPolyline
 66
     1
 10
0.0
 20
0.0
 30
0.0
  0
VERTEX
  5
5C
330
5B
100
AcDbEntity
  8
_U+30EC_U+30A4_U+30E4_U+30FC 1
 62
   179
420
  2234388
370
    25
100
AcDbVertex
100
AcDb2dVertex
 10
76.92724942631125
 20
-110.948611083374
 30
0.0
  0
VERTEX
  5
5D
330
5B
100
AcDbEntity
  8
_U+30EC_U+30A4_U+30E4_U+30FC 1
 62
   179
420
  2234388
370
    25
100
AcDbVertex
100
AcDb2dVertex
 10
78.92746409750374
 20
-110.948611083374
 30
0.0
  0
SEQEND
  5
5E
330
5B
100
AcDbEntity
  8
_U+30EC_U+30A4_U+30E4_U+30FC 1
 62
   179
420
  2234388
370
    25
  0
POLYLINE
  5
5F
330
1F
100
AcDbEntity
  8
_U+30EC_U+30A4_U+30E4_U+30FC 1
 62
   179
420
  2234388
370
    25
100
AcDb2dPolyline
 66
     1
 10
0.0
 20
0.0
 30
0.0
  0
VERTEX
  5
60
330
5F
100
AcDbEntity
  8
_U+30EC_U+30A4_U+30E4_U+30FC 1
 62
   179
420
  2234388
370
    25
100
AcDbVertex
100
AcDb2dVertex
 10
106.9278236609328
 20
-138.948618576374
 30
0.0
  0
VERTEX
  5
61
330
5F
100
AcDbEntity
  8
_U+30EC_U+30A4_U+30E4_U+30FC 1
 62
   179
420
  2234388
370
    25
100
AcDbVertex
100
AcDb2dVertex
 10
106.9278236609328
 20
-140.9485157980962
 30
0.0
  0
SEQEND
  5
62
330
5F
100
AcDbEntity
  8
_U+30EC_U+30A4_U+30E4_U+30FC 1
 62
   179
420
  2234388
370
    25
  0
SPLINE
  5
63
330
1F
100
AcDbEntity
  8
_U+30EC_U+30A4_U+30E4_U+30FC 1
 62
   179
420
  2234388
370
     9
100
AcDbSpline
210
0.0
220
0.0
230
1.0
 70
    11
 71
     3
 72
    17
 73
    13
 74
     0
 42
0.0000000001
 43
0.0000000001
 12
1.0
 22
0.0
 32
0.0
 13
1.0
 23
0.0
 33
0.0
 40
0.0
 40
0.0
 40
0.0
 40
0.0
 40
1.0
 40
1.0
 40
1.0
 40
2.0
 40
2.0
 40
2.0
 40
3.0
 40
3.0
 40
3.0
 40
4.0
 40
4.0
 40
4.0
 40
4.0
 10
111.027489389675
 20
-138.948618576374
 30
0.0
 10
111.027489389675
 20
-138.8935146874991
 30
0.0
 10
110.9827218908171
 20
-138.8487119097323
 30
0.0
 10
110.9275827255571
 20
-138.8487119097323
 30
0.0
 10
110.8724788380741
 20
-138.8487119097323
 30
0.0
 10
110.8276760614393
 20
-138.8935146874991
 30
0.0
 10
110.8276760614393
 20
-138.948618576374
 30
0.0
 10
110.8276760614393
 20
-139.0040752430267
 30
0.0
 10
110.8724788380741
 20
-139.0488780207934
 30
0.0
 10
110.9275827255571
 20
-139.0488780207934
 30
0.0
 10
110.9827218908171
 20
-139.0488780207934
 30
0.0
 10
111.027489389675
 20
-139.0040752430267
 30
0.0
 10
111.027489389675
 20
-138.948618576374
 30
0.0
  0
SPLINE
  5
64
330
1F
100
AcDbEntity
  8
_U+30EC_U+30A4_U+30E4_U+30FC 1
 62
   179
420
  2234388
370
     9
100
AcDbSpline
210
0.0
220
0.0
230
1.0
 70
    11
 71
     3
 72
    17
 73
    13
 74
     0
 42
0.0000000001
 43
0.0000000001
 12
1.0
 22
0.0
 32
0.0
 13
1.0
 23
0.0
 33
0.0
 40
0.0
 40
0.0
 40
0.0
 40
0.0
 40
1.0
 40
1.0
 40
1.0
 40
2.0
 40
2.0
 40
2.0
 40
3.0
 40
3.0
 40
3.0
 40
4.0
 40
4.0
 40
4.0
 40
4.0
 10
111.027489389675
 20
-140.9485157980962
 30
0.0
 10
111.027489389675
 20
-140.8933766314431
 30
0.0
 10
110.9827218908171
 20
-140.8486091314546
 30
0.0
 10
110.9275827255571
 20
-140.8486091314546
 30
0.0
 10
110.8724788380741
 20
-140.8486091314546
 30
0.0
 10
110.8276760614393
 20
-140.8933766314431
 30
0.0
 10
110.8276760614393
 20
-140.9485157980962
 30
0.0
 10
110.8276760614393
 20
-141.0039724647489
 30
0.0
 10
110.8724788380741
 20
-141.0487399647381
 30
0.0
 10
110.9275827255571
 20
-141.0487399647381
 30
0.0
 10
110.9827218908171
 20
-141.0487399647381
 30
0.0
 10
111.027489389675
 20
-141.0039724647489
 30
0.0
 10
111.027489389675
 20
-140.9485157980962
 30
0.0
  0
SPLINE
  5
65
330
1F
100
AcDbEntity
  8
_U+30EC_U+30A4_U+30E4_U+30FC 1
 62
   179
420
  2234388
370
     9
100
AcDbSpline
210
0.0
220
0.0
230
1.0
 70
    11
 71
     3
 72
    17
 73
    13
 74
     0
 42
0.0000000001
 43
0.0000000001
 12
1.0
 22
0.0
 32
0.0
 13
1.0
 23
0.0
 33
0.0
 40
0.0
 40
0.0
 40
0.0
 40
0.0
 40
1.0
 40
1.0
 40
1.0
 40
2.0
 40
2.0
 40
2.0
 40
3.0
 40
3.0
 40
3.0
 40
4.0
 40
4.0
 40
4.0
 40
4.0
 10
73.02739702580477
 20
-110.948611083374
 30
0.0
 10
73.02739702580477
 20
-110.8935071944987
 30
0.0
 10
72.9826295269469
 20
-110.8487044167323
 30
0.0
 10
72.92749036168694
 20
-110.8487044167323
 30
0.0
 10
72.87238647420386
 20
-110.8487044167323
 30
0.0
 10
72.82758369756911
 20
-110.8935071944987
 30
0.0
 10
72.82758369756911
 20
-110.948611083374
 30
0.0
 10
72.82758369756911
 20
-111.0037502500267
 30
0.0
 10
72.87238647420386
 20
-111.0485177500156
 30
0.0
 10
72.92749036168694
 20
-111.0485177500156
 30
0.0
 10
72.9826295269469
 20
-111.0485177500156
 30
0.0
 10
73.02739702580477
 20
-111.0037502500267
 30
0.0
 10
73.02739702580477
 20
-110.948611083374
 30
0.0
  0
SPLINE
  5
66
330
1F
100
AcDbEntity
  8
_U+30EC_U+30A4_U+30E4_U+30FC 1
 62
   179
420
  2234388
370
     9
100
AcDbSpline
210
0.0
220
0.0
230
1.0
 70
    11
 71
     3
 72
    17
 73
    13
 74
     0
 42
0.0000000001
 43
0.0000000001
 12
1.0
 22
0.0
 32
0.0
 13
1.0
 23
0.0
 33
0.0
 40
0.0
 40
0.0
 40
0.0
 40
0.0
 40
1.0
 40
1.0
 40
1.0
 40
2.0
 40
2.0
 40
2.0
 40
3.0
 40
3.0
 40
3.0
 40
4.0
 40
4.0
 40
4.0
 40
4.0
 10
73.02739702580477
 20
-140.9485157980962
 30
0.0
 10
73.02739702580477
 20
-140.8933766314431
 30
0.0
 10
72.9826295269469
 20
-140.8486091314546
 30
0.0
 10
72.92749036168694
 20
-140.8486091314546
 30
0.0
 10
72.87238647420386
 20
-140.8486091314546
 30
0.0
 10
72.82758369756911
 20
-140.8933766314431
 30
0.0
 10
72.82758369756911
 20
-140.9485157980962
 30
0.0
 10
72.82758369756911
 20
-141.0039724647489
 30
0.0
 10
72.87238647420386
 20
-141.0487399647381
 30
0.0
 10
72.92749036168694
 20
-141.0487399647381
 30
0.0
 10
72.9826295269469
 20
-141.0487399647381
 30
0.0
 10
73.02739702580477
 20
-141.0039724647489
 30
0.0
 10
73.02739702580477
 20
-140.9485157980962
 30
0.0
  0
SPLINE
  5
67
330
1F
100
AcDbEntity
  8
_U+30EC_U+30A4_U+30E4_U+30FC 1
 62
   179
420
  2234388
370
     9
100
AcDbSpline
210
0.0
220
0.0
230
1.0
 70
    11
 71
     3
 72
    17
 73
    13
 74
     0
 42
0.0000000001
 43
0.0000000001
 12
1.0
 22
0.0
 32
0.0
 13
1.0
 23
0.0
 33
0.0
 40
0.0
 40
0.0
 40
0.0
 40
0.0
 40
1.0
 40
1.0
 40
1.0
 40
2.0
 40
2.0
 40
2.0
 40
3.0
 40
3.0
 40
3.0
 40
4.0
 40
4.0
 40
4.0
 40
4.0
 10
77.02715609042909
 20
-144.9485924637627
 30
0.0
 10
77.02715609042909
 20
-144.8934885748878
 30
0.0
 10
76.98238859157121
 20
-144.848685797121
 30
0.0
 10
76.92724942631125
 20
-144.848685797121
 30
0.0
 10
76.87214553882818
 20
-144.848685797121
 30
0.0
 10
76.82734276219341
 20
-144.8934885748878
 30
0.0
 10
76.82734276219341
 20
-144.9485924637627
 30
0.0
 10
76.82734276219341
 20
-145.0037316304158
 30
0.0
 10
76.87214553882818
 20
-145.0484991304043
 30
0.0
 10
76.92724942631125
 20
-145.0484991304043
 30
0.0
 10
76.98238859157121
 20
-145.0484991304043
 30
0.0
 10
77.02715609042909
 20
-145.0037316304158
 30
0.0
 10
77.02715609042909
 20
-144.9485924637627
 30
0.0
  0
SPLINE
  5
68
330
1F
100
AcDbEntity
  8
_U+30EC_U+30A4_U+30E4_U+30FC 1
 62
   179
420
  2234388
370
     9
100
AcDbSpline
210
0.0
220
0.0
230
1.0
 70
    11
 71
     3
 72
    17
 73
    13
 74
     0
 42
0.0000000001
 43
0.0000000001
 12
1.0
 22
0.0
 32
0.0
 13
1.0
 23
0.0
 33
0.0
 40
0.0
 40
0.0
 40
0.0
 40
0.0
 40
1.0
 40
1.0
 40
1.0
 40
2.0
 40
2.0
 40
2.0
 40
3.0
 40
3.0
 40
3.0
 40
4.0
 40
4.0
 40
4.0
 40
4.0
 10
107.0277303250507
 20
-144.9485924637627
 30
0.0
 10
107.0277303250507
 20
-144.8934885748878
 30
0.0
 10
106.9829628261928
 20
-144.848685797121
 30
0.0
 10
106.9278236609328
 20
-144.848685797121
 30
0.0
 10
106.8720142179122
 20
-144.848685797121
 30
0.0
 10
106.8272467190543
 20
-144.8934885748878
 30
0.0
 10
106.8272467190543
 20
-144.9485924637627
 30
0.0
 10
106.8272467190543
 20
-145.0037316304158
 30
0.0
 10
106.8720142179122
 20
-145.0484991304043
 30
0.0
 10
106.9278236609328
 20
-145.0484991304043
 30
0.0
 10
106.9829628261928
 20
-145.0484991304043
 30
0.0
 10
107.0277303250507
 20
-145.0037316304158
 30
0.0
 10
107.0277303250507
 20
-144.9485924637627
 30
0.0
  0
POLYLINE
  5
69
330
1F
100
AcDbEntity
  8
_U+30EC_U+30A4_U+30E4_U+30FC 1
 62
   179
420
  2234388
370
     9
100
AcDb2dPolyline
 66
     1
 10
0.0
 20
0.0
 30
0.0
  0
VERTEX
  5
6A
330
69
100
AcDbEntity
  8
_U+30EC_U+30A4_U+30E4_U+30FC 1
 62
   179
420
  2234388
370
     9
100
AcDbVertex
100
AcDb2dVertex
 10
110.9275827255571
 20
-138.948618576374
 30
0.0
  0
VERTEX
  5
6B
330
69
100
AcDbEntity
  8
_U+30EC_U+30A4_U+30E4_U+30FC 1
 62
   179
420
  2234388
370
     9
100
AcDbVertex
100
AcDb2dVertex
 10
110.9275827255571
 20
-141.9486055200683
 30
0.0
  0
SEQEND
  5
6C
330
69
100
AcDbEntity
  8
_U+30EC_U+30A4_U+30E4_U+30FC 1
 62
   179
420
  2234388
370
     9
  0
POLYLINE
  5
6D
330
1F
100
AcDbEntity
  8
_U+30EC_U+30A4_U+30E4_U+30FC 1
 62
   179
420
  2234388
370
     9
100
AcDb2dPolyline
 66
     1
 10
0.0
 20
0.0
 30
0.0
  0
VERTEX
  5
6E
330
6D
100
AcDbEntity
  8
_U+30EC_U+30A4_U+30E4_U+30FC 1
 62
   179
420
  2234388
370
     9
100
AcDbVertex
100
AcDb2dVertex
 10
109.4675766516939
 20
-138.948618576374
 30
0.0
  0
VERTEX
  5
6F
330
6D
100
AcDbEntity
  8
_U+30EC_U+30A4_U+30E4_U+30FC 1
 62
   179
420
  2234388
370
     9
100
AcDbVertex
100
AcDb2dVertex
 10
111.9273549222731
 20
-138.948618576374
 30
0.0
  0
SEQEND
  5
70
330
6D
100
AcDbEntity
  8
_U+30EC_U+30A4_U+30E4_U+30FC 1
 62
   179
420
  2234388
370
     9
  0
POLYLINE
  5
71
330
1F
100
AcDbEntity
  8
_U+30EC_U+30A4_U+30E4_U+30FC 1
 62
   179
420
  2234388
370
     9
100
AcDb2dPolyline
 66
     1
 10
0.0
 20
0.0
 30
0.0
  0
VERTEX
  5
72
330
71
100
AcDbEntity
  8
_U+30EC_U+30A4_U+30E4_U+30FC 1
 62
   179
420
  2234388
370
     9
100
AcDbVertex
100
AcDb2dVertex
 10
109.4675766516939
 20
-140.9485157980962
 30
0.0
  0
VERTEX
  5
73
330
71
100
AcDbEntity
  8
_U+30EC_U+30A4_U+30E4_U+30FC 1
 62
   179
420
  2234388
370
     9
100
AcDbVertex
100
AcDb2dVertex
 10
111.9273549222731
 20
-140.9485157980962
 30
0.0
  0
SEQEND
  5
74
330
71
100
AcDbEntity
  8
_U+30EC_U+30A4_U+30E4_U+30FC 1
 62
   179
420
  2234388
370
     9
  0
INSERT
  5
76
330
1F
100
AcDbEntity
  8
_U+30EC_U+30A4_U+30E4_U+30FC 1
100
AcDbBlockReference
  2
block 2
 10
0.0
 20
0.0
 30
0.0
  0
POLYLINE
  5
7B
330
1F
100
AcDbEntity
  8
_U+30EC_U+30A4_U+30E4_U+30FC 1
 62
   179
420
  2234388
370
     9
100
AcDb2dPolyline
 66
     1
 10
0.0
 20
0.0
 30
0.0
  0
VERTEX
  5
7C
330
7B
100
AcDbEntity
  8
_U+30EC_U+30A4_U+30E4_U+30FC 1
 62
   179
420
  2234388
370
     9
100
AcDbVertex
100
AcDb2dVertex
 10
72.92749036168694
 20
-110.948611083374
 30
0.0
  0
VERTEX
  5
7D
330
7B
100
AcDbEntity
  8
_U+30EC_U+30A4_U+30E4_U+30FC 1
 62
   179
420
  2234388
370
     9
100
AcDbVertex
100
AcDb2dVertex
 10
72.92749036168694
 20
-140.9485157980962
 30
0.0
  0
SEQEND
  5
7E
330
7B
100
AcDbEntity
  8
_U+30EC_U+30A4_U+30E4_U+30FC 1
 62
   179
420
  2234388
370
     9
  0
POLYLINE
  5
7F
330
1F
100
AcDbEntity
  8
_U+30EC_U+30A4_U+30E4_U+30FC 1
 62
   179
420
  2234388
370
     9
100
AcDb2dPolyline
 66
     1
 10
0.0
 20
0.0
 30
0.0
  0
VERTEX
  5
80
330
7F
100
AcDbEntity
  8
_U+30EC_U+30A4_U+30E4_U+30FC 1
 62
   179
420
  2234388
370
     9
100
AcDbVertex
100
AcDb2dVertex
 10
74.38753171332706
 20
-110.948611083374
 30
0.0
  0
VERTEX
  5
81
330
7F
100
AcDbEntity
  8
_U+30EC_U+30A4_U+30E4_U+30FC 1
 62
   179
420
  2234388
370
     9
100
AcDbVertex
100
AcDb2dVertex
 10
71.92771816497103
 20
-110.948611083374
 30
0.0
  0
SEQEND
  5
82
330
7F
100
AcDbEntity
  8
_U+30EC_U+30A4_U+30E4_U+30FC 1
 62
   179
420
  2234388
370
     9
  0
POLYLINE
  5
83
330
1F
100
AcDbEntity
  8
_U+30EC_U+30A4_U+30E4_U+30FC 1
 62
   179
420
  2234388
370
     9
100
AcDb2dPolyline
 66
     1
 10
0.0
 20
0.0
 30
0.0
  0
VERTEX
  5
84
330
83
100
AcDbEntity
  8
_U+30EC_U+30A4_U+30E4_U+30FC 1
 62
   179
420
  2234388
370
     9
100
AcDbVertex
100
AcDb2dVertex
 10
74.38753171332706
 20
-140.9485157980962
 30
0.0
  0
VERTEX
  5
85
330
83
100
AcDbEntity
  8
_U+30EC_U+30A4_U+30E4_U+30FC 1
 62
   179
420
  2234388
370
     9
100
AcDbVertex
100
AcDb2dVertex
 10
71.92771816497103
 20
-140.9485157980962
 30
0.0
  0
SEQEND
  5
86
330
83
100
AcDbEntity
  8
_U+30EC_U+30A4_U+30E4_U+30FC 1
 62
   179
420
  2234388
370
     9
  0
INSERT
  5
88
330
1F
100
AcDbEntity
  8
_U+30EC_U+30A4_U+30E4_U+30FC 1
100
AcDbBlockReference
  2
block 3
 10
0.0
 20
0.0
 30
0.0
  0
POLYLINE
  5
90
330
1F
100
AcDbEntity
  8
_U+30EC_U+30A4_U+30E4_U+30FC 1
 62
   179
420
  2234388
370
     9
100
AcDb2dPolyline
 66
     1
 10
0.0
 20
0.0
 30
0.0
  0
VERTEX
  5
91
330
90
100
AcDbEntity
  8
_U+30EC_U+30A4_U+30E4_U+30FC 1
 62
   179
420
  2234388
370
     9
100
AcDbVertex
100
AcDb2dVertex
 10
76.92724942631125
 20
-144.9485924637627
 30
0.0
  0
VERTEX
  5
92
330
90
100
AcDbEntity
  8
_U+30EC_U+30A4_U+30E4_U+30FC 1
 62
   179
420
  2234388
370
     9
100
AcDbVertex
100
AcDb2dVertex
 10
106.9278236609328
 20
-144.9485924637627
 30
0.0
  0
SEQEND
  5
93
330
90
100
AcDbEntity
  8
_U+30EC_U+30A4_U+30E4_U+30FC 1
 62
   179
420
  2234388
370
     9
  0
POLYLINE
  5
94
330
1F
100
AcDbEntity
  8
_U+30EC_U+30A4_U+30E4_U+30FC 1
 62
   179
420
  2234388
370
     9
100
AcDb2dPolyline
 66
     1
 10
0.0
 20
0.0
 30
0.0
  0
VERTEX
  5
95
330
94
100
AcDbEntity
  8
_U+30EC_U+30A4_U+30E4_U+30FC 1
 62
   179
420
  2234388
370
     9
100
AcDbVertex
100
AcDb2dVertex
 10
76.92724942631125
 20
-143.4885863530165
 30
0.0
  0
VERTEX
  5
96
330
94
100
AcDbEntity
  8
_U+30EC_U+30A4_U+30E4_U+30FC 1
 62
   179
420
  2234388
370
     9
100
AcDbVertex
100
AcDb2dVertex
 10
76.92724942631125
 20
-145.948717463513
 30
0.0
  0
SEQEND
  5
97
330
94
100
AcDbEntity
  8
_U+30EC_U+30A4_U+30E4_U+30FC 1
 62
   179
420
  2234388
370
     9
  0
POLYLINE
  5
98
330
1F
100
AcDbEntity
  8
_U+30EC_U+30A4_U+30E4_U+30FC 1
 62
   179
420
  2234388
370
     9
100
AcDb2dPolyline
 66
     1
 10
0.0
 20
0.0
 30
0.0
  0
VERTEX
  5
99
330
98
100
AcDbEntity
  8
_U+30EC_U+30A4_U+30E4_U+30FC 1
 62
   179
420
  2234388
370
     9
100
AcDbVertex
100
AcDb2dVertex
 10
106.9278236609328
 20
-143.4885863530165
 30
0.0
  0
VERTEX
  5
9A
330
98
100
AcDbEntity
  8
_U+30EC_U+30A4_U+30E4_U+30FC 1
 62
   179
420
  2234388
370
     9
100
AcDbVertex
100
AcDb2dVertex
 10
106.9278236609328
 20
-145.948717463513
 30
0.0
  0
SEQEND
  5
9B
330
98
100
AcDbEntity
  8
_U+30EC_U+30A4_U+30E4_U+30FC 1
 62
   179
420
  2234388
370
     9
  0
INSERT
  5
9D
330
1F
100
AcDbEntity
  8
_U+30EC_U+30A4_U+30E4_U+30FC 1
100
AcDbBlockReference
  2
block 4
 10
0.0
 20
0.0
 30
0.0
  0
ENDSEC
  0
SECTION
  2
OBJECTS
  0
DICTIONARY
  5
C
330
0
100
AcDbDictionary
281
     1
  3
ACAD_GROUP
350
D
  3
ACAD_LAYOUT
350
1A
  3
ACAD_MATERIAL
350
3B
  3
ACAD_MLEADERSTYLE
350
A6
  3
ACAD_MLINESTYLE
350
17
  3
ACAD_PLOTSETTINGS
350
19
  3
ACAD_PLOTSTYLENAME
350
E
  3
ACAD_TABLESTYLE
350
A5
  3
ACAD_VISUALSTYLE
350
2A
  0
SUN
  5
3F
330
29
100
AcDbSun
 90
        1
290
     0
 63
     7
421
 16777215
 40
1.0
291
     1
 91
  2455826
 92
 54000000
292
     0
 70
     2
 71
   256
280
     1
  0
DICTIONARY
  5
D
102
{ACAD_REACTORS
330
C
102
}
330
C
100
AcDbDictionary
281
     1
  0
DICTIONARY
  5
1A
102
{ACAD_REACTORS
330
C
102
}
330
C
100
AcDbDictionary
281
     1
  3
Layout1
350
1E
  3
Layout2
350
26
  3
Model
350
22
  0
DICTIONARY
  5
3B
102
{ACAD_REACTORS
330
C
102
}
330
C
100
AcDbDictionary
281
     1
  3
ByBlock
350
3D
  3
ByLayer
350
3C
  3
Global
350
3E
  0
DICTIONARY
  5
A6
102
{ACAD_REACTORS
330
C
102
}
330
C
100
AcDbDictionary
281
     1
  0
DICTIONARY
  5
17
102
{ACAD_REACTORS
330
C
102
}
330
C
100
AcDbDictionary
281
     1
  3
Standard
350
18
  0
DICTIONARY
  5
19
102
{ACAD_REACTORS
330
C
102
}
330
C
100
AcDbDictionary
281
     1
  0
ACDBDICTIONARYWDFLT
  5
E
102
{ACAD_REACTORS
330
C
102
}
330
C
100
AcDbDictionary
281
     1
  3
Normal
350
F
100
AcDbDictionaryWithDefault
340
F
  0
DICTIONARY
  5
A5
102
{ACAD_REACTORS
330
C
102
}
330
C
100
AcDbDictionary
281
     1
  0
DICTIONARY
  5
2A
102
{ACAD_REACTORS
330
C
102
}
330
C
100
AcDbDictionary
281
     1
  3
2dWireframe
350
2F
  3
3D Hidden
350
31
  3
3dWireframe
350
30
  3
Basic
350
32
  3
Brighten
350
36
  3
ColorChange
350
3A
  3
Conceptual
350
34
  3
Dim
350
35
  3
Facepattern
350
39
  3
Flat
350
2B
  3
FlatWithEdges
350
2C
  3
Gouraud
350
2D
  3
GouraudWithEdges
350
2E
  3
Linepattern
350
38
  3
Realistic
350
33
  3
Thicken
350
37
  0
LAYOUT
  5
1E
102
{ACAD_REACTORS
330
1A
102
}
330
1A
100
AcDbPlotSettings
  1

  2
none_device
  4

  6

 40
0.0
 41
0.0
 42
0.0
 43
0.0
 44
0.0
 45
0.0
 46
0.0
 47
0.0
 48
0.0
 49
0.0
140
0.0
141
0.0
142
1.0
143
1.0
 70
   688
 72
     0
 73
     0
 74
     5
  7

 75
    16
 76
     0
 77
     2
 78
   300
147
1.0
148
0.0
149
0.0
100
AcDbLayout
  1
Layout1
 70
     1
 71
     1
 10
0.0
 20
0.0
 11
12.0
 21
9.0
 12
0.0
 22
0.0
 32
0.0
 14
1.000000000000000E+20
 24
1.000000000000000E+20
 34
1.000000000000000E+20
 15
-1.000000000000000E+20
 25
-1.000000000000000E+20
 35
-1.000000000000000E+20
146
0.0
 13
0.0
 23
0.0
 33
0.0
 16
1.0
 26
0.0
 36
0.0
 17
0.0
 27
1.0
 37
0.0
 76
     0
330
1B
  0
LAYOUT
  5
26
102
{ACAD_REACTORS
330
1A
102
}
330
1A
100
AcDbPlotSettings
  1

  2
none_device
  4

  6

 40
0.0
 41
0.0
 42
0.0
 43
0.0
 44
0.0
 45
0.0
 46
0.0
 47
0.0
 48
0.0
 49
0.0
140
0.0
141
0.0
142
1.0
143
1.0
 70
   688
 72
     0
 73
     0
 74
     5
  7

 75
    16
 76
     0
 77
     2
 78
   300
147
1.0
148
0.0
149
0.0
100
AcDbLayout
  1
Layout2
 70
     1
 71
     2
 10
0.0
 20
0.0
 11
0.0
 21
0.0
 12
0.0
 22
0.0
 32
0.0
 14
0.0
 24
0.0
 34
0.0
 15
0.0
 25
0.0
 35
0.0
146
0.0
 13
0.0
 23
0.0
 33
0.0
 16
1.0
 26
0.0
 36
0.0
 17
0.0
 27
1.0
 37
0.0
 76
     0
330
23
  0
LAYOUT
  5
22
102
{ACAD_REACTORS
330
1A
102
}
330
1A
100
AcDbPlotSettings
  1

  2
none_device
  4

  6

 40
0.0
 41
0.0
 42
0.0
 43
0.0
 44
0.0
 45
0.0
 46
0.0
 47
0.0
 48
0.0
 49
0.0
140
0.0
141
0.0
142
1.0
143
1.0
 70
  1712
 72
     0
 73
     0
 74
     0
  7

 75
     0
 76
     0
 77
     2
 78
   300
147
1.0
148
0.0
149
0.0
100
AcDbLayout
  1
Model
 70
     1
 71
     0
 10
0.0
 20
0.0
 11
12.0
 21
9.0
 12
0.0
 22
0.0
 32
0.0
 14
1.000000000000000E+20
 24
1.000000000000000E+20
 34
1.000000000000000E+20
 15
-1.000000000000000E+20
 25
-1.000000000000000E+20
 35
-1.000000000000000E+20
146
0.0
 13
0.0
 23
0.0
 33
0.0
 16
1.0
 26
0.0
 36
0.0
 17
0.0
 27
1.0
 37
0.0
 76
     0
330
1F
331
29
  0
MATERIAL
  5
3D
102
{ACAD_REACTORS
330
3B
102
}
330
3B
100
AcDbMaterial
  1
ByBlock
 72
     1
 94
      127
  0
MATERIAL
  5
3C
102
{ACAD_REACTORS
330
3B
102
}
330
3B
100
AcDbMaterial
  1
ByLayer
 72
     1
 94
      127
  0
MATERIAL
  5
3E
102
{ACAD_REACTORS
330
3B
102
}
330
3B
100
AcDbMaterial
  1
Global
 72
     1
 94
      127
  0
MLINESTYLE
  5
18
102
{ACAD_REACTORS
330
17
102
}
330
17
100
AcDbMlineStyle
  2
Standard
 70
     0
  3

 62
   256
 51
90.0
 52
90.0
 71
     2
 49
0.5
 62
   256
  6
BYLAYER
 49
-0.5
 62
   256
  6
BYLAYER
  0
ACDBPLACEHOLDER
  5
F
102
{ACAD_REACTORS
330
E
102
}
330
E
  0
VISUALSTYLE
  5
2F
102
{ACAD_REACTORS
330
2A
102
}
330
2A
100
AcDbVisualStyle
  2
2dWireframe
 70
     4
177
     2
291
     0
 71
     0
176
     1
 72
     2
176
     1
 73
     0
176
     1
 90
        0
176
     1
 40
-0.6
176
     1
 41
-30.0
176
     1
 62
     5
 63
     7
421
 16777215
176
     1
 74
     1
176
     1
 91
        4
176
     1
 64
     7
176
     1
 65
   257
176
     1
 75
     1
176
     1
175
     1
176
     1
 42
1.0
176
     1
 92
        0
176
     1
 66
   257
176
     1
 43
1.0
176
     1
 76
     1
176
     1
 77
     6
176
     1
 78
     2
176
     1
 67
     7
176
     1
 79
     5
176
     1
170
     0
176
     1
171
     0
176
     1
290
     0
176
     1
 93
        1
176
     1
 44
0.0
176
     1
173
     0
176
     1
  0
VISUALSTYLE
  5
31
102
{ACAD_REACTORS
330
2A
102
}
330
2A
100
AcDbVisualStyle
  2
3D Hidden
 70
     6
177
     2
291
     0
 71
     1
176
     1
 72
     2
176
     1
 73
     2
176
     1
 90
        0
176
     1
 40
-0.6
176
     1
 41
-30.0
176
     1
 62
     5
 63
     7
421
 16777215
176
     1
 74
     2
176
     1
 91
        2
176
     1
 64
     7
176
     1
 65
   257
176
     1
 75
     2
176
     1
175
     1
176
     1
 42
40.0
176
     1
 92
        0
176
     1
 66
   257
176
     1
 43
1.0
176
     1
 76
     1
176
     1
 77
     6
176
     1
 78
     2
176
     1
 67
     7
176
     1
 79
     3
176
     1
170
     0
176
     1
171
     0
176
     1
290
     0
176
     1
 93
        1
176
     1
 44
0.0
176
     1
173
     0
176
     1
  0
VISUALSTYLE
  5
30
102
{ACAD_REACTORS
330
2A
102
}
330
2A
100
AcDbVisualStyle
  2
3dWireframe
 70
     5
177
     2
291
     0
 71
     0
176
     1
 72
     2
176
     1
 73
     0
176
     1
 90
        0
176
     1
 40
-0.6
176
     1
 41
-30.0
176
     1
 62
     5
 63
     7
421
 16777215
176
     1
 74
     1
176
     1
 91
        4
176
     1
 64
     7
176
     1
 65
   257
176
     1
 75
     1
176
     1
175
     1
176
     1
 42
1.0
176
     1
 92
        0
176
     1
 66
   257
176
     1
 43
1.0
176
     1
 76
     1
176
     1
 77
     6
176
     1
 78
     2
176
     1
 67
     7
176
     1
 79
     5
176
     1
170
     0
176
     1
171
     0
176
     1
290
     0
176
     1
 93
        1
176
     1
 44
0.0
176
     1
173
     0
176
     1
  0
VISUALSTYLE
  5
32
102
{ACAD_REACTORS
330
2A
102
}
330
2A
100
AcDbVisualStyle
  2
Basic
 70
     7
177
     2
291
     1
 71
     1
176
     1
 72
     0
176
     1
 73
     1
176
     1
 90
        0
176
     1
 40
-0.6
176
     1
 41
-30.0
176
     1
 62
     5
 63
     7
421
 16777215
176
     1
 74
     0
176
     1
 91
        4
176
     1
 64
     7
176
     1
 65
   257
176
     1
 75
     1
176
     1
175
     1
176
     1
 42
1.0
176
     1
 92
        8
176
     1
 66
     7
176
     1
 43
1.0
176
     1
 76
     1
176
     1
 77
     6
176
     1
 78
     2
176
     1
 67
     7
176
     1
 79
     5
176
     1
170
     0
176
     1
171
     0
176
     1
290
     0
176
     1
 93
        1
176
     1
 44
0.0
176
     1
173
     0
176
     1
  0
VISUALSTYLE
  5
36
102
{ACAD_REACTORS
330
2A
102
}
330
2A
100
AcDbVisualStyle
  2
Brighten
 70
    12
177
     2
291
     1
 71
     2
176
     1
 72
     2
176
     1
 73
     0
176
     1
 90
        0
176
     1
 40
-0.6
176
     1
 41
-30.0
176
     1
 62
     5
 63
     7
421
 16777215
176
     1
 74
     1
176
     1
 91
        4
176
     1
 64
     7
176
     1
 65
   257
176
     1
 75
     1
176
     1
175
     1
176
     1
 42
1.0
176
     1
 92
        8
176
     1
 66
     7
176
     1
 43
1.0
176
     1
 76
     1
176
     1
 77
     6
176
     1
 78
     2
176
     1
 67
     7
176
     1
 79
     5
176
     1
170
     0
176
     1
171
     0
176
     1
290
     0
176
     1
 93
        1
176
     1
 44
50.0
176
     1
173
     0
176
     1
  0
VISUALSTYLE
  5
3A
102
{ACAD_REACTORS
330
2A
102
}
330
2A
100
AcDbVisualStyle
  2
ColorChange
 70
    16
177
     2
291
     1
 71
     2
176
     1
 72
     2
176
     1
 73
     3
176
     1
 90
        0
176
     1
 40
-0.6
176
     1
 41
-30.0
176
     1
 62
     5
 63
     8
421
  8421504
176
     1
 74
     1
176
     1
 91
        4
176
     1
 64
     7
176
     1
 65
   257
176
     1
 75
     1
176
     1
175
     1
176
     1
 42
1.0
176
     1
 92
        8
176
     1
 66
     8
424
  8421504
176
     1
 43
1.0
176
     1
 76
     1
176
     1
 77
     6
176
     1
 78
     2
176
     1
 67
     7
176
     1
 79
     5
176
     1
170
     0
176
     1
171
     0
176
     1
290
     0
176
     1
 93
        1
176
     1
 44
0.0
176
     1
173
     0
176
     1
  0
VISUALSTYLE
  5
34
102
{ACAD_REACTORS
330
2A
102
}
330
2A
100
AcDbVisualStyle
  2
Conceptual
 70
     9
177
     2
291
     0
 71
     3
176
     1
 72
     2
176
     1
 73
     0
176
     1
 90
        0
176
     1
 40
-0.6
176
     1
 41
-30.0
176
     1
 62
     5
 63
     7
421
 16777215
176
     1
 74
     2
176
     1
 91
        2
176
     1
 64
     7
176
     1
 65
   257
176
     1
 75
     1
176
     1
175
     1
176
     1
 42
40.0
176
     1
 92
        8
176
     1
 66
     7
176
     1
 43
1.0
176
     1
 76
     1
176
     1
 77
     6
176
     1
 78
     2
176
     1
 67
     7
176
     1
 79
     3
176
     1
170
     0
176
     1
171
     0
176
     1
290
     0
176
     1
 93
        1
176
     1
 44
0.0
176
     1
173
     0
176
     1
  0
VISUALSTYLE
  5
35
102
{ACAD_REACTORS
330
2A
102
}
330
2A
100
AcDbVisualStyle
  2
Dim
 70
    11
177
     2
291
     1
 71
     2
176
     1
 72
     2
176
     1
 73
     0
176
     1
 90
        0
176
     1
 40
-0.6
176
     1
 41
-30.0
176
     1
 62
     5
 63
     7
421
 16777215
176
     1
 74
     1
176
     1
 91
        4
176
     1
 64
     7
176
     1
 65
   257
176
     1
 75
     1
176
     1
175
     1
176
     1
 42
1.0
176
     1
 92
        8
176
     1
 66
     7
176
     1
 43
1.0
176
     1
 76
     1
176
     1
 77
     6
176
     1
 78
     2
176
     1
 67
     7
176
     1
 79
     5
176
     1
170
     0
176
     1
171
     0
176
     1
290
     0
176
     1
 93
        1
176
     1
 44
-50.0
176
     1
173
     0
176
     1
  0
VISUALSTYLE
  5
39
102
{ACAD_REACTORS
330
2A
102
}
330
2A
100
AcDbVisualStyle
  2
Facepattern
 70
    15
177
     2
291
     1
 71
     2
176
     1
 72
     2
176
     1
 73
     0
176
     1
 90
        0
176
     1
 40
-0.6
176
     1
 41
-30.0
176
     1
 62
     5
 63
     7
421
 16777215
176
     1
 74
     1
176
     1
 91
        4
176
     1
 64
     7
176
     1
 65
   257
176
     1
 75
     1
176
     1
175
     1
176
     1
 42
1.0
176
     1
 92
        8
176
     1
 66
     7
176
     1
 43
1.0
176
     1
 76
     1
176
     1
 77
     6
176
     1
 78
     2
176
     1
 67
     7
176
     1
 79
     5
176
     1
170
     0
176
     1
171
     0
176
     1
290
     0
176
     1
 93
        1
176
     1
 44
0.0
176
     1
173
     0
176
     1
  0
VISUALSTYLE
  5
2B
102
{ACAD_REACTORS
330
2A
102
}
330
2A
100
AcDbVisualStyle
  2
Flat
 70
     0
177
     2
291
     1
 71
     2
176
     1
 72
     1
176
     1
 73
     1
176
     1
 90
        2
176
     1
 40
-0.6
176
     1
 41
30.0
176
     1
 62
     5
 63
     7
421
 16777215
176
     1
 74
     0
176
     1
 91
        4
176
     1
 64
     7
176
     1
 65
   257
176
     1
 75
     1
176
     1
175
     1
176
     1
 42
1.0
176
     1
 92
        8
176
     1
 66
     7
176
     1
 43
1.0
176
     1
 76
     1
176
     1
 77
     6
176
     1
 78
     2
176
     1
 67
     7
176
     1
 79
     5
176
     1
170
     0
176
     1
171
     0
176
     1
290
     0
176
     1
 93
       13
176
     1
 44
0.0
176
     1
173
     0
176
     1
  0
VISUALSTYLE
  5
2C
102
{ACAD_REACTORS
330
2A
102
}
330
2A
100
AcDbVisualStyle
  2
FlatWithEdges
 70
     1
177
     2
291
     1
 71
     2
176
     1
 72
     1
176
     1
 73
     1
176
     1
 90
        2
176
     1
 40
-0.6
176
     1
 41
30.0
176
     1
 62
     5
 63
     7
421
 16777215
176
     1
 74
     1
176
     1
 91
        4
176
     1
 64
     7
176
     1
 65
   257
176
     1
 75
     1
176
     1
175
     1
176
     1
 42
1.0
176
     1
 92
        0
176
     1
 66
   257
176
     1
 43
1.0
176
     1
 76
     1
176
     1
 77
     6
176
     1
 78
     2
176
     1
 67
     7
176
     1
 79
     5
176
     1
170
     0
176
     1
171
     0
176
     1
290
     0
176
     1
 93
       13
176
     1
 44
0.0
176
     1
173
     0
176
     1
  0
VISUALSTYLE
  5
2D
102
{ACAD_REACTORS
330
2A
102
}
330
2A
100
AcDbVisualStyle
  2
Gouraud
 70
     2
177
     2
291
     1
 71
     2
176
     1
 72
     2
176
     1
 73
     1
176
     1
 90
        2
176
     1
 40
-0.6
176
     1
 41
30.0
176
     1
 62
     5
 63
     7
421
 16777215
176
     1
 74
     0
176
     1
 91
        4
176
     1
 64
     7
176
     1
 65
   257
176
     1
 75
     1
176
     1
175
     1
176
     1
 42
1.0
176
     1
 92
        0
176
     1
 66
     7
176
     1
 43
1.0
176
     1
 76
     1
176
     1
 77
     6
176
     1
 78
     2
176
     1
 67
     7
176
     1
 79
     5
176
     1
170
     0
176
     1
171
     0
176
     1
290
     0
176
     1
 93
       13
176
     1
 44
0.0
176
     1
173
     0
176
     1
  0
VISUALSTYLE
  5
2E
102
{ACAD_REACTORS
330
2A
102
}
330
2A
100
AcDbVisualStyle
  2
GouraudWithEdges
 70
     3
177
     2
291
     1
 71
     2
176
     1
 72
     2
176
     1
 73
     1
176
     1
 90
        2
176
     1
 40
-0.6
176
     1
 41
30.0
176
     1
 62
     5
 63
     7
421
 16777215
176
     1
 74
     1
176
     1
 91
        4
176
     1
 64
     7
176
     1
 65
   257
176
     1
 75
     1
176
     1
175
     1
176
     1
 42
1.0
176
     1
 92
        0
176
     1
 66
   257
176
     1
 43
1.0
176
     1
 76
     1
176
     1
 77
     6
176
     1
 78
     2
176
     1
 67
     7
176
     1
 79
     5
176
     1
170
     0
176
     1
171
     0
176
     1
290
     0
176
     1
 93
       13
176
     1
 44
0.0
176
     1
173
     0
176
     1
  0
VISUALSTYLE
  5
38
102
{ACAD_REACTORS
330
2A
102
}
330
2A
100
AcDbVisualStyle
  2
Linepattern
 70
    14
177
     2
291
     1
 71
     2
176
     1
 72
     2
176
     1
 73
     0
176
     1
 90
        0
176
     1
 40
-0.6
176
     1
 41
-30.0
176
     1
 62
     5
 63
     7
421
 16777215
176
     1
 74
     1
176
     1
 91
        4
176
     1
 64
     7
176
     1
 65
   257
176
     1
 75
     7
176
     1
175
     7
176
     1
 42
1.0
176
     1
 92
        8
176
     1
 66
     7
176
     1
 43
1.0
176
     1
 76
     1
176
     1
 77
     6
176
     1
 78
     2
176
     1
 67
     7
176
     1
 79
     5
176
     1
170
     0
176
     1
171
     0
176
     1
290
     0
176
     1
 93
        1
176
     1
 44
0.0
176
     1
173
     0
176
     1
  0
VISUALSTYLE
  5
33
102
{ACAD_REACTORS
330
2A
102
}
330
2A
100
AcDbVisualStyle
  2
Realistic
 70
     8
177
     2
291
     0
 71
     2
176
     1
 72
     2
176
     1
 73
     0
176
     1
 90
        0
176
     1
 40
-0.6
176
     1
 41
-30.0
176
     1
 62
     5
 63
     7
421
 16777215
176
     1
 74
     1
176
     1
 91
        0
176
     1
 64
     7
176
     1
 65
   257
176
     1
 75
     1
176
     1
175
     1
176
     1
 42
1.0
176
     1
 92
        8
176
     1
 66
     8
424
  7895160
176
     1
 43
1.0
176
     1
 76
     1
176
     1
 77
     6
176
     1
 78
     2
176
     1
 67
     7
176
     1
 79
     5
176
     1
170
     0
176
     1
171
     0
176
     1
290
     0
176
     1
 93
       13
176
     1
 44
0.0
176
     1
173
     0
176
     1
  0
VISUALSTYLE
  5
37
102
{ACAD_REACTORS
330
2A
102
}
330
2A
100
AcDbVisualStyle
  2
Thicken
 70
    13
177
     2
291
     1
 71
     2
176
     1
 72
     2
176
     1
 73
     0
176
     1
 90
        0
176
     1
 40
-0.6
176
     1
 41
-30.0
176
     1
 62
     5
 63
     7
421
 16777215
176
     1
 74
     1
176
     1
 91
        4
176
     1
 64
     7
176
     1
 65
   257
176
     1
 75
     1
176
     1
175
     1
176
     1
 42
1.0
176
     1
 92
       12
176
     1
 66
     7
176
     1
 43
1.0
176
     1
 76
     1
176
     1
 77
     6
176
     1
 78
     2
176
     1
 67
     7
176
     1
 79
     5
176
     1
170
     0
176
     1
171
     0
176
     1
290
     0
176
     1
 93
        1
176
     1
 44
0.0
176
     1
173
     0
176
     1
  0
ENDSEC
  0
EOF
