  0
SECTION
  2
HEADER
  9
$ACADVER
  1
AC1024
  9
$ACADMAINTVER
 70
     6
  9
$DWGCODEPAGE
  3
UNDEFINED
  9
$INSBASE
 10
0.0
 20
0.0
 30
0.0
  9
$EXTMIN
 10
1.000000000000000E+20
 20
1.000000000000000E+20
 30
1.000000000000000E+20
  9
$EXTMAX
 10
-1.000000000000000E+20
 20
-1.000000000000000E+20
 30
-1.000000000000000E+20
  9
$LIMMIN
 10
0.0
 20
0.0
  9
$LIMMAX
 10
12.0
 20
9.0
  9
$ORTHOMODE
 70
     0
  9
$REGENMODE
 70
     1
  9
$FILLMODE
 70
     1
  9
$QTEXTMODE
 70
     0
  9
$MIRRTEXT
 70
     1
  9
$LTSCALE
 40
1.0
  9
$ATTMODE
 70
     1
  9
$TEXTSIZE
 40
0.2
  9
$TRACEWID
 40
0.05
  9
$TEXTSTYLE
  7
Standard
  9
$CLAYER
  8
0
  9
$CELTYPE
  6
ByLayer
  9
$CECOLOR
 62
   256
  9
$CELTSCALE
 40
1.0
  9
$DISPSILH
 70
     0
  9
$DIMSCALE
 40
1.0
  9
$DIMASZ
 40
0.18
  9
$DIMEXO
 40
0.0625
  9
$DIMDLI
 40
0.38
  9
$DIMRND
 40
0.0
  9
$DIMDLE
 40
0.0
  9
$DIMEXE
 40
0.18
  9
$DIMTP
 40
0.0
  9
$DIMTM
 40
0.0
  9
$DIMTXT
 40
0.18
  9
$DIMCEN
 40
0.09
  9
$DIMTSZ
 40
0.0
  9
$DIMTOL
 70
     0
  9
$DIMLIM
 70
     0
  9
$DIMTIH
 70
     1
  9
$DIMTOH
 70
     1
  9
$DIMSE1
 70
     0
  9
$DIMSE2
 70
     0
  9
$DIMTAD
 70
     0
  9
$DIMZIN
 70
     0
  9
$DIMBLK
  1

  9
$DIMASO
 70
     1
  9
$DIMSHO
 70
     1
  9
$DIMPOST
  1

  9
$DIMAPOST
  1

  9
$DIMALT
 70
     0
  9
$DIMALTD
 70
     2
  9
$DIMALTF
 40
25.4
  9
$DIMLFAC
 40
1.0
  9
$DIMTOFL
 70
     0
  9
$DIMTVP
 40
0.0
  9
$DIMTIX
 70
     0
  9
$DIMSOXD
 70
     0
  9
$DIMSAH
 70
     0
  9
$DIMBLK1
  1

  9
$DIMBLK2
  1

  9
$DIMSTYLE
  2
Standard
  9
$DIMCLRD
 70
     0
  9
$DIMCLRE
 70
     0
  9
$DIMCLRT
 70
     0
  9
$DIMTFAC
 40
1.0
  9
$DIMGAP
 40
0.09
  9
$DIMJUST
 70
     0
  9
$DIMSD1
 70
     0
  9
$DIMSD2
 70
     0
  9
$DIMTOLJ
 70
     1
  9
$DIMTZIN
 70
     0
  9
$DIMALTZ
 70
     0
  9
$DIMALTTZ
 70
     0
  9
$DIMUPT
 70
     0
  9
$DIMDEC
 70
     4
  9
$DIMTDEC
 70
     4
  9
$DIMALTU
 70
     2
  9
$DIMALTTD
 70
     2
  9
$DIMTXSTY
  7
Standard
  9
$DIMAUNIT
 70
     0
  9
$DIMADEC
 70
     0
  9
$DIMALTRND
 40
0.0
  9
$DIMAZIN
 70
     0
  9
$DIMDSEP
 70
    46
  9
$DIMATFIT
 70
     3
  9
$DIMFRAC
 70
     0
  9
$DIMLDRBLK
  1

  9
$DIMLUNIT
 70
     2
  9
$DIMLWD
 70
    -2
  9
$DIMLWE
 70
    -2
  9
$DIMTMOVE
 70
     0
  9
$DIMFXL
 40
1.0
  9
$DIMFXLON
 70
     0
  9
$DIMJOGANG
 40
0.7853981633974483
  9
$DIMTFILL
 70
     0
  9
$DIMTFILLCLR
 70
     0
  9
$DIMARCSYM
 70
     0
  9
$DIMLTYPE
  6

  9
$DIMLTEX1
  6

  9
$DIMLTEX2
  6

  9
$DIMTXTDIRECTION
 70
     0
  9
$LUNITS
 70
     2
  9
$LUPREC
 70
     4
  9
$SKETCHINC
 40
0.1
  9
$FILLETRAD
 40
0.5
  9
$AUNITS
 70
     0
  9
$AUPREC
 70
     0
  9
$MENU
  1
.
  9
$ELEVATION
 40
0.0
  9
$PELEVATION
 40
0.0
  9
$THICKNESS
 40
0.0
  9
$LIMCHECK
 70
     0
  9
$CHAMFERA
 40
0.5
  9
$CHAMFERB
 40
0.5
  9
$CHAMFERC
 40
1.0
  9
$CHAMFERD
 40
0.0
  9
$SKPOLY
 70
     0
  9
$TDCREATE
 40
2457917.620555544
  9
$TDUCREATE
 40
2457917.245555555
  9
$TDUPDATE
 40
2457917.620555544
  9
$TDUUPDATE
 40
2457917.245555555
  9
$TDINDWG
 40
0.0000000116
  9
$TDUSRTIMER
 40
0.0000000116
  9
$USRTIMER
 70
     1
  9
$ANGBASE
 50
0.0
  9
$ANGDIR
 70
     0
  9
$PDMODE
 70
     0
  9
$PDSIZE
 40
0.0
  9
$PLINEWID
 40
0.0
  9
$SPLFRAME
 70
     0
  9
$SPLINETYPE
 70
     6
  9
$SPLINESEGS
 70
     8
  9
$HANDSEED
  5
A5
  9
$SURFTAB1
 70
     6
  9
$SURFTAB2
 70
     6
  9
$SURFTYPE
 70
     6
  9
$SURFU
 70
     6
  9
$SURFV
 70
     6
  9
$UCSBASE
  2

  9
$UCSNAME
  2

  9
$UCSORG
 10
0.0
 20
0.0
 30
0.0
  9
$UCSXDIR
 10
1.0
 20
0.0
 30
0.0
  9
$UCSYDIR
 10
0.0
 20
1.0
 30
0.0
  9
$UCSORTHOREF
  2

  9
$UCSORTHOVIEW
 70
     0
  9
$UCSORGTOP
 10
0.0
 20
0.0
 30
0.0
  9
$UCSORGBOTTOM
 10
0.0
 20
0.0
 30
0.0
  9
$UCSORGLEFT
 10
0.0
 20
0.0
 30
0.0
  9
$UCSORGRIGHT
 10
0.0
 20
0.0
 30
0.0
  9
$UCSORGFRONT
 10
0.0
 20
0.0
 30
0.0
  9
$UCSORGBACK
 10
0.0
 20
0.0
 30
0.0
  9
$PUCSBASE
  2

  9
$PUCSNAME
  2

  9
$PUCSORG
 10
0.0
 20
0.0
 30
0.0
  9
$PUCSXDIR
 10
1.0
 20
0.0
 30
0.0
  9
$PUCSYDIR
 10
0.0
 20
1.0
 30
0.0
  9
$PUCSORTHOREF
  2

  9
$PUCSORTHOVIEW
 70
     0
  9
$PUCSORGTOP
 10
0.0
 20
0.0
 30
0.0
  9
$PUCSORGBOTTOM
 10
0.0
 20
0.0
 30
0.0
  9
$PUCSORGLEFT
 10
0.0
 20
0.0
 30
0.0
  9
$PUCSORGRIGHT
 10
0.0
 20
0.0
 30
0.0
  9
$PUCSORGFRONT
 10
0.0
 20
0.0
 30
0.0
  9
$PUCSORGBACK
 10
0.0
 20
0.0
 30
0.0
  9
$USERI1
 70
     0
  9
$USERI2
 70
     0
  9
$USERI3
 70
     0
  9
$USERI4
 70
     0
  9
$USERI5
 70
     0
  9
$USERR1
 40
0.0
  9
$USERR2
 40
0.0
  9
$USERR3
 40
0.0
  9
$USERR4
 40
0.0
  9
$USERR5
 40
0.0
  9
$WORLDVIEW
 70
     1
  9
$SHADEDGE
 70
     3
  9
$SHADEDIF
 70
    70
  9
$TILEMODE
 70
     1
  9
$MAXACTVP
 70
    64
  9
$PINSBASE
 10
0.0
 20
0.0
 30
0.0
  9
$PLIMCHECK
 70
     0
  9
$PEXTMIN
 10
1.000000000000000E+20
 20
1.000000000000000E+20
 30
1.000000000000000E+20
  9
$PEXTMAX
 10
-1.000000000000000E+20
 20
-1.000000000000000E+20
 30
-1.000000000000000E+20
  9
$PLIMMIN
 10
0.0
 20
0.0
  9
$PLIMMAX
 10
12.0
 20
9.0
  9
$UNITMODE
 70
     0
  9
$VISRETAIN
 70
     1
  9
$PLINEGEN
 70
     0
  9
$PSLTSCALE
 70
     1
  9
$TREEDEPTH
 70
  3020
  9
$CMLSTYLE
  2
Standard
  9
$CMLJUST
 70
     0
  9
$CMLSCALE
 40
1.0
  9
$PROXYGRAPHICS
 70
     1
  9
$MEASUREMENT
 70
     0
  9
$CELWEIGHT
370
    -1
  9
$ENDCAPS
280
     0
  9
$JOINSTYLE
280
     0
  9
$LWDISPLAY
290
     1
  9
$INSUNITS
 70
     1
  9
$HYPERLINKBASE
  1

  9
$STYLESHEET
  1

  9
$XEDIT
290
     1
  9
$CEPSNTYPE
380
     0
  9
$PSTYLEMODE
290
     1
  9
$FINGERPRINTGUID
  2
{41BA00FE-0071-C8E3-0418-AC3134A26824}
  9
$VERSIONGUID
  2
{FAEB1C32-E019-11D5-929B-00C0DF256EC4}
  9
$EXTNAMES
290
     1
  9
$PSVPSCALE
 40
0.0
  9
$OLESTARTUP
290
     0
  9
$SORTENTS
280
   127
  9
$INDEXCTL
280
     0
  9
$HIDETEXT
280
     1
  9
$XCLIPFRAME
280
     2
  9
$HALOGAP
280
     0
  9
$OBSCOLOR
 70
   257
  9
$OBSLTYPE
280
     0
  9
$INTERSECTIONDISPLAY
280
     0
  9
$INTERSECTIONCOLOR
 70
   257
  9
$DIMASSOC
280
     2
  9
$PROJECTNAME
  1

  9
$CAMERADISPLAY
290
     0
  9
$LENSLENGTH
 40
50.0
  9
$CAMERAHEIGHT
 40
0.0
  9
$STEPSPERSEC
 40
2.0
  9
$STEPSIZE
 40
6.0
  9
$3DDWFPREC
 40
2.0
  9
$PSOLWIDTH
 40
0.25
  9
$PSOLHEIGHT
 40
4.0
  9
$LOFTANG1
 40
1.570796326794897
  9
$LOFTANG2
 40
1.570796326794897
  9
$LOFTMAG1
 40
0.0
  9
$LOFTMAG2
 40
0.0
  9
$LOFTPARAM
 70
     7
  9
$LOFTNORMALS
280
     1
  9
$LATITUDE
 40
37.795
  9
$LONGITUDE
 40
-122.394
  9
$NORTHDIRECTION
 40
0.0
  9
$TIMEZONE
 70
 -8000
  9
$LIGHTGLYPHDISPLAY
280
     1
  9
$TILEMODELIGHTSYNCH
280
     1
  9
$CMATERIAL
347
3C
  9
$SOLIDHIST
280
     1
  9
$SHOWHIST
280
     1
  9
$DWFFRAME
280
     2
  9
$DGNFRAME
280
     2
  9
$REALWORLDSCALE
290
     1
  9
$INTERFERECOLOR
 62
   256
  9
$CSHADOW
280
     0
  9
$SHADOWPLANELOCATION
 40
0.0
  0
ENDSEC
  0
SECTION
  2
CLASSES
  0
CLASS
  1
ACDBDICTIONARYWDFLT
  2
AcDbDictionaryWithDefault
  3
ObjectDBX Classes
 90
        0
 91
        4
280
     0
281
     0
  0
CLASS
  1
VISUALSTYLE
  2
AcDbVisualStyle
  3
ObjectDBX Classes
 90
     4095
 91
        4
280
     0
281
     0
  0
CLASS
  1
MATERIAL
  2
AcDbMaterial
  3
ObjectDBX Classes
 90
     1153
 91
        4
280
     0
281
     0
  0
CLASS
  1
SUN
  2
AcDbSun
  3
SCENEOE
 90
     1024
 91
        4
280
     0
281
     0
  0
ENDSEC
  0
SECTION
  2
TABLES
  0
TABLE
  2
VPORT
  5
8
330
0
100
AcDbSymbolTable
 70
     1
  0
VPORT
  5
29
330
8
100
AcDbSymbolTableRecord
100
AcDbViewportTableRecord
  2
*Active
 70
     0
 10
0.0
 20
0.0
 11
1.0
 21
1.0
 12
0.0
 22
0.0
 13
0.0
 23
0.0
 14
0.5
 24
0.5
 15
0.5
 25
0.5
 16
0.0
 26
0.0
 36
1.0
 17
91.00082462281999
 27
-128.4993055234307
 37
0.0
 40
256.9986110468615
 41
0.7081814508812795
 42
50.0
 43
0.0
 44
0.0
 50
0.0
 51
0.0
 71
     0
 72
   100
 73
     1
 74
     3
 75
     0
 76
     0
 77
     0
 78
     0
281
     0
 65
     1
110
0.0
120
0.0
130
0.0
111
1.0
121
0.0
131
0.0
112
0.0
122
1.0
132
0.0
 79
     0
146
0.0
 60
     3
 61
     5
292
     1
282
     1
141
0.0
142
0.0
 63
   250
361
3F
  0
ENDTAB
  0
TABLE
  2
LTYPE
  5
5
330
0
100
AcDbSymbolTable
 70
     1
  0
LTYPE
  5
14
330
5
100
AcDbSymbolTableRecord
100
AcDbLinetypeTableRecord
  2
ByBlock
 70
     0
  3

 72
    65
 73
     0
 40
0.0
  0
LTYPE
  5
15
330
5
100
AcDbSymbolTableRecord
100
AcDbLinetypeTableRecord
  2
ByLayer
 70
     0
  3

 72
    65
 73
     0
 40
0.0
  0
LTYPE
  5
16
330
5
100
AcDbSymbolTableRecord
100
AcDbLinetypeTableRecord
  2
Continuous
 70
     0
  3
Solid line
 72
    65
 73
     0
 40
0.0
  0
ENDTAB
  0
TABLE
  2
LAYER
  5
2
330
0
100
AcDbSymbolTable
 70
     2
  0
LAYER
  5
10
330
2
100
AcDbSymbolTableRecord
100
AcDbLayerTableRecord
  2
0
 70
     0
 62
     7
  6
Continuous
370
    -3
390
F
347
3E
  0
LAYER
  5
40
330
2
100
AcDbSymbolTableRecord
100
AcDbLayerTableRecord
  2
_U+30EC_U+30A4_U+30E4_U+30FC 1
 70
     0
 62
     7
  6
Continuous
370
    -3
390
F
347
3E
  0
ENDTAB
  0
TABLE
  2
STYLE
  5
3
330
0
100
AcDbSymbolTable
 70
     1
  0
STYLE
  5
11
330
3
100
AcDbSymbolTableRecord
100
AcDbTextStyleTableRecord
  2
Standard
 70
     0
 40
0.0
 41
1.0
 50
0.0
 71
     0
 42
0.2
  3
txt
  4

  0
ENDTAB
  0
TABLE
  2
VIEW
  5
6
330
0
100
AcDbSymbolTable
 70
     0
  0
ENDTAB
  0
TABLE
  2
UCS
  5
7
330
0
100
AcDbSymbolTable
 70
     0
  0
ENDTAB
  0
TABLE
  2
APPID
  5
9
330
0
100
AcDbSymbolTable
 70
     1
  0
APPID
  5
12
330
9
100
AcDbSymbolTableRecord
100
AcDbRegAppTableRecord
  2
ACAD
 70
     0
  0
ENDTAB
  0
TABLE
  2
DIMSTYLE
  5
A
330
0
100
AcDbSymbolTable
 70
     1
100
AcDbDimStyleTable
  0
DIMSTYLE
105
27
330
A
100
AcDbSymbolTableRecord
100
AcDbDimStyleTableRecord
  2
Standard
 70
     0
178
     0
340
11
  0
ENDTAB
  0
TABLE
  2
BLOCK_RECORD
  5
1
330
0
100
AcDbSymbolTable
 70
     4
  0
BLOCK_RECORD
  5
1F
330
1
100
AcDbSymbolTableRecord
100
AcDbBlockTableRecord
  2
*Model_Space
340
22
 70
     0
280
     1
281
     0
  0
BLOCK_RECORD
  5
1B
330
1
100
AcDbSymbolTableRecord
100
AcDbBlockTableRecord
  2
*Paper_Space
340
1E
 70
     0
280
     1
281
     0
  0
BLOCK_RECORD
  5
23
330
1
100
AcDbSymbolTableRecord
100
AcDbBlockTableRecord
  2
*Paper_Space0
340
26
 70
     0
280
     1
281
     0
  0
BLOCK_RECORD
  5
75
330
1
100
AcDbSymbolTableRecord
100
AcDbBlockTableRecord
  2
block 2
340
0
102
{BLKREFS
331
76
102
}
 70
     0
280
     1
281
     0
  0
BLOCK_RECORD
  5
87
330
1
100
AcDbSymbolTableRecord
100
AcDbBlockTableRecord
  2
block 3
340
0
102
{BLKREFS
331
88
102
}
 70
     0
280
     1
281
     0
  0
BLOCK_RECORD
  5
9B
330
1
100
AcDbSymbolTableRecord
100
AcDbBlockTableRecord
  2
block 4
340
0
102
{BLKREFS
331
9C
102
}
 70
     0
280
     1
281
     0
  0
ENDTAB
  0
ENDSEC
  0
SECTION
  2
BLOCKS
  0
BLOCK
  5
20
330
1F
100
AcDbEntity
  8
0
100
AcDbBlockBegin
  2
*Model_Space
 70
     0
 10
0.0
 20
0.0
 30
0.0
  3
*Model_Space
  1

  0
ENDBLK
  5
21
330
1F
100
AcDbEntity
  8
0
100
AcDbBlockEnd
  0
BLOCK
  5
1C
330
1B
100
AcDbEntity
 67
     1
  8
0
100
AcDbBlockBegin
  2
*Paper_Space
 70
     0
 10
0.0
 20
0.0
 30
0.0
  3
*Paper_Space
  1

  0
ENDBLK
  5
1D
330
1B
100
AcDbEntity
 67
     1
  8
0
100
AcDbBlockEnd
  0
BLOCK
  5
24
330
23
100
AcDbEntity
  8
0
100
AcDbBlockBegin
  2
*Paper_Space0
 70
     0
 10
0.0
 20
0.0
 30
0.0
  3
*Paper_Space0
  1

  0
ENDBLK
  5
25
330
23
100
AcDbEntity
  8
0
100
AcDbBlockEnd
  0
BLOCK
  5
77
330
75
100
AcDbEntity
  8
0
100
AcDbBlockBegin
  2
block 2
 70
     0
 10
0.0
 20
0.0
 30
0.0
  3
block 2
  1

  0
SPLINE
  5
79
330
75
100
AcDbEntity
  8
_U+30EC_U+30A4_U+30E4_U+30FC 1
370
     0
100
AcDbSpline
210
0.0
220
0.0
230
1.0
 70
    11
 71
     3
 72
    44
 73
    40
 74
     0
 42
0.0000000001
 43
0.0000000001
 12
1.0
 22
0.0
 32
0.0
 13
1.0
 23
0.0
 33
0.0
 40
0.0
 40
0.0
 40
0.0
 40
0.0
 40
1.0
 40
1.0
 40
1.0
 40
2.0
 40
2.0
 40
2.0
 40
3.0
 40
3.0
 40
3.0
 40
4.0
 40
4.0
 40
4.0
 40
5.0
 40
5.0
 40
5.0
 40
6.0
 40
6.0
 40
6.0
 40
7.0
 40
7.0
 40
7.0
 40
8.0
 40
8.0
 40
8.0
 40
9.0
 40
9.0
 40
9.0
 40
10.0
 40
10.0
 40
10.0
 40
11.0
 40
11.0
 40
11.0
 40
12.0
 40
12.0
 40
12.0
 40
13.0
 40
13.0
 40
13.0
 40
13.0
 10
107.1200764706158
 20
-137.418313225194
 30
0.0
 10
107.2788953724858
 20
-137.6360432598618
 30
0.0
 10
107.3529649254187
 20
-137.7290608379636
 30
0.0
 10
107.4966254071536
 20
-137.7779811938541
 30
0.0
 10
107.4966254071536
 20
-137.7779811938541
 30
0.0
 10
107.4966254071536
 20
-136.9993896141877
 30
0.0
 10
107.4966254071536
 20
-136.9993896141877
 30
0.0
 10
107.4966254071536
 20
-136.9993896141877
 30
0.0
 10
107.7019530980745
 20
-136.9993896141877
 30
0.0
 10
107.7019530980745
 20
-136.9993896141877
 30
0.0
 10
107.7019530980745
 20
-136.9993896141877
 30
0.0
 10
107.7019530980745
 20
-138.0274061069862
 30
0.0
 10
107.7019530980745
 20
-138.0274061069862
 30
0.0
 10
107.3443521867056
 20
-137.9957112285219
 30
0.0
 10
107.2661485191904
 20
-137.9302544143022
 30
0.0
 10
106.9678032501678
 20
-137.5450927390512
 30
0.0
 10
106.7690212406689
 20
-137.2891221444972
 30
0.0
 10
106.7011528596094
 20
-137.2236653302774
 30
0.0
 10
106.563693549748
 20
-137.2236653302774
 30
0.0
 10
106.4451822650554
 20
-137.2236653302774
 30
0.0
 10
106.3142686366159
 20
-137.2956678259191
 30
0.0
 10
106.3142686366159
 20
-137.4923827781269
 30
0.0
 10
106.3142686366159
 20
-137.7524874872633
 30
0.0
 10
106.5447455245791
 20
-137.7611002259764
 30
0.0
 10
106.6611897519805
 20
-137.7652343405587
 30
0.0
 10
106.6611897519805
 20
-137.7652343405587
 30
0.0
 10
106.6611897519805
 20
-137.9895100566485
 30
0.0
 10
106.6611897519805
 20
-137.9895100566485
 30
0.0
 10
106.5340657285748
 20
-137.9808973179353
 30
0.0
 10
106.4221001253042
 20
-137.9702175219311
 30
0.0
 10
106.3035888406116
 20
-137.8899467971247
 30
0.0
 10
106.1427028814504
 20
-137.7800482511453
 30
0.0
 10
106.108940945695
 20
-137.5936685853933
 30
0.0
 10
106.108940945695
 20
-137.4775688675403
 30
0.0
 10
106.108940945695
 20
-137.2002386809777
 30
0.0
 10
106.2929090446073
 20
-136.9928439327657
 30
0.0
 10
106.5657606070391
 20
-136.9928439327657
 30
0.0
 10
106.7945149472597
 20
-136.9928439327657
 30
0.0
 10
106.8937336972349
 20
-137.1092881601671
 30
0.0
 10
107.1200764706158
 20
-137.418313225194
 30
0.0
  0
HATCH
  5
7A
330
75
100
AcDbEntity
  8
_U+30EC_U+30A4_U+30E4_U+30FC 1
 62
   179
420
  2234388
100
AcDbHatch
 10
0.0
 20
0.0
 30
0.0
210
0.0
220
0.0
230
1.0
  2
SOLID
 70
     1
 71
     0
 91
        1
 92
        1
 93
        1
 72
     4
 94
        3
 73
     0
 74
     1
 95
       44
 96
       40
 40
0.0
 40
0.0
 40
0.0
 40
0.0
 40
1.0
 40
1.0
 40
1.0
 40
2.0
 40
2.0
 40
2.0
 40
3.0
 40
3.0
 40
3.0
 40
4.0
 40
4.0
 40
4.0
 40
5.0
 40
5.0
 40
5.0
 40
6.0
 40
6.0
 40
6.0
 40
7.0
 40
7.0
 40
7.0
 40
8.0
 40
8.0
 40
8.0
 40
9.0
 40
9.0
 40
9.0
 40
10.0
 40
10.0
 40
10.0
 40
11.0
 40
11.0
 40
11.0
 40
12.0
 40
12.0
 40
12.0
 40
13.0
 40
13.0
 40
13.0
 40
13.0
 10
107.1200764706158
 20
-137.418313225194
 10
107.2788953724858
 20
-137.6360432598618
 10
107.3529649254187
 20
-137.7290608379636
 10
107.4966254071536
 20
-137.7779811938541
 10
107.4966254071536
 20
-137.7779811938541
 10
107.4966254071536
 20
-136.9993896141877
 10
107.4966254071536
 20
-136.9993896141877
 10
107.4966254071536
 20
-136.9993896141877
 10
107.7019530980745
 20
-136.9993896141877
 10
107.7019530980745
 20
-136.9993896141877
 10
107.7019530980745
 20
-136.9993896141877
 10
107.7019530980745
 20
-138.0274061069862
 10
107.7019530980745
 20
-138.0274061069862
 10
107.3443521867056
 20
-137.9957112285219
 10
107.2661485191904
 20
-137.9302544143022
 10
106.9678032501678
 20
-137.5450927390512
 10
106.7690212406689
 20
-137.2891221444972
 10
106.7011528596094
 20
-137.2236653302774
 10
106.563693549748
 20
-137.2236653302774
 10
106.4451822650554
 20
-137.2236653302774
 10
106.3142686366159
 20
-137.2956678259191
 10
106.3142686366159
 20
-137.4923827781269
 10
106.3142686366159
 20
-137.7524874872633
 10
106.5447455245791
 20
-137.7611002259764
 10
106.6611897519805
 20
-137.7652343405587
 10
106.6611897519805
 20
-137.7652343405587
 10
106.6611897519805
 20
-137.9895100566485
 10
106.6611897519805
 20
-137.9895100566485
 10
106.5340657285748
 20
-137.9808973179353
 10
106.4221001253042
 20
-137.9702175219311
 10
106.3035888406116
 20
-137.8899467971247
 10
106.1427028814504
 20
-137.7800482511453
 10
106.108940945695
 20
-137.5936685853933
 10
106.108940945695
 20
-137.4775688675403
 10
106.108940945695
 20
-137.2002386809777
 10
106.2929090446073
 20
-136.9928439327657
 10
106.5657606070391
 20
-136.9928439327657
 10
106.7945149472597
 20
-136.9928439327657
 10
106.8937336972349
 20
-137.1092881601671
 10
107.1200764706158
 20
-137.418313225194
 97
        0
 97
        0
 75
     2
 76
     1
 98
        0
  0
ENDBLK
  5
78
330
75
100
AcDbEntity
  8
0
100
AcDbBlockEnd
  0
BLOCK
  5
89
330
87
100
AcDbEntity
  8
0
100
AcDbBlockBegin
  2
block 3
 70
     0
 10
0.0
 20
0.0
 30
0.0
  3
block 3
  1

  0
SPLINE
  5
8B
330
87
100
AcDbEntity
  8
_U+30EC_U+30A4_U+30E4_U+30FC 1
370
     0
100
AcDbSpline
210
0.0
220
0.0
230
1.0
 70
    11
 71
     3
 72
    44
 73
    40
 74
     0
 42
0.0000000001
 43
0.0000000001
 12
1.0
 22
0.0
 32
0.0
 13
1.0
 23
0.0
 33
0.0
 40
0.0
 40
0.0
 40
0.0
 40
0.0
 40
1.0
 40
1.0
 40
1.0
 40
2.0
 40
2.0
 40
2.0
 40
3.0
 40
3.0
 40
3.0
 40
4.0
 40
4.0
 40
4.0
 40
5.0
 40
5.0
 40
5.0
 40
6.0
 40
6.0
 40
6.0
 40
7.0
 40
7.0
 40
7.0
 40
8.0
 40
8.0
 40
8.0
 40
9.0
 40
9.0
 40
9.0
 40
10.0
 40
10.0
 40
10.0
 40
11.0
 40
11.0
 40
11.0
 40
12.0
 40
12.0
 40
12.0
 40
13.0
 40
13.0
 40
13.0
 40
13.0
 10
91.34429522455976
 20
-141.2196315836187
 30
0.0
 10
91.12656518989198
 20
-141.3784504854887
 30
0.0
 10
91.03354761179023
 20
-141.4525200384216
 30
0.0
 10
90.98462725589968
 20
-141.5961805201565
 30
0.0
 10
90.98462725589968
 20
-141.5961805201565
 30
0.0
 10
91.76321883556615
 20
-141.5961805201565
 30
0.0
 10
91.76321883556615
 20
-141.5961805201565
 30
0.0
 10
91.76321883556615
 20
-141.5961805201565
 30
0.0
 10
91.76321883556615
 20
-141.8015082110774
 30
0.0
 10
91.76321883556615
 20
-141.8015082110774
 30
0.0
 10
91.76321883556615
 20
-141.8015082110774
 30
0.0
 10
90.7352023427676
 20
-141.8015082110774
 30
0.0
 10
90.7352023427676
 20
-141.8015082110774
 30
0.0
 10
90.76689722123189
 20
-141.4439072997085
 30
0.0
 10
90.83235403545164
 20
-141.3657036321933
 30
0.0
 10
91.21751571070257
 20
-141.0673583631707
 30
0.0
 10
91.47348630525663
 20
-140.8685763536718
 30
0.0
 10
91.53894311947639
 20
-140.8007079726123
 30
0.0
 10
91.53894311947639
 20
-140.6632486627509
 30
0.0
 10
91.53894311947639
 20
-140.5447373780583
 30
0.0
 10
91.46694062383466
 20
-140.4138237496188
 30
0.0
 10
91.27022567162689
 20
-140.4138237496188
 30
0.0
 10
91.01012096249053
 20
-140.4138237496188
 30
0.0
 10
91.0015082237774
 20
-140.644300637582
 30
0.0
 10
90.9973741091951
 20
-140.7607448649834
 30
0.0
 10
90.9973741091951
 20
-140.7607448649834
 30
0.0
 10
90.77309839310534
 20
-140.7607448649834
 30
0.0
 10
90.77309839310534
 20
-140.7607448649834
 30
0.0
 10
90.78171113181847
 20
-140.6336208415777
 30
0.0
 10
90.79239092782274
 20
-140.5216552383071
 30
0.0
 10
90.87266165262906
 20
-140.4031439536145
 30
0.0
 10
90.98256019860852
 20
-140.2422579944533
 30
0.0
 10
91.16893986436055
 20
-140.2084960586979
 30
0.0
 10
91.28503958221347
 20
-140.2084960586979
 30
0.0
 10
91.56236976877608
 20
-140.2084960586979
 30
0.0
 10
91.76976451698812
 20
-140.3924641576102
 30
0.0
 10
91.76976451698812
 20
-140.665315720042
 30
0.0
 10
91.76976451698812
 20
-140.8940700602626
 30
0.0
 10
91.65332028958667
 20
-140.9932888102378
 30
0.0
 10
91.34429522455976
 20
-141.2196315836187
 30
0.0
  0
HATCH
  5
8C
330
87
100
AcDbEntity
  8
_U+30EC_U+30A4_U+30E4_U+30FC 1
 62
   179
420
  2234388
100
AcDbHatch
 10
0.0
 20
0.0
 30
0.0
210
0.0
220
0.0
230
1.0
  2
SOLID
 70
     1
 71
     0
 91
        1
 92
        1
 93
        1
 72
     4
 94
        3
 73
     0
 74
     1
 95
       44
 96
       40
 40
0.0
 40
0.0
 40
0.0
 40
0.0
 40
1.0
 40
1.0
 40
1.0
 40
2.0
 40
2.0
 40
2.0
 40
3.0
 40
3.0
 40
3.0
 40
4.0
 40
4.0
 40
4.0
 40
5.0
 40
5.0
 40
5.0
 40
6.0
 40
6.0
 40
6.0
 40
7.0
 40
7.0
 40
7.0
 40
8.0
 40
8.0
 40
8.0
 40
9.0
 40
9.0
 40
9.0
 40
10.0
 40
10.0
 40
10.0
 40
11.0
 40
11.0
 40
11.0
 40
12.0
 40
12.0
 40
12.0
 40
13.0
 40
13.0
 40
13.0
 40
13.0
 10
91.34429522455976
 20
-141.2196315836187
 10
91.12656518989198
 20
-141.3784504854887
 10
91.03354761179023
 20
-141.4525200384216
 10
90.98462725589968
 20
-141.5961805201565
 10
90.98462725589968
 20
-141.5961805201565
 10
91.76321883556615
 20
-141.5961805201565
 10
91.76321883556615
 20
-141.5961805201565
 10
91.76321883556615
 20
-141.5961805201565
 10
91.76321883556615
 20
-141.8015082110774
 10
91.76321883556615
 20
-141.8015082110774
 10
91.76321883556615
 20
-141.8015082110774
 10
90.7352023427676
 20
-141.8015082110774
 10
90.7352023427676
 20
-141.8015082110774
 10
90.76689722123189
 20
-141.4439072997085
 10
90.83235403545164
 20
-141.3657036321933
 10
91.21751571070257
 20
-141.0673583631707
 10
91.47348630525663
 20
-140.8685763536718
 10
91.53894311947639
 20
-140.8007079726123
 10
91.53894311947639
 20
-140.6632486627509
 10
91.53894311947639
 20
-140.5447373780583
 10
91.46694062383466
 20
-140.4138237496188
 10
91.27022567162689
 20
-140.4138237496188
 10
91.01012096249053
 20
-140.4138237496188
 10
91.0015082237774
 20
-140.644300637582
 10
90.9973741091951
 20
-140.7607448649834
 10
90.9973741091951
 20
-140.7607448649834
 10
90.77309839310534
 20
-140.7607448649834
 10
90.77309839310534
 20
-140.7607448649834
 10
90.78171113181847
 20
-140.6336208415777
 10
90.79239092782274
 20
-140.5216552383071
 10
90.87266165262906
 20
-140.4031439536145
 10
90.98256019860852
 20
-140.2422579944533
 10
91.16893986436055
 20
-140.2084960586979
 10
91.28503958221347
 20
-140.2084960586979
 10
91.56236976877608
 20
-140.2084960586979
 10
91.76976451698812
 20
-140.3924641576102
 10
91.76976451698812
 20
-140.665315720042
 10
91.76976451698812
 20
-140.8940700602626
 10
91.65332028958667
 20
-140.9932888102378
 10
91.34429522455976
 20
-141.2196315836187
 97
        0
 97
        0
 75
     2
 76
     1
 98
        0
  0
SPLINE
  5
8D
330
87
100
AcDbEntity
  8
_U+30EC_U+30A4_U+30E4_U+30FC 1
370
     0
100
AcDbSpline
210
0.0
220
0.0
230
1.0
 70
    11
 71
     3
 72
    53
 73
    49
 74
     0
 42
0.0000000001
 43
0.0000000001
 12
1.0
 22
0.0
 32
0.0
 13
1.0
 23
0.0
 33
0.0
 40
0.0
 40
0.0
 40
0.0
 40
0.0
 40
1.0
 40
1.0
 40
1.0
 40
2.0
 40
2.0
 40
2.0
 40
3.0
 40
3.0
 40
3.0
 40
4.0
 40
4.0
 40
4.0
 40
5.0
 40
5.0
 40
5.0
 40
6.0
 40
6.0
 40
6.0
 40
7.0
 40
7.0
 40
7.0
 40
8.0
 40
8.0
 40
8.0
 40
9.0
 40
9.0
 40
9.0
 40
10.0
 40
10.0
 40
10.0
 40
11.0
 40
11.0
 40
11.0
 40
12.0
 40
12.0
 40
12.0
 40
13.0
 40
13.0
 40
13.0
 40
14.0
 40
14.0
 40
14.0
 40
15.0
 40
15.0
 40
15.0
 40
16.0
 40
16.0
 40
16.0
 40
16.0
 10
92.40917423905049
 20
-141.8521511147106
 30
0.0
 10
92.33097057153532
 20
-141.8521511147106
 30
0.0
 10
92.22934025472044
 20
-141.8352701468329
 30
0.0
 10
92.12770993790558
 20
-141.7718803899043
 30
0.0
 10
91.95442163499752
 20
-141.6619818439248
 30
0.0
 10
91.93306204298896
 20
-141.5307237059368
 30
0.0
 10
91.91411401782008
 20
-141.4228922172485
 30
0.0
 10
91.91411401782008
 20
-141.4228922172485
 30
0.0
 10
92.1363226766187
 20
-141.4228922172485
 30
0.0
 10
92.1363226766187
 20
-141.4228922172485
 30
0.0
 10
92.19109969483418
 20
-141.6216742267474
 30
0.0
 10
92.31822371823989
 20
-141.6513020479205
 30
0.0
 10
92.41124129634164
 20
-141.6513020479205
 30
0.0
 10
92.55076766349426
 20
-141.6513020479205
 30
0.0
 10
92.7030408839423
 20
-141.5517387883968
 30
0.0
 10
92.7030408839423
 20
-141.3191948431424
 30
0.0
 10
92.7030408839423
 20
-141.0632242485884
 30
0.0
 10
92.52320689961226
 20
-140.9932888102378
 30
0.0
 10
92.40262855762852
 20
-140.9932888102378
 30
0.0
 10
92.37093367916421
 20
-140.9932888102378
 30
0.0
 10
92.22934025472044
 20
-140.9932888102378
 30
0.0
 10
92.140456791201
 20
-141.1224798909347
 30
0.0
 10
92.140456791201
 20
-141.1224798909347
 30
0.0
 10
91.96475692145326
 20
-141.1035318657658
 30
0.0
 10
91.96475692145326
 20
-141.1035318657658
 30
0.0
 10
91.96475692145326
 20
-141.1035318657658
 30
0.0
 10
92.085335263437
 20
-140.2570719050399
 30
0.0
 10
92.085335263437
 20
-140.2570719050399
 30
0.0
 10
92.085335263437
 20
-140.2570719050399
 30
0.0
 10
92.86392684310347
 20
-140.2570719050399
 30
0.0
 10
92.86392684310347
 20
-140.2570719050399
 30
0.0
 10
92.86392684310347
 20
-140.2570719050399
 30
0.0
 10
92.86392684310347
 20
-140.4517197999565
 30
0.0
 10
92.86392684310347
 20
-140.4517197999565
 30
0.0
 10
92.86392684310347
 20
-140.4517197999565
 30
0.0
 10
92.24828827988932
 20
-140.4517197999565
 30
0.0
 10
92.24828827988932
 20
-140.4517197999565
 30
0.0
 10
92.24828827988932
 20
-140.4517197999565
 30
0.0
 10
92.18283146566958
 20
-140.8747775255452
 30
0.0
 10
92.18283146566958
 20
-140.8747775255452
 30
0.0
 10
92.24415416530702
 20
-140.8410155897897
 30
0.0
 10
92.32649194740449
 20
-140.8007079726123
 30
0.0
 10
92.4450032320971
 20
-140.8007079726123
 30
0.0
 10
92.69890676936
 20
-140.8007079726123
 30
0.0
 10
92.93592933874518
 20
-140.9870876383644
 30
0.0
 10
92.93592933874518
 20
-141.3002468179735
 30
0.0
 10
92.93592933874518
 20
-141.6175401121651
 30
0.0
 10
92.71165362265542
 20
-141.8521511147106
 30
0.0
 10
92.40917423905049
 20
-141.8521511147106
 30
0.0
  0
HATCH
  5
8E
330
87
100
AcDbEntity
  8
_U+30EC_U+30A4_U+30E4_U+30FC 1
 62
   179
420
  2234388
100
AcDbHatch
 10
0.0
 20
0.0
 30
0.0
210
0.0
220
0.0
230
1.0
  2
SOLID
 70
     1
 71
     0
 91
        1
 92
        1
 93
        1
 72
     4
 94
        3
 73
     0
 74
     1
 95
       53
 96
       49
 40
0.0
 40
0.0
 40
0.0
 40
0.0
 40
1.0
 40
1.0
 40
1.0
 40
2.0
 40
2.0
 40
2.0
 40
3.0
 40
3.0
 40
3.0
 40
4.0
 40
4.0
 40
4.0
 40
5.0
 40
5.0
 40
5.0
 40
6.0
 40
6.0
 40
6.0
 40
7.0
 40
7.0
 40
7.0
 40
8.0
 40
8.0
 40
8.0
 40
9.0
 40
9.0
 40
9.0
 40
10.0
 40
10.0
 40
10.0
 40
11.0
 40
11.0
 40
11.0
 40
12.0
 40
12.0
 40
12.0
 40
13.0
 40
13.0
 40
13.0
 40
14.0
 40
14.0
 40
14.0
 40
15.0
 40
15.0
 40
15.0
 40
16.0
 40
16.0
 40
16.0
 40
16.0
 10
92.40917423905049
 20
-141.8521511147106
 10
92.33097057153532
 20
-141.8521511147106
 10
92.22934025472044
 20
-141.8352701468329
 10
92.12770993790558
 20
-141.7718803899043
 10
91.95442163499752
 20
-141.6619818439248
 10
91.93306204298896
 20
-141.5307237059368
 10
91.91411401782008
 20
-141.4228922172485
 10
91.91411401782008
 20
-141.4228922172485
 10
92.1363226766187
 20
-141.4228922172485
 10
92.1363226766187
 20
-141.4228922172485
 10
92.19109969483418
 20
-141.6216742267474
 10
92.31822371823989
 20
-141.6513020479205
 10
92.41124129634164
 20
-141.6513020479205
 10
92.55076766349426
 20
-141.6513020479205
 10
92.7030408839423
 20
-141.5517387883968
 10
92.7030408839423
 20
-141.3191948431424
 10
92.7030408839423
 20
-141.0632242485884
 10
92.52320689961226
 20
-140.9932888102378
 10
92.40262855762852
 20
-140.9932888102378
 10
92.37093367916421
 20
-140.9932888102378
 10
92.22934025472044
 20
-140.9932888102378
 10
92.140456791201
 20
-141.1224798909347
 10
92.140456791201
 20
-141.1224798909347
 10
91.96475692145326
 20
-141.1035318657658
 10
91.96475692145326
 20
-141.1035318657658
 10
91.96475692145326
 20
-141.1035318657658
 10
92.085335263437
 20
-140.2570719050399
 10
92.085335263437
 20
-140.2570719050399
 10
92.085335263437
 20
-140.2570719050399
 10
92.86392684310347
 20
-140.2570719050399
 10
92.86392684310347
 20
-140.2570719050399
 10
92.86392684310347
 20
-140.2570719050399
 10
92.86392684310347
 20
-140.4517197999565
 10
92.86392684310347
 20
-140.4517197999565
 10
92.86392684310347
 20
-140.4517197999565
 10
92.24828827988932
 20
-140.4517197999565
 10
92.24828827988932
 20
-140.4517197999565
 10
92.24828827988932
 20
-140.4517197999565
 10
92.18283146566958
 20
-140.8747775255452
 10
92.18283146566958
 20
-140.8747775255452
 10
92.24415416530702
 20
-140.8410155897897
 10
92.32649194740449
 20
-140.8007079726123
 10
92.4450032320971
 20
-140.8007079726123
 10
92.69890676936
 20
-140.8007079726123
 10
92.93592933874518
 20
-140.9870876383644
 10
92.93592933874518
 20
-141.3002468179735
 10
92.93592933874518
 20
-141.6175401121651
 10
92.71165362265542
 20
-141.8521511147106
 10
92.40917423905049
 20
-141.8521511147106
 97
        0
 97
        0
 75
     2
 76
     1
 98
        0
  0
ENDBLK
  5
8A
330
87
100
AcDbEntity
  8
0
100
AcDbBlockEnd
  0
BLOCK
  5
9D
330
9B
100
AcDbEntity
  8
0
100
AcDbBlockBegin
  2
block 4
 70
     0
 10
0.0
 20
0.0
 30
0.0
  3
block 4
  1

  0
SPLINE
  5
9F
330
9B
100
AcDbEntity
  8
_U+30EC_U+30A4_U+30E4_U+30FC 1
370
     0
100
AcDbSpline
210
0.0
220
0.0
230
1.0
 70
    11
 71
     3
 72
    44
 73
    40
 74
     0
 42
0.0000000001
 43
0.0000000001
 12
1.0
 22
0.0
 32
0.0
 13
1.0
 23
0.0
 33
0.0
 40
0.0
 40
0.0
 40
0.0
 40
0.0
 40
1.0
 40
1.0
 40
1.0
 40
2.0
 40
2.0
 40
2.0
 40
3.0
 40
3.0
 40
3.0
 40
4.0
 40
4.0
 40
4.0
 40
5.0
 40
5.0
 40
5.0
 40
6.0
 40
6.0
 40
6.0
 40
7.0
 40
7.0
 40
7.0
 40
8.0
 40
8.0
 40
8.0
 40
9.0
 40
9.0
 40
9.0
 40
10.0
 40
10.0
 40
10.0
 40
11.0
 40
11.0
 40
11.0
 40
12.0
 40
12.0
 40
12.0
 40
13.0
 40
13.0
 40
13.0
 40
13.0
 10
74.23732908300317
 20
-126.4692830087473
 30
0.0
 10
74.39597573009893
 20
-126.6870130434151
 30
0.0
 10
74.4700452830318
 20
-126.7800306215168
 30
0.0
 10
74.61387801954098
 20
-126.8289509774073
 30
0.0
 10
74.61387801954098
 20
-126.8289509774073
 30
0.0
 10
74.61387801954098
 20
-126.0503593977409
 30
0.0
 10
74.61387801954098
 20
-126.0503593977409
 30
0.0
 10
74.61387801954098
 20
-126.0503593977409
 30
0.0
 10
74.8190334556876
 20
-126.0503593977409
 30
0.0
 10
74.8190334556876
 20
-126.0503593977409
 30
0.0
 10
74.8190334556876
 20
-126.0503593977409
 30
0.0
 10
74.8190334556876
 20
-127.0783758905394
 30
0.0
 10
74.8190334556876
 20
-127.0783758905394
 30
0.0
 10
74.46143254431867
 20
-127.0466810120751
 30
0.0
 10
74.3832288768035
 20
-126.9812241978554
 30
0.0
 10
74.08488360778087
 20
-126.5960625226045
 30
0.0
 10
73.88610159828195
 20
-126.3400919280504
 30
0.0
 10
73.8184054719968
 20
-126.2746351138307
 30
0.0
 10
73.68094616213533
 20
-126.2746351138307
 30
0.0
 10
73.56243487744273
 20
-126.2746351138307
 30
0.0
 10
73.43117673945471
 20
-126.3466376094724
 30
0.0
 10
73.43117673945471
 20
-126.5433525616801
 30
0.0
 10
73.43117673945471
 20
-126.8034572708165
 30
0.0
 10
73.66182588219219
 20
-126.8120700095296
 30
0.0
 10
73.77827010959363
 20
-126.8162041241119
 30
0.0
 10
73.77827010959363
 20
-126.8162041241119
 30
0.0
 10
73.77827010959363
 20
-127.0404798402017
 30
0.0
 10
73.77827010959363
 20
-127.0404798402017
 30
0.0
 10
73.65131834096218
 20
-127.0318671014886
 30
0.0
 10
73.53918048291729
 20
-127.0211873054843
 30
0.0
 10
73.4206691982247
 20
-126.940916580678
 30
0.0
 10
73.2599554938378
 20
-126.8310180346985
 30
0.0
 10
73.22602130330809
 20
-126.6446383689465
 30
0.0
 10
73.22602130330809
 20
-126.5285386510936
 30
0.0
 10
73.22602130330809
 20
-126.2512084645309
 30
0.0
 10
73.41016165699469
 20
-126.0438137163189
 30
0.0
 10
73.68301321942647
 20
-126.0438137163189
 30
0.0
 10
73.91142305009853
 20
-126.0438137163189
 30
0.0
 10
74.01098630962225
 20
-126.1602579437204
 30
0.0
 10
74.23732908300317
 20
-126.4692830087473
 30
0.0
  0
HATCH
  5
A0
330
9B
100
AcDbEntity
  8
_U+30EC_U+30A4_U+30E4_U+30FC 1
 62
   179
420
  2234388
100
AcDbHatch
 10
0.0
 20
0.0
 30
0.0
210
0.0
220
0.0
230
1.0
  2
SOLID
 70
     1
 71
     0
 91
        1
 92
        1
 93
        1
 72
     4
 94
        3
 73
     0
 74
     1
 95
       44
 96
       40
 40
0.0
 40
0.0
 40
0.0
 40
0.0
 40
1.0
 40
1.0
 40
1.0
 40
2.0
 40
2.0
 40
2.0
 40
3.0
 40
3.0
 40
3.0
 40
4.0
 40
4.0
 40
4.0
 40
5.0
 40
5.0
 40
5.0
 40
6.0
 40
6.0
 40
6.0
 40
7.0
 40
7.0
 40
7.0
 40
8.0
 40
8.0
 40
8.0
 40
9.0
 40
9.0
 40
9.0
 40
10.0
 40
10.0
 40
10.0
 40
11.0
 40
11.0
 40
11.0
 40
12.0
 40
12.0
 40
12.0
 40
13.0
 40
13.0
 40
13.0
 40
13.0
 10
74.23732908300317
 20
-126.4692830087473
 10
74.39597573009893
 20
-126.6870130434151
 10
74.4700452830318
 20
-126.7800306215168
 10
74.61387801954098
 20
-126.8289509774073
 10
74.61387801954098
 20
-126.8289509774073
 10
74.61387801954098
 20
-126.0503593977409
 10
74.61387801954098
 20
-126.0503593977409
 10
74.61387801954098
 20
-126.0503593977409
 10
74.8190334556876
 20
-126.0503593977409
 10
74.8190334556876
 20
-126.0503593977409
 10
74.8190334556876
 20
-126.0503593977409
 10
74.8190334556876
 20
-127.0783758905394
 10
74.8190334556876
 20
-127.0783758905394
 10
74.46143254431867
 20
-127.0466810120751
 10
74.3832288768035
 20
-126.9812241978554
 10
74.08488360778087
 20
-126.5960625226045
 10
73.88610159828195
 20
-126.3400919280504
 10
73.8184054719968
 20
-126.2746351138307
 10
73.68094616213533
 20
-126.2746351138307
 10
73.56243487744273
 20
-126.2746351138307
 10
73.43117673945471
 20
-126.3466376094724
 10
73.43117673945471
 20
-126.5433525616801
 10
73.43117673945471
 20
-126.8034572708165
 10
73.66182588219219
 20
-126.8120700095296
 10
73.77827010959363
 20
-126.8162041241119
 10
73.77827010959363
 20
-126.8162041241119
 10
73.77827010959363
 20
-127.0404798402017
 10
73.77827010959363
 20
-127.0404798402017
 10
73.65131834096218
 20
-127.0318671014886
 10
73.53918048291729
 20
-127.0211873054843
 10
73.4206691982247
 20
-126.940916580678
 10
73.2599554938378
 20
-126.8310180346985
 10
73.22602130330809
 20
-126.6446383689465
 10
73.22602130330809
 20
-126.5285386510936
 10
73.22602130330809
 20
-126.2512084645309
 10
73.41016165699469
 20
-126.0438137163189
 10
73.68301321942647
 20
-126.0438137163189
 10
73.91142305009853
 20
-126.0438137163189
 10
74.01098630962225
 20
-126.1602579437204
 10
74.23732908300317
 20
-126.4692830087473
 97
        0
 97
        0
 75
     2
 76
     1
 98
        0
  0
SPLINE
  5
A1
330
9B
100
AcDbEntity
  8
_U+30EC_U+30A4_U+30E4_U+30FC 1
370
     0
100
AcDbSpline
210
0.0
220
0.0
230
1.0
 70
    11
 71
     3
 72
    53
 73
    49
 74
     0
 42
0.0000000001
 43
0.0000000001
 12
1.0
 22
0.0
 32
0.0
 13
1.0
 23
0.0
 33
0.0
 40
0.0
 40
0.0
 40
0.0
 40
0.0
 40
1.0
 40
1.0
 40
1.0
 40
2.0
 40
2.0
 40
2.0
 40
3.0
 40
3.0
 40
3.0
 40
4.0
 40
4.0
 40
4.0
 40
5.0
 40
5.0
 40
5.0
 40
6.0
 40
6.0
 40
6.0
 40
7.0
 40
7.0
 40
7.0
 40
8.0
 40
8.0
 40
8.0
 40
9.0
 40
9.0
 40
9.0
 40
10.0
 40
10.0
 40
10.0
 40
11.0
 40
11.0
 40
11.0
 40
12.0
 40
12.0
 40
12.0
 40
13.0
 40
13.0
 40
13.0
 40
14.0
 40
14.0
 40
14.0
 40
15.0
 40
15.0
 40
15.0
 40
16.0
 40
16.0
 40
16.0
 40
16.0
 10
74.86984861409505
 20
-125.4044039942565
 30
0.0
 10
74.86984861409505
 20
-125.4826076617717
 30
0.0
 10
74.85296764621732
 20
-125.5842379785866
 30
0.0
 10
74.78940563451445
 20
-125.6858682954014
 30
0.0
 10
74.67933483376072
 20
-125.8591565983095
 30
0.0
 10
74.54824895054696
 20
-125.8805161903181
 30
0.0
 10
74.44041746185864
 20
-125.8994642154869
 30
0.0
 10
74.44041746185864
 20
-125.8994642154869
 30
0.0
 10
74.44041746185864
 20
-125.6772555566883
 30
0.0
 10
74.44041746185864
 20
-125.6772555566883
 30
0.0
 10
74.63919947135757
 20
-125.6224785384729
 30
0.0
 10
74.66882729253071
 20
-125.4953545150671
 30
0.0
 10
74.66882729253071
 20
-125.4023369369654
 30
0.0
 10
74.66882729253071
 20
-125.2628105698128
 30
0.0
 10
74.56943628778126
 20
-125.1105373493647
 30
0.0
 10
74.33672008775262
 20
-125.1105373493647
 30
0.0
 10
74.08074949319857
 20
-125.1105373493647
 30
0.0
 10
74.01098630962225
 20
-125.2903713336948
 30
0.0
 10
74.01098630962225
 20
-125.4109496756785
 30
0.0
 10
74.01098630962225
 20
-125.4426445541428
 30
0.0
 10
74.01098630962225
 20
-125.5842379785866
 30
0.0
 10
74.14000513554487
 20
-125.673121442106
 30
0.0
 10
74.14000513554487
 20
-125.673121442106
 30
0.0
 10
74.12088485560173
 20
-125.8488213118538
 30
0.0
 10
74.12088485560173
 20
-125.8488213118538
 30
0.0
 10
74.12088485560173
 20
-125.8488213118538
 30
0.0
 10
73.27476940442436
 20
-125.72824296987
 30
0.0
 10
73.27476940442436
 20
-125.72824296987
 30
0.0
 10
73.27476940442436
 20
-125.72824296987
 30
0.0
 10
73.27476940442436
 20
-124.9496513902036
 30
0.0
 10
73.27476940442436
 20
-124.9496513902036
 30
0.0
 10
73.27476940442436
 20
-124.9496513902036
 30
0.0
 10
73.46941729934099
 20
-124.9496513902036
 30
0.0
 10
73.46941729934099
 20
-124.9496513902036
 30
0.0
 10
73.46941729934099
 20
-124.9496513902036
 30
0.0
 10
73.46941729934099
 20
-125.5652899534177
 30
0.0
 10
73.46941729934099
 20
-125.5652899534177
 30
0.0
 10
73.46941729934099
 20
-125.5652899534177
 30
0.0
 10
73.89247502492967
 20
-125.6307467676375
 30
0.0
 10
73.89247502492967
 20
-125.6307467676375
 30
0.0
 10
73.85854083439995
 20
-125.569424068
 30
0.0
 10
73.8184054719968
 20
-125.4870862859025
 30
0.0
 10
73.8184054719968
 20
-125.3685750012099
 30
0.0
 10
73.8184054719968
 20
-125.114671463947
 30
0.0
 10
74.00461288297454
 20
-124.8776488945618
 30
0.0
 10
74.31759980780949
 20
-124.8776488945618
 30
0.0
 10
74.63506535677527
 20
-124.8776488945618
 30
0.0
 10
74.86984861409505
 20
-125.1019246106516
 30
0.0
 10
74.86984861409505
 20
-125.4044039942565
 30
0.0
  0
HATCH
  5
A2
330
9B
100
AcDbEntity
  8
_U+30EC_U+30A4_U+30E4_U+30FC 1
 62
   179
420
  2234388
100
AcDbHatch
 10
0.0
 20
0.0
 30
0.0
210
0.0
220
0.0
230
1.0
  2
SOLID
 70
     1
 71
     0
 91
        1
 92
        1
 93
        1
 72
     4
 94
        3
 73
     0
 74
     1
 95
       53
 96
       49
 40
0.0
 40
0.0
 40
0.0
 40
0.0
 40
1.0
 40
1.0
 40
1.0
 40
2.0
 40
2.0
 40
2.0
 40
3.0
 40
3.0
 40
3.0
 40
4.0
 40
4.0
 40
4.0
 40
5.0
 40
5.0
 40
5.0
 40
6.0
 40
6.0
 40
6.0
 40
7.0
 40
7.0
 40
7.0
 40
8.0
 40
8.0
 40
8.0
 40
9.0
 40
9.0
 40
9.0
 40
10.0
 40
10.0
 40
10.0
 40
11.0
 40
11.0
 40
11.0
 40
12.0
 40
12.0
 40
12.0
 40
13.0
 40
13.0
 40
13.0
 40
14.0
 40
14.0
 40
14.0
 40
15.0
 40
15.0
 40
15.0
 40
16.0
 40
16.0
 40
16.0
 40
16.0
 10
74.86984861409505
 20
-125.4044039942565
 10
74.86984861409505
 20
-125.4826076617717
 10
74.85296764621732
 20
-125.5842379785866
 10
74.78940563451445
 20
-125.6858682954014
 10
74.67933483376072
 20
-125.8591565983095
 10
74.54824895054696
 20
-125.8805161903181
 10
74.44041746185864
 20
-125.8994642154869
 10
74.44041746185864
 20
-125.8994642154869
 10
74.44041746185864
 20
-125.6772555566883
 10
74.44041746185864
 20
-125.6772555566883
 10
74.63919947135757
 20
-125.6224785384729
 10
74.66882729253071
 20
-125.4953545150671
 10
74.66882729253071
 20
-125.4023369369654
 10
74.66882729253071
 20
-125.2628105698128
 10
74.56943628778126
 20
-125.1105373493647
 10
74.33672008775262
 20
-125.1105373493647
 10
74.08074949319857
 20
-125.1105373493647
 10
74.01098630962225
 20
-125.2903713336948
 10
74.01098630962225
 20
-125.4109496756785
 10
74.01098630962225
 20
-125.4426445541428
 10
74.01098630962225
 20
-125.5842379785866
 10
74.14000513554487
 20
-125.673121442106
 10
74.14000513554487
 20
-125.673121442106
 10
74.12088485560173
 20
-125.8488213118538
 10
74.12088485560173
 20
-125.8488213118538
 10
74.12088485560173
 20
-125.8488213118538
 10
73.27476940442436
 20
-125.72824296987
 10
73.27476940442436
 20
-125.72824296987
 10
73.27476940442436
 20
-125.72824296987
 10
73.27476940442436
 20
-124.9496513902036
 10
73.27476940442436
 20
-124.9496513902036
 10
73.27476940442436
 20
-124.9496513902036
 10
73.46941729934099
 20
-124.9496513902036
 10
73.46941729934099
 20
-124.9496513902036
 10
73.46941729934099
 20
-124.9496513902036
 10
73.46941729934099
 20
-125.5652899534177
 10
73.46941729934099
 20
-125.5652899534177
 10
73.46941729934099
 20
-125.5652899534177
 10
73.89247502492967
 20
-125.6307467676375
 10
73.89247502492967
 20
-125.6307467676375
 10
73.85854083439995
 20
-125.569424068
 10
73.8184054719968
 20
-125.4870862859025
 10
73.8184054719968
 20
-125.3685750012099
 10
73.8184054719968
 20
-125.114671463947
 10
74.00461288297454
 20
-124.8776488945618
 10
74.31759980780949
 20
-124.8776488945618
 10
74.63506535677527
 20
-124.8776488945618
 10
74.86984861409505
 20
-125.1019246106516
 10
74.86984861409505
 20
-125.4044039942565
 97
        0
 97
        0
 75
     2
 76
     1
 98
        0
  0
ENDBLK
  5
9E
330
9B
100
AcDbEntity
  8
0
100
AcDbBlockEnd
  0
ENDSEC
  0
SECTION
  2
ENTITIES
  0
POLYLINE
  5
41
330
1F
100
AcDbEntity
  8
_U+30EC_U+30A4_U+30E4_U+30FC 1
370
     0
100
AcDb2dPolyline
 66
     1
 10
0.0
 20
0.0
 30
0.0
  0
VERTEX
  5
42
330
41
100
AcDbEntity
  8
_U+30EC_U+30A4_U+30E4_U+30FC 1
370
     0
100
AcDbVertex
100
AcDb2dVertex
 10
81.4151823673701
 20
-113.3975591383172
 30
0.0
  0
VERTEX
  5
43
330
41
100
AcDbEntity
  8
_U+30EC_U+30A4_U+30E4_U+30FC 1
370
     0
100
AcDbVertex
100
AcDb2dVertex
 10
79.4149676961776
 20
-113.3975591383172
 30
0.0
  0
VERTEX
  5
44
330
41
100
AcDbEntity
  8
_U+30EC_U+30A4_U+30E4_U+30FC 1
370
     0
100
AcDbVertex
100
AcDb2dVertex
 10
79.4149676961776
 20
-138.3977560765118
 30
0.0
  0
VERTEX
  5
45
330
41
100
AcDbEntity
  8
_U+30EC_U+30A4_U+30E4_U+30FC 1
370
     0
100
AcDbVertex
100
AcDb2dVertex
 10
104.4149876139295
 20
-138.3977560765118
 30
0.0
  0
VERTEX
  5
46
330
41
100
AcDbEntity
  8
_U+30EC_U+30A4_U+30E4_U+30FC 1
370
     0
100
AcDbVertex
100
AcDb2dVertex
 10
104.4149876139295
 20
-136.3975413547893
 30
0.0
  0
VERTEX
  5
47
330
41
100
AcDbEntity
  8
_U+30EC_U+30A4_U+30E4_U+30FC 1
370
     0
100
AcDbVertex
100
AcDb2dVertex
 10
81.4151823673701
 20
-136.3975413547893
 30
0.0
  0
VERTEX
  5
48
330
41
100
AcDbEntity
  8
_U+30EC_U+30A4_U+30E4_U+30FC 1
370
     0
100
AcDbVertex
100
AcDb2dVertex
 10
81.4151823673701
 20
-113.3975591383172
 30
0.0
  0
SEQEND
  5
4A
330
41
100
AcDbEntity
  8
_U+30EC_U+30A4_U+30E4_U+30FC 1
370
     0
  0
HATCH
  5
49
330
1F
100
AcDbEntity
  8
_U+30EC_U+30A4_U+30E4_U+30FC 1
 62
   253
420
 11711154
100
AcDbHatch
 10
0.0
 20
0.0
 30
0.0
210
0.0
220
0.0
230
1.0
  2
SOLID
 70
     1
 71
     0
 91
        1
 92
        1
 93
        6
 72
     1
 10
81.4151823673701
 20
-113.3975591383172
 11
79.4149676961776
 21
-113.3975591383172
 72
     1
 10
79.4149676961776
 20
-113.3975591383172
 11
79.4149676961776
 21
-138.3977560765118
 72
     1
 10
79.4149676961776
 20
-138.3977560765118
 11
104.4149876139295
 21
-138.3977560765118
 72
     1
 10
104.4149876139295
 20
-138.3977560765118
 11
104.4149876139295
 21
-136.3975413547893
 72
     1
 10
104.4149876139295
 20
-136.3975413547893
 11
81.4151823673701
 21
-136.3975413547893
 72
     1
 10
81.4151823673701
 20
-136.3975413547893
 11
81.4151823673701
 21
-113.3975591383172
 97
        0
 75
     2
 76
     1
 98
        0
  0
POLYLINE
  5
4B
330
1F
100
AcDbEntity
  8
_U+30EC_U+30A4_U+30E4_U+30FC 1
 62
   179
420
  2234388
370
    25
100
AcDb2dPolyline
 66
     1
 10
0.0
 20
0.0
 30
0.0
  0
VERTEX
  5
4C
330
4B
100
AcDbEntity
  8
_U+30EC_U+30A4_U+30E4_U+30FC 1
 62
   179
420
  2234388
370
    25
100
AcDbVertex
100
AcDb2dVertex
 10
79.4149676961776
 20
-138.3977560765118
 30
0.0
  0
VERTEX
  5
4D
330
4B
100
AcDbEntity
  8
_U+30EC_U+30A4_U+30E4_U+30FC 1
 62
   179
420
  2234388
370
    25
100
AcDbVertex
100
AcDb2dVertex
 10
104.4149876139295
 20
-138.3977560765118
 30
0.0
  0
SEQEND
  5
4E
330
4B
100
AcDbEntity
  8
_U+30EC_U+30A4_U+30E4_U+30FC 1
 62
   179
420
  2234388
370
    25
  0
POLYLINE
  5
4F
330
1F
100
AcDbEntity
  8
_U+30EC_U+30A4_U+30E4_U+30FC 1
 62
   179
420
  2234388
370
    25
100
AcDb2dPolyline
 66
     1
 10
0.0
 20
0.0
 30
0.0
  0
VERTEX
  5
50
330
4F
100
AcDbEntity
  8
_U+30EC_U+30A4_U+30E4_U+30FC 1
 62
   179
420
  2234388
370
    25
100
AcDbVertex
100
AcDb2dVertex
 10
79.4149676961776
 20
-113.3975591383172
 30
0.0
  0
VERTEX
  5
51
330
4F
100
AcDbEntity
  8
_U+30EC_U+30A4_U+30E4_U+30FC 1
 62
   179
420
  2234388
370
    25
100
AcDbVertex
100
AcDb2dVertex
 10
79.4149676961776
 20
-138.3977560765118
 30
0.0
  0
SEQEND
  5
52
330
4F
100
AcDbEntity
  8
_U+30EC_U+30A4_U+30E4_U+30FC 1
 62
   179
420
  2234388
370
    25
  0
POLYLINE
  5
53
330
1F
100
AcDbEntity
  8
_U+30EC_U+30A4_U+30E4_U+30FC 1
 62
   179
420
  2234388
370
    25
100
AcDb2dPolyline
 66
     1
 10
0.0
 20
0.0
 30
0.0
  0
VERTEX
  5
54
330
53
100
AcDbEntity
  8
_U+30EC_U+30A4_U+30E4_U+30FC 1
 62
   179
420
  2234388
370
    25
100
AcDbVertex
100
AcDb2dVertex
 10
81.4151823673701
 20
-136.3975413547893
 30
0.0
  0
VERTEX
  5
55
330
53
100
AcDbEntity
  8
_U+30EC_U+30A4_U+30E4_U+30FC 1
 62
   179
420
  2234388
370
    25
100
AcDbVertex
100
AcDb2dVertex
 10
104.4149876139295
 20
-136.3975413547893
 30
0.0
  0
SEQEND
  5
56
330
53
100
AcDbEntity
  8
_U+30EC_U+30A4_U+30E4_U+30FC 1
 62
   179
420
  2234388
370
    25
  0
POLYLINE
  5
57
330
1F
100
AcDbEntity
  8
_U+30EC_U+30A4_U+30E4_U+30FC 1
 62
   179
420
  2234388
370
    25
100
AcDb2dPolyline
 66
     1
 10
0.0
 20
0.0
 30
0.0
  0
VERTEX
  5
58
330
57
100
AcDbEntity
  8
_U+30EC_U+30A4_U+30E4_U+30FC 1
 62
   179
420
  2234388
370
    25
100
AcDbVertex
100
AcDb2dVertex
 10
81.4151823673701
 20
-113.3975591383172
 30
0.0
  0
VERTEX
  5
59
330
57
100
AcDbEntity
  8
_U+30EC_U+30A4_U+30E4_U+30FC 1
 62
   179
420
  2234388
370
    25
100
AcDbVertex
100
AcDb2dVertex
 10
81.4151823673701
 20
-136.3975413547893
 30
0.0
  0
SEQEND
  5
5A
330
57
100
AcDbEntity
  8
_U+30EC_U+30A4_U+30E4_U+30FC 1
 62
   179
420
  2234388
370
    25
  0
POLYLINE
  5
5B
330
1F
100
AcDbEntity
  8
_U+30EC_U+30A4_U+30E4_U+30FC 1
 62
   179
420
  2234388
370
    25
100
AcDb2dPolyline
 66
     1
 10
0.0
 20
0.0
 30
0.0
  0
VERTEX
  5
5C
330
5B
100
AcDbEntity
  8
_U+30EC_U+30A4_U+30E4_U+30FC 1
 62
   179
420
  2234388
370
    25
100
AcDbVertex
100
AcDb2dVertex
 10
79.4149676961776
 20
-113.3975591383172
 30
0.0
  0
VERTEX
  5
5D
330
5B
100
AcDbEntity
  8
_U+30EC_U+30A4_U+30E4_U+30FC 1
 62
   179
420
  2234388
370
    25
100
AcDbVertex
100
AcDb2dVertex
 10
81.4151823673701
 20
-113.3975591383172
 30
0.0
  0
SEQEND
  5
5E
330
5B
100
AcDbEntity
  8
_U+30EC_U+30A4_U+30E4_U+30FC 1
 62
   179
420
  2234388
370
    25
  0
POLYLINE
  5
5F
330
1F
100
AcDbEntity
  8
_U+30EC_U+30A4_U+30E4_U+30FC 1
 62
   179
420
  2234388
370
    25
100
AcDb2dPolyline
 66
     1
 10
0.0
 20
0.0
 30
0.0
  0
VERTEX
  5
60
330
5F
100
AcDbEntity
  8
_U+30EC_U+30A4_U+30E4_U+30FC 1
 62
   179
420
  2234388
370
    25
100
AcDbVertex
100
AcDb2dVertex
 10
104.4149876139295
 20
-136.3975413547893
 30
0.0
  0
VERTEX
  5
61
330
5F
100
AcDbEntity
  8
_U+30EC_U+30A4_U+30E4_U+30FC 1
 62
   179
420
  2234388
370
    25
100
AcDbVertex
100
AcDb2dVertex
 10
104.4149876139295
 20
-138.3977560765118
 30
0.0
  0
SEQEND
  5
62
330
5F
100
AcDbEntity
  8
_U+30EC_U+30A4_U+30E4_U+30FC 1
 62
   179
420
  2234388
370
    25
  0
SPLINE
  5
63
330
1F
100
AcDbEntity
  8
_U+30EC_U+30A4_U+30E4_U+30FC 1
 62
   179
420
  2234388
370
     9
100
AcDbSpline
210
0.0
220
0.0
230
1.0
 70
    11
 71
     3
 72
    17
 73
    13
 74
     0
 42
0.0000000001
 43
0.0000000001
 12
1.0
 22
0.0
 32
0.0
 13
1.0
 23
0.0
 33
0.0
 40
0.0
 40
0.0
 40
0.0
 40
0.0
 40
1.0
 40
1.0
 40
1.0
 40
2.0
 40
2.0
 40
2.0
 40
3.0
 40
3.0
 40
3.0
 40
4.0
 40
4.0
 40
4.0
 40
4.0
 10
108.5153236204323
 20
-136.3975413547893
 30
0.0
 10
108.5153236204323
 20
-136.3424021881369
 30
0.0
 10
108.4705561215745
 20
-136.2976346881477
 30
0.0
 10
108.4154169563145
 20
-136.2976346881477
 30
0.0
 10
108.3603130688314
 20
-136.2976346881477
 30
0.0
 10
108.3155102921967
 20
-136.3424021881369
 30
0.0
 10
108.3155102921967
 20
-136.3975413547893
 30
0.0
 10
108.3155102921967
 20
-136.4533507992198
 30
0.0
 10
108.3603130688314
 20
-136.498118299209
 30
0.0
 10
108.4154169563145
 20
-136.498118299209
 30
0.0
 10
108.4705561215745
 20
-136.498118299209
 30
0.0
 10
108.5153236204323
 20
-136.4533507992198
 30
0.0
 10
108.5153236204323
 20
-136.3975413547893
 30
0.0
  0
SPLINE
  5
64
330
1F
100
AcDbEntity
  8
_U+30EC_U+30A4_U+30E4_U+30FC 1
 62
   179
420
  2234388
370
     9
100
AcDbSpline
210
0.0
220
0.0
230
1.0
 70
    11
 71
     3
 72
    17
 73
    13
 74
     0
 42
0.0000000001
 43
0.0000000001
 12
1.0
 22
0.0
 32
0.0
 13
1.0
 23
0.0
 33
0.0
 40
0.0
 40
0.0
 40
0.0
 40
0.0
 40
1.0
 40
1.0
 40
1.0
 40
2.0
 40
2.0
 40
2.0
 40
3.0
 40
3.0
 40
3.0
 40
4.0
 40
4.0
 40
4.0
 40
4.0
 10
108.5153236204323
 20
-138.3977560765118
 30
0.0
 10
108.5153236204323
 20
-138.3426169098587
 30
0.0
 10
108.4705561215745
 20
-138.2978494098701
 30
0.0
 10
108.4154169563145
 20
-138.2978494098701
 30
0.0
 10
108.3603130688314
 20
-138.2978494098701
 30
0.0
 10
108.3155102921967
 20
-138.3426169098587
 30
0.0
 10
108.3155102921967
 20
-138.3977560765118
 30
0.0
 10
108.3155102921967
 20
-138.4528599653867
 30
0.0
 10
108.3603130688314
 20
-138.4976627431534
 30
0.0
 10
108.4154169563145
 20
-138.4976627431534
 30
0.0
 10
108.4705561215745
 20
-138.4976627431534
 30
0.0
 10
108.5153236204323
 20
-138.4528599653867
 30
0.0
 10
108.5153236204323
 20
-138.3977560765118
 30
0.0
  0
SPLINE
  5
65
330
1F
100
AcDbEntity
  8
_U+30EC_U+30A4_U+30E4_U+30FC 1
 62
   179
420
  2234388
370
     9
100
AcDbSpline
210
0.0
220
0.0
230
1.0
 70
    11
 71
     3
 72
    17
 73
    13
 74
     0
 42
0.0000000001
 43
0.0000000001
 12
1.0
 22
0.0
 32
0.0
 13
1.0
 23
0.0
 33
0.0
 40
0.0
 40
0.0
 40
0.0
 40
0.0
 40
1.0
 40
1.0
 40
1.0
 40
2.0
 40
2.0
 40
2.0
 40
3.0
 40
3.0
 40
3.0
 40
4.0
 40
4.0
 40
4.0
 40
4.0
 10
75.51511529567112
 20
-113.3975591383172
 30
0.0
 10
75.51511529567112
 20
-113.3424199716645
 30
0.0
 10
75.47031251903637
 20
-113.2976524716756
 30
0.0
 10
75.4152086315533
 20
-113.2976524716756
 30
0.0
 10
75.36006946629334
 20
-113.2976524716756
 30
0.0
 10
75.31530196743546
 20
-113.3424199716645
 30
0.0
 10
75.31530196743546
 20
-113.3975591383172
 30
0.0
 10
75.31530196743546
 20
-113.4530158049702
 30
0.0
 10
75.36006946629334
 20
-113.4978185827366
 30
0.0
 10
75.4152086315533
 20
-113.4978185827366
 30
0.0
 10
75.47031251903637
 20
-113.4978185827366
 30
0.0
 10
75.51511529567112
 20
-113.4530158049702
 30
0.0
 10
75.51511529567112
 20
-113.3975591383172
 30
0.0
  0
SPLINE
  5
66
330
1F
100
AcDbEntity
  8
_U+30EC_U+30A4_U+30E4_U+30FC 1
 62
   179
420
  2234388
370
     9
100
AcDbSpline
210
0.0
220
0.0
230
1.0
 70
    11
 71
     3
 72
    17
 73
    13
 74
     0
 42
0.0000000001
 43
0.0000000001
 12
1.0
 22
0.0
 32
0.0
 13
1.0
 23
0.0
 33
0.0
 40
0.0
 40
0.0
 40
0.0
 40
0.0
 40
1.0
 40
1.0
 40
1.0
 40
2.0
 40
2.0
 40
2.0
 40
3.0
 40
3.0
 40
3.0
 40
4.0
 40
4.0
 40
4.0
 40
4.0
 10
75.51511529567112
 20
-138.3977560765118
 30
0.0
 10
75.51511529567112
 20
-138.3426169098587
 30
0.0
 10
75.47031251903637
 20
-138.2978494098701
 30
0.0
 10
75.4152086315533
 20
-138.2978494098701
 30
0.0
 10
75.36006946629334
 20
-138.2978494098701
 30
0.0
 10
75.31530196743546
 20
-138.3426169098587
 30
0.0
 10
75.31530196743546
 20
-138.3977560765118
 30
0.0
 10
75.31530196743546
 20
-138.4528599653867
 30
0.0
 10
75.36006946629334
 20
-138.4976627431534
 30
0.0
 10
75.4152086315533
 20
-138.4976627431534
 30
0.0
 10
75.47031251903637
 20
-138.4976627431534
 30
0.0
 10
75.51511529567112
 20
-138.4528599653867
 30
0.0
 10
75.51511529567112
 20
-138.3977560765118
 30
0.0
  0
SPLINE
  5
67
330
1F
100
AcDbEntity
  8
_U+30EC_U+30A4_U+30E4_U+30FC 1
 62
   179
420
  2234388
370
     9
100
AcDbSpline
210
0.0
220
0.0
230
1.0
 70
    11
 71
     3
 72
    17
 73
    13
 74
     0
 42
0.0000000001
 43
0.0000000001
 12
1.0
 22
0.0
 32
0.0
 13
1.0
 23
0.0
 33
0.0
 40
0.0
 40
0.0
 40
0.0
 40
0.0
 40
1.0
 40
1.0
 40
1.0
 40
2.0
 40
2.0
 40
2.0
 40
3.0
 40
3.0
 40
3.0
 40
4.0
 40
4.0
 40
4.0
 40
4.0
 10
79.51487436029544
 20
-142.3975152421787
 30
0.0
 10
79.51487436029544
 20
-142.3423760755256
 30
0.0
 10
79.47007158366068
 20
-142.297608575537
 30
0.0
 10
79.4149676961776
 20
-142.297608575537
 30
0.0
 10
79.35983053571572
 20
-142.297608575537
 30
0.0
 10
79.31506103205977
 20
-142.3423760755256
 30
0.0
 10
79.31506103205977
 20
-142.3975152421787
 30
0.0
 10
79.31506103205977
 20
-142.4526191310536
 30
0.0
 10
79.35983053571572
 20
-142.4974219088203
 30
0.0
 10
79.4149676961776
 20
-142.4974219088203
 30
0.0
 10
79.47007158366068
 20
-142.4974219088203
 30
0.0
 10
79.51487436029544
 20
-142.4526191310536
 30
0.0
 10
79.51487436029544
 20
-142.3975152421787
 30
0.0
  0
SPLINE
  5
68
330
1F
100
AcDbEntity
  8
_U+30EC_U+30A4_U+30E4_U+30FC 1
 62
   179
420
  2234388
370
     9
100
AcDbSpline
210
0.0
220
0.0
230
1.0
 70
    11
 71
     3
 72
    17
 73
    13
 74
     0
 42
0.0000000001
 43
0.0000000001
 12
1.0
 22
0.0
 32
0.0
 13
1.0
 23
0.0
 33
0.0
 40
0.0
 40
0.0
 40
0.0
 40
0.0
 40
1.0
 40
1.0
 40
1.0
 40
2.0
 40
2.0
 40
2.0
 40
3.0
 40
3.0
 40
3.0
 40
4.0
 40
4.0
 40
4.0
 40
4.0
 10
104.515564555808
 20
-142.3975152421787
 30
0.0
 10
104.515564555808
 20
-142.3423760755256
 30
0.0
 10
104.4707970569501
 20
-142.297608575537
 30
0.0
 10
104.4149876139295
 20
-142.297608575537
 30
0.0
 10
104.3598484486696
 20
-142.297608575537
 30
0.0
 10
104.3150809498117
 20
-142.3423760755256
 30
0.0
 10
104.3150809498117
 20
-142.3975152421787
 30
0.0
 10
104.3150809498117
 20
-142.4526191310536
 30
0.0
 10
104.3598484486696
 20
-142.4974219088203
 30
0.0
 10
104.4149876139295
 20
-142.4974219088203
 30
0.0
 10
104.4707970569501
 20
-142.4974219088203
 30
0.0
 10
104.515564555808
 20
-142.4526191310536
 30
0.0
 10
104.515564555808
 20
-142.3975152421787
 30
0.0
  0
POLYLINE
  5
69
330
1F
100
AcDbEntity
  8
_U+30EC_U+30A4_U+30E4_U+30FC 1
 62
   179
420
  2234388
370
     9
100
AcDb2dPolyline
 66
     1
 10
0.0
 20
0.0
 30
0.0
  0
VERTEX
  5
6A
330
69
100
AcDbEntity
  8
_U+30EC_U+30A4_U+30E4_U+30FC 1
 62
   179
420
  2234388
370
     9
100
AcDbVertex
100
AcDb2dVertex
 10
108.4154169563145
 20
-136.3975413547893
 30
0.0
  0
VERTEX
  5
6B
330
69
100
AcDbEntity
  8
_U+30EC_U+30A4_U+30E4_U+30FC 1
 62
   179
420
  2234388
370
     9
100
AcDbVertex
100
AcDb2dVertex
 10
108.4154169563145
 20
-139.3975282984837
 30
0.0
  0
SEQEND
  5
6C
330
69
100
AcDbEntity
  8
_U+30EC_U+30A4_U+30E4_U+30FC 1
 62
   179
420
  2234388
370
     9
  0
POLYLINE
  5
6D
330
1F
100
AcDbEntity
  8
_U+30EC_U+30A4_U+30E4_U+30FC 1
 62
   179
420
  2234388
370
     9
100
AcDb2dPolyline
 66
     1
 10
0.0
 20
0.0
 30
0.0
  0
VERTEX
  5
6E
330
6D
100
AcDbEntity
  8
_U+30EC_U+30A4_U+30E4_U+30FC 1
 62
   179
420
  2234388
370
     9
100
AcDbVertex
100
AcDb2dVertex
 10
106.9554108824512
 20
-136.3975413547893
 30
0.0
  0
VERTEX
  5
6F
330
6D
100
AcDbEntity
  8
_U+30EC_U+30A4_U+30E4_U+30FC 1
 62
   179
420
  2234388
370
     9
100
AcDbVertex
100
AcDb2dVertex
 10
109.4151891530304
 20
-136.3975413547893
 30
0.0
  0
SEQEND
  5
70
330
6D
100
AcDbEntity
  8
_U+30EC_U+30A4_U+30E4_U+30FC 1
 62
   179
420
  2234388
370
     9
  0
POLYLINE
  5
71
330
1F
100
AcDbEntity
  8
_U+30EC_U+30A4_U+30E4_U+30FC 1
 62
   179
420
  2234388
370
     9
100
AcDb2dPolyline
 66
     1
 10
0.0
 20
0.0
 30
0.0
  0
VERTEX
  5
72
330
71
100
AcDbEntity
  8
_U+30EC_U+30A4_U+30E4_U+30FC 1
 62
   179
420
  2234388
370
     9
100
AcDbVertex
100
AcDb2dVertex
 10
106.9554108824512
 20
-138.3977560765118
 30
0.0
  0
VERTEX
  5
73
330
71
100
AcDbEntity
  8
_U+30EC_U+30A4_U+30E4_U+30FC 1
 62
   179
420
  2234388
370
     9
100
AcDbVertex
100
AcDb2dVertex
 10
109.4151891530304
 20
-138.3977560765118
 30
0.0
  0
SEQEND
  5
74
330
71
100
AcDbEntity
  8
_U+30EC_U+30A4_U+30E4_U+30FC 1
 62
   179
420
  2234388
370
     9
  0
INSERT
  5
76
330
1F
100
AcDbEntity
  8
_U+30EC_U+30A4_U+30E4_U+30FC 1
100
AcDbBlockReference
  2
block 2
 10
0.0
 20
0.0
 30
0.0
  0
POLYLINE
  5
7B
330
1F
100
AcDbEntity
  8
_U+30EC_U+30A4_U+30E4_U+30FC 1
 62
   179
420
  2234388
370
     9
100
AcDb2dPolyline
 66
     1
 10
0.0
 20
0.0
 30
0.0
  0
VERTEX
  5
7C
330
7B
100
AcDbEntity
  8
_U+30EC_U+30A4_U+30E4_U+30FC 1
 62
   179
420
  2234388
370
     9
100
AcDbVertex
100
AcDb2dVertex
 10
79.4149676961776
 20
-142.3975152421787
 30
0.0
  0
VERTEX
  5
7D
330
7B
100
AcDbEntity
  8
_U+30EC_U+30A4_U+30E4_U+30FC 1
 62
   179
420
  2234388
370
     9
100
AcDbVertex
100
AcDb2dVertex
 10
104.4149876139295
 20
-142.3975152421787
 30
0.0
  0
SEQEND
  5
7E
330
7B
100
AcDbEntity
  8
_U+30EC_U+30A4_U+30E4_U+30FC 1
 62
   179
420
  2234388
370
     9
  0
POLYLINE
  5
7F
330
1F
100
AcDbEntity
  8
_U+30EC_U+30A4_U+30E4_U+30FC 1
 62
   179
420
  2234388
370
     9
100
AcDb2dPolyline
 66
     1
 10
0.0
 20
0.0
 30
0.0
  0
VERTEX
  5
80
330
7F
100
AcDbEntity
  8
_U+30EC_U+30A4_U+30E4_U+30FC 1
 62
   179
420
  2234388
370
     9
100
AcDbVertex
100
AcDb2dVertex
 10
79.4149676961776
 20
-140.9374738536543
 30
0.0
  0
VERTEX
  5
81
330
7F
100
AcDbEntity
  8
_U+30EC_U+30A4_U+30E4_U+30FC 1
 62
   179
420
  2234388
370
     9
100
AcDbVertex
100
AcDb2dVertex
 10
79.4149676961776
 20
-143.3979577419286
 30
0.0
  0
SEQEND
  5
82
330
7F
100
AcDbEntity
  8
_U+30EC_U+30A4_U+30E4_U+30FC 1
 62
   179
420
  2234388
370
     9
  0
POLYLINE
  5
83
330
1F
100
AcDbEntity
  8
_U+30EC_U+30A4_U+30E4_U+30FC 1
 62
   179
420
  2234388
370
     9
100
AcDb2dPolyline
 66
     1
 10
0.0
 20
0.0
 30
0.0
  0
VERTEX
  5
84
330
83
100
AcDbEntity
  8
_U+30EC_U+30A4_U+30E4_U+30FC 1
 62
   179
420
  2234388
370
     9
100
AcDbVertex
100
AcDb2dVertex
 10
104.4149876139295
 20
-140.9374738536543
 30
0.0
  0
VERTEX
  5
85
330
83
100
AcDbEntity
  8
_U+30EC_U+30A4_U+30E4_U+30FC 1
 62
   179
420
  2234388
370
     9
100
AcDbVertex
100
AcDb2dVertex
 10
104.4149876139295
 20
-143.3979577419286
 30
0.0
  0
SEQEND
  5
86
330
83
100
AcDbEntity
  8
_U+30EC_U+30A4_U+30E4_U+30FC 1
 62
   179
420
  2234388
370
     9
  0
INSERT
  5
88
330
1F
100
AcDbEntity
  8
_U+30EC_U+30A4_U+30E4_U+30FC 1
100
AcDbBlockReference
  2
block 3
 10
0.0
 20
0.0
 30
0.0
  0
POLYLINE
  5
8F
330
1F
100
AcDbEntity
  8
_U+30EC_U+30A4_U+30E4_U+30FC 1
 62
   179
420
  2234388
370
     9
100
AcDb2dPolyline
 66
     1
 10
0.0
 20
0.0
 30
0.0
  0
VERTEX
  5
90
330
8F
100
AcDbEntity
  8
_U+30EC_U+30A4_U+30E4_U+30FC 1
 62
   179
420
  2234388
370
     9
100
AcDbVertex
100
AcDb2dVertex
 10
75.4152086315533
 20
-113.3975591383172
 30
0.0
  0
VERTEX
  5
91
330
8F
100
AcDbEntity
  8
_U+30EC_U+30A4_U+30E4_U+30FC 1
 62
   179
420
  2234388
370
     9
100
AcDbVertex
100
AcDb2dVertex
 10
75.4152086315533
 20
-138.3977560765118
 30
0.0
  0
SEQEND
  5
92
330
8F
100
AcDbEntity
  8
_U+30EC_U+30A4_U+30E4_U+30FC 1
 62
   179
420
  2234388
370
     9
  0
POLYLINE
  5
93
330
1F
100
AcDbEntity
  8
_U+30EC_U+30A4_U+30E4_U+30FC 1
 62
   179
420
  2234388
370
     9
100
AcDb2dPolyline
 66
     1
 10
0.0
 20
0.0
 30
0.0
  0
VERTEX
  5
94
330
93
100
AcDbEntity
  8
_U+30EC_U+30A4_U+30E4_U+30FC 1
 62
   179
420
  2234388
370
     9
100
AcDbVertex
100
AcDb2dVertex
 10
76.87524998319343
 20
-113.3975591383172
 30
0.0
  0
VERTEX
  5
95
330
93
100
AcDbEntity
  8
_U+30EC_U+30A4_U+30E4_U+30FC 1
 62
   179
420
  2234388
370
     9
100
AcDbVertex
100
AcDb2dVertex
 10
74.41543643483739
 20
-113.3975591383172
 30
0.0
  0
SEQEND
  5
96
330
93
100
AcDbEntity
  8
_U+30EC_U+30A4_U+30E4_U+30FC 1
 62
   179
420
  2234388
370
     9
  0
POLYLINE
  5
97
330
1F
100
AcDbEntity
  8
_U+30EC_U+30A4_U+30E4_U+30FC 1
 62
   179
420
  2234388
370
     9
100
AcDb2dPolyline
 66
     1
 10
0.0
 20
0.0
 30
0.0
  0
VERTEX
  5
98
330
97
100
AcDbEntity
  8
_U+30EC_U+30A4_U+30E4_U+30FC 1
 62
   179
420
  2234388
370
     9
100
AcDbVertex
100
AcDb2dVertex
 10
76.87524998319343
 20
-138.3977560765118
 30
0.0
  0
VERTEX
  5
99
330
97
100
AcDbEntity
  8
_U+30EC_U+30A4_U+30E4_U+30FC 1
 62
   179
420
  2234388
370
     9
100
AcDbVertex
100
AcDb2dVertex
 10
74.41543643483739
 20
-138.3977560765118
 30
0.0
  0
SEQEND
  5
9A
330
97
100
AcDbEntity
  8
_U+30EC_U+30A4_U+30E4_U+30FC 1
 62
   179
420
  2234388
370
     9
  0
INSERT
  5
9C
330
1F
100
AcDbEntity
  8
_U+30EC_U+30A4_U+30E4_U+30FC 1
100
AcDbBlockReference
  2
block 4
 10
0.0
 20
0.0
 30
0.0
  0
ENDSEC
  0
SECTION
  2
OBJECTS
  0
DICTIONARY
  5
C
330
0
100
AcDbDictionary
281
     1
  3
ACAD_GROUP
350
D
  3
ACAD_LAYOUT
350
1A
  3
ACAD_MATERIAL
350
3B
  3
ACAD_MLEADERSTYLE
350
A4
  3
ACAD_MLINESTYLE
350
17
  3
ACAD_PLOTSETTINGS
350
19
  3
ACAD_PLOTSTYLENAME
350
E
  3
ACAD_TABLESTYLE
350
A3
  3
ACAD_VISUALSTYLE
350
2A
  0
SUN
  5
3F
330
29
100
AcDbSun
 90
        1
290
     0
 63
     7
421
 16777215
 40
1.0
291
     1
 91
  2455826
 92
 54000000
292
     0
 70
     2
 71
   256
280
     1
  0
DICTIONARY
  5
D
102
{ACAD_REACTORS
330
C
102
}
330
C
100
AcDbDictionary
281
     1
  0
DICTIONARY
  5
1A
102
{ACAD_REACTORS
330
C
102
}
330
C
100
AcDbDictionary
281
     1
  3
Layout1
350
1E
  3
Layout2
350
26
  3
Model
350
22
  0
DICTIONARY
  5
3B
102
{ACAD_REACTORS
330
C
102
}
330
C
100
AcDbDictionary
281
     1
  3
ByBlock
350
3D
  3
ByLayer
350
3C
  3
Global
350
3E
  0
DICTIONARY
  5
A4
102
{ACAD_REACTORS
330
C
102
}
330
C
100
AcDbDictionary
281
     1
  0
DICTIONARY
  5
17
102
{ACAD_REACTORS
330
C
102
}
330
C
100
AcDbDictionary
281
     1
  3
Standard
350
18
  0
DICTIONARY
  5
19
102
{ACAD_REACTORS
330
C
102
}
330
C
100
AcDbDictionary
281
     1
  0
ACDBDICTIONARYWDFLT
  5
E
102
{ACAD_REACTORS
330
C
102
}
330
C
100
AcDbDictionary
281
     1
  3
Normal
350
F
100
AcDbDictionaryWithDefault
340
F
  0
DICTIONARY
  5
A3
102
{ACAD_REACTORS
330
C
102
}
330
C
100
AcDbDictionary
281
     1
  0
DICTIONARY
  5
2A
102
{ACAD_REACTORS
330
C
102
}
330
C
100
AcDbDictionary
281
     1
  3
2dWireframe
350
2F
  3
3D Hidden
350
31
  3
3dWireframe
350
30
  3
Basic
350
32
  3
Brighten
350
36
  3
ColorChange
350
3A
  3
Conceptual
350
34
  3
Dim
350
35
  3
Facepattern
350
39
  3
Flat
350
2B
  3
FlatWithEdges
350
2C
  3
Gouraud
350
2D
  3
GouraudWithEdges
350
2E
  3
Linepattern
350
38
  3
Realistic
350
33
  3
Thicken
350
37
  0
LAYOUT
  5
1E
102
{ACAD_REACTORS
330
1A
102
}
330
1A
100
AcDbPlotSettings
  1

  2
none_device
  4

  6

 40
0.0
 41
0.0
 42
0.0
 43
0.0
 44
0.0
 45
0.0
 46
0.0
 47
0.0
 48
0.0
 49
0.0
140
0.0
141
0.0
142
1.0
143
1.0
 70
   688
 72
     0
 73
     0
 74
     5
  7

 75
    16
 76
     0
 77
     2
 78
   300
147
1.0
148
0.0
149
0.0
100
AcDbLayout
  1
Layout1
 70
     1
 71
     1
 10
0.0
 20
0.0
 11
12.0
 21
9.0
 12
0.0
 22
0.0
 32
0.0
 14
1.000000000000000E+20
 24
1.000000000000000E+20
 34
1.000000000000000E+20
 15
-1.000000000000000E+20
 25
-1.000000000000000E+20
 35
-1.000000000000000E+20
146
0.0
 13
0.0
 23
0.0
 33
0.0
 16
1.0
 26
0.0
 36
0.0
 17
0.0
 27
1.0
 37
0.0
 76
     0
330
1B
  0
LAYOUT
  5
26
102
{ACAD_REACTORS
330
1A
102
}
330
1A
100
AcDbPlotSettings
  1

  2
none_device
  4

  6

 40
0.0
 41
0.0
 42
0.0
 43
0.0
 44
0.0
 45
0.0
 46
0.0
 47
0.0
 48
0.0
 49
0.0
140
0.0
141
0.0
142
1.0
143
1.0
 70
   688
 72
     0
 73
     0
 74
     5
  7

 75
    16
 76
     0
 77
     2
 78
   300
147
1.0
148
0.0
149
0.0
100
AcDbLayout
  1
Layout2
 70
     1
 71
     2
 10
0.0
 20
0.0
 11
0.0
 21
0.0
 12
0.0
 22
0.0
 32
0.0
 14
0.0
 24
0.0
 34
0.0
 15
0.0
 25
0.0
 35
0.0
146
0.0
 13
0.0
 23
0.0
 33
0.0
 16
1.0
 26
0.0
 36
0.0
 17
0.0
 27
1.0
 37
0.0
 76
     0
330
23
  0
LAYOUT
  5
22
102
{ACAD_REACTORS
330
1A
102
}
330
1A
100
AcDbPlotSettings
  1

  2
none_device
  4

  6

 40
0.0
 41
0.0
 42
0.0
 43
0.0
 44
0.0
 45
0.0
 46
0.0
 47
0.0
 48
0.0
 49
0.0
140
0.0
141
0.0
142
1.0
143
1.0
 70
  1712
 72
     0
 73
     0
 74
     0
  7

 75
     0
 76
     0
 77
     2
 78
   300
147
1.0
148
0.0
149
0.0
100
AcDbLayout
  1
Model
 70
     1
 71
     0
 10
0.0
 20
0.0
 11
12.0
 21
9.0
 12
0.0
 22
0.0
 32
0.0
 14
1.000000000000000E+20
 24
1.000000000000000E+20
 34
1.000000000000000E+20
 15
-1.000000000000000E+20
 25
-1.000000000000000E+20
 35
-1.000000000000000E+20
146
0.0
 13
0.0
 23
0.0
 33
0.0
 16
1.0
 26
0.0
 36
0.0
 17
0.0
 27
1.0
 37
0.0
 76
     0
330
1F
331
29
  0
MATERIAL
  5
3D
102
{ACAD_REACTORS
330
3B
102
}
330
3B
100
AcDbMaterial
  1
ByBlock
 72
     1
 94
      127
  0
MATERIAL
  5
3C
102
{ACAD_REACTORS
330
3B
102
}
330
3B
100
AcDbMaterial
  1
ByLayer
 72
     1
 94
      127
  0
MATERIAL
  5
3E
102
{ACAD_REACTORS
330
3B
102
}
330
3B
100
AcDbMaterial
  1
Global
 72
     1
 94
      127
  0
MLINESTYLE
  5
18
102
{ACAD_REACTORS
330
17
102
}
330
17
100
AcDbMlineStyle
  2
Standard
 70
     0
  3

 62
   256
 51
90.0
 52
90.0
 71
     2
 49
0.5
 62
   256
  6
BYLAYER
 49
-0.5
 62
   256
  6
BYLAYER
  0
ACDBPLACEHOLDER
  5
F
102
{ACAD_REACTORS
330
E
102
}
330
E
  0
VISUALSTYLE
  5
2F
102
{ACAD_REACTORS
330
2A
102
}
330
2A
100
AcDbVisualStyle
  2
2dWireframe
 70
     4
177
     2
291
     0
 71
     0
176
     1
 72
     2
176
     1
 73
     0
176
     1
 90
        0
176
     1
 40
-0.6
176
     1
 41
-30.0
176
     1
 62
     5
 63
     7
421
 16777215
176
     1
 74
     1
176
     1
 91
        4
176
     1
 64
     7
176
     1
 65
   257
176
     1
 75
     1
176
     1
175
     1
176
     1
 42
1.0
176
     1
 92
        0
176
     1
 66
   257
176
     1
 43
1.0
176
     1
 76
     1
176
     1
 77
     6
176
     1
 78
     2
176
     1
 67
     7
176
     1
 79
     5
176
     1
170
     0
176
     1
171
     0
176
     1
290
     0
176
     1
 93
        1
176
     1
 44
0.0
176
     1
173
     0
176
     1
  0
VISUALSTYLE
  5
31
102
{ACAD_REACTORS
330
2A
102
}
330
2A
100
AcDbVisualStyle
  2
3D Hidden
 70
     6
177
     2
291
     0
 71
     1
176
     1
 72
     2
176
     1
 73
     2
176
     1
 90
        0
176
     1
 40
-0.6
176
     1
 41
-30.0
176
     1
 62
     5
 63
     7
421
 16777215
176
     1
 74
     2
176
     1
 91
        2
176
     1
 64
     7
176
     1
 65
   257
176
     1
 75
     2
176
     1
175
     1
176
     1
 42
40.0
176
     1
 92
        0
176
     1
 66
   257
176
     1
 43
1.0
176
     1
 76
     1
176
     1
 77
     6
176
     1
 78
     2
176
     1
 67
     7
176
     1
 79
     3
176
     1
170
     0
176
     1
171
     0
176
     1
290
     0
176
     1
 93
        1
176
     1
 44
0.0
176
     1
173
     0
176
     1
  0
VISUALSTYLE
  5
30
102
{ACAD_REACTORS
330
2A
102
}
330
2A
100
AcDbVisualStyle
  2
3dWireframe
 70
     5
177
     2
291
     0
 71
     0
176
     1
 72
     2
176
     1
 73
     0
176
     1
 90
        0
176
     1
 40
-0.6
176
     1
 41
-30.0
176
     1
 62
     5
 63
     7
421
 16777215
176
     1
 74
     1
176
     1
 91
        4
176
     1
 64
     7
176
     1
 65
   257
176
     1
 75
     1
176
     1
175
     1
176
     1
 42
1.0
176
     1
 92
        0
176
     1
 66
   257
176
     1
 43
1.0
176
     1
 76
     1
176
     1
 77
     6
176
     1
 78
     2
176
     1
 67
     7
176
     1
 79
     5
176
     1
170
     0
176
     1
171
     0
176
     1
290
     0
176
     1
 93
        1
176
     1
 44
0.0
176
     1
173
     0
176
     1
  0
VISUALSTYLE
  5
32
102
{ACAD_REACTORS
330
2A
102
}
330
2A
100
AcDbVisualStyle
  2
Basic
 70
     7
177
     2
291
     1
 71
     1
176
     1
 72
     0
176
     1
 73
     1
176
     1
 90
        0
176
     1
 40
-0.6
176
     1
 41
-30.0
176
     1
 62
     5
 63
     7
421
 16777215
176
     1
 74
     0
176
     1
 91
        4
176
     1
 64
     7
176
     1
 65
   257
176
     1
 75
     1
176
     1
175
     1
176
     1
 42
1.0
176
     1
 92
        8
176
     1
 66
     7
176
     1
 43
1.0
176
     1
 76
     1
176
     1
 77
     6
176
     1
 78
     2
176
     1
 67
     7
176
     1
 79
     5
176
     1
170
     0
176
     1
171
     0
176
     1
290
     0
176
     1
 93
        1
176
     1
 44
0.0
176
     1
173
     0
176
     1
  0
VISUALSTYLE
  5
36
102
{ACAD_REACTORS
330
2A
102
}
330
2A
100
AcDbVisualStyle
  2
Brighten
 70
    12
177
     2
291
     1
 71
     2
176
     1
 72
     2
176
     1
 73
     0
176
     1
 90
        0
176
     1
 40
-0.6
176
     1
 41
-30.0
176
     1
 62
     5
 63
     7
421
 16777215
176
     1
 74
     1
176
     1
 91
        4
176
     1
 64
     7
176
     1
 65
   257
176
     1
 75
     1
176
     1
175
     1
176
     1
 42
1.0
176
     1
 92
        8
176
     1
 66
     7
176
     1
 43
1.0
176
     1
 76
     1
176
     1
 77
     6
176
     1
 78
     2
176
     1
 67
     7
176
     1
 79
     5
176
     1
170
     0
176
     1
171
     0
176
     1
290
     0
176
     1
 93
        1
176
     1
 44
50.0
176
     1
173
     0
176
     1
  0
VISUALSTYLE
  5
3A
102
{ACAD_REACTORS
330
2A
102
}
330
2A
100
AcDbVisualStyle
  2
ColorChange
 70
    16
177
     2
291
     1
 71
     2
176
     1
 72
     2
176
     1
 73
     3
176
     1
 90
        0
176
     1
 40
-0.6
176
     1
 41
-30.0
176
     1
 62
     5
 63
     8
421
  8421504
176
     1
 74
     1
176
     1
 91
        4
176
     1
 64
     7
176
     1
 65
   257
176
     1
 75
     1
176
     1
175
     1
176
     1
 42
1.0
176
     1
 92
        8
176
     1
 66
     8
424
  8421504
176
     1
 43
1.0
176
     1
 76
     1
176
     1
 77
     6
176
     1
 78
     2
176
     1
 67
     7
176
     1
 79
     5
176
     1
170
     0
176
     1
171
     0
176
     1
290
     0
176
     1
 93
        1
176
     1
 44
0.0
176
     1
173
     0
176
     1
  0
VISUALSTYLE
  5
34
102
{ACAD_REACTORS
330
2A
102
}
330
2A
100
AcDbVisualStyle
  2
Conceptual
 70
     9
177
     2
291
     0
 71
     3
176
     1
 72
     2
176
     1
 73
     0
176
     1
 90
        0
176
     1
 40
-0.6
176
     1
 41
-30.0
176
     1
 62
     5
 63
     7
421
 16777215
176
     1
 74
     2
176
     1
 91
        2
176
     1
 64
     7
176
     1
 65
   257
176
     1
 75
     1
176
     1
175
     1
176
     1
 42
40.0
176
     1
 92
        8
176
     1
 66
     7
176
     1
 43
1.0
176
     1
 76
     1
176
     1
 77
     6
176
     1
 78
     2
176
     1
 67
     7
176
     1
 79
     3
176
     1
170
     0
176
     1
171
     0
176
     1
290
     0
176
     1
 93
        1
176
     1
 44
0.0
176
     1
173
     0
176
     1
  0
VISUALSTYLE
  5
35
102
{ACAD_REACTORS
330
2A
102
}
330
2A
100
AcDbVisualStyle
  2
Dim
 70
    11
177
     2
291
     1
 71
     2
176
     1
 72
     2
176
     1
 73
     0
176
     1
 90
        0
176
     1
 40
-0.6
176
     1
 41
-30.0
176
     1
 62
     5
 63
     7
421
 16777215
176
     1
 74
     1
176
     1
 91
        4
176
     1
 64
     7
176
     1
 65
   257
176
     1
 75
     1
176
     1
175
     1
176
     1
 42
1.0
176
     1
 92
        8
176
     1
 66
     7
176
     1
 43
1.0
176
     1
 76
     1
176
     1
 77
     6
176
     1
 78
     2
176
     1
 67
     7
176
     1
 79
     5
176
     1
170
     0
176
     1
171
     0
176
     1
290
     0
176
     1
 93
        1
176
     1
 44
-50.0
176
     1
173
     0
176
     1
  0
VISUALSTYLE
  5
39
102
{ACAD_REACTORS
330
2A
102
}
330
2A
100
AcDbVisualStyle
  2
Facepattern
 70
    15
177
     2
291
     1
 71
     2
176
     1
 72
     2
176
     1
 73
     0
176
     1
 90
        0
176
     1
 40
-0.6
176
     1
 41
-30.0
176
     1
 62
     5
 63
     7
421
 16777215
176
     1
 74
     1
176
     1
 91
        4
176
     1
 64
     7
176
     1
 65
   257
176
     1
 75
     1
176
     1
175
     1
176
     1
 42
1.0
176
     1
 92
        8
176
     1
 66
     7
176
     1
 43
1.0
176
     1
 76
     1
176
     1
 77
     6
176
     1
 78
     2
176
     1
 67
     7
176
     1
 79
     5
176
     1
170
     0
176
     1
171
     0
176
     1
290
     0
176
     1
 93
        1
176
     1
 44
0.0
176
     1
173
     0
176
     1
  0
VISUALSTYLE
  5
2B
102
{ACAD_REACTORS
330
2A
102
}
330
2A
100
AcDbVisualStyle
  2
Flat
 70
     0
177
     2
291
     1
 71
     2
176
     1
 72
     1
176
     1
 73
     1
176
     1
 90
        2
176
     1
 40
-0.6
176
     1
 41
30.0
176
     1
 62
     5
 63
     7
421
 16777215
176
     1
 74
     0
176
     1
 91
        4
176
     1
 64
     7
176
     1
 65
   257
176
     1
 75
     1
176
     1
175
     1
176
     1
 42
1.0
176
     1
 92
        8
176
     1
 66
     7
176
     1
 43
1.0
176
     1
 76
     1
176
     1
 77
     6
176
     1
 78
     2
176
     1
 67
     7
176
     1
 79
     5
176
     1
170
     0
176
     1
171
     0
176
     1
290
     0
176
     1
 93
       13
176
     1
 44
0.0
176
     1
173
     0
176
     1
  0
VISUALSTYLE
  5
2C
102
{ACAD_REACTORS
330
2A
102
}
330
2A
100
AcDbVisualStyle
  2
FlatWithEdges
 70
     1
177
     2
291
     1
 71
     2
176
     1
 72
     1
176
     1
 73
     1
176
     1
 90
        2
176
     1
 40
-0.6
176
     1
 41
30.0
176
     1
 62
     5
 63
     7
421
 16777215
176
     1
 74
     1
176
     1
 91
        4
176
     1
 64
     7
176
     1
 65
   257
176
     1
 75
     1
176
     1
175
     1
176
     1
 42
1.0
176
     1
 92
        0
176
     1
 66
   257
176
     1
 43
1.0
176
     1
 76
     1
176
     1
 77
     6
176
     1
 78
     2
176
     1
 67
     7
176
     1
 79
     5
176
     1
170
     0
176
     1
171
     0
176
     1
290
     0
176
     1
 93
       13
176
     1
 44
0.0
176
     1
173
     0
176
     1
  0
VISUALSTYLE
  5
2D
102
{ACAD_REACTORS
330
2A
102
}
330
2A
100
AcDbVisualStyle
  2
Gouraud
 70
     2
177
     2
291
     1
 71
     2
176
     1
 72
     2
176
     1
 73
     1
176
     1
 90
        2
176
     1
 40
-0.6
176
     1
 41
30.0
176
     1
 62
     5
 63
     7
421
 16777215
176
     1
 74
     0
176
     1
 91
        4
176
     1
 64
     7
176
     1
 65
   257
176
     1
 75
     1
176
     1
175
     1
176
     1
 42
1.0
176
     1
 92
        0
176
     1
 66
     7
176
     1
 43
1.0
176
     1
 76
     1
176
     1
 77
     6
176
     1
 78
     2
176
     1
 67
     7
176
     1
 79
     5
176
     1
170
     0
176
     1
171
     0
176
     1
290
     0
176
     1
 93
       13
176
     1
 44
0.0
176
     1
173
     0
176
     1
  0
VISUALSTYLE
  5
2E
102
{ACAD_REACTORS
330
2A
102
}
330
2A
100
AcDbVisualStyle
  2
GouraudWithEdges
 70
     3
177
     2
291
     1
 71
     2
176
     1
 72
     2
176
     1
 73
     1
176
     1
 90
        2
176
     1
 40
-0.6
176
     1
 41
30.0
176
     1
 62
     5
 63
     7
421
 16777215
176
     1
 74
     1
176
     1
 91
        4
176
     1
 64
     7
176
     1
 65
   257
176
     1
 75
     1
176
     1
175
     1
176
     1
 42
1.0
176
     1
 92
        0
176
     1
 66
   257
176
     1
 43
1.0
176
     1
 76
     1
176
     1
 77
     6
176
     1
 78
     2
176
     1
 67
     7
176
     1
 79
     5
176
     1
170
     0
176
     1
171
     0
176
     1
290
     0
176
     1
 93
       13
176
     1
 44
0.0
176
     1
173
     0
176
     1
  0
VISUALSTYLE
  5
38
102
{ACAD_REACTORS
330
2A
102
}
330
2A
100
AcDbVisualStyle
  2
Linepattern
 70
    14
177
     2
291
     1
 71
     2
176
     1
 72
     2
176
     1
 73
     0
176
     1
 90
        0
176
     1
 40
-0.6
176
     1
 41
-30.0
176
     1
 62
     5
 63
     7
421
 16777215
176
     1
 74
     1
176
     1
 91
        4
176
     1
 64
     7
176
     1
 65
   257
176
     1
 75
     7
176
     1
175
     7
176
     1
 42
1.0
176
     1
 92
        8
176
     1
 66
     7
176
     1
 43
1.0
176
     1
 76
     1
176
     1
 77
     6
176
     1
 78
     2
176
     1
 67
     7
176
     1
 79
     5
176
     1
170
     0
176
     1
171
     0
176
     1
290
     0
176
     1
 93
        1
176
     1
 44
0.0
176
     1
173
     0
176
     1
  0
VISUALSTYLE
  5
33
102
{ACAD_REACTORS
330
2A
102
}
330
2A
100
AcDbVisualStyle
  2
Realistic
 70
     8
177
     2
291
     0
 71
     2
176
     1
 72
     2
176
     1
 73
     0
176
     1
 90
        0
176
     1
 40
-0.6
176
     1
 41
-30.0
176
     1
 62
     5
 63
     7
421
 16777215
176
     1
 74
     1
176
     1
 91
        0
176
     1
 64
     7
176
     1
 65
   257
176
     1
 75
     1
176
     1
175
     1
176
     1
 42
1.0
176
     1
 92
        8
176
     1
 66
     8
424
  7895160
176
     1
 43
1.0
176
     1
 76
     1
176
     1
 77
     6
176
     1
 78
     2
176
     1
 67
     7
176
     1
 79
     5
176
     1
170
     0
176
     1
171
     0
176
     1
290
     0
176
     1
 93
       13
176
     1
 44
0.0
176
     1
173
     0
176
     1
  0
VISUALSTYLE
  5
37
102
{ACAD_REACTORS
330
2A
102
}
330
2A
100
AcDbVisualStyle
  2
Thicken
 70
    13
177
     2
291
     1
 71
     2
176
     1
 72
     2
176
     1
 73
     0
176
     1
 90
        0
176
     1
 40
-0.6
176
     1
 41
-30.0
176
     1
 62
     5
 63
     7
421
 16777215
176
     1
 74
     1
176
     1
 91
        4
176
     1
 64
     7
176
     1
 65
   257
176
     1
 75
     1
176
     1
175
     1
176
     1
 42
1.0
176
     1
 92
       12
176
     1
 66
     7
176
     1
 43
1.0
176
     1
 76
     1
176
     1
 77
     6
176
     1
 78
     2
176
     1
 67
     7
176
     1
 79
     5
176
     1
170
     0
176
     1
171
     0
176
     1
290
     0
176
     1
 93
        1
176
     1
 44
0.0
176
     1
173
     0
176
     1
  0
ENDSEC
  0
EOF
