  0
SECTION
  2
HEADER
  9
$ACADVER
  1
AC1024
  9
$ACADMAINTVER
 70
     6
  9
$DWGCODEPAGE
  3
UNDEFINED
  9
$INSBASE
 10
0.0
 20
0.0
 30
0.0
  9
$EXTMIN
 10
1.000000000000000E+20
 20
1.000000000000000E+20
 30
1.000000000000000E+20
  9
$EXTMAX
 10
-1.000000000000000E+20
 20
-1.000000000000000E+20
 30
-1.000000000000000E+20
  9
$LIMMIN
 10
0.0
 20
0.0
  9
$LIMMAX
 10
12.0
 20
9.0
  9
$ORTHOMODE
 70
     0
  9
$REGENMODE
 70
     1
  9
$FILLMODE
 70
     1
  9
$QTEXTMODE
 70
     0
  9
$MIRRTEXT
 70
     1
  9
$LTSCALE
 40
1.0
  9
$ATTMODE
 70
     1
  9
$TEXTSIZE
 40
0.2
  9
$TRACEWID
 40
0.05
  9
$TEXTSTYLE
  7
Standard
  9
$CLAYER
  8
0
  9
$CELTYPE
  6
ByLayer
  9
$CECOLOR
 62
   256
  9
$CELTSCALE
 40
1.0
  9
$DISPSILH
 70
     0
  9
$DIMSCALE
 40
1.0
  9
$DIMASZ
 40
0.18
  9
$DIMEXO
 40
0.0625
  9
$DIMDLI
 40
0.38
  9
$DIMRND
 40
0.0
  9
$DIMDLE
 40
0.0
  9
$DIMEXE
 40
0.18
  9
$DIMTP
 40
0.0
  9
$DIMTM
 40
0.0
  9
$DIMTXT
 40
0.18
  9
$DIMCEN
 40
0.09
  9
$DIMTSZ
 40
0.0
  9
$DIMTOL
 70
     0
  9
$DIMLIM
 70
     0
  9
$DIMTIH
 70
     1
  9
$DIMTOH
 70
     1
  9
$DIMSE1
 70
     0
  9
$DIMSE2
 70
     0
  9
$DIMTAD
 70
     0
  9
$DIMZIN
 70
     0
  9
$DIMBLK
  1

  9
$DIMASO
 70
     1
  9
$DIMSHO
 70
     1
  9
$DIMPOST
  1

  9
$DIMAPOST
  1

  9
$DIMALT
 70
     0
  9
$DIMALTD
 70
     2
  9
$DIMALTF
 40
25.4
  9
$DIMLFAC
 40
1.0
  9
$DIMTOFL
 70
     0
  9
$DIMTVP
 40
0.0
  9
$DIMTIX
 70
     0
  9
$DIMSOXD
 70
     0
  9
$DIMSAH
 70
     0
  9
$DIMBLK1
  1

  9
$DIMBLK2
  1

  9
$DIMSTYLE
  2
Standard
  9
$DIMCLRD
 70
     0
  9
$DIMCLRE
 70
     0
  9
$DIMCLRT
 70
     0
  9
$DIMTFAC
 40
1.0
  9
$DIMGAP
 40
0.09
  9
$DIMJUST
 70
     0
  9
$DIMSD1
 70
     0
  9
$DIMSD2
 70
     0
  9
$DIMTOLJ
 70
     1
  9
$DIMTZIN
 70
     0
  9
$DIMALTZ
 70
     0
  9
$DIMALTTZ
 70
     0
  9
$DIMUPT
 70
     0
  9
$DIMDEC
 70
     4
  9
$DIMTDEC
 70
     4
  9
$DIMALTU
 70
     2
  9
$DIMALTTD
 70
     2
  9
$DIMTXSTY
  7
Standard
  9
$DIMAUNIT
 70
     0
  9
$DIMADEC
 70
     0
  9
$DIMALTRND
 40
0.0
  9
$DIMAZIN
 70
     0
  9
$DIMDSEP
 70
    46
  9
$DIMATFIT
 70
     3
  9
$DIMFRAC
 70
     0
  9
$DIMLDRBLK
  1

  9
$DIMLUNIT
 70
     2
  9
$DIMLWD
 70
    -2
  9
$DIMLWE
 70
    -2
  9
$DIMTMOVE
 70
     0
  9
$DIMFXL
 40
1.0
  9
$DIMFXLON
 70
     0
  9
$DIMJOGANG
 40
0.7853981633974483
  9
$DIMTFILL
 70
     0
  9
$DIMTFILLCLR
 70
     0
  9
$DIMARCSYM
 70
     0
  9
$DIMLTYPE
  6

  9
$DIMLTEX1
  6

  9
$DIMLTEX2
  6

  9
$DIMTXTDIRECTION
 70
     0
  9
$LUNITS
 70
     2
  9
$LUPREC
 70
     4
  9
$SKETCHINC
 40
0.1
  9
$FILLETRAD
 40
0.5
  9
$AUNITS
 70
     0
  9
$AUPREC
 70
     0
  9
$MENU
  1
.
  9
$ELEVATION
 40
0.0
  9
$PELEVATION
 40
0.0
  9
$THICKNESS
 40
0.0
  9
$LIMCHECK
 70
     0
  9
$CHAMFERA
 40
0.5
  9
$CHAMFERB
 40
0.5
  9
$CHAMFERC
 40
1.0
  9
$CHAMFERD
 40
0.0
  9
$SKPOLY
 70
     0
  9
$TDCREATE
 40
2457917.620462951
  9
$TDUCREATE
 40
2457917.245462963
  9
$TDUPDATE
 40
2457917.620462951
  9
$TDUUPDATE
 40
2457917.245462963
  9
$TDINDWG
 40
0.0000000116
  9
$TDUSRTIMER
 40
0.0000000116
  9
$USRTIMER
 70
     1
  9
$ANGBASE
 50
0.0
  9
$ANGDIR
 70
     0
  9
$PDMODE
 70
     0
  9
$PDSIZE
 40
0.0
  9
$PLINEWID
 40
0.0
  9
$SPLFRAME
 70
     0
  9
$SPLINETYPE
 70
     6
  9
$SPLINESEGS
 70
     8
  9
$HANDSEED
  5
B1
  9
$SURFTAB1
 70
     6
  9
$SURFTAB2
 70
     6
  9
$SURFTYPE
 70
     6
  9
$SURFU
 70
     6
  9
$SURFV
 70
     6
  9
$UCSBASE
  2

  9
$UCSNAME
  2

  9
$UCSORG
 10
0.0
 20
0.0
 30
0.0
  9
$UCSXDIR
 10
1.0
 20
0.0
 30
0.0
  9
$UCSYDIR
 10
0.0
 20
1.0
 30
0.0
  9
$UCSORTHOREF
  2

  9
$UCSORTHOVIEW
 70
     0
  9
$UCSORGTOP
 10
0.0
 20
0.0
 30
0.0
  9
$UCSORGBOTTOM
 10
0.0
 20
0.0
 30
0.0
  9
$UCSORGLEFT
 10
0.0
 20
0.0
 30
0.0
  9
$UCSORGRIGHT
 10
0.0
 20
0.0
 30
0.0
  9
$UCSORGFRONT
 10
0.0
 20
0.0
 30
0.0
  9
$UCSORGBACK
 10
0.0
 20
0.0
 30
0.0
  9
$PUCSBASE
  2

  9
$PUCSNAME
  2

  9
$PUCSORG
 10
0.0
 20
0.0
 30
0.0
  9
$PUCSXDIR
 10
1.0
 20
0.0
 30
0.0
  9
$PUCSYDIR
 10
0.0
 20
1.0
 30
0.0
  9
$PUCSORTHOREF
  2

  9
$PUCSORTHOVIEW
 70
     0
  9
$PUCSORGTOP
 10
0.0
 20
0.0
 30
0.0
  9
$PUCSORGBOTTOM
 10
0.0
 20
0.0
 30
0.0
  9
$PUCSORGLEFT
 10
0.0
 20
0.0
 30
0.0
  9
$PUCSORGRIGHT
 10
0.0
 20
0.0
 30
0.0
  9
$PUCSORGFRONT
 10
0.0
 20
0.0
 30
0.0
  9
$PUCSORGBACK
 10
0.0
 20
0.0
 30
0.0
  9
$USERI1
 70
     0
  9
$USERI2
 70
     0
  9
$USERI3
 70
     0
  9
$USERI4
 70
     0
  9
$USERI5
 70
     0
  9
$USERR1
 40
0.0
  9
$USERR2
 40
0.0
  9
$USERR3
 40
0.0
  9
$USERR4
 40
0.0
  9
$USERR5
 40
0.0
  9
$WORLDVIEW
 70
     1
  9
$SHADEDGE
 70
     3
  9
$SHADEDIF
 70
    70
  9
$TILEMODE
 70
     1
  9
$MAXACTVP
 70
    64
  9
$PINSBASE
 10
0.0
 20
0.0
 30
0.0
  9
$PLIMCHECK
 70
     0
  9
$PEXTMIN
 10
1.000000000000000E+20
 20
1.000000000000000E+20
 30
1.000000000000000E+20
  9
$PEXTMAX
 10
-1.000000000000000E+20
 20
-1.000000000000000E+20
 30
-1.000000000000000E+20
  9
$PLIMMIN
 10
0.0
 20
0.0
  9
$PLIMMAX
 10
12.0
 20
9.0
  9
$UNITMODE
 70
     0
  9
$VISRETAIN
 70
     1
  9
$PLINEGEN
 70
     0
  9
$PSLTSCALE
 70
     1
  9
$TREEDEPTH
 70
  3020
  9
$CMLSTYLE
  2
Standard
  9
$CMLJUST
 70
     0
  9
$CMLSCALE
 40
1.0
  9
$PROXYGRAPHICS
 70
     1
  9
$MEASUREMENT
 70
     0
  9
$CELWEIGHT
370
    -1
  9
$ENDCAPS
280
     0
  9
$JOINSTYLE
280
     0
  9
$LWDISPLAY
290
     1
  9
$INSUNITS
 70
     1
  9
$HYPERLINKBASE
  1

  9
$STYLESHEET
  1

  9
$XEDIT
290
     1
  9
$CEPSNTYPE
380
     0
  9
$PSTYLEMODE
290
     1
  9
$FINGERPRINTGUID
  2
{3050CEE8-F04A-A2F9-3AF4-E4BC9F46DF7C}
  9
$VERSIONGUID
  2
{FAEB1C32-E019-11D5-929B-00C0DF256EC4}
  9
$EXTNAMES
290
     1
  9
$PSVPSCALE
 40
0.0
  9
$OLESTARTUP
290
     0
  9
$SORTENTS
280
   127
  9
$INDEXCTL
280
     0
  9
$HIDETEXT
280
     1
  9
$XCLIPFRAME
280
     2
  9
$HALOGAP
280
     0
  9
$OBSCOLOR
 70
   257
  9
$OBSLTYPE
280
     0
  9
$INTERSECTIONDISPLAY
280
     0
  9
$INTERSECTIONCOLOR
 70
   257
  9
$DIMASSOC
280
     2
  9
$PROJECTNAME
  1

  9
$CAMERADISPLAY
290
     0
  9
$LENSLENGTH
 40
50.0
  9
$CAMERAHEIGHT
 40
0.0
  9
$STEPSPERSEC
 40
2.0
  9
$STEPSIZE
 40
6.0
  9
$3DDWFPREC
 40
2.0
  9
$PSOLWIDTH
 40
0.25
  9
$PSOLHEIGHT
 40
4.0
  9
$LOFTANG1
 40
1.570796326794897
  9
$LOFTANG2
 40
1.570796326794897
  9
$LOFTMAG1
 40
0.0
  9
$LOFTMAG2
 40
0.0
  9
$LOFTPARAM
 70
     7
  9
$LOFTNORMALS
280
     1
  9
$LATITUDE
 40
37.795
  9
$LONGITUDE
 40
-122.394
  9
$NORTHDIRECTION
 40
0.0
  9
$TIMEZONE
 70
 -8000
  9
$LIGHTGLYPHDISPLAY
280
     1
  9
$TILEMODELIGHTSYNCH
280
     1
  9
$CMATERIAL
347
3C
  9
$SOLIDHIST
280
     1
  9
$SHOWHIST
280
     1
  9
$DWFFRAME
280
     2
  9
$DGNFRAME
280
     2
  9
$REALWORLDSCALE
290
     1
  9
$INTERFERECOLOR
 62
   256
  9
$CSHADOW
280
     0
  9
$SHADOWPLANELOCATION
 40
0.0
  0
ENDSEC
  0
SECTION
  2
CLASSES
  0
CLASS
  1
ACDBDICTIONARYWDFLT
  2
AcDbDictionaryWithDefault
  3
ObjectDBX Classes
 90
        0
 91
        4
280
     0
281
     0
  0
CLASS
  1
VISUALSTYLE
  2
AcDbVisualStyle
  3
ObjectDBX Classes
 90
     4095
 91
        4
280
     0
281
     0
  0
CLASS
  1
MATERIAL
  2
AcDbMaterial
  3
ObjectDBX Classes
 90
     1153
 91
        4
280
     0
281
     0
  0
CLASS
  1
SUN
  2
AcDbSun
  3
SCENEOE
 90
     1024
 91
        4
280
     0
281
     0
  0
ENDSEC
  0
SECTION
  2
TABLES
  0
TABLE
  2
VPORT
  5
8
330
0
100
AcDbSymbolTable
 70
     1
  0
VPORT
  5
29
330
8
100
AcDbSymbolTableRecord
100
AcDbViewportTableRecord
  2
*Active
 70
     0
 10
0.0
 20
0.0
 11
1.0
 21
1.0
 12
0.0
 22
0.0
 13
0.0
 23
0.0
 14
0.5
 24
0.5
 15
0.5
 25
0.5
 16
0.0
 26
0.0
 36
1.0
 17
91.00082462281999
 27
-128.4993055234307
 37
0.0
 40
256.9986110468615
 41
0.7081814508812795
 42
50.0
 43
0.0
 44
0.0
 50
0.0
 51
0.0
 71
     0
 72
   100
 73
     1
 74
     3
 75
     0
 76
     0
 77
     0
 78
     0
281
     0
 65
     1
110
0.0
120
0.0
130
0.0
111
1.0
121
0.0
131
0.0
112
0.0
122
1.0
132
0.0
 79
     0
146
0.0
 60
     3
 61
     5
292
     1
282
     1
141
0.0
142
0.0
 63
   250
361
3F
  0
ENDTAB
  0
TABLE
  2
LTYPE
  5
5
330
0
100
AcDbSymbolTable
 70
     1
  0
LTYPE
  5
14
330
5
100
AcDbSymbolTableRecord
100
AcDbLinetypeTableRecord
  2
ByBlock
 70
     0
  3

 72
    65
 73
     0
 40
0.0
  0
LTYPE
  5
15
330
5
100
AcDbSymbolTableRecord
100
AcDbLinetypeTableRecord
  2
ByLayer
 70
     0
  3

 72
    65
 73
     0
 40
0.0
  0
LTYPE
  5
16
330
5
100
AcDbSymbolTableRecord
100
AcDbLinetypeTableRecord
  2
Continuous
 70
     0
  3
Solid line
 72
    65
 73
     0
 40
0.0
  0
ENDTAB
  0
TABLE
  2
LAYER
  5
2
330
0
100
AcDbSymbolTable
 70
     2
  0
LAYER
  5
10
330
2
100
AcDbSymbolTableRecord
100
AcDbLayerTableRecord
  2
0
 70
     0
 62
     7
  6
Continuous
370
    -3
390
F
347
3E
  0
LAYER
  5
40
330
2
100
AcDbSymbolTableRecord
100
AcDbLayerTableRecord
  2
_U+30EC_U+30A4_U+30E4_U+30FC 1
 70
     0
 62
     7
  6
Continuous
370
    -3
390
F
347
3E
  0
ENDTAB
  0
TABLE
  2
STYLE
  5
3
330
0
100
AcDbSymbolTable
 70
     1
  0
STYLE
  5
11
330
3
100
AcDbSymbolTableRecord
100
AcDbTextStyleTableRecord
  2
Standard
 70
     0
 40
0.0
 41
1.0
 50
0.0
 71
     0
 42
0.2
  3
txt
  4

  0
ENDTAB
  0
TABLE
  2
VIEW
  5
6
330
0
100
AcDbSymbolTable
 70
     0
  0
ENDTAB
  0
TABLE
  2
UCS
  5
7
330
0
100
AcDbSymbolTable
 70
     0
  0
ENDTAB
  0
TABLE
  2
APPID
  5
9
330
0
100
AcDbSymbolTable
 70
     1
  0
APPID
  5
12
330
9
100
AcDbSymbolTableRecord
100
AcDbRegAppTableRecord
  2
ACAD
 70
     0
  0
ENDTAB
  0
TABLE
  2
DIMSTYLE
  5
A
330
0
100
AcDbSymbolTable
 70
     1
100
AcDbDimStyleTable
  0
DIMSTYLE
105
27
330
A
100
AcDbSymbolTableRecord
100
AcDbDimStyleTableRecord
  2
Standard
 70
     0
178
     0
340
11
  0
ENDTAB
  0
TABLE
  2
BLOCK_RECORD
  5
1
330
0
100
AcDbSymbolTable
 70
     4
  0
BLOCK_RECORD
  5
1F
330
1
100
AcDbSymbolTableRecord
100
AcDbBlockTableRecord
  2
*Model_Space
340
22
 70
     0
280
     1
281
     0
  0
BLOCK_RECORD
  5
1B
330
1
100
AcDbSymbolTableRecord
100
AcDbBlockTableRecord
  2
*Paper_Space
340
1E
 70
     0
280
     1
281
     0
  0
BLOCK_RECORD
  5
23
330
1
100
AcDbSymbolTableRecord
100
AcDbBlockTableRecord
  2
*Paper_Space0
340
26
 70
     0
280
     1
281
     0
  0
BLOCK_RECORD
  5
75
330
1
100
AcDbSymbolTableRecord
100
AcDbBlockTableRecord
  2
block 2
340
0
102
{BLKREFS
331
76
102
}
 70
     0
280
     1
281
     0
  0
BLOCK_RECORD
  5
91
330
1
100
AcDbSymbolTableRecord
100
AcDbBlockTableRecord
  2
block 3
340
0
102
{BLKREFS
331
92
102
}
 70
     0
280
     1
281
     0
  0
BLOCK_RECORD
  5
A6
330
1
100
AcDbSymbolTableRecord
100
AcDbBlockTableRecord
  2
block 4
340
0
102
{BLKREFS
331
A7
102
}
 70
     0
280
     1
281
     0
  0
ENDTAB
  0
ENDSEC
  0
SECTION
  2
BLOCKS
  0
BLOCK
  5
20
330
1F
100
AcDbEntity
  8
0
100
AcDbBlockBegin
  2
*Model_Space
 70
     0
 10
0.0
 20
0.0
 30
0.0
  3
*Model_Space
  1

  0
ENDBLK
  5
21
330
1F
100
AcDbEntity
  8
0
100
AcDbBlockEnd
  0
BLOCK
  5
1C
330
1B
100
AcDbEntity
 67
     1
  8
0
100
AcDbBlockBegin
  2
*Paper_Space
 70
     0
 10
0.0
 20
0.0
 30
0.0
  3
*Paper_Space
  1

  0
ENDBLK
  5
1D
330
1B
100
AcDbEntity
 67
     1
  8
0
100
AcDbBlockEnd
  0
BLOCK
  5
24
330
23
100
AcDbEntity
  8
0
100
AcDbBlockBegin
  2
*Paper_Space0
 70
     0
 10
0.0
 20
0.0
 30
0.0
  3
*Paper_Space0
  1

  0
ENDBLK
  5
25
330
23
100
AcDbEntity
  8
0
100
AcDbBlockEnd
  0
BLOCK
  5
77
330
75
100
AcDbEntity
  8
0
100
AcDbBlockBegin
  2
block 2
 70
     0
 10
0.0
 20
0.0
 30
0.0
  3
block 2
  1

  0
SPLINE
  5
79
330
75
100
AcDbEntity
  8
_U+30EC_U+30A4_U+30E4_U+30FC 1
370
     0
100
AcDbSpline
210
0.0
220
0.0
230
1.0
 70
    11
 71
     3
 72
    26
 73
    22
 74
     0
 42
0.0000000001
 43
0.0000000001
 12
1.0
 22
0.0
 32
0.0
 13
1.0
 23
0.0
 33
0.0
 40
0.0
 40
0.0
 40
0.0
 40
0.0
 40
1.0
 40
1.0
 40
1.0
 40
2.0
 40
2.0
 40
2.0
 40
3.0
 40
3.0
 40
3.0
 40
4.0
 40
4.0
 40
4.0
 40
5.0
 40
5.0
 40
5.0
 40
6.0
 40
6.0
 40
6.0
 40
7.0
 40
7.0
 40
7.0
 40
7.0
 10
107.667502143222
 20
-136.2311333209769
 30
0.0
 10
107.667502143222
 20
-136.2311333209769
 30
0.0
 10
106.5633490401994
 20
-136.2311333209769
 30
0.0
 10
106.5633490401994
 20
-136.2311333209769
 30
0.0
 10
106.5633490401994
 20
-136.2311333209769
 30
0.0
 10
106.5633490401994
 20
-136.5611734684639
 30
0.0
 10
106.5633490401994
 20
-136.5611734684639
 30
0.0
 10
106.5633490401994
 20
-136.5611734684639
 30
0.0
 10
106.4152099343337
 20
-136.5611734684639
 30
0.0
 10
106.4152099343337
 20
-136.5611734684639
 30
0.0
 10
106.4003960237471
 20
-136.2290662636858
 30
0.0
 10
106.2374430072948
 20
-136.1825574746349
 30
0.0
 10
106.1230658371845
 20
-136.1529296534618
 30
0.0
 10
106.1230658371845
 20
-136.1529296534618
 30
0.0
 10
106.1230658371845
 20
-136.0068576048872
 30
0.0
 10
106.1230658371845
 20
-136.0068576048872
 30
0.0
 10
106.1230658371845
 20
-136.0068576048872
 30
0.0
 10
107.667502143222
 20
-136.0068576048872
 30
0.0
 10
107.667502143222
 20
-136.0068576048872
 30
0.0
 10
107.667502143222
 20
-136.0068576048872
 30
0.0
 10
107.667502143222
 20
-136.2311333209769
 30
0.0
 10
107.667502143222
 20
-136.2311333209769
 30
0.0
  0
HATCH
  5
7A
330
75
100
AcDbEntity
  8
_U+30EC_U+30A4_U+30E4_U+30FC 1
 62
   179
420
  2234388
100
AcDbHatch
 10
0.0
 20
0.0
 30
0.0
210
0.0
220
0.0
230
1.0
  2
SOLID
 70
     1
 71
     0
 91
        1
 92
        1
 93
        1
 72
     4
 94
        3
 73
     0
 74
     1
 95
       26
 96
       22
 40
0.0
 40
0.0
 40
0.0
 40
0.0
 40
1.0
 40
1.0
 40
1.0
 40
2.0
 40
2.0
 40
2.0
 40
3.0
 40
3.0
 40
3.0
 40
4.0
 40
4.0
 40
4.0
 40
5.0
 40
5.0
 40
5.0
 40
6.0
 40
6.0
 40
6.0
 40
7.0
 40
7.0
 40
7.0
 40
7.0
 10
107.667502143222
 20
-136.2311333209769
 10
107.667502143222
 20
-136.2311333209769
 10
106.5633490401994
 20
-136.2311333209769
 10
106.5633490401994
 20
-136.2311333209769
 10
106.5633490401994
 20
-136.2311333209769
 10
106.5633490401994
 20
-136.5611734684639
 10
106.5633490401994
 20
-136.5611734684639
 10
106.5633490401994
 20
-136.5611734684639
 10
106.4152099343337
 20
-136.5611734684639
 10
106.4152099343337
 20
-136.5611734684639
 10
106.4003960237471
 20
-136.2290662636858
 10
106.2374430072948
 20
-136.1825574746349
 10
106.1230658371845
 20
-136.1529296534618
 10
106.1230658371845
 20
-136.1529296534618
 10
106.1230658371845
 20
-136.0068576048872
 10
106.1230658371845
 20
-136.0068576048872
 10
106.1230658371845
 20
-136.0068576048872
 10
107.667502143222
 20
-136.0068576048872
 10
107.667502143222
 20
-136.0068576048872
 10
107.667502143222
 20
-136.0068576048872
 10
107.667502143222
 20
-136.2311333209769
 10
107.667502143222
 20
-136.2311333209769
 97
        0
 97
        0
 75
     2
 76
     1
 98
        0
  0
POLYLINE
  5
7B
330
75
100
AcDbEntity
  8
_U+30EC_U+30A4_U+30E4_U+30FC 1
370
     0
100
AcDb2dPolyline
 66
     1
 10
0.0
 20
0.0
 30
0.0
  0
VERTEX
  5
7C
330
7B
100
AcDbEntity
  8
_U+30EC_U+30A4_U+30E4_U+30FC 1
370
     0
100
AcDbVertex
100
AcDb2dVertex
 10
107.667502143222
 20
-135.44565155034
 30
0.0
  0
VERTEX
  5
7D
330
7B
100
AcDbEntity
  8
_U+30EC_U+30A4_U+30E4_U+30FC 1
370
     0
100
AcDbVertex
100
AcDb2dVertex
 10
107.4156656632503
 20
-135.44565155034
 30
0.0
  0
VERTEX
  5
7E
330
7B
100
AcDbEntity
  8
_U+30EC_U+30A4_U+30E4_U+30FC 1
370
     0
100
AcDbVertex
100
AcDb2dVertex
 10
107.4156656632503
 20
-135.1938150703682
 30
0.0
  0
VERTEX
  5
7F
330
7B
100
AcDbEntity
  8
_U+30EC_U+30A4_U+30E4_U+30FC 1
370
     0
100
AcDbVertex
100
AcDb2dVertex
 10
107.667502143222
 20
-135.1938150703682
 30
0.0
  0
VERTEX
  5
80
330
7B
100
AcDbEntity
  8
_U+30EC_U+30A4_U+30E4_U+30FC 1
370
     0
100
AcDbVertex
100
AcDb2dVertex
 10
107.667502143222
 20
-135.44565155034
 30
0.0
  0
SEQEND
  5
81
330
7B
100
AcDbEntity
  8
_U+30EC_U+30A4_U+30E4_U+30FC 1
370
     0
  0
HATCH
  5
82
330
75
100
AcDbEntity
  8
_U+30EC_U+30A4_U+30E4_U+30FC 1
 62
   179
420
  2234388
100
AcDbHatch
 10
0.0
 20
0.0
 30
0.0
210
0.0
220
0.0
230
1.0
  2
SOLID
 70
     1
 71
     0
 91
        1
 92
        1
 93
        4
 72
     1
 10
107.667502143222
 20
-135.44565155034
 11
107.4156656632503
 21
-135.44565155034
 72
     1
 10
107.4156656632503
 20
-135.44565155034
 11
107.4156656632503
 21
-135.1938150703682
 72
     1
 10
107.4156656632503
 20
-135.1938150703682
 11
107.667502143222
 21
-135.1938150703682
 72
     1
 10
107.667502143222
 20
-135.1938150703682
 11
107.667502143222
 21
-135.44565155034
 97
        0
 75
     2
 76
     1
 98
        0
  0
SPLINE
  5
83
330
75
100
AcDbEntity
  8
_U+30EC_U+30A4_U+30E4_U+30FC 1
370
     0
100
AcDbSpline
210
0.0
220
0.0
230
1.0
 70
    11
 71
     3
 72
    53
 73
    49
 74
     0
 42
0.0000000001
 43
0.0000000001
 12
1.0
 22
0.0
 32
0.0
 13
1.0
 23
0.0
 33
0.0
 40
0.0
 40
0.0
 40
0.0
 40
0.0
 40
1.0
 40
1.0
 40
1.0
 40
2.0
 40
2.0
 40
2.0
 40
3.0
 40
3.0
 40
3.0
 40
4.0
 40
4.0
 40
4.0
 40
5.0
 40
5.0
 40
5.0
 40
6.0
 40
6.0
 40
6.0
 40
7.0
 40
7.0
 40
7.0
 40
8.0
 40
8.0
 40
8.0
 40
9.0
 40
9.0
 40
9.0
 40
10.0
 40
10.0
 40
10.0
 40
11.0
 40
11.0
 40
11.0
 40
12.0
 40
12.0
 40
12.0
 40
13.0
 40
13.0
 40
13.0
 40
14.0
 40
14.0
 40
14.0
 40
15.0
 40
15.0
 40
15.0
 40
16.0
 40
16.0
 40
16.0
 40
16.0
 10
107.7181450468552
 20
-134.4765461903392
 30
0.0
 10
107.7181450468552
 20
-134.5547498578544
 30
0.0
 10
107.7012640789775
 20
-134.6563801746692
 30
0.0
 10
107.6378743220489
 20
-134.7580104914841
 30
0.0
 10
107.5279757760694
 20
-134.9312987943922
 30
0.0
 10
107.3967176380814
 20
-134.9526583864007
 30
0.0
 10
107.2888861493931
 20
-134.9716064115696
 30
0.0
 10
107.2888861493931
 20
-134.9716064115696
 30
0.0
 10
107.2888861493931
 20
-134.749397752771
 30
0.0
 10
107.2888861493931
 20
-134.749397752771
 30
0.0
 10
107.487668158892
 20
-134.6946207345555
 30
0.0
 10
107.5172959800651
 20
-134.5674967111498
 30
0.0
 10
107.5172959800651
 20
-134.474479133048
 30
0.0
 10
107.5172959800651
 20
-134.3349527658954
 30
0.0
 10
107.4177327205414
 20
-134.1826795454474
 30
0.0
 10
107.185188775287
 20
-134.1826795454474
 30
0.0
 10
106.929218180733
 20
-134.1826795454474
 30
0.0
 10
106.8592827423824
 20
-134.3625135297774
 30
0.0
 10
106.8592827423824
 20
-134.4830918717612
 30
0.0
 10
106.8592827423824
 20
-134.5147867502255
 30
0.0
 10
106.8592827423824
 20
-134.6563801746692
 30
0.0
 10
106.9884738230793
 20
-134.7452636381887
 30
0.0
 10
106.9884738230793
 20
-134.7452636381887
 30
0.0
 10
106.9695257979104
 20
-134.9209635079364
 30
0.0
 10
106.9695257979104
 20
-134.9209635079364
 30
0.0
 10
106.9695257979104
 20
-134.9209635079364
 30
0.0
 10
106.1230658371845
 20
-134.8003851659527
 30
0.0
 10
106.1230658371845
 20
-134.8003851659527
 30
0.0
 10
106.1230658371845
 20
-134.8003851659527
 30
0.0
 10
106.1230658371845
 20
-134.0217935862862
 30
0.0
 10
106.1230658371845
 20
-134.0217935862862
 30
0.0
 10
106.1230658371845
 20
-134.0217935862862
 30
0.0
 10
106.3177137321011
 20
-134.0217935862862
 30
0.0
 10
106.3177137321011
 20
-134.0217935862862
 30
0.0
 10
106.3177137321011
 20
-134.0217935862862
 30
0.0
 10
106.3177137321011
 20
-134.6374321495004
 30
0.0
 10
106.3177137321011
 20
-134.6374321495004
 30
0.0
 10
106.3177137321011
 20
-134.6374321495004
 30
0.0
 10
106.7407714576898
 20
-134.7028889637201
 30
0.0
 10
106.7407714576898
 20
-134.7028889637201
 30
0.0
 10
106.7070095219344
 20
-134.6415662640827
 30
0.0
 10
106.6667019047569
 20
-134.5592284819852
 30
0.0
 10
106.6667019047569
 20
-134.4407171972926
 30
0.0
 10
106.6667019047569
 20
-134.1868136600297
 30
0.0
 10
106.853081570509
 20
-133.9497910906445
 30
0.0
 10
107.1662407501182
 20
-133.9497910906445
 30
0.0
 10
107.4835340443097
 20
-133.9497910906445
 30
0.0
 10
107.7181450468552
 20
-134.1740668067343
 30
0.0
 10
107.7181450468552
 20
-134.4765461903392
 30
0.0
  0
HATCH
  5
84
330
75
100
AcDbEntity
  8
_U+30EC_U+30A4_U+30E4_U+30FC 1
 62
   179
420
  2234388
100
AcDbHatch
 10
0.0
 20
0.0
 30
0.0
210
0.0
220
0.0
230
1.0
  2
SOLID
 70
     1
 71
     0
 91
        1
 92
        1
 93
        1
 72
     4
 94
        3
 73
     0
 74
     1
 95
       53
 96
       49
 40
0.0
 40
0.0
 40
0.0
 40
0.0
 40
1.0
 40
1.0
 40
1.0
 40
2.0
 40
2.0
 40
2.0
 40
3.0
 40
3.0
 40
3.0
 40
4.0
 40
4.0
 40
4.0
 40
5.0
 40
5.0
 40
5.0
 40
6.0
 40
6.0
 40
6.0
 40
7.0
 40
7.0
 40
7.0
 40
8.0
 40
8.0
 40
8.0
 40
9.0
 40
9.0
 40
9.0
 40
10.0
 40
10.0
 40
10.0
 40
11.0
 40
11.0
 40
11.0
 40
12.0
 40
12.0
 40
12.0
 40
13.0
 40
13.0
 40
13.0
 40
14.0
 40
14.0
 40
14.0
 40
15.0
 40
15.0
 40
15.0
 40
16.0
 40
16.0
 40
16.0
 40
16.0
 10
107.7181450468552
 20
-134.4765461903392
 10
107.7181450468552
 20
-134.5547498578544
 10
107.7012640789775
 20
-134.6563801746692
 10
107.6378743220489
 20
-134.7580104914841
 10
107.5279757760694
 20
-134.9312987943922
 10
107.3967176380814
 20
-134.9526583864007
 10
107.2888861493931
 20
-134.9716064115696
 10
107.2888861493931
 20
-134.9716064115696
 10
107.2888861493931
 20
-134.749397752771
 10
107.2888861493931
 20
-134.749397752771
 10
107.487668158892
 20
-134.6946207345555
 10
107.5172959800651
 20
-134.5674967111498
 10
107.5172959800651
 20
-134.474479133048
 10
107.5172959800651
 20
-134.3349527658954
 10
107.4177327205414
 20
-134.1826795454474
 10
107.185188775287
 20
-134.1826795454474
 10
106.929218180733
 20
-134.1826795454474
 10
106.8592827423824
 20
-134.3625135297774
 10
106.8592827423824
 20
-134.4830918717612
 10
106.8592827423824
 20
-134.5147867502255
 10
106.8592827423824
 20
-134.6563801746692
 10
106.9884738230793
 20
-134.7452636381887
 10
106.9884738230793
 20
-134.7452636381887
 10
106.9695257979104
 20
-134.9209635079364
 10
106.9695257979104
 20
-134.9209635079364
 10
106.9695257979104
 20
-134.9209635079364
 10
106.1230658371845
 20
-134.8003851659527
 10
106.1230658371845
 20
-134.8003851659527
 10
106.1230658371845
 20
-134.8003851659527
 10
106.1230658371845
 20
-134.0217935862862
 10
106.1230658371845
 20
-134.0217935862862
 10
106.1230658371845
 20
-134.0217935862862
 10
106.3177137321011
 20
-134.0217935862862
 10
106.3177137321011
 20
-134.0217935862862
 10
106.3177137321011
 20
-134.0217935862862
 10
106.3177137321011
 20
-134.6374321495004
 10
106.3177137321011
 20
-134.6374321495004
 10
106.3177137321011
 20
-134.6374321495004
 10
106.7407714576898
 20
-134.7028889637201
 10
106.7407714576898
 20
-134.7028889637201
 10
106.7070095219344
 20
-134.6415662640827
 10
106.6667019047569
 20
-134.5592284819852
 10
106.6667019047569
 20
-134.4407171972926
 10
106.6667019047569
 20
-134.1868136600297
 10
106.853081570509
 20
-133.9497910906445
 10
107.1662407501182
 20
-133.9497910906445
 10
107.4835340443097
 20
-133.9497910906445
 10
107.7181450468552
 20
-134.1740668067343
 10
107.7181450468552
 20
-134.4765461903392
 97
        0
 97
        0
 75
     2
 76
     1
 98
        0
  0
ENDBLK
  5
78
330
75
100
AcDbEntity
  8
0
100
AcDbBlockEnd
  0
BLOCK
  5
93
330
91
100
AcDbEntity
  8
0
100
AcDbBlockBegin
  2
block 3
 70
     0
 10
0.0
 20
0.0
 30
0.0
  3
block 3
  1

  0
SPLINE
  5
95
330
91
100
AcDbEntity
  8
_U+30EC_U+30A4_U+30E4_U+30FC 1
370
     0
100
AcDbSpline
210
0.0
220
0.0
230
1.0
 70
    11
 71
     3
 72
    44
 73
    40
 74
     0
 42
0.0000000001
 43
0.0000000001
 12
1.0
 22
0.0
 32
0.0
 13
1.0
 23
0.0
 33
0.0
 40
0.0
 40
0.0
 40
0.0
 40
0.0
 40
1.0
 40
1.0
 40
1.0
 40
2.0
 40
2.0
 40
2.0
 40
3.0
 40
3.0
 40
3.0
 40
4.0
 40
4.0
 40
4.0
 40
5.0
 40
5.0
 40
5.0
 40
6.0
 40
6.0
 40
6.0
 40
7.0
 40
7.0
 40
7.0
 40
8.0
 40
8.0
 40
8.0
 40
9.0
 40
9.0
 40
9.0
 40
10.0
 40
10.0
 40
10.0
 40
11.0
 40
11.0
 40
11.0
 40
12.0
 40
12.0
 40
12.0
 40
13.0
 40
13.0
 40
13.0
 40
13.0
 10
75.51149764822283
 20
-126.5671237205284
 30
0.0
 10
75.67031655009283
 20
-126.7848537551962
 30
0.0
 10
75.74438610302572
 20
-126.8778713332979
 30
0.0
 10
75.88804658476063
 20
-126.9267916891884
 30
0.0
 10
75.88804658476063
 20
-126.9267916891884
 30
0.0
 10
75.88804658476063
 20
-126.148200109522
 30
0.0
 10
75.88804658476063
 20
-126.148200109522
 30
0.0
 10
75.88804658476063
 20
-126.148200109522
 30
0.0
 10
76.09337427568153
 20
-126.148200109522
 30
0.0
 10
76.09337427568153
 20
-126.148200109522
 30
0.0
 10
76.09337427568153
 20
-126.148200109522
 30
0.0
 10
76.09337427568153
 20
-127.1762166023205
 30
0.0
 10
76.09337427568153
 20
-127.1762166023205
 30
0.0
 10
75.73577336431259
 20
-127.1445217238562
 30
0.0
 10
75.65756969679741
 20
-127.0790649096365
 30
0.0
 10
75.35922442777478
 20
-126.6939032343856
 30
0.0
 10
75.16044241827586
 20
-126.4379326398315
 30
0.0
 10
75.09257403721644
 20
-126.3724758256117
 30
0.0
 10
74.95511472735498
 20
-126.3724758256117
 30
0.0
 10
74.83660344266238
 20
-126.3724758256117
 30
0.0
 10
74.7056898142229
 20
-126.4444783212535
 30
0.0
 10
74.7056898142229
 20
-126.6411932734612
 30
0.0
 10
74.7056898142229
 20
-126.9012979825976
 30
0.0
 10
74.9361667021861
 20
-126.9099107213107
 30
0.0
 10
75.05261092958754
 20
-126.914044835893
 30
0.0
 10
75.05261092958754
 20
-126.914044835893
 30
0.0
 10
75.05261092958754
 20
-127.1383205519828
 30
0.0
 10
75.05261092958754
 20
-127.1383205519828
 30
0.0
 10
74.92548690618183
 20
-127.1297078132697
 30
0.0
 10
74.81352130291121
 20
-127.1190280172654
 30
0.0
 10
74.69501001821861
 20
-127.0387572924591
 30
0.0
 10
74.53412405905745
 20
-126.9288587464796
 30
0.0
 10
74.500362123302
 20
-126.7424790807276
 30
0.0
 10
74.500362123302
 20
-126.6263793628747
 30
0.0
 10
74.500362123302
 20
-126.3490491763121
 30
0.0
 10
74.68433022221434
 20
-126.1416544281
 30
0.0
 10
74.95718178464612
 20
-126.1416544281
 30
0.0
 10
75.18593612486671
 20
-126.1416544281
 30
0.0
 10
75.28515487484191
 20
-126.2580986555015
 30
0.0
 10
75.51149764822283
 20
-126.5671237205284
 30
0.0
  0
HATCH
  5
96
330
91
100
AcDbEntity
  8
_U+30EC_U+30A4_U+30E4_U+30FC 1
 62
   179
420
  2234388
100
AcDbHatch
 10
0.0
 20
0.0
 30
0.0
210
0.0
220
0.0
230
1.0
  2
SOLID
 70
     1
 71
     0
 91
        1
 92
        1
 93
        1
 72
     4
 94
        3
 73
     0
 74
     1
 95
       44
 96
       40
 40
0.0
 40
0.0
 40
0.0
 40
0.0
 40
1.0
 40
1.0
 40
1.0
 40
2.0
 40
2.0
 40
2.0
 40
3.0
 40
3.0
 40
3.0
 40
4.0
 40
4.0
 40
4.0
 40
5.0
 40
5.0
 40
5.0
 40
6.0
 40
6.0
 40
6.0
 40
7.0
 40
7.0
 40
7.0
 40
8.0
 40
8.0
 40
8.0
 40
9.0
 40
9.0
 40
9.0
 40
10.0
 40
10.0
 40
10.0
 40
11.0
 40
11.0
 40
11.0
 40
12.0
 40
12.0
 40
12.0
 40
13.0
 40
13.0
 40
13.0
 40
13.0
 10
75.51149764822283
 20
-126.5671237205284
 10
75.67031655009283
 20
-126.7848537551962
 10
75.74438610302572
 20
-126.8778713332979
 10
75.88804658476063
 20
-126.9267916891884
 10
75.88804658476063
 20
-126.9267916891884
 10
75.88804658476063
 20
-126.148200109522
 10
75.88804658476063
 20
-126.148200109522
 10
75.88804658476063
 20
-126.148200109522
 10
76.09337427568153
 20
-126.148200109522
 10
76.09337427568153
 20
-126.148200109522
 10
76.09337427568153
 20
-126.148200109522
 10
76.09337427568153
 20
-127.1762166023205
 10
76.09337427568153
 20
-127.1762166023205
 10
75.73577336431259
 20
-127.1445217238562
 10
75.65756969679741
 20
-127.0790649096365
 10
75.35922442777478
 20
-126.6939032343856
 10
75.16044241827586
 20
-126.4379326398315
 10
75.09257403721644
 20
-126.3724758256117
 10
74.95511472735498
 20
-126.3724758256117
 10
74.83660344266238
 20
-126.3724758256117
 10
74.7056898142229
 20
-126.4444783212535
 10
74.7056898142229
 20
-126.6411932734612
 10
74.7056898142229
 20
-126.9012979825976
 10
74.9361667021861
 20
-126.9099107213107
 10
75.05261092958754
 20
-126.914044835893
 10
75.05261092958754
 20
-126.914044835893
 10
75.05261092958754
 20
-127.1383205519828
 10
75.05261092958754
 20
-127.1383205519828
 10
74.92548690618183
 20
-127.1297078132697
 10
74.81352130291121
 20
-127.1190280172654
 10
74.69501001821861
 20
-127.0387572924591
 10
74.53412405905745
 20
-126.9288587464796
 10
74.500362123302
 20
-126.7424790807276
 10
74.500362123302
 20
-126.6263793628747
 10
74.500362123302
 20
-126.3490491763121
 10
74.68433022221434
 20
-126.1416544281
 10
74.95718178464612
 20
-126.1416544281
 10
75.18593612486671
 20
-126.1416544281
 10
75.28515487484191
 20
-126.2580986555015
 10
75.51149764822283
 20
-126.5671237205284
 97
        0
 97
        0
 75
     2
 76
     1
 98
        0
  0
SPLINE
  5
97
330
91
100
AcDbEntity
  8
_U+30EC_U+30A4_U+30E4_U+30FC 1
370
     0
100
AcDbSpline
210
0.0
220
0.0
230
1.0
 70
    11
 71
     3
 72
    29
 73
    25
 74
     0
 42
0.0000000001
 43
0.0000000001
 12
1.0
 22
0.0
 32
0.0
 13
1.0
 23
0.0
 33
0.0
 40
0.0
 40
0.0
 40
0.0
 40
0.0
 40
1.0
 40
1.0
 40
1.0
 40
2.0
 40
2.0
 40
2.0
 40
3.0
 40
3.0
 40
3.0
 40
4.0
 40
4.0
 40
4.0
 40
5.0
 40
5.0
 40
5.0
 40
6.0
 40
6.0
 40
6.0
 40
7.0
 40
7.0
 40
7.0
 40
8.0
 40
8.0
 40
8.0
 40
8.0
 10
75.91560734864262
 20
-125.0853881523224
 30
0.0
 10
76.12506915414582
 20
-125.1935641505593
 30
0.0
 10
76.14401717931469
 20
-125.3668524534673
 30
0.0
 10
76.14401717931469
 20
-125.4832966808688
 30
0.0
 10
76.14401717931469
 20
-125.6441826400299
 30
0.0
 10
76.09750839026383
 20
-125.7857760644737
 30
0.0
 10
75.91560734864262
 20
-125.8808606998666
 30
0.0
 10
75.72095945372601
 20
-125.9845580739726
 30
0.0
 10
75.48428139388935
 20
-126.00385060869
 30
0.0
 10
75.32132837743703
 20
-126.00385060869
 30
0.0
 10
75.17732338615359
 20
-126.00385060869
 30
0.0
 10
74.92548690618183
 20
-125.9866251312638
 30
0.0
 10
74.7267048966829
 20
-125.8808606998666
 30
0.0
 10
74.52378877260169
 20
-125.7730292111783
 30
0.0
 10
74.500362123302
 20
-125.6121432520171
 30
0.0
 10
74.500362123302
 20
-125.4832966808688
 30
0.0
 10
74.500362123302
 20
-125.3244777789987
 30
0.0
 10
74.54480385506172
 20
-125.1808172972638
 30
0.0
 10
74.7267048966829
 20
-125.0853881523224
 30
0.0
 10
74.91928573430837
 20
-124.9861694023472
 30
0.0
 10
75.14769556498044
 20
-124.9627427530475
 30
0.0
 10
75.32132837743703
 20
-124.9627427530475
 30
0.0
 10
75.49254962305395
 20
-124.9627427530475
 30
0.0
 10
75.72302651101717
 20
-124.9841023450561
 30
0.0
 10
75.91560734864262
 20
-125.0853881523224
 30
0.0
  0
SPLINE
  5
98
330
91
100
AcDbEntity
  8
_U+30EC_U+30A4_U+30E4_U+30FC 1
370
     0
100
AcDbSpline
210
0.0
220
0.0
230
1.0
 70
    11
 71
     3
 72
    17
 73
    13
 74
     0
 42
0.0000000001
 43
0.0000000001
 12
1.0
 22
0.0
 32
0.0
 13
1.0
 23
0.0
 33
0.0
 40
0.0
 40
0.0
 40
0.0
 40
0.0
 40
1.0
 40
1.0
 40
1.0
 40
2.0
 40
2.0
 40
2.0
 40
3.0
 40
3.0
 40
3.0
 40
4.0
 40
4.0
 40
4.0
 40
4.0
 10
74.69294296092747
 20
-125.4832966808688
 30
0.0
 10
74.69294296092747
 20
-125.7330661035494
 30
0.0
 10
74.97647431936352
 20
-125.7795748926003
 30
0.0
 10
75.32132837743703
 20
-125.7795748926003
 30
0.0
 10
75.6406887289197
 20
-125.7795748926003
 30
0.0
 10
75.94936928439807
 20
-125.7434013900051
 30
0.0
 10
75.94936928439807
 20
-125.4832966808688
 30
0.0
 10
75.94936928439807
 20
-125.2355943154793
 30
0.0
 10
75.66824949280169
 20
-125.1870184691373
 30
0.0
 10
75.32132837743703
 20
-125.1870184691373
 30
0.0
 10
75.00162351640584
 20
-125.1870184691373
 30
0.0
 10
74.69294296092747
 20
-125.2252590290235
 30
0.0
 10
74.69294296092747
 20
-125.4832966808688
 30
0.0
  0
HATCH
  5
99
330
91
100
AcDbEntity
  8
_U+30EC_U+30A4_U+30E4_U+30FC 1
 62
   179
420
  2234388
100
AcDbHatch
 10
0.0
 20
0.0
 30
0.0
210
0.0
220
0.0
230
1.0
  2
SOLID
 70
     1
 71
     0
 91
        2
 92
        1
 93
        1
 72
     4
 94
        3
 73
     0
 74
     1
 95
       29
 96
       25
 40
0.0
 40
0.0
 40
0.0
 40
0.0
 40
1.0
 40
1.0
 40
1.0
 40
2.0
 40
2.0
 40
2.0
 40
3.0
 40
3.0
 40
3.0
 40
4.0
 40
4.0
 40
4.0
 40
5.0
 40
5.0
 40
5.0
 40
6.0
 40
6.0
 40
6.0
 40
7.0
 40
7.0
 40
7.0
 40
8.0
 40
8.0
 40
8.0
 40
8.0
 10
75.91560734864262
 20
-125.0853881523224
 10
76.12506915414582
 20
-125.1935641505593
 10
76.14401717931469
 20
-125.3668524534673
 10
76.14401717931469
 20
-125.4832966808688
 10
76.14401717931469
 20
-125.6441826400299
 10
76.09750839026383
 20
-125.7857760644737
 10
75.91560734864262
 20
-125.8808606998666
 10
75.72095945372601
 20
-125.9845580739726
 10
75.48428139388935
 20
-126.00385060869
 10
75.32132837743703
 20
-126.00385060869
 10
75.17732338615359
 20
-126.00385060869
 10
74.92548690618183
 20
-125.9866251312638
 10
74.7267048966829
 20
-125.8808606998666
 10
74.52378877260169
 20
-125.7730292111783
 10
74.500362123302
 20
-125.6121432520171
 10
74.500362123302
 20
-125.4832966808688
 10
74.500362123302
 20
-125.3244777789987
 10
74.54480385506172
 20
-125.1808172972638
 10
74.7267048966829
 20
-125.0853881523224
 10
74.91928573430837
 20
-124.9861694023472
 10
75.14769556498044
 20
-124.9627427530475
 10
75.32132837743703
 20
-124.9627427530475
 10
75.49254962305395
 20
-124.9627427530475
 10
75.72302651101717
 20
-124.9841023450561
 10
75.91560734864262
 20
-125.0853881523224
 97
        0
 97
        0
 92
        1
 93
        1
 72
     4
 94
        3
 73
     0
 74
     1
 95
       17
 96
       13
 40
0.0
 40
0.0
 40
0.0
 40
0.0
 40
1.0
 40
1.0
 40
1.0
 40
2.0
 40
2.0
 40
2.0
 40
3.0
 40
3.0
 40
3.0
 40
4.0
 40
4.0
 40
4.0
 40
4.0
 10
74.69294296092747
 20
-125.4832966808688
 10
74.69294296092747
 20
-125.7330661035494
 10
74.97647431936352
 20
-125.7795748926003
 10
75.32132837743703
 20
-125.7795748926003
 10
75.6406887289197
 20
-125.7795748926003
 10
75.94936928439807
 20
-125.7434013900051
 10
75.94936928439807
 20
-125.4832966808688
 10
75.94936928439807
 20
-125.2355943154793
 10
75.66824949280169
 20
-125.1870184691373
 10
75.32132837743703
 20
-125.1870184691373
 10
75.00162351640584
 20
-125.1870184691373
 10
74.69294296092747
 20
-125.2252590290235
 10
74.69294296092747
 20
-125.4832966808688
 97
        0
 97
        0
 75
     2
 76
     1
 98
        0
  0
ENDBLK
  5
94
330
91
100
AcDbEntity
  8
0
100
AcDbBlockEnd
  0
BLOCK
  5
A8
330
A6
100
AcDbEntity
  8
0
100
AcDbBlockBegin
  2
block 4
 70
     0
 10
0.0
 20
0.0
 30
0.0
  3
block 4
  1

  0
SPLINE
  5
AA
330
A6
100
AcDbEntity
  8
_U+30EC_U+30A4_U+30E4_U+30FC 1
370
     0
100
AcDbSpline
210
0.0
220
0.0
230
1.0
 70
    11
 71
     3
 72
    44
 73
    40
 74
     0
 42
0.0000000001
 43
0.0000000001
 12
1.0
 22
0.0
 32
0.0
 13
1.0
 23
0.0
 33
0.0
 40
0.0
 40
0.0
 40
0.0
 40
0.0
 40
1.0
 40
1.0
 40
1.0
 40
2.0
 40
2.0
 40
2.0
 40
3.0
 40
3.0
 40
3.0
 40
4.0
 40
4.0
 40
4.0
 40
5.0
 40
5.0
 40
5.0
 40
6.0
 40
6.0
 40
6.0
 40
7.0
 40
7.0
 40
7.0
 40
8.0
 40
8.0
 40
8.0
 40
9.0
 40
9.0
 40
9.0
 40
10.0
 40
10.0
 40
10.0
 40
11.0
 40
11.0
 40
11.0
 40
12.0
 40
12.0
 40
12.0
 40
13.0
 40
13.0
 40
13.0
 40
13.0
 10
90.11853025090787
 20
-138.8177110113025
 30
0.0
 10
89.90080021624009
 20
-138.9765299131725
 30
0.0
 10
89.80778263813833
 20
-139.0505994661054
 30
0.0
 10
89.75886228224779
 20
-139.1942599478403
 30
0.0
 10
89.75886228224779
 20
-139.1942599478403
 30
0.0
 10
90.53745386191426
 20
-139.1942599478403
 30
0.0
 10
90.53745386191426
 20
-139.1942599478403
 30
0.0
 10
90.53745386191426
 20
-139.1942599478403
 30
0.0
 10
90.53745386191426
 20
-139.3995876387612
 30
0.0
 10
90.53745386191426
 20
-139.3995876387612
 30
0.0
 10
90.53745386191426
 20
-139.3995876387612
 30
0.0
 10
89.5094373691157
 20
-139.3995876387612
 30
0.0
 10
89.5094373691157
 20
-139.3995876387612
 30
0.0
 10
89.54113224758
 20
-139.0419867273923
 30
0.0
 10
89.60658906179975
 20
-138.9637830598771
 30
0.0
 10
89.99175073705068
 20
-138.6654377908545
 30
0.0
 10
90.24772133160474
 20
-138.4666557813556
 30
0.0
 10
90.3131781458245
 20
-138.3987874002961
 30
0.0
 10
90.3131781458245
 20
-138.2613280904347
 30
0.0
 10
90.3131781458245
 20
-138.1428168057421
 30
0.0
 10
90.24117565018277
 20
-138.0119031773026
 30
0.0
 10
90.044460697975
 20
-138.0119031773026
 30
0.0
 10
89.78435598883864
 20
-138.0119031773026
 30
0.0
 10
89.77608775967404
 20
-138.2423800652658
 30
0.0
 10
89.77160913554322
 20
-138.3588242926672
 30
0.0
 10
89.77160913554322
 20
-138.3588242926672
 30
0.0
 10
89.54733341945345
 20
-138.3588242926672
 30
0.0
 10
89.54733341945345
 20
-138.3588242926672
 30
0.0
 10
89.55594615816658
 20
-138.2317002692615
 30
0.0
 10
89.56662595417085
 20
-138.1197346659909
 30
0.0
 10
89.64689667897717
 20
-138.0012233812983
 30
0.0
 10
89.75679522495663
 20
-137.8403374221371
 30
0.0
 10
89.94317489070866
 20
-137.8065754863817
 30
0.0
 10
90.05927460856158
 20
-137.8065754863817
 30
0.0
 10
90.33660479512419
 20
-137.8065754863817
 30
0.0
 10
90.54399954333623
 20
-137.990543585294
 30
0.0
 10
90.54399954333623
 20
-138.2633951477258
 30
0.0
 10
90.54399954333623
 20
-138.4921494879464
 30
0.0
 10
90.42755531593478
 20
-138.5913682379216
 30
0.0
 10
90.11853025090787
 20
-138.8177110113025
 30
0.0
  0
HATCH
  5
AB
330
A6
100
AcDbEntity
  8
_U+30EC_U+30A4_U+30E4_U+30FC 1
 62
   179
420
  2234388
100
AcDbHatch
 10
0.0
 20
0.0
 30
0.0
210
0.0
220
0.0
230
1.0
  2
SOLID
 70
     1
 71
     0
 91
        1
 92
        1
 93
        1
 72
     4
 94
        3
 73
     0
 74
     1
 95
       44
 96
       40
 40
0.0
 40
0.0
 40
0.0
 40
0.0
 40
1.0
 40
1.0
 40
1.0
 40
2.0
 40
2.0
 40
2.0
 40
3.0
 40
3.0
 40
3.0
 40
4.0
 40
4.0
 40
4.0
 40
5.0
 40
5.0
 40
5.0
 40
6.0
 40
6.0
 40
6.0
 40
7.0
 40
7.0
 40
7.0
 40
8.0
 40
8.0
 40
8.0
 40
9.0
 40
9.0
 40
9.0
 40
10.0
 40
10.0
 40
10.0
 40
11.0
 40
11.0
 40
11.0
 40
12.0
 40
12.0
 40
12.0
 40
13.0
 40
13.0
 40
13.0
 40
13.0
 10
90.11853025090787
 20
-138.8177110113025
 10
89.90080021624009
 20
-138.9765299131725
 10
89.80778263813833
 20
-139.0505994661054
 10
89.75886228224779
 20
-139.1942599478403
 10
89.75886228224779
 20
-139.1942599478403
 10
90.53745386191426
 20
-139.1942599478403
 10
90.53745386191426
 20
-139.1942599478403
 10
90.53745386191426
 20
-139.1942599478403
 10
90.53745386191426
 20
-139.3995876387612
 10
90.53745386191426
 20
-139.3995876387612
 10
90.53745386191426
 20
-139.3995876387612
 10
89.5094373691157
 20
-139.3995876387612
 10
89.5094373691157
 20
-139.3995876387612
 10
89.54113224758
 20
-139.0419867273923
 10
89.60658906179975
 20
-138.9637830598771
 10
89.99175073705068
 20
-138.6654377908545
 10
90.24772133160474
 20
-138.4666557813556
 10
90.3131781458245
 20
-138.3987874002961
 10
90.3131781458245
 20
-138.2613280904347
 10
90.3131781458245
 20
-138.1428168057421
 10
90.24117565018277
 20
-138.0119031773026
 10
90.044460697975
 20
-138.0119031773026
 10
89.78435598883864
 20
-138.0119031773026
 10
89.77608775967404
 20
-138.2423800652658
 10
89.77160913554322
 20
-138.3588242926672
 10
89.77160913554322
 20
-138.3588242926672
 10
89.54733341945345
 20
-138.3588242926672
 10
89.54733341945345
 20
-138.3588242926672
 10
89.55594615816658
 20
-138.2317002692615
 10
89.56662595417085
 20
-138.1197346659909
 10
89.64689667897717
 20
-138.0012233812983
 10
89.75679522495663
 20
-137.8403374221371
 10
89.94317489070866
 20
-137.8065754863817
 10
90.05927460856158
 20
-137.8065754863817
 10
90.33660479512419
 20
-137.8065754863817
 10
90.54399954333623
 20
-137.990543585294
 10
90.54399954333623
 20
-138.2633951477258
 10
90.54399954333623
 20
-138.4921494879464
 10
90.42755531593478
 20
-138.5913682379216
 10
90.11853025090787
 20
-138.8177110113025
 97
        0
 97
        0
 75
     2
 76
     1
 98
        0
  0
SPLINE
  5
AC
330
A6
100
AcDbEntity
  8
_U+30EC_U+30A4_U+30E4_U+30FC 1
370
     0
100
AcDbSpline
210
0.0
220
0.0
230
1.0
 70
    11
 71
     3
 72
    29
 73
    25
 74
     0
 42
0.0000000001
 43
0.0000000001
 12
1.0
 22
0.0
 32
0.0
 13
1.0
 23
0.0
 33
0.0
 40
0.0
 40
0.0
 40
0.0
 40
0.0
 40
1.0
 40
1.0
 40
1.0
 40
2.0
 40
2.0
 40
2.0
 40
3.0
 40
3.0
 40
3.0
 40
4.0
 40
4.0
 40
4.0
 40
5.0
 40
5.0
 40
5.0
 40
6.0
 40
6.0
 40
6.0
 40
7.0
 40
7.0
 40
7.0
 40
8.0
 40
8.0
 40
8.0
 40
8.0
 10
91.60026581911383
 20
-139.2218207117223
 30
0.0
 10
91.49208982087698
 20
-139.4312825172255
 30
0.0
 10
91.31880151796892
 20
-139.4502305423944
 30
0.0
 10
91.20235729056748
 20
-139.4502305423944
 30
0.0
 10
91.0414713314063
 20
-139.4502305423944
 30
0.0
 10
90.89987790696253
 20
-139.4037217533435
 30
0.0
 10
90.80479327156964
 20
-139.2218207117223
 30
0.0
 10
90.70109589746362
 20
-139.0271728168057
 30
0.0
 10
90.68214787229475
 20
-138.7901502474205
 30
0.0
 10
90.68214787229475
 20
-138.6275417405167
 30
0.0
 10
90.68214787229475
 20
-138.4835367492333
 30
0.0
 10
90.69902884017247
 20
-138.2317002692615
 30
0.0
 10
90.80479327156964
 20
-138.0329182597626
 30
0.0
 10
90.91262476025796
 20
-137.8300021356814
 30
0.0
 10
91.07351071941913
 20
-137.8065754863817
 30
0.0
 10
91.20235729056748
 20
-137.8065754863817
 30
0.0
 10
91.36117619243748
 20
-137.8065754863817
 30
0.0
 10
91.50483667417241
 20
-137.8510172181414
 30
0.0
 10
91.60026581911383
 20
-138.0329182597626
 30
0.0
 10
91.69948456908902
 20
-138.2254990973881
 30
0.0
 10
91.72291121838872
 20
-138.4539089280601
 30
0.0
 10
91.72291121838872
 20
-138.6275417405167
 30
0.0
 10
91.72291121838872
 20
-138.7987629861337
 30
0.0
 10
91.70155162638017
 20
-139.0292398740969
 30
0.0
 10
91.60026581911383
 20
-139.2218207117223
 30
0.0
  0
SPLINE
  5
AD
330
A6
100
AcDbEntity
  8
_U+30EC_U+30A4_U+30E4_U+30FC 1
370
     0
100
AcDbSpline
210
0.0
220
0.0
230
1.0
 70
    11
 71
     3
 72
    17
 73
    13
 74
     0
 42
0.0000000001
 43
0.0000000001
 12
1.0
 22
0.0
 32
0.0
 13
1.0
 23
0.0
 33
0.0
 40
0.0
 40
0.0
 40
0.0
 40
0.0
 40
1.0
 40
1.0
 40
1.0
 40
2.0
 40
2.0
 40
2.0
 40
3.0
 40
3.0
 40
3.0
 40
4.0
 40
4.0
 40
4.0
 40
4.0
 10
91.20235729056748
 20
-137.9991563240072
 30
0.0
 10
90.95293237743539
 20
-137.9991563240072
 30
0.0
 10
90.90607907883599
 20
-138.2826876824432
 30
0.0
 10
90.90607907883599
 20
-138.6275417405167
 30
0.0
 10
90.90607907883599
 20
-138.9469020919994
 30
0.0
 10
90.9422525814311
 20
-139.2555826474778
 30
0.0
 10
91.20235729056748
 20
-139.2555826474778
 30
0.0
 10
91.45005965595693
 20
-139.2555826474778
 30
0.0
 10
91.49863550229895
 20
-138.9744628558814
 30
0.0
 10
91.49863550229895
 20
-138.6275417405167
 30
0.0
 10
91.49863550229895
 20
-138.3078368794855
 30
0.0
 10
91.46039494241268
 20
-137.9991563240072
 30
0.0
 10
91.20235729056748
 20
-137.9991563240072
 30
0.0
  0
HATCH
  5
AE
330
A6
100
AcDbEntity
  8
_U+30EC_U+30A4_U+30E4_U+30FC 1
 62
   179
420
  2234388
100
AcDbHatch
 10
0.0
 20
0.0
 30
0.0
210
0.0
220
0.0
230
1.0
  2
SOLID
 70
     1
 71
     0
 91
        2
 92
        1
 93
        1
 72
     4
 94
        3
 73
     0
 74
     1
 95
       29
 96
       25
 40
0.0
 40
0.0
 40
0.0
 40
0.0
 40
1.0
 40
1.0
 40
1.0
 40
2.0
 40
2.0
 40
2.0
 40
3.0
 40
3.0
 40
3.0
 40
4.0
 40
4.0
 40
4.0
 40
5.0
 40
5.0
 40
5.0
 40
6.0
 40
6.0
 40
6.0
 40
7.0
 40
7.0
 40
7.0
 40
8.0
 40
8.0
 40
8.0
 40
8.0
 10
91.60026581911383
 20
-139.2218207117223
 10
91.49208982087698
 20
-139.4312825172255
 10
91.31880151796892
 20
-139.4502305423944
 10
91.20235729056748
 20
-139.4502305423944
 10
91.0414713314063
 20
-139.4502305423944
 10
90.89987790696253
 20
-139.4037217533435
 10
90.80479327156964
 20
-139.2218207117223
 10
90.70109589746362
 20
-139.0271728168057
 10
90.68214787229475
 20
-138.7901502474205
 10
90.68214787229475
 20
-138.6275417405167
 10
90.68214787229475
 20
-138.4835367492333
 10
90.69902884017247
 20
-138.2317002692615
 10
90.80479327156964
 20
-138.0329182597626
 10
90.91262476025796
 20
-137.8300021356814
 10
91.07351071941913
 20
-137.8065754863817
 10
91.20235729056748
 20
-137.8065754863817
 10
91.36117619243748
 20
-137.8065754863817
 10
91.50483667417241
 20
-137.8510172181414
 10
91.60026581911383
 20
-138.0329182597626
 10
91.69948456908902
 20
-138.2254990973881
 10
91.72291121838872
 20
-138.4539089280601
 10
91.72291121838872
 20
-138.6275417405167
 10
91.72291121838872
 20
-138.7987629861337
 10
91.70155162638017
 20
-139.0292398740969
 10
91.60026581911383
 20
-139.2218207117223
 97
        0
 97
        0
 92
        1
 93
        1
 72
     4
 94
        3
 73
     0
 74
     1
 95
       17
 96
       13
 40
0.0
 40
0.0
 40
0.0
 40
0.0
 40
1.0
 40
1.0
 40
1.0
 40
2.0
 40
2.0
 40
2.0
 40
3.0
 40
3.0
 40
3.0
 40
4.0
 40
4.0
 40
4.0
 40
4.0
 10
91.20235729056748
 20
-137.9991563240072
 10
90.95293237743539
 20
-137.9991563240072
 10
90.90607907883599
 20
-138.2826876824432
 10
90.90607907883599
 20
-138.6275417405167
 10
90.90607907883599
 20
-138.9469020919994
 10
90.9422525814311
 20
-139.2555826474778
 10
91.20235729056748
 20
-139.2555826474778
 10
91.45005965595693
 20
-139.2555826474778
 10
91.49863550229895
 20
-138.9744628558814
 10
91.49863550229895
 20
-138.6275417405167
 10
91.49863550229895
 20
-138.3078368794855
 10
91.46039494241268
 20
-137.9991563240072
 10
91.20235729056748
 20
-137.9991563240072
 97
        0
 97
        0
 75
     2
 76
     1
 98
        0
  0
ENDBLK
  5
A9
330
A6
100
AcDbEntity
  8
0
100
AcDbBlockEnd
  0
ENDSEC
  0
SECTION
  2
ENTITIES
  0
POLYLINE
  5
41
330
1F
100
AcDbEntity
  8
_U+30EC_U+30A4_U+30E4_U+30FC 1
370
     0
100
AcDb2dPolyline
 66
     1
 10
0.0
 20
0.0
 30
0.0
  0
VERTEX
  5
42
330
41
100
AcDbEntity
  8
_U+30EC_U+30A4_U+30E4_U+30FC 1
370
     0
100
AcDbVertex
100
AcDb2dVertex
 10
82.18981386834153
 20
-115.9922396932243
 30
0.0
  0
VERTEX
  5
43
330
41
100
AcDbEntity
  8
_U+30EC_U+30A4_U+30E4_U+30FC 1
370
     0
100
AcDbVertex
100
AcDb2dVertex
 10
80.68983599698633
 20
-115.9922396932243
 30
0.0
  0
VERTEX
  5
44
330
41
100
AcDbEntity
  8
_U+30EC_U+30A4_U+30E4_U+30FC 1
370
     0
100
AcDbVertex
100
AcDb2dVertex
 10
80.68983599698633
 20
-135.9923760771131
 30
0.0
  0
VERTEX
  5
45
330
41
100
AcDbEntity
  8
_U+30EC_U+30A4_U+30E4_U+30FC 1
370
     0
100
AcDbVertex
100
AcDb2dVertex
 10
100.6897954867449
 20
-135.9923760771131
 30
0.0
  0
VERTEX
  5
46
330
41
100
AcDbEntity
  8
_U+30EC_U+30A4_U+30E4_U+30FC 1
370
     0
100
AcDbVertex
100
AcDb2dVertex
 10
100.6897954867449
 20
-134.492400244155
 30
0.0
  0
VERTEX
  5
47
330
41
100
AcDbEntity
  8
_U+30EC_U+30A4_U+30E4_U+30FC 1
370
     0
100
AcDbVertex
100
AcDb2dVertex
 10
82.18981386834153
 20
-134.492400244155
 30
0.0
  0
VERTEX
  5
48
330
41
100
AcDbEntity
  8
_U+30EC_U+30A4_U+30E4_U+30FC 1
370
     0
100
AcDbVertex
100
AcDb2dVertex
 10
82.18981386834153
 20
-115.9922396932243
 30
0.0
  0
SEQEND
  5
4A
330
41
100
AcDbEntity
  8
_U+30EC_U+30A4_U+30E4_U+30FC 1
370
     0
  0
HATCH
  5
49
330
1F
100
AcDbEntity
  8
_U+30EC_U+30A4_U+30E4_U+30FC 1
 62
   253
420
 11711154
100
AcDbHatch
 10
0.0
 20
0.0
 30
0.0
210
0.0
220
0.0
230
1.0
  2
SOLID
 70
     1
 71
     0
 91
        1
 92
        1
 93
        6
 72
     1
 10
82.18981386834153
 20
-115.9922396932243
 11
80.68983599698633
 21
-115.9922396932243
 72
     1
 10
80.68983599698633
 20
-115.9922396932243
 11
80.68983599698633
 21
-135.9923760771131
 72
     1
 10
80.68983599698633
 20
-135.9923760771131
 11
100.6897954867449
 21
-135.9923760771131
 72
     1
 10
100.6897954867449
 20
-135.9923760771131
 11
100.6897954867449
 21
-134.492400244155
 72
     1
 10
100.6897954867449
 20
-134.492400244155
 11
82.18981386834153
 21
-134.492400244155
 72
     1
 10
82.18981386834153
 20
-134.492400244155
 11
82.18981386834153
 21
-115.9922396932243
 97
        0
 75
     2
 76
     1
 98
        0
  0
POLYLINE
  5
4B
330
1F
100
AcDbEntity
  8
_U+30EC_U+30A4_U+30E4_U+30FC 1
 62
   179
420
  2234388
370
    25
100
AcDb2dPolyline
 66
     1
 10
0.0
 20
0.0
 30
0.0
  0
VERTEX
  5
4C
330
4B
100
AcDbEntity
  8
_U+30EC_U+30A4_U+30E4_U+30FC 1
 62
   179
420
  2234388
370
    25
100
AcDbVertex
100
AcDb2dVertex
 10
80.68983599698633
 20
-135.9923760771131
 30
0.0
  0
VERTEX
  5
4D
330
4B
100
AcDbEntity
  8
_U+30EC_U+30A4_U+30E4_U+30FC 1
 62
   179
420
  2234388
370
    25
100
AcDbVertex
100
AcDb2dVertex
 10
100.6897954867449
 20
-135.9923760771131
 30
0.0
  0
SEQEND
  5
4E
330
4B
100
AcDbEntity
  8
_U+30EC_U+30A4_U+30E4_U+30FC 1
 62
   179
420
  2234388
370
    25
  0
POLYLINE
  5
4F
330
1F
100
AcDbEntity
  8
_U+30EC_U+30A4_U+30E4_U+30FC 1
 62
   179
420
  2234388
370
    25
100
AcDb2dPolyline
 66
     1
 10
0.0
 20
0.0
 30
0.0
  0
VERTEX
  5
50
330
4F
100
AcDbEntity
  8
_U+30EC_U+30A4_U+30E4_U+30FC 1
 62
   179
420
  2234388
370
    25
100
AcDbVertex
100
AcDb2dVertex
 10
80.68983599698633
 20
-115.9922396932243
 30
0.0
  0
VERTEX
  5
51
330
4F
100
AcDbEntity
  8
_U+30EC_U+30A4_U+30E4_U+30FC 1
 62
   179
420
  2234388
370
    25
100
AcDbVertex
100
AcDb2dVertex
 10
80.68983599698633
 20
-135.9923760771131
 30
0.0
  0
SEQEND
  5
52
330
4F
100
AcDbEntity
  8
_U+30EC_U+30A4_U+30E4_U+30FC 1
 62
   179
420
  2234388
370
    25
  0
POLYLINE
  5
53
330
1F
100
AcDbEntity
  8
_U+30EC_U+30A4_U+30E4_U+30FC 1
 62
   179
420
  2234388
370
    25
100
AcDb2dPolyline
 66
     1
 10
0.0
 20
0.0
 30
0.0
  0
VERTEX
  5
54
330
53
100
AcDbEntity
  8
_U+30EC_U+30A4_U+30E4_U+30FC 1
 62
   179
420
  2234388
370
    25
100
AcDbVertex
100
AcDb2dVertex
 10
82.18981386834153
 20
-134.492400244155
 30
0.0
  0
VERTEX
  5
55
330
53
100
AcDbEntity
  8
_U+30EC_U+30A4_U+30E4_U+30FC 1
 62
   179
420
  2234388
370
    25
100
AcDbVertex
100
AcDb2dVertex
 10
100.6897954867449
 20
-134.492400244155
 30
0.0
  0
SEQEND
  5
56
330
53
100
AcDbEntity
  8
_U+30EC_U+30A4_U+30E4_U+30FC 1
 62
   179
420
  2234388
370
    25
  0
POLYLINE
  5
57
330
1F
100
AcDbEntity
  8
_U+30EC_U+30A4_U+30E4_U+30FC 1
 62
   179
420
  2234388
370
    25
100
AcDb2dPolyline
 66
     1
 10
0.0
 20
0.0
 30
0.0
  0
VERTEX
  5
58
330
57
100
AcDbEntity
  8
_U+30EC_U+30A4_U+30E4_U+30FC 1
 62
   179
420
  2234388
370
    25
100
AcDbVertex
100
AcDb2dVertex
 10
80.68983599698633
 20
-115.9922396932243
 30
0.0
  0
VERTEX
  5
59
330
57
100
AcDbEntity
  8
_U+30EC_U+30A4_U+30E4_U+30FC 1
 62
   179
420
  2234388
370
    25
100
AcDbVertex
100
AcDb2dVertex
 10
82.18981386834153
 20
-115.9922396932243
 30
0.0
  0
SEQEND
  5
5A
330
57
100
AcDbEntity
  8
_U+30EC_U+30A4_U+30E4_U+30FC 1
 62
   179
420
  2234388
370
    25
  0
POLYLINE
  5
5B
330
1F
100
AcDbEntity
  8
_U+30EC_U+30A4_U+30E4_U+30FC 1
 62
   179
420
  2234388
370
    25
100
AcDb2dPolyline
 66
     1
 10
0.0
 20
0.0
 30
0.0
  0
VERTEX
  5
5C
330
5B
100
AcDbEntity
  8
_U+30EC_U+30A4_U+30E4_U+30FC 1
 62
   179
420
  2234388
370
    25
100
AcDbVertex
100
AcDb2dVertex
 10
100.6897954867449
 20
-134.492400244155
 30
0.0
  0
VERTEX
  5
5D
330
5B
100
AcDbEntity
  8
_U+30EC_U+30A4_U+30E4_U+30FC 1
 62
   179
420
  2234388
370
    25
100
AcDbVertex
100
AcDb2dVertex
 10
100.6897954867449
 20
-135.9923760771131
 30
0.0
  0
SEQEND
  5
5E
330
5B
100
AcDbEntity
  8
_U+30EC_U+30A4_U+30E4_U+30FC 1
 62
   179
420
  2234388
370
    25
  0
POLYLINE
  5
5F
330
1F
100
AcDbEntity
  8
_U+30EC_U+30A4_U+30E4_U+30FC 1
 62
   179
420
  2234388
370
    25
100
AcDb2dPolyline
 66
     1
 10
0.0
 20
0.0
 30
0.0
  0
VERTEX
  5
60
330
5F
100
AcDbEntity
  8
_U+30EC_U+30A4_U+30E4_U+30FC 1
 62
   179
420
  2234388
370
    25
100
AcDbVertex
100
AcDb2dVertex
 10
82.18981386834153
 20
-115.9922396932243
 30
0.0
  0
VERTEX
  5
61
330
5F
100
AcDbEntity
  8
_U+30EC_U+30A4_U+30E4_U+30FC 1
 62
   179
420
  2234388
370
    25
100
AcDbVertex
100
AcDb2dVertex
 10
82.18981386834153
 20
-134.492400244155
 30
0.0
  0
SEQEND
  5
62
330
5F
100
AcDbEntity
  8
_U+30EC_U+30A4_U+30E4_U+30FC 1
 62
   179
420
  2234388
370
    25
  0
SPLINE
  5
63
330
1F
100
AcDbEntity
  8
_U+30EC_U+30A4_U+30E4_U+30FC 1
 62
   179
420
  2234388
370
     9
100
AcDbSpline
210
0.0
220
0.0
230
1.0
 70
    11
 71
     3
 72
    17
 73
    13
 74
     0
 42
0.0000000001
 43
0.0000000001
 12
1.0
 22
0.0
 32
0.0
 13
1.0
 23
0.0
 33
0.0
 40
0.0
 40
0.0
 40
0.0
 40
0.0
 40
1.0
 40
1.0
 40
1.0
 40
2.0
 40
2.0
 40
2.0
 40
3.0
 40
3.0
 40
3.0
 40
4.0
 40
4.0
 40
4.0
 40
4.0
 10
104.7901694182468
 20
-135.9923760771131
 30
0.0
 10
104.7901694182468
 20
-135.9372721882382
 30
0.0
 10
104.7453666404801
 20
-135.8924694104714
 30
0.0
 10
104.6895545513692
 20
-135.8924694104714
 30
0.0
 10
104.6344506638861
 20
-135.8924694104714
 30
0.0
 10
104.5896478872513
 20
-135.9372721882382
 30
0.0
 10
104.5896478872513
 20
-135.9923760771131
 30
0.0
 10
104.5896478872513
 20
-136.0475152437662
 30
0.0
 10
104.6344506638861
 20
-136.0922827437547
 30
0.0
 10
104.6895545513692
 20
-136.0922827437547
 30
0.0
 10
104.7453666404801
 20
-136.0922827437547
 30
0.0
 10
104.7901694182468
 20
-136.0475152437662
 30
0.0
 10
104.7901694182468
 20
-135.9923760771131
 30
0.0
  0
SPLINE
  5
64
330
1F
100
AcDbEntity
  8
_U+30EC_U+30A4_U+30E4_U+30FC 1
 62
   179
420
  2234388
370
     9
100
AcDbSpline
210
0.0
220
0.0
230
1.0
 70
    11
 71
     3
 72
    17
 73
    13
 74
     0
 42
0.0000000001
 43
0.0000000001
 12
1.0
 22
0.0
 32
0.0
 13
1.0
 23
0.0
 33
0.0
 40
0.0
 40
0.0
 40
0.0
 40
0.0
 40
1.0
 40
1.0
 40
1.0
 40
2.0
 40
2.0
 40
2.0
 40
3.0
 40
3.0
 40
3.0
 40
4.0
 40
4.0
 40
4.0
 40
4.0
 10
104.7901694182468
 20
-134.492400244155
 30
0.0
 10
104.7901694182468
 20
-134.4372610775019
 30
0.0
 10
104.7453666404801
 20
-134.3924935775127
 30
0.0
 10
104.6895545513692
 20
-134.3924935775127
 30
0.0
 10
104.6344506638861
 20
-134.3924935775127
 30
0.0
 10
104.5896478872513
 20
-134.4372610775019
 30
0.0
 10
104.5896478872513
 20
-134.492400244155
 30
0.0
 10
104.5896478872513
 20
-134.5475041330299
 30
0.0
 10
104.6344506638861
 20
-134.5923069107966
 30
0.0
 10
104.6895545513692
 20
-134.5923069107966
 30
0.0
 10
104.7453666404801
 20
-134.5923069107966
 30
0.0
 10
104.7901694182468
 20
-134.5475041330299
 30
0.0
 10
104.7901694182468
 20
-134.492400244155
 30
0.0
  0
SPLINE
  5
65
330
1F
100
AcDbEntity
  8
_U+30EC_U+30A4_U+30E4_U+30FC 1
 62
   179
420
  2234388
370
     9
100
AcDbSpline
210
0.0
220
0.0
230
1.0
 70
    11
 71
     3
 72
    17
 73
    13
 74
     0
 42
0.0000000001
 43
0.0000000001
 12
1.0
 22
0.0
 32
0.0
 13
1.0
 23
0.0
 33
0.0
 40
0.0
 40
0.0
 40
0.0
 40
0.0
 40
1.0
 40
1.0
 40
1.0
 40
2.0
 40
2.0
 40
2.0
 40
3.0
 40
3.0
 40
3.0
 40
4.0
 40
4.0
 40
4.0
 40
4.0
 10
100.7897021508627
 20
-139.99213524278
 30
0.0
 10
100.7897021508627
 20
-139.9370313539044
 30
0.0
 10
100.7449346520048
 20
-139.8922285761383
 30
0.0
 10
100.6897954867449
 20
-139.8922285761383
 30
0.0
 10
100.6346915992618
 20
-139.8922285761383
 30
0.0
 10
100.589888822627
 20
-139.9370313539044
 30
0.0
 10
100.589888822627
 20
-139.99213524278
 30
0.0
 10
100.589888822627
 20
-140.0472744094324
 30
0.0
 10
100.6346915992618
 20
-140.0920419094216
 30
0.0
 10
100.6897954867449
 20
-140.0920419094216
 30
0.0
 10
100.7449346520048
 20
-140.0920419094216
 30
0.0
 10
100.7897021508627
 20
-140.0472744094324
 30
0.0
 10
100.7897021508627
 20
-139.99213524278
 30
0.0
  0
SPLINE
  5
66
330
1F
100
AcDbEntity
  8
_U+30EC_U+30A4_U+30E4_U+30FC 1
 62
   179
420
  2234388
370
     9
100
AcDbSpline
210
0.0
220
0.0
230
1.0
 70
    11
 71
     3
 72
    17
 73
    13
 74
     0
 42
0.0000000001
 43
0.0000000001
 12
1.0
 22
0.0
 32
0.0
 13
1.0
 23
0.0
 33
0.0
 40
0.0
 40
0.0
 40
0.0
 40
0.0
 40
1.0
 40
1.0
 40
1.0
 40
2.0
 40
2.0
 40
2.0
 40
3.0
 40
3.0
 40
3.0
 40
4.0
 40
4.0
 40
4.0
 40
4.0
 10
76.78998359647986
 20
-135.9923760771131
 30
0.0
 10
76.78998359647986
 20
-135.9372721882382
 30
0.0
 10
76.7451808198451
 20
-135.8924694104714
 30
0.0
 10
76.69007693236203
 20
-135.8924694104714
 30
0.0
 10
76.6345849893333
 20
-135.8924694104714
 30
0.0
 10
76.58981942529684
 20
-135.9372721882382
 30
0.0
 10
76.58981942529684
 20
-135.9923760771131
 30
0.0
 10
76.58981942529684
 20
-136.0475152437662
 30
0.0
 10
76.6345849893333
 20
-136.0922827437547
 30
0.0
 10
76.69007693236203
 20
-136.0922827437547
 30
0.0
 10
76.7451808198451
 20
-136.0922827437547
 30
0.0
 10
76.78998359647986
 20
-136.0475152437662
 30
0.0
 10
76.78998359647986
 20
-135.9923760771131
 30
0.0
  0
SPLINE
  5
67
330
1F
100
AcDbEntity
  8
_U+30EC_U+30A4_U+30E4_U+30FC 1
 62
   179
420
  2234388
370
     9
100
AcDbSpline
210
0.0
220
0.0
230
1.0
 70
    11
 71
     3
 72
    17
 73
    13
 74
     0
 42
0.0000000001
 43
0.0000000001
 12
1.0
 22
0.0
 32
0.0
 13
1.0
 23
0.0
 33
0.0
 40
0.0
 40
0.0
 40
0.0
 40
0.0
 40
1.0
 40
1.0
 40
1.0
 40
2.0
 40
2.0
 40
2.0
 40
3.0
 40
3.0
 40
3.0
 40
4.0
 40
4.0
 40
4.0
 40
4.0
 10
80.78974266110417
 20
-139.99213524278
 30
0.0
 10
80.78974266110417
 20
-139.9370313539044
 30
0.0
 10
80.7449398844694
 20
-139.8922285761383
 30
0.0
 10
80.68983599698633
 20
-139.8922285761383
 30
0.0
 10
80.63469683172639
 20
-139.8922285761383
 30
0.0
 10
80.58989405509162
 20
-139.9370313539044
 30
0.0
 10
80.58989405509162
 20
-139.99213524278
 30
0.0
 10
80.58989405509162
 20
-140.0472744094324
 30
0.0
 10
80.63469683172639
 20
-140.0920419094216
 30
0.0
 10
80.68983599698633
 20
-140.0920419094216
 30
0.0
 10
80.7449398844694
 20
-140.0920419094216
 30
0.0
 10
80.78974266110417
 20
-140.0472744094324
 30
0.0
 10
80.78974266110417
 20
-139.99213524278
 30
0.0
  0
SPLINE
  5
68
330
1F
100
AcDbEntity
  8
_U+30EC_U+30A4_U+30E4_U+30FC 1
 62
   179
420
  2234388
370
     9
100
AcDbSpline
210
0.0
220
0.0
230
1.0
 70
    11
 71
     3
 72
    17
 73
    13
 74
     0
 42
0.0000000001
 43
0.0000000001
 12
1.0
 22
0.0
 32
0.0
 13
1.0
 23
0.0
 33
0.0
 40
0.0
 40
0.0
 40
0.0
 40
0.0
 40
1.0
 40
1.0
 40
1.0
 40
2.0
 40
2.0
 40
2.0
 40
3.0
 40
3.0
 40
3.0
 40
4.0
 40
4.0
 40
4.0
 40
4.0
 10
76.78998359647986
 20
-115.9922396932243
 30
0.0
 10
76.78998359647986
 20
-115.9371005265712
 30
0.0
 10
76.7451808198451
 20
-115.8923330265826
 30
0.0
 10
76.69007693236203
 20
-115.8923330265826
 30
0.0
 10
76.6345849893333
 20
-115.8923330265826
 30
0.0
 10
76.58981942529684
 20
-115.9371005265712
 30
0.0
 10
76.58981942529684
 20
-115.9922396932243
 30
0.0
 10
76.58981942529684
 20
-116.0473435820992
 30
0.0
 10
76.6345849893333
 20
-116.0921463598659
 30
0.0
 10
76.69007693236203
 20
-116.0921463598659
 30
0.0
 10
76.7451808198451
 20
-116.0921463598659
 30
0.0
 10
76.78998359647986
 20
-116.0473435820992
 30
0.0
 10
76.78998359647986
 20
-115.9922396932243
 30
0.0
  0
POLYLINE
  5
69
330
1F
100
AcDbEntity
  8
_U+30EC_U+30A4_U+30E4_U+30FC 1
 62
   179
420
  2234388
370
     9
100
AcDb2dPolyline
 66
     1
 10
0.0
 20
0.0
 30
0.0
  0
VERTEX
  5
6A
330
69
100
AcDbEntity
  8
_U+30EC_U+30A4_U+30E4_U+30FC 1
 62
   179
420
  2234388
370
     9
100
AcDbVertex
100
AcDb2dVertex
 10
104.6895545513692
 20
-134.492400244155
 30
0.0
  0
VERTEX
  5
6B
330
69
100
AcDbEntity
  8
_U+30EC_U+30A4_U+30E4_U+30FC 1
 62
   179
420
  2234388
370
     9
100
AcDbVertex
100
AcDb2dVertex
 10
104.6895545513692
 20
-136.992148299085
 30
0.0
  0
SEQEND
  5
6C
330
69
100
AcDbEntity
  8
_U+30EC_U+30A4_U+30E4_U+30FC 1
 62
   179
420
  2234388
370
     9
  0
POLYLINE
  5
6D
330
1F
100
AcDbEntity
  8
_U+30EC_U+30A4_U+30E4_U+30FC 1
 62
   179
420
  2234388
370
     9
100
AcDb2dPolyline
 66
     1
 10
0.0
 20
0.0
 30
0.0
  0
VERTEX
  5
6E
330
6D
100
AcDbEntity
  8
_U+30EC_U+30A4_U+30E4_U+30FC 1
 62
   179
420
  2234388
370
     9
100
AcDbVertex
100
AcDb2dVertex
 10
103.2302187552666
 20
-134.492400244155
 30
0.0
  0
VERTEX
  5
6F
330
6D
100
AcDbEntity
  8
_U+30EC_U+30A4_U+30E4_U+30FC 1
 62
   179
420
  2234388
370
     9
100
AcDbVertex
100
AcDb2dVertex
 10
105.6900323036226
 20
-134.492400244155
 30
0.0
  0
SEQEND
  5
70
330
6D
100
AcDbEntity
  8
_U+30EC_U+30A4_U+30E4_U+30FC 1
 62
   179
420
  2234388
370
     9
  0
POLYLINE
  5
71
330
1F
100
AcDbEntity
  8
_U+30EC_U+30A4_U+30E4_U+30FC 1
 62
   179
420
  2234388
370
     9
100
AcDb2dPolyline
 66
     1
 10
0.0
 20
0.0
 30
0.0
  0
VERTEX
  5
72
330
71
100
AcDbEntity
  8
_U+30EC_U+30A4_U+30E4_U+30FC 1
 62
   179
420
  2234388
370
     9
100
AcDbVertex
100
AcDb2dVertex
 10
103.2302187552666
 20
-135.9923760771131
 30
0.0
  0
VERTEX
  5
73
330
71
100
AcDbEntity
  8
_U+30EC_U+30A4_U+30E4_U+30FC 1
 62
   179
420
  2234388
370
     9
100
AcDbVertex
100
AcDb2dVertex
 10
105.6900323036226
 20
-135.9923760771131
 30
0.0
  0
SEQEND
  5
74
330
71
100
AcDbEntity
  8
_U+30EC_U+30A4_U+30E4_U+30FC 1
 62
   179
420
  2234388
370
     9
  0
INSERT
  5
76
330
1F
100
AcDbEntity
  8
_U+30EC_U+30A4_U+30E4_U+30FC 1
100
AcDbBlockReference
  2
block 2
 10
0.0
 20
0.0
 30
0.0
  0
POLYLINE
  5
85
330
1F
100
AcDbEntity
  8
_U+30EC_U+30A4_U+30E4_U+30FC 1
 62
   179
420
  2234388
370
     9
100
AcDb2dPolyline
 66
     1
 10
0.0
 20
0.0
 30
0.0
  0
VERTEX
  5
86
330
85
100
AcDbEntity
  8
_U+30EC_U+30A4_U+30E4_U+30FC 1
 62
   179
420
  2234388
370
     9
100
AcDbVertex
100
AcDb2dVertex
 10
76.69007693236203
 20
-115.9922396932243
 30
0.0
  0
VERTEX
  5
87
330
85
100
AcDbEntity
  8
_U+30EC_U+30A4_U+30E4_U+30FC 1
 62
   179
420
  2234388
370
     9
100
AcDbVertex
100
AcDb2dVertex
 10
76.69007693236203
 20
-135.9923760771131
 30
0.0
  0
SEQEND
  5
88
330
85
100
AcDbEntity
  8
_U+30EC_U+30A4_U+30E4_U+30FC 1
 62
   179
420
  2234388
370
     9
  0
POLYLINE
  5
89
330
1F
100
AcDbEntity
  8
_U+30EC_U+30A4_U+30E4_U+30FC 1
 62
   179
420
  2234388
370
     9
100
AcDb2dPolyline
 66
     1
 10
0.0
 20
0.0
 30
0.0
  0
VERTEX
  5
8A
330
89
100
AcDbEntity
  8
_U+30EC_U+30A4_U+30E4_U+30FC 1
 62
   179
420
  2234388
370
     9
100
AcDbVertex
100
AcDb2dVertex
 10
78.15008300622527
 20
-115.9922396932243
 30
0.0
  0
VERTEX
  5
8B
330
89
100
AcDbEntity
  8
_U+30EC_U+30A4_U+30E4_U+30FC 1
 62
   179
420
  2234388
370
     9
100
AcDbVertex
100
AcDb2dVertex
 10
75.68995195787734
 20
-115.9922396932243
 30
0.0
  0
SEQEND
  5
8C
330
89
100
AcDbEntity
  8
_U+30EC_U+30A4_U+30E4_U+30FC 1
 62
   179
420
  2234388
370
     9
  0
POLYLINE
  5
8D
330
1F
100
AcDbEntity
  8
_U+30EC_U+30A4_U+30E4_U+30FC 1
 62
   179
420
  2234388
370
     9
100
AcDb2dPolyline
 66
     1
 10
0.0
 20
0.0
 30
0.0
  0
VERTEX
  5
8E
330
8D
100
AcDbEntity
  8
_U+30EC_U+30A4_U+30E4_U+30FC 1
 62
   179
420
  2234388
370
     9
100
AcDbVertex
100
AcDb2dVertex
 10
78.15008300622527
 20
-135.9923760771131
 30
0.0
  0
VERTEX
  5
8F
330
8D
100
AcDbEntity
  8
_U+30EC_U+30A4_U+30E4_U+30FC 1
 62
   179
420
  2234388
370
     9
100
AcDbVertex
100
AcDb2dVertex
 10
75.68995195787734
 20
-135.9923760771131
 30
0.0
  0
SEQEND
  5
90
330
8D
100
AcDbEntity
  8
_U+30EC_U+30A4_U+30E4_U+30FC 1
 62
   179
420
  2234388
370
     9
  0
INSERT
  5
92
330
1F
100
AcDbEntity
  8
_U+30EC_U+30A4_U+30E4_U+30FC 1
100
AcDbBlockReference
  2
block 3
 10
0.0
 20
0.0
 30
0.0
  0
POLYLINE
  5
9A
330
1F
100
AcDbEntity
  8
_U+30EC_U+30A4_U+30E4_U+30FC 1
 62
   179
420
  2234388
370
     9
100
AcDb2dPolyline
 66
     1
 10
0.0
 20
0.0
 30
0.0
  0
VERTEX
  5
9B
330
9A
100
AcDbEntity
  8
_U+30EC_U+30A4_U+30E4_U+30FC 1
 62
   179
420
  2234388
370
     9
100
AcDbVertex
100
AcDb2dVertex
 10
80.68983599698633
 20
-139.99213524278
 30
0.0
  0
VERTEX
  5
9C
330
9A
100
AcDbEntity
  8
_U+30EC_U+30A4_U+30E4_U+30FC 1
 62
   179
420
  2234388
370
     9
100
AcDbVertex
100
AcDb2dVertex
 10
100.6897954867449
 20
-139.99213524278
 30
0.0
  0
SEQEND
  5
9D
330
9A
100
AcDbEntity
  8
_U+30EC_U+30A4_U+30E4_U+30FC 1
 62
   179
420
  2234388
370
     9
  0
POLYLINE
  5
9E
330
1F
100
AcDbEntity
  8
_U+30EC_U+30A4_U+30E4_U+30FC 1
 62
   179
420
  2234388
370
     9
100
AcDb2dPolyline
 66
     1
 10
0.0
 20
0.0
 30
0.0
  0
VERTEX
  5
9F
330
9E
100
AcDbEntity
  8
_U+30EC_U+30A4_U+30E4_U+30FC 1
 62
   179
420
  2234388
370
     9
100
AcDbVertex
100
AcDb2dVertex
 10
80.68983599698633
 20
-138.5321291320338
 30
0.0
  0
VERTEX
  5
A0
330
9E
100
AcDbEntity
  8
_U+30EC_U+30A4_U+30E4_U+30FC 1
 62
   179
420
  2234388
370
     9
100
AcDbVertex
100
AcDb2dVertex
 10
80.68983599698633
 20
-140.9919074647519
 30
0.0
  0
SEQEND
  5
A1
330
9E
100
AcDbEntity
  8
_U+30EC_U+30A4_U+30E4_U+30FC 1
 62
   179
420
  2234388
370
     9
  0
POLYLINE
  5
A2
330
1F
100
AcDbEntity
  8
_U+30EC_U+30A4_U+30E4_U+30FC 1
 62
   179
420
  2234388
370
     9
100
AcDb2dPolyline
 66
     1
 10
0.0
 20
0.0
 30
0.0
  0
VERTEX
  5
A3
330
A2
100
AcDbEntity
  8
_U+30EC_U+30A4_U+30E4_U+30FC 1
 62
   179
420
  2234388
370
     9
100
AcDbVertex
100
AcDb2dVertex
 10
100.6897954867449
 20
-138.5321291320338
 30
0.0
  0
VERTEX
  5
A4
330
A2
100
AcDbEntity
  8
_U+30EC_U+30A4_U+30E4_U+30FC 1
 62
   179
420
  2234388
370
     9
100
AcDbVertex
100
AcDb2dVertex
 10
100.6897954867449
 20
-140.9919074647519
 30
0.0
  0
SEQEND
  5
A5
330
A2
100
AcDbEntity
  8
_U+30EC_U+30A4_U+30E4_U+30FC 1
 62
   179
420
  2234388
370
     9
  0
INSERT
  5
A7
330
1F
100
AcDbEntity
  8
_U+30EC_U+30A4_U+30E4_U+30FC 1
100
AcDbBlockReference
  2
block 4
 10
0.0
 20
0.0
 30
0.0
  0
ENDSEC
  0
SECTION
  2
OBJECTS
  0
DICTIONARY
  5
C
330
0
100
AcDbDictionary
281
     1
  3
ACAD_GROUP
350
D
  3
ACAD_LAYOUT
350
1A
  3
ACAD_MATERIAL
350
3B
  3
ACAD_MLEADERSTYLE
350
B0
  3
ACAD_MLINESTYLE
350
17
  3
ACAD_PLOTSETTINGS
350
19
  3
ACAD_PLOTSTYLENAME
350
E
  3
ACAD_TABLESTYLE
350
AF
  3
ACAD_VISUALSTYLE
350
2A
  0
SUN
  5
3F
330
29
100
AcDbSun
 90
        1
290
     0
 63
     7
421
 16777215
 40
1.0
291
     1
 91
  2455826
 92
 54000000
292
     0
 70
     2
 71
   256
280
     1
  0
DICTIONARY
  5
D
102
{ACAD_REACTORS
330
C
102
}
330
C
100
AcDbDictionary
281
     1
  0
DICTIONARY
  5
1A
102
{ACAD_REACTORS
330
C
102
}
330
C
100
AcDbDictionary
281
     1
  3
Layout1
350
1E
  3
Layout2
350
26
  3
Model
350
22
  0
DICTIONARY
  5
3B
102
{ACAD_REACTORS
330
C
102
}
330
C
100
AcDbDictionary
281
     1
  3
ByBlock
350
3D
  3
ByLayer
350
3C
  3
Global
350
3E
  0
DICTIONARY
  5
B0
102
{ACAD_REACTORS
330
C
102
}
330
C
100
AcDbDictionary
281
     1
  0
DICTIONARY
  5
17
102
{ACAD_REACTORS
330
C
102
}
330
C
100
AcDbDictionary
281
     1
  3
Standard
350
18
  0
DICTIONARY
  5
19
102
{ACAD_REACTORS
330
C
102
}
330
C
100
AcDbDictionary
281
     1
  0
ACDBDICTIONARYWDFLT
  5
E
102
{ACAD_REACTORS
330
C
102
}
330
C
100
AcDbDictionary
281
     1
  3
Normal
350
F
100
AcDbDictionaryWithDefault
340
F
  0
DICTIONARY
  5
AF
102
{ACAD_REACTORS
330
C
102
}
330
C
100
AcDbDictionary
281
     1
  0
DICTIONARY
  5
2A
102
{ACAD_REACTORS
330
C
102
}
330
C
100
AcDbDictionary
281
     1
  3
2dWireframe
350
2F
  3
3D Hidden
350
31
  3
3dWireframe
350
30
  3
Basic
350
32
  3
Brighten
350
36
  3
ColorChange
350
3A
  3
Conceptual
350
34
  3
Dim
350
35
  3
Facepattern
350
39
  3
Flat
350
2B
  3
FlatWithEdges
350
2C
  3
Gouraud
350
2D
  3
GouraudWithEdges
350
2E
  3
Linepattern
350
38
  3
Realistic
350
33
  3
Thicken
350
37
  0
LAYOUT
  5
1E
102
{ACAD_REACTORS
330
1A
102
}
330
1A
100
AcDbPlotSettings
  1

  2
none_device
  4

  6

 40
0.0
 41
0.0
 42
0.0
 43
0.0
 44
0.0
 45
0.0
 46
0.0
 47
0.0
 48
0.0
 49
0.0
140
0.0
141
0.0
142
1.0
143
1.0
 70
   688
 72
     0
 73
     0
 74
     5
  7

 75
    16
 76
     0
 77
     2
 78
   300
147
1.0
148
0.0
149
0.0
100
AcDbLayout
  1
Layout1
 70
     1
 71
     1
 10
0.0
 20
0.0
 11
12.0
 21
9.0
 12
0.0
 22
0.0
 32
0.0
 14
1.000000000000000E+20
 24
1.000000000000000E+20
 34
1.000000000000000E+20
 15
-1.000000000000000E+20
 25
-1.000000000000000E+20
 35
-1.000000000000000E+20
146
0.0
 13
0.0
 23
0.0
 33
0.0
 16
1.0
 26
0.0
 36
0.0
 17
0.0
 27
1.0
 37
0.0
 76
     0
330
1B
  0
LAYOUT
  5
26
102
{ACAD_REACTORS
330
1A
102
}
330
1A
100
AcDbPlotSettings
  1

  2
none_device
  4

  6

 40
0.0
 41
0.0
 42
0.0
 43
0.0
 44
0.0
 45
0.0
 46
0.0
 47
0.0
 48
0.0
 49
0.0
140
0.0
141
0.0
142
1.0
143
1.0
 70
   688
 72
     0
 73
     0
 74
     5
  7

 75
    16
 76
     0
 77
     2
 78
   300
147
1.0
148
0.0
149
0.0
100
AcDbLayout
  1
Layout2
 70
     1
 71
     2
 10
0.0
 20
0.0
 11
0.0
 21
0.0
 12
0.0
 22
0.0
 32
0.0
 14
0.0
 24
0.0
 34
0.0
 15
0.0
 25
0.0
 35
0.0
146
0.0
 13
0.0
 23
0.0
 33
0.0
 16
1.0
 26
0.0
 36
0.0
 17
0.0
 27
1.0
 37
0.0
 76
     0
330
23
  0
LAYOUT
  5
22
102
{ACAD_REACTORS
330
1A
102
}
330
1A
100
AcDbPlotSettings
  1

  2
none_device
  4

  6

 40
0.0
 41
0.0
 42
0.0
 43
0.0
 44
0.0
 45
0.0
 46
0.0
 47
0.0
 48
0.0
 49
0.0
140
0.0
141
0.0
142
1.0
143
1.0
 70
  1712
 72
     0
 73
     0
 74
     0
  7

 75
     0
 76
     0
 77
     2
 78
   300
147
1.0
148
0.0
149
0.0
100
AcDbLayout
  1
Model
 70
     1
 71
     0
 10
0.0
 20
0.0
 11
12.0
 21
9.0
 12
0.0
 22
0.0
 32
0.0
 14
1.000000000000000E+20
 24
1.000000000000000E+20
 34
1.000000000000000E+20
 15
-1.000000000000000E+20
 25
-1.000000000000000E+20
 35
-1.000000000000000E+20
146
0.0
 13
0.0
 23
0.0
 33
0.0
 16
1.0
 26
0.0
 36
0.0
 17
0.0
 27
1.0
 37
0.0
 76
     0
330
1F
331
29
  0
MATERIAL
  5
3D
102
{ACAD_REACTORS
330
3B
102
}
330
3B
100
AcDbMaterial
  1
ByBlock
 72
     1
 94
      127
  0
MATERIAL
  5
3C
102
{ACAD_REACTORS
330
3B
102
}
330
3B
100
AcDbMaterial
  1
ByLayer
 72
     1
 94
      127
  0
MATERIAL
  5
3E
102
{ACAD_REACTORS
330
3B
102
}
330
3B
100
AcDbMaterial
  1
Global
 72
     1
 94
      127
  0
MLINESTYLE
  5
18
102
{ACAD_REACTORS
330
17
102
}
330
17
100
AcDbMlineStyle
  2
Standard
 70
     0
  3

 62
   256
 51
90.0
 52
90.0
 71
     2
 49
0.5
 62
   256
  6
BYLAYER
 49
-0.5
 62
   256
  6
BYLAYER
  0
ACDBPLACEHOLDER
  5
F
102
{ACAD_REACTORS
330
E
102
}
330
E
  0
VISUALSTYLE
  5
2F
102
{ACAD_REACTORS
330
2A
102
}
330
2A
100
AcDbVisualStyle
  2
2dWireframe
 70
     4
177
     2
291
     0
 71
     0
176
     1
 72
     2
176
     1
 73
     0
176
     1
 90
        0
176
     1
 40
-0.6
176
     1
 41
-30.0
176
     1
 62
     5
 63
     7
421
 16777215
176
     1
 74
     1
176
     1
 91
        4
176
     1
 64
     7
176
     1
 65
   257
176
     1
 75
     1
176
     1
175
     1
176
     1
 42
1.0
176
     1
 92
        0
176
     1
 66
   257
176
     1
 43
1.0
176
     1
 76
     1
176
     1
 77
     6
176
     1
 78
     2
176
     1
 67
     7
176
     1
 79
     5
176
     1
170
     0
176
     1
171
     0
176
     1
290
     0
176
     1
 93
        1
176
     1
 44
0.0
176
     1
173
     0
176
     1
  0
VISUALSTYLE
  5
31
102
{ACAD_REACTORS
330
2A
102
}
330
2A
100
AcDbVisualStyle
  2
3D Hidden
 70
     6
177
     2
291
     0
 71
     1
176
     1
 72
     2
176
     1
 73
     2
176
     1
 90
        0
176
     1
 40
-0.6
176
     1
 41
-30.0
176
     1
 62
     5
 63
     7
421
 16777215
176
     1
 74
     2
176
     1
 91
        2
176
     1
 64
     7
176
     1
 65
   257
176
     1
 75
     2
176
     1
175
     1
176
     1
 42
40.0
176
     1
 92
        0
176
     1
 66
   257
176
     1
 43
1.0
176
     1
 76
     1
176
     1
 77
     6
176
     1
 78
     2
176
     1
 67
     7
176
     1
 79
     3
176
     1
170
     0
176
     1
171
     0
176
     1
290
     0
176
     1
 93
        1
176
     1
 44
0.0
176
     1
173
     0
176
     1
  0
VISUALSTYLE
  5
30
102
{ACAD_REACTORS
330
2A
102
}
330
2A
100
AcDbVisualStyle
  2
3dWireframe
 70
     5
177
     2
291
     0
 71
     0
176
     1
 72
     2
176
     1
 73
     0
176
     1
 90
        0
176
     1
 40
-0.6
176
     1
 41
-30.0
176
     1
 62
     5
 63
     7
421
 16777215
176
     1
 74
     1
176
     1
 91
        4
176
     1
 64
     7
176
     1
 65
   257
176
     1
 75
     1
176
     1
175
     1
176
     1
 42
1.0
176
     1
 92
        0
176
     1
 66
   257
176
     1
 43
1.0
176
     1
 76
     1
176
     1
 77
     6
176
     1
 78
     2
176
     1
 67
     7
176
     1
 79
     5
176
     1
170
     0
176
     1
171
     0
176
     1
290
     0
176
     1
 93
        1
176
     1
 44
0.0
176
     1
173
     0
176
     1
  0
VISUALSTYLE
  5
32
102
{ACAD_REACTORS
330
2A
102
}
330
2A
100
AcDbVisualStyle
  2
Basic
 70
     7
177
     2
291
     1
 71
     1
176
     1
 72
     0
176
     1
 73
     1
176
     1
 90
        0
176
     1
 40
-0.6
176
     1
 41
-30.0
176
     1
 62
     5
 63
     7
421
 16777215
176
     1
 74
     0
176
     1
 91
        4
176
     1
 64
     7
176
     1
 65
   257
176
     1
 75
     1
176
     1
175
     1
176
     1
 42
1.0
176
     1
 92
        8
176
     1
 66
     7
176
     1
 43
1.0
176
     1
 76
     1
176
     1
 77
     6
176
     1
 78
     2
176
     1
 67
     7
176
     1
 79
     5
176
     1
170
     0
176
     1
171
     0
176
     1
290
     0
176
     1
 93
        1
176
     1
 44
0.0
176
     1
173
     0
176
     1
  0
VISUALSTYLE
  5
36
102
{ACAD_REACTORS
330
2A
102
}
330
2A
100
AcDbVisualStyle
  2
Brighten
 70
    12
177
     2
291
     1
 71
     2
176
     1
 72
     2
176
     1
 73
     0
176
     1
 90
        0
176
     1
 40
-0.6
176
     1
 41
-30.0
176
     1
 62
     5
 63
     7
421
 16777215
176
     1
 74
     1
176
     1
 91
        4
176
     1
 64
     7
176
     1
 65
   257
176
     1
 75
     1
176
     1
175
     1
176
     1
 42
1.0
176
     1
 92
        8
176
     1
 66
     7
176
     1
 43
1.0
176
     1
 76
     1
176
     1
 77
     6
176
     1
 78
     2
176
     1
 67
     7
176
     1
 79
     5
176
     1
170
     0
176
     1
171
     0
176
     1
290
     0
176
     1
 93
        1
176
     1
 44
50.0
176
     1
173
     0
176
     1
  0
VISUALSTYLE
  5
3A
102
{ACAD_REACTORS
330
2A
102
}
330
2A
100
AcDbVisualStyle
  2
ColorChange
 70
    16
177
     2
291
     1
 71
     2
176
     1
 72
     2
176
     1
 73
     3
176
     1
 90
        0
176
     1
 40
-0.6
176
     1
 41
-30.0
176
     1
 62
     5
 63
     8
421
  8421504
176
     1
 74
     1
176
     1
 91
        4
176
     1
 64
     7
176
     1
 65
   257
176
     1
 75
     1
176
     1
175
     1
176
     1
 42
1.0
176
     1
 92
        8
176
     1
 66
     8
424
  8421504
176
     1
 43
1.0
176
     1
 76
     1
176
     1
 77
     6
176
     1
 78
     2
176
     1
 67
     7
176
     1
 79
     5
176
     1
170
     0
176
     1
171
     0
176
     1
290
     0
176
     1
 93
        1
176
     1
 44
0.0
176
     1
173
     0
176
     1
  0
VISUALSTYLE
  5
34
102
{ACAD_REACTORS
330
2A
102
}
330
2A
100
AcDbVisualStyle
  2
Conceptual
 70
     9
177
     2
291
     0
 71
     3
176
     1
 72
     2
176
     1
 73
     0
176
     1
 90
        0
176
     1
 40
-0.6
176
     1
 41
-30.0
176
     1
 62
     5
 63
     7
421
 16777215
176
     1
 74
     2
176
     1
 91
        2
176
     1
 64
     7
176
     1
 65
   257
176
     1
 75
     1
176
     1
175
     1
176
     1
 42
40.0
176
     1
 92
        8
176
     1
 66
     7
176
     1
 43
1.0
176
     1
 76
     1
176
     1
 77
     6
176
     1
 78
     2
176
     1
 67
     7
176
     1
 79
     3
176
     1
170
     0
176
     1
171
     0
176
     1
290
     0
176
     1
 93
        1
176
     1
 44
0.0
176
     1
173
     0
176
     1
  0
VISUALSTYLE
  5
35
102
{ACAD_REACTORS
330
2A
102
}
330
2A
100
AcDbVisualStyle
  2
Dim
 70
    11
177
     2
291
     1
 71
     2
176
     1
 72
     2
176
     1
 73
     0
176
     1
 90
        0
176
     1
 40
-0.6
176
     1
 41
-30.0
176
     1
 62
     5
 63
     7
421
 16777215
176
     1
 74
     1
176
     1
 91
        4
176
     1
 64
     7
176
     1
 65
   257
176
     1
 75
     1
176
     1
175
     1
176
     1
 42
1.0
176
     1
 92
        8
176
     1
 66
     7
176
     1
 43
1.0
176
     1
 76
     1
176
     1
 77
     6
176
     1
 78
     2
176
     1
 67
     7
176
     1
 79
     5
176
     1
170
     0
176
     1
171
     0
176
     1
290
     0
176
     1
 93
        1
176
     1
 44
-50.0
176
     1
173
     0
176
     1
  0
VISUALSTYLE
  5
39
102
{ACAD_REACTORS
330
2A
102
}
330
2A
100
AcDbVisualStyle
  2
Facepattern
 70
    15
177
     2
291
     1
 71
     2
176
     1
 72
     2
176
     1
 73
     0
176
     1
 90
        0
176
     1
 40
-0.6
176
     1
 41
-30.0
176
     1
 62
     5
 63
     7
421
 16777215
176
     1
 74
     1
176
     1
 91
        4
176
     1
 64
     7
176
     1
 65
   257
176
     1
 75
     1
176
     1
175
     1
176
     1
 42
1.0
176
     1
 92
        8
176
     1
 66
     7
176
     1
 43
1.0
176
     1
 76
     1
176
     1
 77
     6
176
     1
 78
     2
176
     1
 67
     7
176
     1
 79
     5
176
     1
170
     0
176
     1
171
     0
176
     1
290
     0
176
     1
 93
        1
176
     1
 44
0.0
176
     1
173
     0
176
     1
  0
VISUALSTYLE
  5
2B
102
{ACAD_REACTORS
330
2A
102
}
330
2A
100
AcDbVisualStyle
  2
Flat
 70
     0
177
     2
291
     1
 71
     2
176
     1
 72
     1
176
     1
 73
     1
176
     1
 90
        2
176
     1
 40
-0.6
176
     1
 41
30.0
176
     1
 62
     5
 63
     7
421
 16777215
176
     1
 74
     0
176
     1
 91
        4
176
     1
 64
     7
176
     1
 65
   257
176
     1
 75
     1
176
     1
175
     1
176
     1
 42
1.0
176
     1
 92
        8
176
     1
 66
     7
176
     1
 43
1.0
176
     1
 76
     1
176
     1
 77
     6
176
     1
 78
     2
176
     1
 67
     7
176
     1
 79
     5
176
     1
170
     0
176
     1
171
     0
176
     1
290
     0
176
     1
 93
       13
176
     1
 44
0.0
176
     1
173
     0
176
     1
  0
VISUALSTYLE
  5
2C
102
{ACAD_REACTORS
330
2A
102
}
330
2A
100
AcDbVisualStyle
  2
FlatWithEdges
 70
     1
177
     2
291
     1
 71
     2
176
     1
 72
     1
176
     1
 73
     1
176
     1
 90
        2
176
     1
 40
-0.6
176
     1
 41
30.0
176
     1
 62
     5
 63
     7
421
 16777215
176
     1
 74
     1
176
     1
 91
        4
176
     1
 64
     7
176
     1
 65
   257
176
     1
 75
     1
176
     1
175
     1
176
     1
 42
1.0
176
     1
 92
        0
176
     1
 66
   257
176
     1
 43
1.0
176
     1
 76
     1
176
     1
 77
     6
176
     1
 78
     2
176
     1
 67
     7
176
     1
 79
     5
176
     1
170
     0
176
     1
171
     0
176
     1
290
     0
176
     1
 93
       13
176
     1
 44
0.0
176
     1
173
     0
176
     1
  0
VISUALSTYLE
  5
2D
102
{ACAD_REACTORS
330
2A
102
}
330
2A
100
AcDbVisualStyle
  2
Gouraud
 70
     2
177
     2
291
     1
 71
     2
176
     1
 72
     2
176
     1
 73
     1
176
     1
 90
        2
176
     1
 40
-0.6
176
     1
 41
30.0
176
     1
 62
     5
 63
     7
421
 16777215
176
     1
 74
     0
176
     1
 91
        4
176
     1
 64
     7
176
     1
 65
   257
176
     1
 75
     1
176
     1
175
     1
176
     1
 42
1.0
176
     1
 92
        0
176
     1
 66
     7
176
     1
 43
1.0
176
     1
 76
     1
176
     1
 77
     6
176
     1
 78
     2
176
     1
 67
     7
176
     1
 79
     5
176
     1
170
     0
176
     1
171
     0
176
     1
290
     0
176
     1
 93
       13
176
     1
 44
0.0
176
     1
173
     0
176
     1
  0
VISUALSTYLE
  5
2E
102
{ACAD_REACTORS
330
2A
102
}
330
2A
100
AcDbVisualStyle
  2
GouraudWithEdges
 70
     3
177
     2
291
     1
 71
     2
176
     1
 72
     2
176
     1
 73
     1
176
     1
 90
        2
176
     1
 40
-0.6
176
     1
 41
30.0
176
     1
 62
     5
 63
     7
421
 16777215
176
     1
 74
     1
176
     1
 91
        4
176
     1
 64
     7
176
     1
 65
   257
176
     1
 75
     1
176
     1
175
     1
176
     1
 42
1.0
176
     1
 92
        0
176
     1
 66
   257
176
     1
 43
1.0
176
     1
 76
     1
176
     1
 77
     6
176
     1
 78
     2
176
     1
 67
     7
176
     1
 79
     5
176
     1
170
     0
176
     1
171
     0
176
     1
290
     0
176
     1
 93
       13
176
     1
 44
0.0
176
     1
173
     0
176
     1
  0
VISUALSTYLE
  5
38
102
{ACAD_REACTORS
330
2A
102
}
330
2A
100
AcDbVisualStyle
  2
Linepattern
 70
    14
177
     2
291
     1
 71
     2
176
     1
 72
     2
176
     1
 73
     0
176
     1
 90
        0
176
     1
 40
-0.6
176
     1
 41
-30.0
176
     1
 62
     5
 63
     7
421
 16777215
176
     1
 74
     1
176
     1
 91
        4
176
     1
 64
     7
176
     1
 65
   257
176
     1
 75
     7
176
     1
175
     7
176
     1
 42
1.0
176
     1
 92
        8
176
     1
 66
     7
176
     1
 43
1.0
176
     1
 76
     1
176
     1
 77
     6
176
     1
 78
     2
176
     1
 67
     7
176
     1
 79
     5
176
     1
170
     0
176
     1
171
     0
176
     1
290
     0
176
     1
 93
        1
176
     1
 44
0.0
176
     1
173
     0
176
     1
  0
VISUALSTYLE
  5
33
102
{ACAD_REACTORS
330
2A
102
}
330
2A
100
AcDbVisualStyle
  2
Realistic
 70
     8
177
     2
291
     0
 71
     2
176
     1
 72
     2
176
     1
 73
     0
176
     1
 90
        0
176
     1
 40
-0.6
176
     1
 41
-30.0
176
     1
 62
     5
 63
     7
421
 16777215
176
     1
 74
     1
176
     1
 91
        0
176
     1
 64
     7
176
     1
 65
   257
176
     1
 75
     1
176
     1
175
     1
176
     1
 42
1.0
176
     1
 92
        8
176
     1
 66
     8
424
  7895160
176
     1
 43
1.0
176
     1
 76
     1
176
     1
 77
     6
176
     1
 78
     2
176
     1
 67
     7
176
     1
 79
     5
176
     1
170
     0
176
     1
171
     0
176
     1
290
     0
176
     1
 93
       13
176
     1
 44
0.0
176
     1
173
     0
176
     1
  0
VISUALSTYLE
  5
37
102
{ACAD_REACTORS
330
2A
102
}
330
2A
100
AcDbVisualStyle
  2
Thicken
 70
    13
177
     2
291
     1
 71
     2
176
     1
 72
     2
176
     1
 73
     0
176
     1
 90
        0
176
     1
 40
-0.6
176
     1
 41
-30.0
176
     1
 62
     5
 63
     7
421
 16777215
176
     1
 74
     1
176
     1
 91
        4
176
     1
 64
     7
176
     1
 65
   257
176
     1
 75
     1
176
     1
175
     1
176
     1
 42
1.0
176
     1
 92
       12
176
     1
 66
     7
176
     1
 43
1.0
176
     1
 76
     1
176
     1
 77
     6
176
     1
 78
     2
176
     1
 67
     7
176
     1
 79
     5
176
     1
170
     0
176
     1
171
     0
176
     1
290
     0
176
     1
 93
        1
176
     1
 44
0.0
176
     1
173
     0
176
     1
  0
ENDSEC
  0
EOF
