  0
SECTION
  2
HEADER
  9
$ACADVER
  1
AC1024
  9
$ACADMAINTVER
 70
     6
  9
$DWGCODEPAGE
  3
UNDEFINED
  9
$INSBASE
 10
0.0
 20
0.0
 30
0.0
  9
$EXTMIN
 10
1.000000000000000E+20
 20
1.000000000000000E+20
 30
1.000000000000000E+20
  9
$EXTMAX
 10
-1.000000000000000E+20
 20
-1.000000000000000E+20
 30
-1.000000000000000E+20
  9
$LIMMIN
 10
0.0
 20
0.0
  9
$LIMMAX
 10
12.0
 20
9.0
  9
$ORTHOMODE
 70
     0
  9
$REGENMODE
 70
     1
  9
$FILLMODE
 70
     1
  9
$QTEXTMODE
 70
     0
  9
$MIRRTEXT
 70
     1
  9
$LTSCALE
 40
1.0
  9
$ATTMODE
 70
     1
  9
$TEXTSIZE
 40
0.2
  9
$TRACEWID
 40
0.05
  9
$TEXTSTYLE
  7
Standard
  9
$CLAYER
  8
0
  9
$CELTYPE
  6
ByLayer
  9
$CECOLOR
 62
   256
  9
$CELTSCALE
 40
1.0
  9
$DISPSILH
 70
     0
  9
$DIMSCALE
 40
1.0
  9
$DIMASZ
 40
0.18
  9
$DIMEXO
 40
0.0625
  9
$DIMDLI
 40
0.38
  9
$DIMRND
 40
0.0
  9
$DIMDLE
 40
0.0
  9
$DIMEXE
 40
0.18
  9
$DIMTP
 40
0.0
  9
$DIMTM
 40
0.0
  9
$DIMTXT
 40
0.18
  9
$DIMCEN
 40
0.09
  9
$DIMTSZ
 40
0.0
  9
$DIMTOL
 70
     0
  9
$DIMLIM
 70
     0
  9
$DIMTIH
 70
     1
  9
$DIMTOH
 70
     1
  9
$DIMSE1
 70
     0
  9
$DIMSE2
 70
     0
  9
$DIMTAD
 70
     0
  9
$DIMZIN
 70
     0
  9
$DIMBLK
  1

  9
$DIMASO
 70
     1
  9
$DIMSHO
 70
     1
  9
$DIMPOST
  1

  9
$DIMAPOST
  1

  9
$DIMALT
 70
     0
  9
$DIMALTD
 70
     2
  9
$DIMALTF
 40
25.4
  9
$DIMLFAC
 40
1.0
  9
$DIMTOFL
 70
     0
  9
$DIMTVP
 40
0.0
  9
$DIMTIX
 70
     0
  9
$DIMSOXD
 70
     0
  9
$DIMSAH
 70
     0
  9
$DIMBLK1
  1

  9
$DIMBLK2
  1

  9
$DIMSTYLE
  2
Standard
  9
$DIMCLRD
 70
     0
  9
$DIMCLRE
 70
     0
  9
$DIMCLRT
 70
     0
  9
$DIMTFAC
 40
1.0
  9
$DIMGAP
 40
0.09
  9
$DIMJUST
 70
     0
  9
$DIMSD1
 70
     0
  9
$DIMSD2
 70
     0
  9
$DIMTOLJ
 70
     1
  9
$DIMTZIN
 70
     0
  9
$DIMALTZ
 70
     0
  9
$DIMALTTZ
 70
     0
  9
$DIMUPT
 70
     0
  9
$DIMDEC
 70
     4
  9
$DIMTDEC
 70
     4
  9
$DIMALTU
 70
     2
  9
$DIMALTTD
 70
     2
  9
$DIMTXSTY
  7
Standard
  9
$DIMAUNIT
 70
     0
  9
$DIMADEC
 70
     0
  9
$DIMALTRND
 40
0.0
  9
$DIMAZIN
 70
     0
  9
$DIMDSEP
 70
    46
  9
$DIMATFIT
 70
     3
  9
$DIMFRAC
 70
     0
  9
$DIMLDRBLK
  1

  9
$DIMLUNIT
 70
     2
  9
$DIMLWD
 70
    -2
  9
$DIMLWE
 70
    -2
  9
$DIMTMOVE
 70
     0
  9
$DIMFXL
 40
1.0
  9
$DIMFXLON
 70
     0
  9
$DIMJOGANG
 40
0.7853981633974483
  9
$DIMTFILL
 70
     0
  9
$DIMTFILLCLR
 70
     0
  9
$DIMARCSYM
 70
     0
  9
$DIMLTYPE
  6

  9
$DIMLTEX1
  6

  9
$DIMLTEX2
  6

  9
$DIMTXTDIRECTION
 70
     0
  9
$LUNITS
 70
     2
  9
$LUPREC
 70
     4
  9
$SKETCHINC
 40
0.1
  9
$FILLETRAD
 40
0.5
  9
$AUNITS
 70
     0
  9
$AUPREC
 70
     0
  9
$MENU
  1
.
  9
$ELEVATION
 40
0.0
  9
$PELEVATION
 40
0.0
  9
$THICKNESS
 40
0.0
  9
$LIMCHECK
 70
     0
  9
$CHAMFERA
 40
0.5
  9
$CHAMFERB
 40
0.5
  9
$CHAMFERC
 40
1.0
  9
$CHAMFERD
 40
0.0
  9
$SKPOLY
 70
     0
  9
$TDCREATE
 40
2457917.621111111
  9
$TDUCREATE
 40
2457917.246111111
  9
$TDUPDATE
 40
2457917.621111111
  9
$TDUUPDATE
 40
2457917.246111111
  9
$TDINDWG
 40
0.0000000116
  9
$TDUSRTIMER
 40
0.0000000116
  9
$USRTIMER
 70
     1
  9
$ANGBASE
 50
0.0
  9
$ANGDIR
 70
     0
  9
$PDMODE
 70
     0
  9
$PDSIZE
 40
0.0
  9
$PLINEWID
 40
0.0
  9
$SPLFRAME
 70
     0
  9
$SPLINETYPE
 70
     6
  9
$SPLINESEGS
 70
     8
  9
$HANDSEED
  5
E0
  9
$SURFTAB1
 70
     6
  9
$SURFTAB2
 70
     6
  9
$SURFTYPE
 70
     6
  9
$SURFU
 70
     6
  9
$SURFV
 70
     6
  9
$UCSBASE
  2

  9
$UCSNAME
  2

  9
$UCSORG
 10
0.0
 20
0.0
 30
0.0
  9
$UCSXDIR
 10
1.0
 20
0.0
 30
0.0
  9
$UCSYDIR
 10
0.0
 20
1.0
 30
0.0
  9
$UCSORTHOREF
  2

  9
$UCSORTHOVIEW
 70
     0
  9
$UCSORGTOP
 10
0.0
 20
0.0
 30
0.0
  9
$UCSORGBOTTOM
 10
0.0
 20
0.0
 30
0.0
  9
$UCSORGLEFT
 10
0.0
 20
0.0
 30
0.0
  9
$UCSORGRIGHT
 10
0.0
 20
0.0
 30
0.0
  9
$UCSORGFRONT
 10
0.0
 20
0.0
 30
0.0
  9
$UCSORGBACK
 10
0.0
 20
0.0
 30
0.0
  9
$PUCSBASE
  2

  9
$PUCSNAME
  2

  9
$PUCSORG
 10
0.0
 20
0.0
 30
0.0
  9
$PUCSXDIR
 10
1.0
 20
0.0
 30
0.0
  9
$PUCSYDIR
 10
0.0
 20
1.0
 30
0.0
  9
$PUCSORTHOREF
  2

  9
$PUCSORTHOVIEW
 70
     0
  9
$PUCSORGTOP
 10
0.0
 20
0.0
 30
0.0
  9
$PUCSORGBOTTOM
 10
0.0
 20
0.0
 30
0.0
  9
$PUCSORGLEFT
 10
0.0
 20
0.0
 30
0.0
  9
$PUCSORGRIGHT
 10
0.0
 20
0.0
 30
0.0
  9
$PUCSORGFRONT
 10
0.0
 20
0.0
 30
0.0
  9
$PUCSORGBACK
 10
0.0
 20
0.0
 30
0.0
  9
$USERI1
 70
     0
  9
$USERI2
 70
     0
  9
$USERI3
 70
     0
  9
$USERI4
 70
     0
  9
$USERI5
 70
     0
  9
$USERR1
 40
0.0
  9
$USERR2
 40
0.0
  9
$USERR3
 40
0.0
  9
$USERR4
 40
0.0
  9
$USERR5
 40
0.0
  9
$WORLDVIEW
 70
     1
  9
$SHADEDGE
 70
     3
  9
$SHADEDIF
 70
    70
  9
$TILEMODE
 70
     1
  9
$MAXACTVP
 70
    64
  9
$PINSBASE
 10
0.0
 20
0.0
 30
0.0
  9
$PLIMCHECK
 70
     0
  9
$PEXTMIN
 10
1.000000000000000E+20
 20
1.000000000000000E+20
 30
1.000000000000000E+20
  9
$PEXTMAX
 10
-1.000000000000000E+20
 20
-1.000000000000000E+20
 30
-1.000000000000000E+20
  9
$PLIMMIN
 10
0.0
 20
0.0
  9
$PLIMMAX
 10
12.0
 20
9.0
  9
$UNITMODE
 70
     0
  9
$VISRETAIN
 70
     1
  9
$PLINEGEN
 70
     0
  9
$PSLTSCALE
 70
     1
  9
$TREEDEPTH
 70
  3020
  9
$CMLSTYLE
  2
Standard
  9
$CMLJUST
 70
     0
  9
$CMLSCALE
 40
1.0
  9
$PROXYGRAPHICS
 70
     1
  9
$MEASUREMENT
 70
     0
  9
$CELWEIGHT
370
    -1
  9
$ENDCAPS
280
     0
  9
$JOINSTYLE
280
     0
  9
$LWDISPLAY
290
     1
  9
$INSUNITS
 70
     1
  9
$HYPERLINKBASE
  1

  9
$STYLESHEET
  1

  9
$XEDIT
290
     1
  9
$CEPSNTYPE
380
     0
  9
$PSTYLEMODE
290
     1
  9
$FINGERPRINTGUID
  2
{7304564F-B422-E42D-FDC1-2B2E96980145}
  9
$VERSIONGUID
  2
{FAEB1C32-E019-11D5-929B-00C0DF256EC4}
  9
$EXTNAMES
290
     1
  9
$PSVPSCALE
 40
0.0
  9
$OLESTARTUP
290
     0
  9
$SORTENTS
280
   127
  9
$INDEXCTL
280
     0
  9
$HIDETEXT
280
     1
  9
$XCLIPFRAME
280
     2
  9
$HALOGAP
280
     0
  9
$OBSCOLOR
 70
   257
  9
$OBSLTYPE
280
     0
  9
$INTERSECTIONDISPLAY
280
     0
  9
$INTERSECTIONCOLOR
 70
   257
  9
$DIMASSOC
280
     2
  9
$PROJECTNAME
  1

  9
$CAMERADISPLAY
290
     0
  9
$LENSLENGTH
 40
50.0
  9
$CAMERAHEIGHT
 40
0.0
  9
$STEPSPERSEC
 40
2.0
  9
$STEPSIZE
 40
6.0
  9
$3DDWFPREC
 40
2.0
  9
$PSOLWIDTH
 40
0.25
  9
$PSOLHEIGHT
 40
4.0
  9
$LOFTANG1
 40
1.570796326794897
  9
$LOFTANG2
 40
1.570796326794897
  9
$LOFTMAG1
 40
0.0
  9
$LOFTMAG2
 40
0.0
  9
$LOFTPARAM
 70
     7
  9
$LOFTNORMALS
280
     1
  9
$LATITUDE
 40
37.795
  9
$LONGITUDE
 40
-122.394
  9
$NORTHDIRECTION
 40
0.0
  9
$TIMEZONE
 70
 -8000
  9
$LIGHTGLYPHDISPLAY
280
     1
  9
$TILEMODELIGHTSYNCH
280
     1
  9
$CMATERIAL
347
3C
  9
$SOLIDHIST
280
     1
  9
$SHOWHIST
280
     1
  9
$DWFFRAME
280
     2
  9
$DGNFRAME
280
     2
  9
$REALWORLDSCALE
290
     1
  9
$INTERFERECOLOR
 62
   256
  9
$CSHADOW
280
     0
  9
$SHADOWPLANELOCATION
 40
0.0
  0
ENDSEC
  0
SECTION
  2
CLASSES
  0
CLASS
  1
ACDBDICTIONARYWDFLT
  2
AcDbDictionaryWithDefault
  3
ObjectDBX Classes
 90
        0
 91
        4
280
     0
281
     0
  0
CLASS
  1
VISUALSTYLE
  2
AcDbVisualStyle
  3
ObjectDBX Classes
 90
     4095
 91
        4
280
     0
281
     0
  0
CLASS
  1
MATERIAL
  2
AcDbMaterial
  3
ObjectDBX Classes
 90
     1153
 91
        4
280
     0
281
     0
  0
CLASS
  1
SUN
  2
AcDbSun
  3
SCENEOE
 90
     1024
 91
        4
280
     0
281
     0
  0
ENDSEC
  0
SECTION
  2
TABLES
  0
TABLE
  2
VPORT
  5
8
330
0
100
AcDbSymbolTable
 70
     1
  0
VPORT
  5
29
330
8
100
AcDbSymbolTableRecord
100
AcDbViewportTableRecord
  2
*Active
 70
     0
 10
0.0
 20
0.0
 11
1.0
 21
1.0
 12
0.0
 22
0.0
 13
0.0
 23
0.0
 14
0.5
 24
0.5
 15
0.5
 25
0.5
 16
0.0
 26
0.0
 36
1.0
 17
91.00082462281999
 27
-128.4993055234307
 37
0.0
 40
256.9986110468615
 41
0.7081814508812795
 42
50.0
 43
0.0
 44
0.0
 50
0.0
 51
0.0
 71
     0
 72
   100
 73
     1
 74
     3
 75
     0
 76
     0
 77
     0
 78
     0
281
     0
 65
     1
110
0.0
120
0.0
130
0.0
111
1.0
121
0.0
131
0.0
112
0.0
122
1.0
132
0.0
 79
     0
146
0.0
 60
     3
 61
     5
292
     1
282
     1
141
0.0
142
0.0
 63
   250
361
3F
  0
ENDTAB
  0
TABLE
  2
LTYPE
  5
5
330
0
100
AcDbSymbolTable
 70
     3
  0
LTYPE
  5
14
330
5
100
AcDbSymbolTableRecord
100
AcDbLinetypeTableRecord
  2
ByBlock
 70
     0
  3

 72
    65
 73
     0
 40
0.0
  0
LTYPE
  5
15
330
5
100
AcDbSymbolTableRecord
100
AcDbLinetypeTableRecord
  2
ByLayer
 70
     0
  3

 72
    65
 73
     0
 40
0.0
  0
LTYPE
  5
16
330
5
100
AcDbSymbolTableRecord
100
AcDbLinetypeTableRecord
  2
Continuous
 70
     0
  3
Solid line
 72
    65
 73
     0
 40
0.0
  0
LTYPE
  5
6F
330
5
100
AcDbSymbolTableRecord
100
AcDbLinetypeTableRecord
  2
AI-Linetype-1
 70
     0
  3
Adobe Illustrator Linetype No. 1
 72
    65
 73
     2
 40
1.411111110758333
 49
0.7055555553791667
 74
     0
 49
-0.7055555553791667
 74
     0
  0
LTYPE
  5
74
330
5
100
AcDbSymbolTableRecord
100
AcDbLinetypeTableRecord
  2
AI-Linetype-2
 70
     0
  3
Adobe Illustrator Linetype No. 2
 72
    65
 73
     2
 40
1.411111110758333
 49
0.7055555553791667
 74
     0
 49
-0.7055555553791667
 74
     0
  0
ENDTAB
  0
TABLE
  2
LAYER
  5
2
330
0
100
AcDbSymbolTable
 70
     2
  0
LAYER
  5
10
330
2
100
AcDbSymbolTableRecord
100
AcDbLayerTableRecord
  2
0
 70
     0
 62
     7
  6
Continuous
370
    -3
390
F
347
3E
  0
LAYER
  5
40
330
2
100
AcDbSymbolTableRecord
100
AcDbLayerTableRecord
  2
_U+30EC_U+30A4_U+30E4_U+30FC 1
 70
     0
 62
     7
  6
Continuous
370
    -3
390
F
347
3E
  0
ENDTAB
  0
TABLE
  2
STYLE
  5
3
330
0
100
AcDbSymbolTable
 70
     1
  0
STYLE
  5
11
330
3
100
AcDbSymbolTableRecord
100
AcDbTextStyleTableRecord
  2
Standard
 70
     0
 40
0.0
 41
1.0
 50
0.0
 71
     0
 42
0.2
  3
txt
  4

  0
ENDTAB
  0
TABLE
  2
VIEW
  5
6
330
0
100
AcDbSymbolTable
 70
     0
  0
ENDTAB
  0
TABLE
  2
UCS
  5
7
330
0
100
AcDbSymbolTable
 70
     0
  0
ENDTAB
  0
TABLE
  2
APPID
  5
9
330
0
100
AcDbSymbolTable
 70
     1
  0
APPID
  5
12
330
9
100
AcDbSymbolTableRecord
100
AcDbRegAppTableRecord
  2
ACAD
 70
     0
  0
ENDTAB
  0
TABLE
  2
DIMSTYLE
  5
A
330
0
100
AcDbSymbolTable
 70
     1
100
AcDbDimStyleTable
  0
DIMSTYLE
105
27
330
A
100
AcDbSymbolTableRecord
100
AcDbDimStyleTableRecord
  2
Standard
 70
     0
178
     0
340
11
  0
ENDTAB
  0
TABLE
  2
BLOCK_RECORD
  5
1
330
0
100
AcDbSymbolTable
 70
     5
  0
BLOCK_RECORD
  5
1F
330
1
100
AcDbSymbolTableRecord
100
AcDbBlockTableRecord
  2
*Model_Space
340
22
 70
     0
280
     1
281
     0
  0
BLOCK_RECORD
  5
1B
330
1
100
AcDbSymbolTableRecord
100
AcDbBlockTableRecord
  2
*Paper_Space
340
1E
 70
     0
280
     1
281
     0
  0
BLOCK_RECORD
  5
23
330
1
100
AcDbSymbolTableRecord
100
AcDbBlockTableRecord
  2
*Paper_Space0
340
26
 70
     0
280
     1
281
     0
  0
BLOCK_RECORD
  5
4F
330
1
100
AcDbSymbolTableRecord
100
AcDbBlockTableRecord
  2
block 2
340
0
102
{BLKREFS
331
50
102
}
 70
     0
280
     1
281
     0
  0
BLOCK_RECORD
  5
76
330
1
100
AcDbSymbolTableRecord
100
AcDbBlockTableRecord
  2
block 3
340
0
102
{BLKREFS
331
77
102
}
 70
     0
280
     1
281
     0
  0
BLOCK_RECORD
  5
A2
330
1
100
AcDbSymbolTableRecord
100
AcDbBlockTableRecord
  2
block 4
340
0
102
{BLKREFS
331
A3
102
}
 70
     0
280
     1
281
     0
  0
BLOCK_RECORD
  5
CB
330
1
100
AcDbSymbolTableRecord
100
AcDbBlockTableRecord
  2
block 5
340
0
102
{BLKREFS
331
CC
102
}
 70
     0
280
     1
281
     0
  0
ENDTAB
  0
ENDSEC
  0
SECTION
  2
BLOCKS
  0
BLOCK
  5
20
330
1F
100
AcDbEntity
  8
0
100
AcDbBlockBegin
  2
*Model_Space
 70
     0
 10
0.0
 20
0.0
 30
0.0
  3
*Model_Space
  1

  0
ENDBLK
  5
21
330
1F
100
AcDbEntity
  8
0
100
AcDbBlockEnd
  0
BLOCK
  5
1C
330
1B
100
AcDbEntity
 67
     1
  8
0
100
AcDbBlockBegin
  2
*Paper_Space
 70
     0
 10
0.0
 20
0.0
 30
0.0
  3
*Paper_Space
  1

  0
ENDBLK
  5
1D
330
1B
100
AcDbEntity
 67
     1
  8
0
100
AcDbBlockEnd
  0
BLOCK
  5
24
330
23
100
AcDbEntity
  8
0
100
AcDbBlockBegin
  2
*Paper_Space0
 70
     0
 10
0.0
 20
0.0
 30
0.0
  3
*Paper_Space0
  1

  0
ENDBLK
  5
25
330
23
100
AcDbEntity
  8
0
100
AcDbBlockEnd
  0
BLOCK
  5
51
330
4F
100
AcDbEntity
  8
0
100
AcDbBlockBegin
  2
block 2
 70
     0
 10
0.0
 20
0.0
 30
0.0
  3
block 2
  1

  0
SPLINE
  5
53
330
4F
100
AcDbEntity
  8
_U+30EC_U+30A4_U+30E4_U+30FC 1
370
     0
100
AcDbSpline
210
0.0
220
0.0
230
1.0
 70
    11
 71
     3
 72
    29
 73
    25
 74
     0
 42
0.0000000001
 43
0.0000000001
 12
1.0
 22
0.0
 32
0.0
 13
1.0
 23
0.0
 33
0.0
 40
0.0
 40
0.0
 40
0.0
 40
0.0
 40
1.0
 40
1.0
 40
1.0
 40
2.0
 40
2.0
 40
2.0
 40
3.0
 40
3.0
 40
3.0
 40
4.0
 40
4.0
 40
4.0
 40
5.0
 40
5.0
 40
5.0
 40
6.0
 40
6.0
 40
6.0
 40
7.0
 40
7.0
 40
7.0
 40
8.0
 40
8.0
 40
8.0
 40
8.0
 10
112.21778426014
 20
-140.9185302382079
 30
0.0
 10
112.4272460656432
 20
-141.0267062364447
 30
0.0
 10
112.4461940908121
 20
-141.1999945393528
 30
0.0
 10
112.4461940908121
 20
-141.3164387667542
 30
0.0
 10
112.4461940908121
 20
-141.4773247259154
 30
0.0
 10
112.3996853017612
 20
-141.6189181503592
 30
0.0
 10
112.21778426014
 20
-141.7140027857521
 30
0.0
 10
112.0231363652234
 20
-141.8177001598581
 30
0.0
 10
111.7861137958382
 20
-141.8369926945755
 30
0.0
 10
111.6235052889344
 20
-141.8369926945755
 30
0.0
 10
111.479500297651
 20
-141.8369926945755
 30
0.0
 10
111.2276638176792
 20
-141.8197672171492
 30
0.0
 10
111.0288818081803
 20
-141.7140027857521
 30
0.0
 10
110.8259656840991
 20
-141.6061712970638
 30
0.0
 10
110.8025390347994
 20
-141.4452853379026
 30
0.0
 10
110.8025390347994
 20
-141.3164387667542
 30
0.0
 10
110.8025390347994
 20
-141.1576198648842
 30
0.0
 10
110.8469807665591
 20
-141.0139593831493
 30
0.0
 10
111.0288818081803
 20
-140.9185302382079
 30
0.0
 10
111.2214626458057
 20
-140.8193114882327
 30
0.0
 10
111.4498724764778
 20
-140.795884838933
 30
0.0
 10
111.6235052889344
 20
-140.795884838933
 30
0.0
 10
111.7947265345513
 20
-140.795884838933
 30
0.0
 10
112.0252034225145
 20
-140.8172444309415
 30
0.0
 10
112.21778426014
 20
-140.9185302382079
 30
0.0
  0
SPLINE
  5
54
330
4F
100
AcDbEntity
  8
_U+30EC_U+30A4_U+30E4_U+30FC 1
370
     0
100
AcDbSpline
210
0.0
220
0.0
230
1.0
 70
    11
 71
     3
 72
    17
 73
    13
 74
     0
 42
0.0000000001
 43
0.0000000001
 12
1.0
 22
0.0
 32
0.0
 13
1.0
 23
0.0
 33
0.0
 40
0.0
 40
0.0
 40
0.0
 40
0.0
 40
1.0
 40
1.0
 40
1.0
 40
2.0
 40
2.0
 40
2.0
 40
3.0
 40
3.0
 40
3.0
 40
4.0
 40
4.0
 40
4.0
 40
4.0
 10
110.9951198724248
 20
-141.3164387667542
 30
0.0
 10
110.9951198724248
 20
-141.5662081894348
 30
0.0
 10
111.2786512308609
 20
-141.6127169784857
 30
0.0
 10
111.6235052889344
 20
-141.6127169784857
 30
0.0
 10
111.9428656404171
 20
-141.6127169784857
 30
0.0
 10
112.2515461958955
 20
-141.5765434758906
 30
0.0
 10
112.2515461958955
 20
-141.3164387667542
 30
0.0
 10
112.2515461958955
 20
-141.0687364013648
 30
0.0
 10
111.9704264042991
 20
-141.0201605550228
 30
0.0
 10
111.6235052889344
 20
-141.0201605550228
 30
0.0
 10
111.3038004279032
 20
-141.0201605550228
 30
0.0
 10
110.9951198724248
 20
-141.058401114909
 30
0.0
 10
110.9951198724248
 20
-141.3164387667542
 30
0.0
  0
HATCH
  5
55
330
4F
100
AcDbEntity
  8
_U+30EC_U+30A4_U+30E4_U+30FC 1
 62
   179
420
  2234388
100
AcDbHatch
 10
0.0
 20
0.0
 30
0.0
210
0.0
220
0.0
230
1.0
  2
SOLID
 70
     1
 71
     0
 91
        2
 92
        1
 93
        1
 72
     4
 94
        3
 73
     0
 74
     1
 95
       29
 96
       25
 40
0.0
 40
0.0
 40
0.0
 40
0.0
 40
1.0
 40
1.0
 40
1.0
 40
2.0
 40
2.0
 40
2.0
 40
3.0
 40
3.0
 40
3.0
 40
4.0
 40
4.0
 40
4.0
 40
5.0
 40
5.0
 40
5.0
 40
6.0
 40
6.0
 40
6.0
 40
7.0
 40
7.0
 40
7.0
 40
8.0
 40
8.0
 40
8.0
 40
8.0
 10
112.21778426014
 20
-140.9185302382079
 10
112.4272460656432
 20
-141.0267062364447
 10
112.4461940908121
 20
-141.1999945393528
 10
112.4461940908121
 20
-141.3164387667542
 10
112.4461940908121
 20
-141.4773247259154
 10
112.3996853017612
 20
-141.6189181503592
 10
112.21778426014
 20
-141.7140027857521
 10
112.0231363652234
 20
-141.8177001598581
 10
111.7861137958382
 20
-141.8369926945755
 10
111.6235052889344
 20
-141.8369926945755
 10
111.479500297651
 20
-141.8369926945755
 10
111.2276638176792
 20
-141.8197672171492
 10
111.0288818081803
 20
-141.7140027857521
 10
110.8259656840991
 20
-141.6061712970638
 10
110.8025390347994
 20
-141.4452853379026
 10
110.8025390347994
 20
-141.3164387667542
 10
110.8025390347994
 20
-141.1576198648842
 10
110.8469807665591
 20
-141.0139593831493
 10
111.0288818081803
 20
-140.9185302382079
 10
111.2214626458057
 20
-140.8193114882327
 10
111.4498724764778
 20
-140.795884838933
 10
111.6235052889344
 20
-140.795884838933
 10
111.7947265345513
 20
-140.795884838933
 10
112.0252034225145
 20
-140.8172444309415
 10
112.21778426014
 20
-140.9185302382079
 97
        0
 97
        0
 92
        1
 93
        1
 72
     4
 94
        3
 73
     0
 74
     1
 95
       17
 96
       13
 40
0.0
 40
0.0
 40
0.0
 40
0.0
 40
1.0
 40
1.0
 40
1.0
 40
2.0
 40
2.0
 40
2.0
 40
3.0
 40
3.0
 40
3.0
 40
4.0
 40
4.0
 40
4.0
 40
4.0
 10
110.9951198724248
 20
-141.3164387667542
 10
110.9951198724248
 20
-141.5662081894348
 10
111.2786512308609
 20
-141.6127169784857
 10
111.6235052889344
 20
-141.6127169784857
 10
111.9428656404171
 20
-141.6127169784857
 10
112.2515461958955
 20
-141.5765434758906
 10
112.2515461958955
 20
-141.3164387667542
 10
112.2515461958955
 20
-141.0687364013648
 10
111.9704264042991
 20
-141.0201605550228
 10
111.6235052889344
 20
-141.0201605550228
 10
111.3038004279032
 20
-141.0201605550228
 10
110.9951198724248
 20
-141.058401114909
 10
110.9951198724248
 20
-141.3164387667542
 97
        0
 97
        0
 75
     2
 76
     1
 98
        0
  0
POLYLINE
  5
56
330
4F
100
AcDbEntity
  8
_U+30EC_U+30A4_U+30E4_U+30FC 1
370
     0
100
AcDb2dPolyline
 66
     1
 10
0.0
 20
0.0
 30
0.0
  0
VERTEX
  5
57
330
56
100
AcDbEntity
  8
_U+30EC_U+30A4_U+30E4_U+30FC 1
370
     0
100
AcDbVertex
100
AcDb2dVertex
 10
112.3955511871789
 20
-140.5795328424593
 30
0.0
  0
VERTEX
  5
58
330
56
100
AcDbEntity
  8
_U+30EC_U+30A4_U+30E4_U+30FC 1
370
     0
100
AcDbVertex
100
AcDb2dVertex
 10
112.1437147072071
 20
-140.5795328424593
 30
0.0
  0
VERTEX
  5
59
330
56
100
AcDbEntity
  8
_U+30EC_U+30A4_U+30E4_U+30FC 1
370
     0
100
AcDbVertex
100
AcDb2dVertex
 10
112.1437147072071
 20
-140.3276963624875
 30
0.0
  0
VERTEX
  5
5A
330
56
100
AcDbEntity
  8
_U+30EC_U+30A4_U+30E4_U+30FC 1
370
     0
100
AcDbVertex
100
AcDb2dVertex
 10
112.3955511871789
 20
-140.3276963624875
 30
0.0
  0
VERTEX
  5
5B
330
56
100
AcDbEntity
  8
_U+30EC_U+30A4_U+30E4_U+30FC 1
370
     0
100
AcDbVertex
100
AcDb2dVertex
 10
112.3955511871789
 20
-140.5795328424593
 30
0.0
  0
SEQEND
  5
5C
330
56
100
AcDbEntity
  8
_U+30EC_U+30A4_U+30E4_U+30FC 1
370
     0
  0
HATCH
  5
5D
330
4F
100
AcDbEntity
  8
_U+30EC_U+30A4_U+30E4_U+30FC 1
 62
   179
420
  2234388
100
AcDbHatch
 10
0.0
 20
0.0
 30
0.0
210
0.0
220
0.0
230
1.0
  2
SOLID
 70
     1
 71
     0
 91
        1
 92
        1
 93
        4
 72
     1
 10
112.3955511871789
 20
-140.5795328424593
 11
112.1437147072071
 21
-140.5795328424593
 72
     1
 10
112.1437147072071
 20
-140.5795328424593
 11
112.1437147072071
 21
-140.3276963624875
 72
     1
 10
112.1437147072071
 20
-140.3276963624875
 11
112.3955511871789
 21
-140.3276963624875
 72
     1
 10
112.3955511871789
 20
-140.3276963624875
 11
112.3955511871789
 21
-140.5795328424593
 97
        0
 75
     2
 76
     1
 98
        0
  0
SPLINE
  5
5E
330
4F
100
AcDbEntity
  8
_U+30EC_U+30A4_U+30E4_U+30FC 1
370
     0
100
AcDbSpline
210
0.0
220
0.0
230
1.0
 70
    11
 71
     3
 72
    29
 73
    25
 74
     0
 42
0.0000000001
 43
0.0000000001
 12
1.0
 22
0.0
 32
0.0
 13
1.0
 23
0.0
 33
0.0
 40
0.0
 40
0.0
 40
0.0
 40
0.0
 40
1.0
 40
1.0
 40
1.0
 40
2.0
 40
2.0
 40
2.0
 40
3.0
 40
3.0
 40
3.0
 40
4.0
 40
4.0
 40
4.0
 40
5.0
 40
5.0
 40
5.0
 40
6.0
 40
6.0
 40
6.0
 40
7.0
 40
7.0
 40
7.0
 40
8.0
 40
8.0
 40
8.0
 40
8.0
 10
112.4461940908121
 20
-139.5914794572896
 30
0.0
 10
112.4461940908121
 20
-139.858129847848
 30
0.0
 10
112.3087347809506
 20
-140.1116888755624
 30
0.0
 10
111.9597466082948
 20
-140.1116888755624
 30
0.0
 10
111.7037760137407
 20
-140.1116888755624
 30
0.0
 10
111.6086913783478
 20
-139.9700954511186
 30
0.0
 10
111.5473686787104
 20
-139.8643310197214
 30
0.0
 10
111.4881130363641
 20
-139.9890434762875
 30
0.0
 10
111.3737358662538
 20
-140.0651800865115
 30
0.0
 10
111.2128499070926
 20
-140.0651800865115
 30
0.0
 10
110.9379312873697
 20
-140.0651800865115
 30
0.0
 10
110.8025390347994
 20
-139.8663980770126
 30
0.0
 10
110.8025390347994
 20
-139.5914794572896
 30
0.0
 10
110.8025390347994
 20
-139.3079480988536
 30
0.0
 10
110.9465440260828
 20
-139.1174343185193
 30
0.0
 10
111.2128499070926
 20
-139.1174343185193
 30
0.0
 10
111.3737358662538
 20
-139.1174343185193
 30
0.0
 10
111.4881130363641
 20
-139.195982495583
 30
0.0
 10
111.5473686787104
 20
-139.320694952149
 30
0.0
 10
111.5980115823436
 20
-139.2318114886295
 30
0.0
 10
111.6930962177365
 20
-139.0729925867595
 30
0.0
 10
111.9556124937125
 20
-139.0729925867595
 30
0.0
 10
112.3300943729592
 20
-139.0729925867595
 30
0.0
 10
112.4461940908121
 20
-139.3523898306133
 30
0.0
 10
112.4461940908121
 20
-139.5914794572896
 30
0.0
  0
SPLINE
  5
5F
330
4F
100
AcDbEntity
  8
_U+30EC_U+30A4_U+30E4_U+30FC 1
370
     0
100
AcDbSpline
210
0.0
220
0.0
230
1.0
 70
    11
 71
     3
 72
    17
 73
    13
 74
     0
 42
0.0000000001
 43
0.0000000001
 12
1.0
 22
0.0
 32
0.0
 13
1.0
 23
0.0
 33
0.0
 40
0.0
 40
0.0
 40
0.0
 40
0.0
 40
1.0
 40
1.0
 40
1.0
 40
2.0
 40
2.0
 40
2.0
 40
3.0
 40
3.0
 40
3.0
 40
4.0
 40
4.0
 40
4.0
 40
4.0
 10
110.9951198724248
 20
-139.5914794572896
 30
0.0
 10
110.9951198724248
 20
-139.7564995310331
 30
0.0
 10
111.0902045078177
 20
-139.8409043704217
 30
0.0
 10
111.225596760388
 20
-139.8409043704217
 30
0.0
 10
111.3482421596629
 20
-139.8409043704217
 30
0.0
 10
111.4667534443555
 20
-139.7692463843285
 30
0.0
 10
111.4667534443555
 20
-139.5914794572896
 30
0.0
 10
111.4667534443555
 20
-139.4137125302507
 30
0.0
 10
111.3482421596629
 20
-139.341710034609
 30
0.0
 10
111.225596760388
 20
-139.341710034609
 30
0.0
 10
111.0902045078177
 20
-139.341710034609
 30
0.0
 10
110.9951198724248
 20
-139.4285264408373
 30
0.0
 10
110.9951198724248
 20
-139.5914794572896
 30
0.0
  0
SPLINE
  5
60
330
4F
100
AcDbEntity
  8
_U+30EC_U+30A4_U+30E4_U+30FC 1
370
     0
100
AcDbSpline
210
0.0
220
0.0
230
1.0
 70
    11
 71
     3
 72
    17
 73
    13
 74
     0
 42
0.0000000001
 43
0.0000000001
 12
1.0
 22
0.0
 32
0.0
 13
1.0
 23
0.0
 33
0.0
 40
0.0
 40
0.0
 40
0.0
 40
0.0
 40
1.0
 40
1.0
 40
1.0
 40
2.0
 40
2.0
 40
2.0
 40
3.0
 40
3.0
 40
3.0
 40
4.0
 40
4.0
 40
4.0
 40
4.0
 10
111.6552001673987
 20
-139.5914794572896
 30
0.0
 10
111.6552001673987
 20
-139.7351399390245
 30
0.0
 10
111.742016573627
 20
-139.8877576690211
 30
0.0
 10
111.9449326977082
 20
-139.8877576690211
 30
0.0
 10
112.1502603886291
 20
-139.8877576690211
 30
0.0
 10
112.2515461958955
 20
-139.7606336456154
 30
0.0
 10
112.2515461958955
 20
-139.5914794572896
 30
0.0
 10
112.2515461958955
 20
-139.4054443010861
 30
0.0
 10
112.1289007966206
 20
-139.2952012455582
 30
0.0
 10
111.9511338695817
 20
-139.2952012455582
 30
0.0
 10
111.7292697203316
 20
-139.2952012455582
 30
0.0
 10
111.6552001673987
 20
-139.4581542620105
 30
0.0
 10
111.6552001673987
 20
-139.5914794572896
 30
0.0
  0
HATCH
  5
61
330
4F
100
AcDbEntity
  8
_U+30EC_U+30A4_U+30E4_U+30FC 1
 62
   179
420
  2234388
100
AcDbHatch
 10
0.0
 20
0.0
 30
0.0
210
0.0
220
0.0
230
1.0
  2
SOLID
 70
     1
 71
     0
 91
        3
 92
        1
 93
        1
 72
     4
 94
        3
 73
     0
 74
     1
 95
       29
 96
       25
 40
0.0
 40
0.0
 40
0.0
 40
0.0
 40
1.0
 40
1.0
 40
1.0
 40
2.0
 40
2.0
 40
2.0
 40
3.0
 40
3.0
 40
3.0
 40
4.0
 40
4.0
 40
4.0
 40
5.0
 40
5.0
 40
5.0
 40
6.0
 40
6.0
 40
6.0
 40
7.0
 40
7.0
 40
7.0
 40
8.0
 40
8.0
 40
8.0
 40
8.0
 10
112.4461940908121
 20
-139.5914794572896
 10
112.4461940908121
 20
-139.858129847848
 10
112.3087347809506
 20
-140.1116888755624
 10
111.9597466082948
 20
-140.1116888755624
 10
111.7037760137407
 20
-140.1116888755624
 10
111.6086913783478
 20
-139.9700954511186
 10
111.5473686787104
 20
-139.8643310197214
 10
111.4881130363641
 20
-139.9890434762875
 10
111.3737358662538
 20
-140.0651800865115
 10
111.2128499070926
 20
-140.0651800865115
 10
110.9379312873697
 20
-140.0651800865115
 10
110.8025390347994
 20
-139.8663980770126
 10
110.8025390347994
 20
-139.5914794572896
 10
110.8025390347994
 20
-139.3079480988536
 10
110.9465440260828
 20
-139.1174343185193
 10
111.2128499070926
 20
-139.1174343185193
 10
111.3737358662538
 20
-139.1174343185193
 10
111.4881130363641
 20
-139.195982495583
 10
111.5473686787104
 20
-139.320694952149
 10
111.5980115823436
 20
-139.2318114886295
 10
111.6930962177365
 20
-139.0729925867595
 10
111.9556124937125
 20
-139.0729925867595
 10
112.3300943729592
 20
-139.0729925867595
 10
112.4461940908121
 20
-139.3523898306133
 10
112.4461940908121
 20
-139.5914794572896
 97
        0
 97
        0
 92
        1
 93
        1
 72
     4
 94
        3
 73
     0
 74
     1
 95
       17
 96
       13
 40
0.0
 40
0.0
 40
0.0
 40
0.0
 40
1.0
 40
1.0
 40
1.0
 40
2.0
 40
2.0
 40
2.0
 40
3.0
 40
3.0
 40
3.0
 40
4.0
 40
4.0
 40
4.0
 40
4.0
 10
110.9951198724248
 20
-139.5914794572896
 10
110.9951198724248
 20
-139.7564995310331
 10
111.0902045078177
 20
-139.8409043704217
 10
111.225596760388
 20
-139.8409043704217
 10
111.3482421596629
 20
-139.8409043704217
 10
111.4667534443555
 20
-139.7692463843285
 10
111.4667534443555
 20
-139.5914794572896
 10
111.4667534443555
 20
-139.4137125302507
 10
111.3482421596629
 20
-139.341710034609
 10
111.225596760388
 20
-139.341710034609
 10
111.0902045078177
 20
-139.341710034609
 10
110.9951198724248
 20
-139.4285264408373
 10
110.9951198724248
 20
-139.5914794572896
 97
        0
 97
        0
 92
        1
 93
        1
 72
     4
 94
        3
 73
     0
 74
     1
 95
       17
 96
       13
 40
0.0
 40
0.0
 40
0.0
 40
0.0
 40
1.0
 40
1.0
 40
1.0
 40
2.0
 40
2.0
 40
2.0
 40
3.0
 40
3.0
 40
3.0
 40
4.0
 40
4.0
 40
4.0
 40
4.0
 10
111.6552001673987
 20
-139.5914794572896
 10
111.6552001673987
 20
-139.7351399390245
 10
111.742016573627
 20
-139.8877576690211
 10
111.9449326977082
 20
-139.8877576690211
 10
112.1502603886291
 20
-139.8877576690211
 10
112.2515461958955
 20
-139.7606336456154
 10
112.2515461958955
 20
-139.5914794572896
 10
112.2515461958955
 20
-139.4054443010861
 10
112.1289007966206
 20
-139.2952012455582
 10
111.9511338695817
 20
-139.2952012455582
 10
111.7292697203316
 20
-139.2952012455582
 10
111.6552001673987
 20
-139.4581542620105
 10
111.6552001673987
 20
-139.5914794572896
 97
        0
 97
        0
 75
     2
 76
     1
 98
        0
  0
ENDBLK
  5
52
330
4F
100
AcDbEntity
  8
0
100
AcDbBlockEnd
  0
BLOCK
  5
78
330
76
100
AcDbEntity
  8
0
100
AcDbBlockBegin
  2
block 3
 70
     0
 10
0.0
 20
0.0
 30
0.0
  3
block 3
  1

  0
SPLINE
  5
7A
330
76
100
AcDbEntity
  8
_U+30EC_U+30A4_U+30E4_U+30FC 1
370
     0
100
AcDbSpline
210
0.0
220
0.0
230
1.0
 70
    11
 71
     3
 72
   242
 73
   238
 74
     0
 42
0.0000000001
 43
0.0000000001
 12
1.0
 22
0.0
 32
0.0
 13
1.0
 23
0.0
 33
0.0
 40
0.0
 40
0.0
 40
0.0
 40
0.0
 40
1.0
 40
1.0
 40
1.0
 40
2.0
 40
2.0
 40
2.0
 40
3.0
 40
3.0
 40
3.0
 40
4.0
 40
4.0
 40
4.0
 40
5.0
 40
5.0
 40
5.0
 40
6.0
 40
6.0
 40
6.0
 40
7.0
 40
7.0
 40
7.0
 40
8.0
 40
8.0
 40
8.0
 40
9.0
 40
9.0
 40
9.0
 40
10.0
 40
10.0
 40
10.0
 40
11.0
 40
11.0
 40
11.0
 40
12.0
 40
12.0
 40
12.0
 40
13.0
 40
13.0
 40
13.0
 40
14.0
 40
14.0
 40
14.0
 40
15.0
 40
15.0
 40
15.0
 40
16.0
 40
16.0
 40
16.0
 40
17.0
 40
17.0
 40
17.0
 40
18.0
 40
18.0
 40
18.0
 40
19.0
 40
19.0
 40
19.0
 40
20.0
 40
20.0
 40
20.0
 40
21.0
 40
21.0
 40
21.0
 40
22.0
 40
22.0
 40
22.0
 40
23.0
 40
23.0
 40
23.0
 40
24.0
 40
24.0
 40
24.0
 40
25.0
 40
25.0
 40
25.0
 40
26.0
 40
26.0
 40
26.0
 40
27.0
 40
27.0
 40
27.0
 40
28.0
 40
28.0
 40
28.0
 40
29.0
 40
29.0
 40
29.0
 40
30.0
 40
30.0
 40
30.0
 40
31.0
 40
31.0
 40
31.0
 40
32.0
 40
32.0
 40
32.0
 40
33.0
 40
33.0
 40
33.0
 40
34.0
 40
34.0
 40
34.0
 40
35.0
 40
35.0
 40
35.0
 40
36.0
 40
36.0
 40
36.0
 40
37.0
 40
37.0
 40
37.0
 40
38.0
 40
38.0
 40
38.0
 40
39.0
 40
39.0
 40
39.0
 40
40.0
 40
40.0
 40
40.0
 40
41.0
 40
41.0
 40
41.0
 40
42.0
 40
42.0
 40
42.0
 40
43.0
 40
43.0
 40
43.0
 40
44.0
 40
44.0
 40
44.0
 40
45.0
 40
45.0
 40
45.0
 40
46.0
 40
46.0
 40
46.0
 40
47.0
 40
47.0
 40
47.0
 40
48.0
 40
48.0
 40
48.0
 40
49.0
 40
49.0
 40
49.0
 40
50.0
 40
50.0
 40
50.0
 40
51.0
 40
51.0
 40
51.0
 40
52.0
 40
52.0
 40
52.0
 40
53.0
 40
53.0
 40
53.0
 40
54.0
 40
54.0
 40
54.0
 40
55.0
 40
55.0
 40
55.0
 40
56.0
 40
56.0
 40
56.0
 40
57.0
 40
57.0
 40
57.0
 40
58.0
 40
58.0
 40
58.0
 40
59.0
 40
59.0
 40
59.0
 40
60.0
 40
60.0
 40
60.0
 40
61.0
 40
61.0
 40
61.0
 40
62.0
 40
62.0
 40
62.0
 40
63.0
 40
63.0
 40
63.0
 40
64.0
 40
64.0
 40
64.0
 40
65.0
 40
65.0
 40
65.0
 40
66.0
 40
66.0
 40
66.0
 40
67.0
 40
67.0
 40
67.0
 40
68.0
 40
68.0
 40
68.0
 40
69.0
 40
69.0
 40
69.0
 40
70.0
 40
70.0
 40
70.0
 40
71.0
 40
71.0
 40
71.0
 40
72.0
 40
72.0
 40
72.0
 40
73.0
 40
73.0
 40
73.0
 40
74.0
 40
74.0
 40
74.0
 40
75.0
 40
75.0
 40
75.0
 40
76.0
 40
76.0
 40
76.0
 40
77.0
 40
77.0
 40
77.0
 40
78.0
 40
78.0
 40
78.0
 40
79.0
 40
79.0
 40
79.0
 40
79.0
 10
97.49964732805564
 20
-116.8164699686258
 30
0.0
 10
97.49964732805564
 20
-116.8164699686258
 30
0.0
 10
97.24574379079273
 20
-116.8164699686258
 30
0.0
 10
97.24574379079273
 20
-116.8164699686258
 30
0.0
 10
97.24574379079273
 20
-116.8164699686258
 30
0.0
 10
96.96875811377865
 20
-116.8164699686258
 30
0.0
 10
96.96875811377865
 20
-116.8164699686258
 30
0.0
 10
96.96875811377865
 20
-116.8164699686258
 30
0.0
 10
97.09553762763585
 20
-116.8588446430943
 30
0.0
 10
97.09553762763585
 20
-116.8588446430943
 30
0.0
 10
97.10621742364012
 20
-116.8631510124509
 30
0.0
 10
97.11896427693554
 20
-116.8693521843243
 30
0.0
 10
97.11896427693554
 20
-116.8820990376198
 30
0.0
 10
97.11896427693554
 20
-116.903286374854
 30
0.0
 10
97.08692488892272
 20
-116.9096598015018
 30
0.0
 10
97.0659098064627
 20
-116.9137939160841
 30
0.0
 10
97.05523001045842
 20
-116.9370483106095
 30
0.0
 10
97.02560218928527
 20
-117.0026773796035
 30
0.0
 10
97.0066541641164
 20
-117.0471191113632
 30
0.0
 10
97.0066541641164
 20
-117.0471191113632
 30
0.0
 10
97.27743866925704
 20
-117.0471191113632
 30
0.0
 10
97.27743866925704
 20
-117.0471191113632
 30
0.0
 10
97.36838919006763
 20
-117.0471191113632
 30
0.0
 10
97.5651041422754
 20
-117.0428127420067
 30
0.0
 10
97.70704207626768
 20
-117.0343722580678
 30
0.0
 10
97.70704207626768
 20
-117.0343722580678
 30
0.0
 10
97.70704207626768
 20
-117.2121391851067
 30
0.0
 10
97.70704207626768
 20
-117.2121391851067
 30
0.0
 10
97.62435978462169
 20
-117.2078328157501
 30
0.0
 10
97.60334470216166
 20
-117.2078328157501
 30
0.0
 10
97.42351071783163
 20
-117.2036987011678
 30
0.0
 10
97.39181583936733
 20
-117.358038978907
 30
0.0
 10
97.3473741076076
 20
-117.4384819584876
 30
0.0
 10
97.30293237584789
 20
-117.5082451420639
 30
0.0
 10
97.42351071783163
 20
-117.5675007844102
 30
0.0
 10
97.5292751492288
 20
-117.6351969106954
 30
0.0
 10
97.63297252333481
 20
-117.7177069475671
 30
0.0
 10
97.63297252333481
 20
-117.7177069475671
 30
0.0
 10
97.51446123864223
 20
-117.8847940786017
 30
0.0
 10
97.51446123864223
 20
-117.8847940786017
 30
0.0
 10
97.49103458934252
 20
-117.8658460534328
 30
0.0
 10
97.4782877360471
 20
-117.857405569494
 30
0.0
 10
97.36632213277647
 20
-117.7726562205568
 30
0.0
 10
97.31774628643446
 20
-117.7345879154448
 30
0.0
 10
97.25849064408816
 20
-117.6987589223982
 30
0.0
 10
97.17787540973332
 20
-117.6543171906385
 30
0.0
 10
96.96634654693898
 20
-117.8405246016163
 30
0.0
 10
96.76136336556661
 20
-117.8637789961417
 30
0.0
 10
96.47128632570858
 20
-117.8934068173149
 30
0.0
 10
96.47128632570858
 20
-117.8934068173149
 30
0.0
 10
96.36793346115108
 20
-117.7135728329848
 30
0.0
 10
96.36793346115108
 20
-117.7135728329848
 30
0.0
 10
96.68522675534258
 20
-117.7092664636282
 30
0.0
 10
96.8605821155418
 20
-117.6839450118117
 30
0.0
 10
97.01285533598984
 20
-117.5738742110579
 30
0.0
 10
96.89468856084578
 20
-117.5230590526505
 30
0.0
 10
96.80580509732633
 20
-117.4956705435428
 30
0.0
 10
96.76963159473121
 20
-117.4829236902473
 30
0.0
 10
96.75068356956233
 20
-117.5104844541293
 30
0.0
 10
96.73586965897576
 20
-117.5294324792982
 30
0.0
 10
96.70830889509377
 20
-117.5633666698279
 30
0.0
 10
96.70830889509377
 20
-117.5633666698279
 30
0.0
 10
96.511593942886
 20
-117.4808566329562
 30
0.0
 10
96.511593942886
 20
-117.4808566329562
 30
0.0
 10
96.59427623453199
 20
-117.4004136533756
 30
0.0
 10
96.65559893416943
 20
-117.3051567632084
 30
0.0
 10
96.71244300967606
 20
-117.2036987011678
 30
0.0
 10
96.52227373889026
 20
-117.2078328157501
 30
0.0
 10
96.50091414688173
 20
-117.2078328157501
 30
0.0
 10
96.41857636478424
 20
-117.2121391851067
 30
0.0
 10
96.41857636478424
 20
-117.2121391851067
 30
0.0
 10
96.41857636478424
 20
-117.0343722580678
 30
0.0
 10
96.41857636478424
 20
-117.0343722580678
 30
0.0
 10
96.55810273193687
 20
-117.0407456847155
 30
0.0
 10
96.76756453744005
 20
-117.0450520540721
 30
0.0
 10
96.7930582440309
 20
-117.0450520540721
 30
0.0
 10
96.80993921190863
 20
-117.0111178635424
 30
0.0
 10
96.86506073967263
 20
-116.8905395215586
 30
0.0
 10
96.8840087648415
 20
-116.8164699686258
 30
0.0
 10
96.86506073967263
 20
-116.8164699686258
 30
0.0
 10
96.68729381263374
 20
-116.8228433952735
 30
0.0
 10
96.49264591771713
 20
-116.8355902485689
 30
0.0
 10
96.49264591771713
 20
-116.8355902485689
 30
0.0
 10
96.49264591771713
 20
-116.968915443848
 30
0.0
 10
96.49264591771713
 20
-116.968915443848
 30
0.0
 10
96.4440700713751
 20
-116.9942368956646
 30
0.0
 10
96.38481442902881
 20
-117.0259317741289
 30
0.0
 10
96.25148923374964
 20
-117.0915608431229
 30
0.0
 10
96.25148923374964
 20
-117.0915608431229
 30
0.0
 10
96.25148923374964
 20
-117.2374606369233
 30
0.0
 10
96.25148923374964
 20
-117.2374606369233
 30
0.0
 10
96.25148923374964
 20
-117.2374606369233
 30
0.0
 10
96.25148923374964
 20
-117.7051323490459
 30
0.0
 10
96.25148923374964
 20
-117.7051323490459
 30
0.0
 10
96.25148923374964
 20
-117.8319118629031
 30
0.0
 10
96.2153157311545
 20
-117.8911675052494
 30
0.0
 10
95.93212888226697
 20
-117.8827270213106
 30
0.0
 10
95.93212888226697
 20
-117.8827270213106
 30
0.0
 10
95.82843150816095
 20
-117.6755045278728
 30
0.0
 10
95.82843150816095
 20
-117.6755045278728
 30
0.0
 10
95.89182126508955
 20
-117.688079126394
 30
0.0
 10
95.94039711143157
 20
-117.6923854957505
 30
0.0
 10
95.980704728609
 20
-117.6923854957505
 30
0.0
 10
96.05684133883301
 20
-117.6923854957505
 30
0.0
 10
96.06752113483729
 20
-117.6691311012251
 30
0.0
 10
96.06752113483729
 20
-117.6035020322311
 30
0.0
 10
96.06752113483729
 20
-117.6035020322311
 30
0.0
 10
96.06752113483729
 20
-117.1740708799947
 30
0.0
 10
96.06752113483729
 20
-117.1740708799947
 30
0.0
 10
95.97002493260472
 20
-117.2142062423978
 30
0.0
 10
95.95314396472699
 20
-117.2205796690455
 30
0.0
 10
95.90663517567613
 20
-117.2396999489887
 30
0.0
 10
95.90250106109383
 20
-117.2607150314487
 30
0.0
 10
95.898022436963
 20
-117.2903428526219
 30
0.0
 10
95.87907441179412
 20
-117.2903428526219
 30
0.0
 10
95.87080618262952
 20
-117.2903428526219
 30
0.0
 10
95.86012638662525
 20
-117.2862087380396
 30
0.0
 10
95.85358070520327
 20
-117.2629543435141
 30
0.0
 10
95.85358070520327
 20
-117.2629543435141
 30
0.0
 10
95.80087074427895
 20
-117.0703735058887
 30
0.0
 10
95.80087074427895
 20
-117.0703735058887
 30
0.0
 10
95.94694279285355
 20
-117.0238647168378
 30
0.0
 10
96.01239960707329
 20
-117.0006103223124
 30
0.0
 10
96.06752113483729
 20
-116.9794229850781
 30
0.0
 10
96.06752113483729
 20
-116.9794229850781
 30
0.0
 10
96.06752113483729
 20
-116.5668728007194
 30
0.0
 10
96.06752113483729
 20
-116.5668728007194
 30
0.0
 10
96.06752113483729
 20
-116.5668728007194
 30
0.0
 10
96.01446666436445
 20
-116.5668728007194
 30
0.0
 10
96.01446666436445
 20
-116.5668728007194
 30
0.0
 10
96.01446666436445
 20
-116.5668728007194
 30
0.0
 10
95.93626299684927
 20
-116.5668728007194
 30
0.0
 10
95.93626299684927
 20
-116.5668728007194
 30
0.0
 10
95.86839461578985
 20
-116.5668728007194
 30
0.0
 10
95.86012638662525
 20
-116.5668728007194
 30
0.0
 10
95.82395288403012
 20
-116.5732462273671
 30
0.0
 10
95.82395288403012
 20
-116.5732462273671
 30
0.0
 10
95.82395288403012
 20
-116.3785983324505
 30
0.0
 10
95.82395288403012
 20
-116.3785983324505
 30
0.0
 10
95.85151364791213
 20
-116.3849717590982
 30
0.0
 10
95.86012638662525
 20
-116.3849717590982
 30
0.0
 10
95.9297173154273
 20
-116.3849717590982
 30
0.0
 10
95.9297173154273
 20
-116.3849717590982
 30
0.0
 10
96.06304251070647
 20
-116.3849717590982
 30
0.0
 10
96.06304251070647
 20
-116.3849717590982
 30
0.0
 10
96.06304251070647
 20
-116.3152085755219
 30
0.0
 10
96.06304251070647
 20
-116.2326985386502
 30
0.0
 10
96.06097545341531
 20
-116.2283921692936
 30
0.0
 10
96.05270722425071
 20
-116.0485581849636
 30
0.0
 10
96.05270722425071
 20
-116.0296101597947
 30
0.0
 10
96.05029565741104
 20
-115.9831013707438
 30
0.0
 10
96.05029565741104
 20
-115.9831013707438
 30
0.0
 10
96.2663031443362
 20
-115.9915418546827
 30
0.0
 10
96.2663031443362
 20
-115.9915418546827
 30
0.0
 10
96.27698294034047
 20
-115.9915418546827
 30
0.0
 10
96.2979980228005
 20
-115.9936089119738
 30
0.0
 10
96.2979980228005
 20
-116.0104898798515
 30
0.0
 10
96.2979980228005
 20
-116.0296101597947
 30
0.0
 10
96.28318411221393
 20
-116.0401177010247
 30
0.0
 10
96.25769040562308
 20
-116.0592379809678
 30
0.0
 10
96.25769040562308
 20
-116.109880884601
 30
0.0
 10
96.25148923374964
 20
-116.3384629700473
 30
0.0
 10
96.25355629104078
 20
-116.3849717590982
 30
0.0
 10
96.38274737173765
 20
-116.3849717590982
 30
0.0
 10
96.39514971548455
 20
-116.3849717590982
 30
0.0
 10
96.49264591771713
 20
-116.3765312751594
 30
0.0
 10
96.49264591771713
 20
-116.3765312751594
 30
0.0
 10
96.49264591771713
 20
-116.571179170076
 30
0.0
 10
96.49264591771713
 20
-116.571179170076
 30
0.0
 10
96.45440535783085
 20
-116.5689398580106
 30
0.0
 10
96.38688148631995
 20
-116.5648057434283
 30
0.0
 10
96.25148923374964
 20
-116.5668728007194
 30
0.0
 10
96.25148923374964
 20
-116.5668728007194
 30
0.0
 10
96.25148923374964
 20
-116.9053534321452
 30
0.0
 10
96.25148923374964
 20
-116.9053534321452
 30
0.0
 10
96.30661076151362
 20
-116.8820990376198
 30
0.0
 10
96.37206757573338
 20
-116.8545382737378
 30
0.0
 10
96.4206434220754
 20
-116.8312838792123
 30
0.0
 10
96.4206434220754
 20
-116.8312838792123
 30
0.0
 10
96.4206434220754
 20
-116.6536892069477
 30
0.0
 10
96.4206434220754
 20
-116.6536892069477
 30
0.0
 10
96.53502059218569
 20
-116.6662638054689
 30
0.0
 10
96.65353187687829
 20
-116.6662638054689
 30
0.0
 10
96.76963159473121
 20
-116.6662638054689
 30
0.0
 10
96.74654945498003
 20
-116.571179170076
 30
0.0
 10
96.71898869109803
 20
-116.4886691332042
 30
0.0
 10
96.65559893416943
 20
-116.3553439379251
 30
0.0
 10
96.61115720240971
 20
-116.3574109952162
 30
0.0
 10
96.52847491076372
 20
-116.3617173645728
 30
0.0
 10
96.49057886042597
 20
-116.3637844218639
 30
0.0
 10
96.49057886042597
 20
-116.3637844218639
 30
0.0
 10
96.49057886042597
 20
-116.1839504375339
 30
0.0
 10
96.49057886042597
 20
-116.1839504375339
 30
0.0
 10
96.61529131699201
 20
-116.1923909214727
 30
0.0
 10
96.7889241294486
 20
-116.1966972908293
 30
0.0
 10
96.87126191154607
 20
-116.1966972908293
 30
0.0
 10
96.87126191154607
 20
-116.1966972908293
 30
0.0
 10
96.95394420319208
 20
-116.1966972908293
 30
0.0
 10
96.95394420319208
 20
-116.1966972908293
 30
0.0
 10
96.95394420319208
 20
-116.033744274377
 30
0.0
 10
96.95394420319208
 20
-116.023236733147
 30
0.0
 10
96.9515326363524
 20
-115.9682874601572
 30
0.0
 10
96.9515326363524
 20
-115.9682874601572
 30
0.0
 10
97.17580835244216
 20
-115.9936089119738
 30
0.0
 10
97.17580835244216
 20
-115.9936089119738
 30
0.0
 10
97.18028697657299
 20
-115.9936089119738
 30
0.0
 10
97.20130205903301
 20
-115.995675969265
 30
0.0
 10
97.20130205903301
 20
-116.0125569371427
 30
0.0
 10
97.20130205903301
 20
-116.0273708477293
 30
0.0
 10
97.19062226302874
 20
-116.0359835864424
 30
0.0
 10
97.16306149914674
 20
-116.050797497029
 30
0.0
 10
97.1568603272733
 20
-116.1162543112487
 30
0.0
 10
97.15479326998214
 20
-116.137441648483
 30
0.0
 10
97.15479326998214
 20
-116.1966972908293
 30
0.0
 10
97.15479326998214
 20
-116.1966972908293
 30
0.0
 10
97.24987790537503
 20
-116.1966972908293
 30
0.0
 10
97.24987790537503
 20
-116.1966972908293
 30
0.0
 10
97.33256019702102
 20
-116.1966972908293
 30
0.0
 10
97.5058484999291
 20
-116.1923909214727
 30
0.0
 10
97.63090546604367
 20
-116.1839504375339
 30
0.0
 10
97.63090546604367
 20
-116.1839504375339
 30
0.0
 10
97.63090546604367
 20
-116.3637844218639
 30
0.0
 10
97.63090546604367
 20
-116.3637844218639
 30
0.0
 10
97.60127764487052
 20
-116.3617173645728
 30
0.0
 10
97.48276636017792
 20
-116.3574109952162
 30
0.0
 10
97.4424587430005
 20
-116.3553439379251
 30
0.0
 10
97.42764483241393
 20
-116.4061590963325
 30
0.0
 10
97.39388289665848
 20
-116.5182969543774
 30
0.0
 10
97.32808157289021
 20
-116.65782332153
 30
0.0
 10
97.37045624735877
 20
-116.65782332153
 30
0.0
 10
97.6477864339214
 20
-116.6388752963611
 30
0.0
 10
97.70910913355884
 20
-116.6366359842957
 30
0.0
 10
97.70910913355884
 20
-116.6366359842957
 30
0.0
 10
97.70910913355884
 20
-116.8207763379823
 30
0.0
 10
97.70910913355884
 20
-116.8207763379823
 30
0.0
 10
97.67948131238569
 20
-116.8207763379823
 30
0.0
 10
97.66260034450796
 20
-116.8164699686258
 30
0.0
 10
97.49964732805564
 20
-116.8164699686258
 30
0.0
  0
SPLINE
  5
7B
330
76
100
AcDbEntity
  8
_U+30EC_U+30A4_U+30E4_U+30FC 1
370
     0
100
AcDbSpline
210
0.0
220
0.0
230
1.0
 70
    11
 71
     3
 72
    20
 73
    16
 74
     0
 42
0.0000000001
 43
0.0000000001
 12
1.0
 22
0.0
 32
0.0
 13
1.0
 23
0.0
 33
0.0
 40
0.0
 40
0.0
 40
0.0
 40
0.0
 40
1.0
 40
1.0
 40
1.0
 40
2.0
 40
2.0
 40
2.0
 40
3.0
 40
3.0
 40
3.0
 40
4.0
 40
4.0
 40
4.0
 40
5.0
 40
5.0
 40
5.0
 40
5.0
 10
96.87126191154607
 20
-116.3512098233428
 30
0.0
 10
96.87126191154607
 20
-116.3512098233428
 30
0.0
 10
96.83956703308178
 20
-116.3512098233428
 30
0.0
 10
96.83956703308178
 20
-116.3512098233428
 30
0.0
 10
96.88607582213265
 20
-116.4506008280922
 30
0.0
 10
96.91777070059695
 20
-116.5308715528985
 30
0.0
 10
96.9515326363524
 20
-116.65782332153
 30
0.0
 10
96.9515326363524
 20
-116.65782332153
 30
0.0
 10
97.15892738456444
 20
-116.65782332153
 30
0.0
 10
97.15892738456444
 20
-116.65782332153
 30
0.0
 10
97.19062226302874
 20
-116.5648057434283
 30
0.0
 10
97.21404891232844
 20
-116.4802286492654
 30
0.0
 10
97.2371310520796
 20
-116.3512098233428
 30
0.0
 10
97.2371310520796
 20
-116.3512098233428
 30
0.0
 10
96.87126191154607
 20
-116.3512098233428
 30
0.0
 10
96.87126191154607
 20
-116.3512098233428
 30
0.0
  0
SPLINE
  5
7C
330
76
100
AcDbEntity
  8
_U+30EC_U+30A4_U+30E4_U+30FC 1
370
     0
100
AcDbSpline
210
0.0
220
0.0
230
1.0
 70
    11
 71
     3
 72
    17
 73
    13
 74
     0
 42
0.0000000001
 43
0.0000000001
 12
1.0
 22
0.0
 32
0.0
 13
1.0
 23
0.0
 33
0.0
 40
0.0
 40
0.0
 40
0.0
 40
0.0
 40
1.0
 40
1.0
 40
1.0
 40
2.0
 40
2.0
 40
2.0
 40
3.0
 40
3.0
 40
3.0
 40
4.0
 40
4.0
 40
4.0
 40
4.0
 10
96.93465166847467
 20
-117.2016316438767
 30
0.0
 10
96.91777070059695
 20
-117.2310872102756
 30
0.0
 10
96.86712779696377
 20
-117.3242770431516
 30
0.0
 10
96.8564480009595
 20
-117.3432250683205
 30
0.0
 10
97.04696178129382
 20
-117.4024807106668
 30
0.0
 10
97.06797686375384
 20
-117.4088541373145
 30
0.0
 10
97.13997935939557
 20
-117.4364149011965
 30
0.0
 10
97.19510088715957
 20
-117.3495984949682
 30
0.0
 10
97.21818302691074
 20
-117.2755289420353
 30
0.0
 10
97.2329969374973
 20
-117.2016316438767
 30
0.0
 10
97.2329969374973
 20
-117.2016316438767
 30
0.0
 10
96.93465166847467
 20
-117.2016316438767
 30
0.0
 10
96.93465166847467
 20
-117.2016316438767
 30
0.0
  0
HATCH
  5
7D
330
76
100
AcDbEntity
  8
_U+30EC_U+30A4_U+30E4_U+30FC 1
 62
   179
420
  2234388
100
AcDbHatch
 10
0.0
 20
0.0
 30
0.0
210
0.0
220
0.0
230
1.0
  2
SOLID
 70
     1
 71
     0
 91
        3
 92
        1
 93
        1
 72
     4
 94
        3
 73
     0
 74
     1
 95
      242
 96
      238
 40
0.0
 40
0.0
 40
0.0
 40
0.0
 40
1.0
 40
1.0
 40
1.0
 40
2.0
 40
2.0
 40
2.0
 40
3.0
 40
3.0
 40
3.0
 40
4.0
 40
4.0
 40
4.0
 40
5.0
 40
5.0
 40
5.0
 40
6.0
 40
6.0
 40
6.0
 40
7.0
 40
7.0
 40
7.0
 40
8.0
 40
8.0
 40
8.0
 40
9.0
 40
9.0
 40
9.0
 40
10.0
 40
10.0
 40
10.0
 40
11.0
 40
11.0
 40
11.0
 40
12.0
 40
12.0
 40
12.0
 40
13.0
 40
13.0
 40
13.0
 40
14.0
 40
14.0
 40
14.0
 40
15.0
 40
15.0
 40
15.0
 40
16.0
 40
16.0
 40
16.0
 40
17.0
 40
17.0
 40
17.0
 40
18.0
 40
18.0
 40
18.0
 40
19.0
 40
19.0
 40
19.0
 40
20.0
 40
20.0
 40
20.0
 40
21.0
 40
21.0
 40
21.0
 40
22.0
 40
22.0
 40
22.0
 40
23.0
 40
23.0
 40
23.0
 40
24.0
 40
24.0
 40
24.0
 40
25.0
 40
25.0
 40
25.0
 40
26.0
 40
26.0
 40
26.0
 40
27.0
 40
27.0
 40
27.0
 40
28.0
 40
28.0
 40
28.0
 40
29.0
 40
29.0
 40
29.0
 40
30.0
 40
30.0
 40
30.0
 40
31.0
 40
31.0
 40
31.0
 40
32.0
 40
32.0
 40
32.0
 40
33.0
 40
33.0
 40
33.0
 40
34.0
 40
34.0
 40
34.0
 40
35.0
 40
35.0
 40
35.0
 40
36.0
 40
36.0
 40
36.0
 40
37.0
 40
37.0
 40
37.0
 40
38.0
 40
38.0
 40
38.0
 40
39.0
 40
39.0
 40
39.0
 40
40.0
 40
40.0
 40
40.0
 40
41.0
 40
41.0
 40
41.0
 40
42.0
 40
42.0
 40
42.0
 40
43.0
 40
43.0
 40
43.0
 40
44.0
 40
44.0
 40
44.0
 40
45.0
 40
45.0
 40
45.0
 40
46.0
 40
46.0
 40
46.0
 40
47.0
 40
47.0
 40
47.0
 40
48.0
 40
48.0
 40
48.0
 40
49.0
 40
49.0
 40
49.0
 40
50.0
 40
50.0
 40
50.0
 40
51.0
 40
51.0
 40
51.0
 40
52.0
 40
52.0
 40
52.0
 40
53.0
 40
53.0
 40
53.0
 40
54.0
 40
54.0
 40
54.0
 40
55.0
 40
55.0
 40
55.0
 40
56.0
 40
56.0
 40
56.0
 40
57.0
 40
57.0
 40
57.0
 40
58.0
 40
58.0
 40
58.0
 40
59.0
 40
59.0
 40
59.0
 40
60.0
 40
60.0
 40
60.0
 40
61.0
 40
61.0
 40
61.0
 40
62.0
 40
62.0
 40
62.0
 40
63.0
 40
63.0
 40
63.0
 40
64.0
 40
64.0
 40
64.0
 40
65.0
 40
65.0
 40
65.0
 40
66.0
 40
66.0
 40
66.0
 40
67.0
 40
67.0
 40
67.0
 40
68.0
 40
68.0
 40
68.0
 40
69.0
 40
69.0
 40
69.0
 40
70.0
 40
70.0
 40
70.0
 40
71.0
 40
71.0
 40
71.0
 40
72.0
 40
72.0
 40
72.0
 40
73.0
 40
73.0
 40
73.0
 40
74.0
 40
74.0
 40
74.0
 40
75.0
 40
75.0
 40
75.0
 40
76.0
 40
76.0
 40
76.0
 40
77.0
 40
77.0
 40
77.0
 40
78.0
 40
78.0
 40
78.0
 40
79.0
 40
79.0
 40
79.0
 40
79.0
 10
97.49964732805564
 20
-116.8164699686258
 10
97.49964732805564
 20
-116.8164699686258
 10
97.24574379079273
 20
-116.8164699686258
 10
97.24574379079273
 20
-116.8164699686258
 10
97.24574379079273
 20
-116.8164699686258
 10
96.96875811377865
 20
-116.8164699686258
 10
96.96875811377865
 20
-116.8164699686258
 10
96.96875811377865
 20
-116.8164699686258
 10
97.09553762763585
 20
-116.8588446430943
 10
97.09553762763585
 20
-116.8588446430943
 10
97.10621742364012
 20
-116.8631510124509
 10
97.11896427693554
 20
-116.8693521843243
 10
97.11896427693554
 20
-116.8820990376198
 10
97.11896427693554
 20
-116.903286374854
 10
97.08692488892272
 20
-116.9096598015018
 10
97.0659098064627
 20
-116.9137939160841
 10
97.05523001045842
 20
-116.9370483106095
 10
97.02560218928527
 20
-117.0026773796035
 10
97.0066541641164
 20
-117.0471191113632
 10
97.0066541641164
 20
-117.0471191113632
 10
97.27743866925704
 20
-117.0471191113632
 10
97.27743866925704
 20
-117.0471191113632
 10
97.36838919006763
 20
-117.0471191113632
 10
97.5651041422754
 20
-117.0428127420067
 10
97.70704207626768
 20
-117.0343722580678
 10
97.70704207626768
 20
-117.0343722580678
 10
97.70704207626768
 20
-117.2121391851067
 10
97.70704207626768
 20
-117.2121391851067
 10
97.62435978462169
 20
-117.2078328157501
 10
97.60334470216166
 20
-117.2078328157501
 10
97.42351071783163
 20
-117.2036987011678
 10
97.39181583936733
 20
-117.358038978907
 10
97.3473741076076
 20
-117.4384819584876
 10
97.30293237584789
 20
-117.5082451420639
 10
97.42351071783163
 20
-117.5675007844102
 10
97.5292751492288
 20
-117.6351969106954
 10
97.63297252333481
 20
-117.7177069475671
 10
97.63297252333481
 20
-117.7177069475671
 10
97.51446123864223
 20
-117.8847940786017
 10
97.51446123864223
 20
-117.8847940786017
 10
97.49103458934252
 20
-117.8658460534328
 10
97.4782877360471
 20
-117.857405569494
 10
97.36632213277647
 20
-117.7726562205568
 10
97.31774628643446
 20
-117.7345879154448
 10
97.25849064408816
 20
-117.6987589223982
 10
97.17787540973332
 20
-117.6543171906385
 10
96.96634654693898
 20
-117.8405246016163
 10
96.76136336556661
 20
-117.8637789961417
 10
96.47128632570858
 20
-117.8934068173149
 10
96.47128632570858
 20
-117.8934068173149
 10
96.36793346115108
 20
-117.7135728329848
 10
96.36793346115108
 20
-117.7135728329848
 10
96.68522675534258
 20
-117.7092664636282
 10
96.8605821155418
 20
-117.6839450118117
 10
97.01285533598984
 20
-117.5738742110579
 10
96.89468856084578
 20
-117.5230590526505
 10
96.80580509732633
 20
-117.4956705435428
 10
96.76963159473121
 20
-117.4829236902473
 10
96.75068356956233
 20
-117.5104844541293
 10
96.73586965897576
 20
-117.5294324792982
 10
96.70830889509377
 20
-117.5633666698279
 10
96.70830889509377
 20
-117.5633666698279
 10
96.511593942886
 20
-117.4808566329562
 10
96.511593942886
 20
-117.4808566329562
 10
96.59427623453199
 20
-117.4004136533756
 10
96.65559893416943
 20
-117.3051567632084
 10
96.71244300967606
 20
-117.2036987011678
 10
96.52227373889026
 20
-117.2078328157501
 10
96.50091414688173
 20
-117.2078328157501
 10
96.41857636478424
 20
-117.2121391851067
 10
96.41857636478424
 20
-117.2121391851067
 10
96.41857636478424
 20
-117.0343722580678
 10
96.41857636478424
 20
-117.0343722580678
 10
96.55810273193687
 20
-117.0407456847155
 10
96.76756453744005
 20
-117.0450520540721
 10
96.7930582440309
 20
-117.0450520540721
 10
96.80993921190863
 20
-117.0111178635424
 10
96.86506073967263
 20
-116.8905395215586
 10
96.8840087648415
 20
-116.8164699686258
 10
96.86506073967263
 20
-116.8164699686258
 10
96.68729381263374
 20
-116.8228433952735
 10
96.49264591771713
 20
-116.8355902485689
 10
96.49264591771713
 20
-116.8355902485689
 10
96.49264591771713
 20
-116.968915443848
 10
96.49264591771713
 20
-116.968915443848
 10
96.4440700713751
 20
-116.9942368956646
 10
96.38481442902881
 20
-117.0259317741289
 10
96.25148923374964
 20
-117.0915608431229
 10
96.25148923374964
 20
-117.0915608431229
 10
96.25148923374964
 20
-117.2374606369233
 10
96.25148923374964
 20
-117.2374606369233
 10
96.25148923374964
 20
-117.2374606369233
 10
96.25148923374964
 20
-117.7051323490459
 10
96.25148923374964
 20
-117.7051323490459
 10
96.25148923374964
 20
-117.8319118629031
 10
96.2153157311545
 20
-117.8911675052494
 10
95.93212888226697
 20
-117.8827270213106
 10
95.93212888226697
 20
-117.8827270213106
 10
95.82843150816095
 20
-117.6755045278728
 10
95.82843150816095
 20
-117.6755045278728
 10
95.89182126508955
 20
-117.688079126394
 10
95.94039711143157
 20
-117.6923854957505
 10
95.980704728609
 20
-117.6923854957505
 10
96.05684133883301
 20
-117.6923854957505
 10
96.06752113483729
 20
-117.6691311012251
 10
96.06752113483729
 20
-117.6035020322311
 10
96.06752113483729
 20
-117.6035020322311
 10
96.06752113483729
 20
-117.1740708799947
 10
96.06752113483729
 20
-117.1740708799947
 10
95.97002493260472
 20
-117.2142062423978
 10
95.95314396472699
 20
-117.2205796690455
 10
95.90663517567613
 20
-117.2396999489887
 10
95.90250106109383
 20
-117.2607150314487
 10
95.898022436963
 20
-117.2903428526219
 10
95.87907441179412
 20
-117.2903428526219
 10
95.87080618262952
 20
-117.2903428526219
 10
95.86012638662525
 20
-117.2862087380396
 10
95.85358070520327
 20
-117.2629543435141
 10
95.85358070520327
 20
-117.2629543435141
 10
95.80087074427895
 20
-117.0703735058887
 10
95.80087074427895
 20
-117.0703735058887
 10
95.94694279285355
 20
-117.0238647168378
 10
96.01239960707329
 20
-117.0006103223124
 10
96.06752113483729
 20
-116.9794229850781
 10
96.06752113483729
 20
-116.9794229850781
 10
96.06752113483729
 20
-116.5668728007194
 10
96.06752113483729
 20
-116.5668728007194
 10
96.06752113483729
 20
-116.5668728007194
 10
96.01446666436445
 20
-116.5668728007194
 10
96.01446666436445
 20
-116.5668728007194
 10
96.01446666436445
 20
-116.5668728007194
 10
95.93626299684927
 20
-116.5668728007194
 10
95.93626299684927
 20
-116.5668728007194
 10
95.86839461578985
 20
-116.5668728007194
 10
95.86012638662525
 20
-116.5668728007194
 10
95.82395288403012
 20
-116.5732462273671
 10
95.82395288403012
 20
-116.5732462273671
 10
95.82395288403012
 20
-116.3785983324505
 10
95.82395288403012
 20
-116.3785983324505
 10
95.85151364791213
 20
-116.3849717590982
 10
95.86012638662525
 20
-116.3849717590982
 10
95.9297173154273
 20
-116.3849717590982
 10
95.9297173154273
 20
-116.3849717590982
 10
96.06304251070647
 20
-116.3849717590982
 10
96.06304251070647
 20
-116.3849717590982
 10
96.06304251070647
 20
-116.3152085755219
 10
96.06304251070647
 20
-116.2326985386502
 10
96.06097545341531
 20
-116.2283921692936
 10
96.05270722425071
 20
-116.0485581849636
 10
96.05270722425071
 20
-116.0296101597947
 10
96.05029565741104
 20
-115.9831013707438
 10
96.05029565741104
 20
-115.9831013707438
 10
96.2663031443362
 20
-115.9915418546827
 10
96.2663031443362
 20
-115.9915418546827
 10
96.27698294034047
 20
-115.9915418546827
 10
96.2979980228005
 20
-115.9936089119738
 10
96.2979980228005
 20
-116.0104898798515
 10
96.2979980228005
 20
-116.0296101597947
 10
96.28318411221393
 20
-116.0401177010247
 10
96.25769040562308
 20
-116.0592379809678
 10
96.25769040562308
 20
-116.109880884601
 10
96.25148923374964
 20
-116.3384629700473
 10
96.25355629104078
 20
-116.3849717590982
 10
96.38274737173765
 20
-116.3849717590982
 10
96.39514971548455
 20
-116.3849717590982
 10
96.49264591771713
 20
-116.3765312751594
 10
96.49264591771713
 20
-116.3765312751594
 10
96.49264591771713
 20
-116.571179170076
 10
96.49264591771713
 20
-116.571179170076
 10
96.45440535783085
 20
-116.5689398580106
 10
96.38688148631995
 20
-116.5648057434283
 10
96.25148923374964
 20
-116.5668728007194
 10
96.25148923374964
 20
-116.5668728007194
 10
96.25148923374964
 20
-116.9053534321452
 10
96.25148923374964
 20
-116.9053534321452
 10
96.30661076151362
 20
-116.8820990376198
 10
96.37206757573338
 20
-116.8545382737378
 10
96.4206434220754
 20
-116.8312838792123
 10
96.4206434220754
 20
-116.8312838792123
 10
96.4206434220754
 20
-116.6536892069477
 10
96.4206434220754
 20
-116.6536892069477
 10
96.53502059218569
 20
-116.6662638054689
 10
96.65353187687829
 20
-116.6662638054689
 10
96.76963159473121
 20
-116.6662638054689
 10
96.74654945498003
 20
-116.571179170076
 10
96.71898869109803
 20
-116.4886691332042
 10
96.65559893416943
 20
-116.3553439379251
 10
96.61115720240971
 20
-116.3574109952162
 10
96.52847491076372
 20
-116.3617173645728
 10
96.49057886042597
 20
-116.3637844218639
 10
96.49057886042597
 20
-116.3637844218639
 10
96.49057886042597
 20
-116.1839504375339
 10
96.49057886042597
 20
-116.1839504375339
 10
96.61529131699201
 20
-116.1923909214727
 10
96.7889241294486
 20
-116.1966972908293
 10
96.87126191154607
 20
-116.1966972908293
 10
96.87126191154607
 20
-116.1966972908293
 10
96.95394420319208
 20
-116.1966972908293
 10
96.95394420319208
 20
-116.1966972908293
 10
96.95394420319208
 20
-116.033744274377
 10
96.95394420319208
 20
-116.023236733147
 10
96.9515326363524
 20
-115.9682874601572
 10
96.9515326363524
 20
-115.9682874601572
 10
97.17580835244216
 20
-115.9936089119738
 10
97.17580835244216
 20
-115.9936089119738
 10
97.18028697657299
 20
-115.9936089119738
 10
97.20130205903301
 20
-115.995675969265
 10
97.20130205903301
 20
-116.0125569371427
 10
97.20130205903301
 20
-116.0273708477293
 10
97.19062226302874
 20
-116.0359835864424
 10
97.16306149914674
 20
-116.050797497029
 10
97.1568603272733
 20
-116.1162543112487
 10
97.15479326998214
 20
-116.137441648483
 10
97.15479326998214
 20
-116.1966972908293
 10
97.15479326998214
 20
-116.1966972908293
 10
97.24987790537503
 20
-116.1966972908293
 10
97.24987790537503
 20
-116.1966972908293
 10
97.33256019702102
 20
-116.1966972908293
 10
97.5058484999291
 20
-116.1923909214727
 10
97.63090546604367
 20
-116.1839504375339
 10
97.63090546604367
 20
-116.1839504375339
 10
97.63090546604367
 20
-116.3637844218639
 10
97.63090546604367
 20
-116.3637844218639
 10
97.60127764487052
 20
-116.3617173645728
 10
97.48276636017792
 20
-116.3574109952162
 10
97.4424587430005
 20
-116.3553439379251
 10
97.42764483241393
 20
-116.4061590963325
 10
97.39388289665848
 20
-116.5182969543774
 10
97.32808157289021
 20
-116.65782332153
 10
97.37045624735877
 20
-116.65782332153
 10
97.6477864339214
 20
-116.6388752963611
 10
97.70910913355884
 20
-116.6366359842957
 10
97.70910913355884
 20
-116.6366359842957
 10
97.70910913355884
 20
-116.8207763379823
 10
97.70910913355884
 20
-116.8207763379823
 10
97.67948131238569
 20
-116.8207763379823
 10
97.66260034450796
 20
-116.8164699686258
 10
97.49964732805564
 20
-116.8164699686258
 97
        0
 97
        0
 92
        1
 93
        1
 72
     4
 94
        3
 73
     0
 74
     1
 95
       20
 96
       16
 40
0.0
 40
0.0
 40
0.0
 40
0.0
 40
1.0
 40
1.0
 40
1.0
 40
2.0
 40
2.0
 40
2.0
 40
3.0
 40
3.0
 40
3.0
 40
4.0
 40
4.0
 40
4.0
 40
5.0
 40
5.0
 40
5.0
 40
5.0
 10
96.87126191154607
 20
-116.3512098233428
 10
96.87126191154607
 20
-116.3512098233428
 10
96.83956703308178
 20
-116.3512098233428
 10
96.83956703308178
 20
-116.3512098233428
 10
96.88607582213265
 20
-116.4506008280922
 10
96.91777070059695
 20
-116.5308715528985
 10
96.9515326363524
 20
-116.65782332153
 10
96.9515326363524
 20
-116.65782332153
 10
97.15892738456444
 20
-116.65782332153
 10
97.15892738456444
 20
-116.65782332153
 10
97.19062226302874
 20
-116.5648057434283
 10
97.21404891232844
 20
-116.4802286492654
 10
97.2371310520796
 20
-116.3512098233428
 10
97.2371310520796
 20
-116.3512098233428
 10
96.87126191154607
 20
-116.3512098233428
 10
96.87126191154607
 20
-116.3512098233428
 97
        0
 97
        0
 92
        1
 93
        1
 72
     4
 94
        3
 73
     0
 74
     1
 95
       17
 96
       13
 40
0.0
 40
0.0
 40
0.0
 40
0.0
 40
1.0
 40
1.0
 40
1.0
 40
2.0
 40
2.0
 40
2.0
 40
3.0
 40
3.0
 40
3.0
 40
4.0
 40
4.0
 40
4.0
 40
4.0
 10
96.93465166847467
 20
-117.2016316438767
 10
96.91777070059695
 20
-117.2310872102756
 10
96.86712779696377
 20
-117.3242770431516
 10
96.8564480009595
 20
-117.3432250683205
 10
97.04696178129382
 20
-117.4024807106668
 10
97.06797686375384
 20
-117.4088541373145
 10
97.13997935939557
 20
-117.4364149011965
 10
97.19510088715957
 20
-117.3495984949682
 10
97.21818302691074
 20
-117.2755289420353
 10
97.2329969374973
 20
-117.2016316438767
 10
97.2329969374973
 20
-117.2016316438767
 10
96.93465166847467
 20
-117.2016316438767
 10
96.93465166847467
 20
-117.2016316438767
 97
        0
 97
        0
 75
     2
 76
     1
 98
        0
  0
SPLINE
  5
7E
330
76
100
AcDbEntity
  8
_U+30EC_U+30A4_U+30E4_U+30FC 1
370
     0
100
AcDbSpline
210
0.0
220
0.0
230
1.0
 70
    11
 71
     3
 72
   203
 73
   199
 74
     0
 42
0.0000000001
 43
0.0000000001
 12
1.0
 22
0.0
 32
0.0
 13
1.0
 23
0.0
 33
0.0
 40
0.0
 40
0.0
 40
0.0
 40
0.0
 40
1.0
 40
1.0
 40
1.0
 40
2.0
 40
2.0
 40
2.0
 40
3.0
 40
3.0
 40
3.0
 40
4.0
 40
4.0
 40
4.0
 40
5.0
 40
5.0
 40
5.0
 40
6.0
 40
6.0
 40
6.0
 40
7.0
 40
7.0
 40
7.0
 40
8.0
 40
8.0
 40
8.0
 40
9.0
 40
9.0
 40
9.0
 40
10.0
 40
10.0
 40
10.0
 40
11.0
 40
11.0
 40
11.0
 40
12.0
 40
12.0
 40
12.0
 40
13.0
 40
13.0
 40
13.0
 40
14.0
 40
14.0
 40
14.0
 40
15.0
 40
15.0
 40
15.0
 40
16.0
 40
16.0
 40
16.0
 40
17.0
 40
17.0
 40
17.0
 40
18.0
 40
18.0
 40
18.0
 40
19.0
 40
19.0
 40
19.0
 40
20.0
 40
20.0
 40
20.0
 40
21.0
 40
21.0
 40
21.0
 40
22.0
 40
22.0
 40
22.0
 40
23.0
 40
23.0
 40
23.0
 40
24.0
 40
24.0
 40
24.0
 40
25.0
 40
25.0
 40
25.0
 40
26.0
 40
26.0
 40
26.0
 40
27.0
 40
27.0
 40
27.0
 40
28.0
 40
28.0
 40
28.0
 40
29.0
 40
29.0
 40
29.0
 40
30.0
 40
30.0
 40
30.0
 40
31.0
 40
31.0
 40
31.0
 40
32.0
 40
32.0
 40
32.0
 40
33.0
 40
33.0
 40
33.0
 40
34.0
 40
34.0
 40
34.0
 40
35.0
 40
35.0
 40
35.0
 40
36.0
 40
36.0
 40
36.0
 40
37.0
 40
37.0
 40
37.0
 40
38.0
 40
38.0
 40
38.0
 40
39.0
 40
39.0
 40
39.0
 40
40.0
 40
40.0
 40
40.0
 40
41.0
 40
41.0
 40
41.0
 40
42.0
 40
42.0
 40
42.0
 40
43.0
 40
43.0
 40
43.0
 40
44.0
 40
44.0
 40
44.0
 40
45.0
 40
45.0
 40
45.0
 40
46.0
 40
46.0
 40
46.0
 40
47.0
 40
47.0
 40
47.0
 40
48.0
 40
48.0
 40
48.0
 40
49.0
 40
49.0
 40
49.0
 40
50.0
 40
50.0
 40
50.0
 40
51.0
 40
51.0
 40
51.0
 40
52.0
 40
52.0
 40
52.0
 40
53.0
 40
53.0
 40
53.0
 40
54.0
 40
54.0
 40
54.0
 40
55.0
 40
55.0
 40
55.0
 40
56.0
 40
56.0
 40
56.0
 40
57.0
 40
57.0
 40
57.0
 40
58.0
 40
58.0
 40
58.0
 40
59.0
 40
59.0
 40
59.0
 40
60.0
 40
60.0
 40
60.0
 40
61.0
 40
61.0
 40
61.0
 40
62.0
 40
62.0
 40
62.0
 40
63.0
 40
63.0
 40
63.0
 40
64.0
 40
64.0
 40
64.0
 40
65.0
 40
65.0
 40
65.0
 40
66.0
 40
66.0
 40
66.0
 40
66.0
 10
99.19118921131331
 20
-116.8841660949109
 30
0.0
 10
99.19118921131331
 20
-116.8841660949109
 30
0.0
 10
98.6323947236058
 20
-116.8841660949109
 30
0.0
 10
98.6323947236058
 20
-116.8841660949109
 30
0.0
 10
98.62205943715004
 20
-116.9286078266706
 30
0.0
 10
98.61344669843692
 20
-116.9603027051349
 30
0.0
 10
98.60069984514149
 20
-116.9985432650212
 30
0.0
 10
98.62619355173234
 20
-116.9985432650212
 30
0.0
 10
98.64100746231892
 20
-117.0006103223124
 30
0.0
 10
98.64720863419237
 20
-117.0006103223124
 30
0.0
 10
98.64720863419237
 20
-117.0006103223124
 30
0.0
 10
98.83565535723554
 20
-117.0006103223124
 30
0.0
 10
98.83565535723554
 20
-117.0006103223124
 30
0.0
 10
98.83565535723554
 20
-117.0006103223124
 30
0.0
 10
99.2101372364822
 20
-117.0006103223124
 30
0.0
 10
99.2101372364822
 20
-117.0006103223124
 30
0.0
 10
99.26078014011536
 20
-117.0006103223124
 30
0.0
 10
99.54431149855142
 20
-116.9878634690169
 30
0.0
 10
99.57600637701573
 20
-116.9878634690169
 30
0.0
 10
99.57393931972457
 20
-117.0154242328989
 30
0.0
 10
99.57187226243343
 20
-117.0343722580678
 30
0.0
 10
99.57187226243343
 20
-117.064000079241
 30
0.0
 10
99.56980520514227
 20
-117.0956949577052
 30
0.0
 10
99.56980520514227
 20
-117.2310872102756
 30
0.0
 10
99.56980520514227
 20
-117.2586479741576
 30
0.0
 10
99.56980520514227
 20
-117.2586479741576
 30
0.0
 10
99.56980520514227
 20
-117.5041110274816
 30
0.0
 10
99.56980520514227
 20
-117.5041110274816
 30
0.0
 10
99.56980520514227
 20
-117.5485527592413
 30
0.0
 10
99.57393931972457
 20
-117.7452677114491
 30
0.0
 10
99.57807343430687
 20
-117.8975409318972
 30
0.0
 10
99.57807343430687
 20
-117.8975409318972
 30
0.0
 10
99.35173066092597
 20
-117.8975409318972
 30
0.0
 10
99.35173066092597
 20
-117.8975409318972
 30
0.0
 10
99.35173066092597
 20
-117.8975409318972
 30
0.0
 10
99.35379771821711
 20
-117.8637789961417
 30
0.0
 10
99.35379771821711
 20
-117.8637789961417
 30
0.0
 10
99.35379771821711
 20
-117.8637789961417
 30
0.0
 10
98.6516872583232
 20
-117.8637789961417
 30
0.0
 10
98.6516872583232
 20
-117.8637789961417
 30
0.0
 10
98.6516872583232
 20
-117.8637789961417
 30
0.0
 10
98.65375431561435
 20
-117.8975409318972
 30
0.0
 10
98.65375431561435
 20
-117.8975409318972
 30
0.0
 10
98.65375431561435
 20
-117.8975409318972
 30
0.0
 10
98.43567977139803
 20
-117.8975409318972
 30
0.0
 10
98.43567977139803
 20
-117.8975409318972
 30
0.0
 10
98.44015839552885
 20
-117.8425916589074
 30
0.0
 10
98.44015839552885
 20
-117.829844805612
 30
0.0
 10
98.4463595674023
 20
-117.715639890276
 30
0.0
 10
98.44842662469345
 20
-117.688079126394
 30
0.0
 10
98.4504936819846
 20
-117.554926185889
 30
0.0
 10
98.4504936819846
 20
-117.5358059059459
 30
0.0
 10
98.4504936819846
 20
-117.5358059059459
 30
0.0
 10
98.4504936819846
 20
-117.3327175270904
 30
0.0
 10
98.4504936819846
 20
-117.3327175270904
 30
0.0
 10
98.31096731483198
 20
-117.5823146949968
 30
0.0
 10
98.14181312650622
 20
-117.7135728329848
 30
0.0
 10
98.03604869510905
 20
-117.7790296472046
 30
0.0
 10
98.03604869510905
 20
-117.7790296472046
 30
0.0
 10
97.86241588265246
 20
-117.6395032800519
 30
0.0
 10
97.86241588265246
 20
-117.6395032800519
 30
0.0
 10
97.95129934617191
 20
-117.5886881216445
 30
0.0
 10
98.09530433745535
 20
-117.5018717154162
 30
0.0
 10
98.23276364731682
 20
-117.3073960752739
 30
0.0
 10
98.32371416812741
 20
-117.1804443066424
 30
0.0
 10
98.38917098234715
 20
-117.0366115701332
 30
0.0
 10
98.42327742765113
 20
-116.8841660949109
 30
0.0
 10
98.19452308743054
 20
-116.8864054069763
 30
0.0
 10
98.0146891031005
 20
-116.892778833624
 30
0.0
 10
97.9196044677076
 20
-116.8948458909152
 30
0.0
 10
97.9196044677076
 20
-116.8948458909152
 30
0.0
 10
97.9196044677076
 20
-116.7170789638763
 30
0.0
 10
97.9196044677076
 20
-116.7170789638763
 30
0.0
 10
98.11631941991537
 20
-116.723452390524
 30
0.0
 10
98.39985077835144
 20
-116.7277587598806
 30
0.0
 10
98.55005694150833
 20
-116.7277587598806
 30
0.0
 10
98.55005694150833
 20
-116.7277587598806
 30
0.0
 10
98.76365286159381
 20
-116.7277587598806
 30
0.0
 10
98.76365286159381
 20
-116.7277587598806
 30
0.0
 10
98.76365286159381
 20
-116.7277587598806
 30
0.0
 10
98.76365286159381
 20
-116.619755016418
 30
0.0
 10
98.76365286159381
 20
-116.619755016418
 30
0.0
 10
98.76365286159381
 20
-116.619755016418
 30
0.0
 10
98.61758081301922
 20
-116.619755016418
 30
0.0
 10
98.61758081301922
 20
-116.619755016418
 30
0.0
 10
98.44842662469345
 20
-116.619755016418
 30
0.0
 10
98.27927243636769
 20
-116.6240613857745
 30
0.0
 10
98.11218530533307
 20
-116.6304348124223
 30
0.0
 10
98.11218530533307
 20
-116.6304348124223
 30
0.0
 10
98.11218530533307
 20
-116.4590413120311
 30
0.0
 10
98.11218530533307
 20
-116.4590413120311
 30
0.0
 10
98.26652558307227
 20
-116.4695488532611
 30
0.0
 10
98.45256073927575
 20
-116.4695488532611
 30
0.0
 10
98.61758081301922
 20
-116.4695488532611
 30
0.0
 10
98.61758081301922
 20
-116.4695488532611
 30
0.0
 10
98.76365286159381
 20
-116.4695488532611
 30
0.0
 10
98.76365286159381
 20
-116.4695488532611
 30
0.0
 10
98.76365286159381
 20
-116.4695488532611
 30
0.0
 10
98.76365286159381
 20
-116.3512098233428
 30
0.0
 10
98.76365286159381
 20
-116.3512098233428
 30
0.0
 10
98.76365286159381
 20
-116.3512098233428
 30
0.0
 10
98.6323947236058
 20
-116.3512098233428
 30
0.0
 10
98.6323947236058
 20
-116.3512098233428
 30
0.0
 10
98.58588593455492
 20
-116.3512098233428
 30
0.0
 10
98.38296981047371
 20
-116.3596503072816
 30
0.0
 10
98.34059513600513
 20
-116.3596503072816
 30
0.0
 10
98.13767901192392
 20
-116.3637844218639
 30
0.0
 10
98.06119789215137
 20
-116.3658514791551
 30
0.0
 10
97.9829942246362
 20
-116.3680907912205
 30
0.0
 10
97.9829942246362
 20
-116.3680907912205
 30
0.0
 10
97.9829942246362
 20
-116.1839504375339
 30
0.0
 10
97.9829942246362
 20
-116.1839504375339
 30
0.0
 10
98.09737139474649
 20
-116.1923909214727
 30
0.0
 10
98.14181312650622
 20
-116.1923909214727
 30
0.0
 10
98.52456323491748
 20
-116.2010036601859
 30
0.0
 10
98.46117347798888
 20
-116.1057467700187
 30
0.0
 10
98.43361271410689
 20
-116.0781860061367
 30
0.0
 10
98.39778372106028
 20
-116.0421847583158
 30
0.0
 10
98.39778372106028
 20
-116.0421847583158
 30
0.0
 10
98.5731390812595
 20
-115.9596747214441
 30
0.0
 10
98.5731390812595
 20
-115.9596747214441
 30
0.0
 10
98.61344669843692
 20
-115.995675969265
 30
0.0
 10
98.65788843019665
 20
-116.0380506437335
 30
0.0
 10
98.73195798312952
 20
-116.147949189713
 30
0.0
 10
98.73195798312952
 20
-116.147949189713
 30
0.0
 10
98.61758081301922
 20
-116.203070717477
 30
0.0
 10
98.61758081301922
 20
-116.203070717477
 30
0.0
 10
98.61758081301922
 20
-116.203070717477
 30
0.0
 10
98.6282606090235
 20
-116.203070717477
 30
0.0
 10
98.6282606090235
 20
-116.203070717477
 30
0.0
 10
98.6282606090235
 20
-116.203070717477
 30
0.0
 10
99.1508815941359
 20
-116.203070717477
 30
0.0
 10
99.1508815941359
 20
-116.203070717477
 30
0.0
 10
99.1508815941359
 20
-116.203070717477
 30
0.0
 10
99.055796958743
 20
-116.1586289857173
 30
0.0
 10
99.055796958743
 20
-116.1586289857173
 30
0.0
 10
99.08301321307647
 20
-116.1205606806053
 30
0.0
 10
99.14020179813163
 20
-116.0401177010247
 30
0.0
 10
99.1550157087182
 20
-115.9660481480918
 30
0.0
 10
99.1550157087182
 20
-115.9660481480918
 30
0.0
 10
99.36861162880369
 20
-116.0296101597947
 30
0.0
 10
99.36861162880369
 20
-116.0296101597947
 30
0.0
 10
99.3772243675168
 20
-116.0316772170858
 30
0.0
 10
99.39823944997683
 20
-116.0421847583158
 30
0.0
 10
99.39823944997683
 20
-116.0633720955501
 30
0.0
 10
99.39823944997683
 20
-116.1014404006621
 30
0.0
 10
99.33278263575708
 20
-116.1014404006621
 30
0.0
 10
99.31383461058822
 20
-116.1014404006621
 30
0.0
 10
99.30315481458393
 20
-116.1205606806053
 30
0.0
 10
99.27972816528424
 20
-116.1606960430084
 30
0.0
 10
99.25010034411109
 20
-116.2010036601859
 30
0.0
 10
99.6500759299486
 20
-116.1946302335381
 30
0.0
 10
99.67970375112175
 20
-116.1923909214727
 30
0.0
 10
99.75584036134576
 20
-116.1861897495993
 30
0.0
 10
99.75584036134576
 20
-116.1861897495993
 30
0.0
 10
99.75584036134576
 20
-116.3680907912205
 30
0.0
 10
99.75584036134576
 20
-116.3680907912205
 30
0.0
 10
99.7368923361769
 20
-116.3680907912205
 30
0.0
 10
99.71139862958604
 20
-116.3658514791551
 30
0.0
 10
99.4916015376271
 20
-116.3574109952162
 30
0.0
 10
99.4406141244454
 20
-116.3553439379251
 30
0.0
 10
99.22081703248647
 20
-116.3512098233428
 30
0.0
 10
99.17637530072675
 20
-116.3512098233428
 30
0.0
 10
99.17637530072675
 20
-116.3512098233428
 30
0.0
 10
98.96036781380158
 20
-116.3512098233428
 30
0.0
 10
98.96036781380158
 20
-116.3512098233428
 30
0.0
 10
98.96036781380158
 20
-116.3512098233428
 30
0.0
 10
98.96036781380158
 20
-116.4695488532611
 30
0.0
 10
98.96036781380158
 20
-116.4695488532611
 30
0.0
 10
98.96036781380158
 20
-116.4695488532611
 30
0.0
 10
99.13400062625817
 20
-116.4695488532611
 30
0.0
 10
99.13400062625817
 20
-116.4695488532611
 30
0.0
 10
99.29695364271049
 20
-116.4695488532611
 30
0.0
 10
99.48712291349628
 20
-116.4695488532611
 30
0.0
 10
99.64387475807514
 20
-116.4590413120311
 30
0.0
 10
99.64387475807514
 20
-116.4590413120311
 30
0.0
 10
99.64387475807514
 20
-116.6304348124223
 30
0.0
 10
99.64387475807514
 20
-116.6304348124223
 30
0.0
 10
99.43441295257196
 20
-116.6219943284834
 30
0.0
 10
99.23769800036419
 20
-116.619755016418
 30
0.0
 10
99.13400062625817
 20
-116.619755016418
 30
0.0
 10
99.13400062625817
 20
-116.619755016418
 30
0.0
 10
98.96036781380158
 20
-116.619755016418
 30
0.0
 10
98.96036781380158
 20
-116.619755016418
 30
0.0
 10
98.96036781380158
 20
-116.619755016418
 30
0.0
 10
98.96036781380158
 20
-116.7277587598806
 30
0.0
 10
98.96036781380158
 20
-116.7277587598806
 30
0.0
 10
98.96036781380158
 20
-116.7277587598806
 30
0.0
 10
99.19118921131331
 20
-116.7277587598806
 30
0.0
 10
99.19118921131331
 20
-116.7277587598806
 30
0.0
 10
99.32416989704396
 20
-116.7277587598806
 30
0.0
 10
99.61217987961085
 20
-116.723452390524
 30
0.0
 10
99.82129717556552
 20
-116.7170789638763
 30
0.0
 10
99.82129717556552
 20
-116.7170789638763
 30
0.0
 10
99.82129717556552
 20
-116.8948458909152
 30
0.0
 10
99.82129717556552
 20
-116.8948458909152
 30
0.0
 10
99.62906084748857
 20
-116.8884724642675
 30
0.0
 10
99.31590166787936
 20
-116.8841660949109
 30
0.0
 10
99.19118921131331
 20
-116.8841660949109
 30
0.0
  0
POLYLINE
  5
7F
330
76
100
AcDbEntity
  8
_U+30EC_U+30A4_U+30E4_U+30FC 1
370
     0
100
AcDb2dPolyline
 66
     1
 10
0.0
 20
0.0
 30
0.0
  0
VERTEX
  5
80
330
7F
100
AcDbEntity
  8
_U+30EC_U+30A4_U+30E4_U+30FC 1
370
     0
100
AcDbVertex
100
AcDb2dVertex
 10
99.35620928505679
 20
-117.140136689465
 30
0.0
  0
VERTEX
  5
81
330
7F
100
AcDbEntity
  8
_U+30EC_U+30A4_U+30E4_U+30FC 1
370
     0
100
AcDbVertex
100
AcDb2dVertex
 10
98.64962020103205
 20
-117.140136689465
 30
0.0
  0
VERTEX
  5
82
330
7F
100
AcDbEntity
  8
_U+30EC_U+30A4_U+30E4_U+30FC 1
370
     0
100
AcDbVertex
100
AcDb2dVertex
 10
98.64962020103205
 20
-117.2481404329276
 30
0.0
  0
VERTEX
  5
83
330
7F
100
AcDbEntity
  8
_U+30EC_U+30A4_U+30E4_U+30FC 1
370
     0
100
AcDbVertex
100
AcDb2dVertex
 10
99.35620928505679
 20
-117.2481404329276
 30
0.0
  0
VERTEX
  5
84
330
7F
100
AcDbEntity
  8
_U+30EC_U+30A4_U+30E4_U+30FC 1
370
     0
100
AcDbVertex
100
AcDb2dVertex
 10
99.35620928505679
 20
-117.140136689465
 30
0.0
  0
SEQEND
  5
85
330
7F
100
AcDbEntity
  8
_U+30EC_U+30A4_U+30E4_U+30FC 1
370
     0
  0
POLYLINE
  5
86
330
76
100
AcDbEntity
  8
_U+30EC_U+30A4_U+30E4_U+30FC 1
370
     0
100
AcDb2dPolyline
 66
     1
 10
0.0
 20
0.0
 30
0.0
  0
VERTEX
  5
87
330
86
100
AcDbEntity
  8
_U+30EC_U+30A4_U+30E4_U+30FC 1
370
     0
100
AcDbVertex
100
AcDb2dVertex
 10
99.35620928505679
 20
-117.3728528894936
 30
0.0
  0
VERTEX
  5
88
330
86
100
AcDbEntity
  8
_U+30EC_U+30A4_U+30E4_U+30FC 1
370
     0
100
AcDbVertex
100
AcDb2dVertex
 10
98.64962020103205
 20
-117.3728528894936
 30
0.0
  0
VERTEX
  5
89
330
86
100
AcDbEntity
  8
_U+30EC_U+30A4_U+30E4_U+30FC 1
370
     0
100
AcDbVertex
100
AcDb2dVertex
 10
98.64962020103205
 20
-117.4872300596039
 30
0.0
  0
VERTEX
  5
8A
330
86
100
AcDbEntity
  8
_U+30EC_U+30A4_U+30E4_U+30FC 1
370
     0
100
AcDbVertex
100
AcDb2dVertex
 10
99.35620928505679
 20
-117.4872300596039
 30
0.0
  0
VERTEX
  5
8B
330
86
100
AcDbEntity
  8
_U+30EC_U+30A4_U+30E4_U+30FC 1
370
     0
100
AcDbVertex
100
AcDb2dVertex
 10
99.35620928505679
 20
-117.3728528894936
 30
0.0
  0
SEQEND
  5
8C
330
86
100
AcDbEntity
  8
_U+30EC_U+30A4_U+30E4_U+30FC 1
370
     0
  0
POLYLINE
  5
8D
330
76
100
AcDbEntity
  8
_U+30EC_U+30A4_U+30E4_U+30FC 1
370
     0
100
AcDb2dPolyline
 66
     1
 10
0.0
 20
0.0
 30
0.0
  0
VERTEX
  5
8E
330
8D
100
AcDbEntity
  8
_U+30EC_U+30A4_U+30E4_U+30FC 1
370
     0
100
AcDbVertex
100
AcDb2dVertex
 10
99.35620928505679
 20
-117.6162488855265
 30
0.0
  0
VERTEX
  5
8F
330
8D
100
AcDbEntity
  8
_U+30EC_U+30A4_U+30E4_U+30FC 1
370
     0
100
AcDbVertex
100
AcDb2dVertex
 10
98.64962020103205
 20
-117.6162488855265
 30
0.0
  0
VERTEX
  5
90
330
8D
100
AcDbEntity
  8
_U+30EC_U+30A4_U+30E4_U+30FC 1
370
     0
100
AcDbVertex
100
AcDb2dVertex
 10
98.64962020103205
 20
-117.7304538008625
 30
0.0
  0
VERTEX
  5
91
330
8D
100
AcDbEntity
  8
_U+30EC_U+30A4_U+30E4_U+30FC 1
370
     0
100
AcDbVertex
100
AcDb2dVertex
 10
99.35620928505679
 20
-117.7304538008625
 30
0.0
  0
VERTEX
  5
92
330
8D
100
AcDbEntity
  8
_U+30EC_U+30A4_U+30E4_U+30FC 1
370
     0
100
AcDbVertex
100
AcDb2dVertex
 10
99.35620928505679
 20
-117.6162488855265
 30
0.0
  0
SEQEND
  5
93
330
8D
100
AcDbEntity
  8
_U+30EC_U+30A4_U+30E4_U+30FC 1
370
     0
  0
HATCH
  5
94
330
76
100
AcDbEntity
  8
_U+30EC_U+30A4_U+30E4_U+30FC 1
 62
   179
420
  2234388
100
AcDbHatch
 10
0.0
 20
0.0
 30
0.0
210
0.0
220
0.0
230
1.0
  2
SOLID
 70
     1
 71
     0
 91
        4
 92
        1
 93
        1
 72
     4
 94
        3
 73
     0
 74
     1
 95
      203
 96
      199
 40
0.0
 40
0.0
 40
0.0
 40
0.0
 40
1.0
 40
1.0
 40
1.0
 40
2.0
 40
2.0
 40
2.0
 40
3.0
 40
3.0
 40
3.0
 40
4.0
 40
4.0
 40
4.0
 40
5.0
 40
5.0
 40
5.0
 40
6.0
 40
6.0
 40
6.0
 40
7.0
 40
7.0
 40
7.0
 40
8.0
 40
8.0
 40
8.0
 40
9.0
 40
9.0
 40
9.0
 40
10.0
 40
10.0
 40
10.0
 40
11.0
 40
11.0
 40
11.0
 40
12.0
 40
12.0
 40
12.0
 40
13.0
 40
13.0
 40
13.0
 40
14.0
 40
14.0
 40
14.0
 40
15.0
 40
15.0
 40
15.0
 40
16.0
 40
16.0
 40
16.0
 40
17.0
 40
17.0
 40
17.0
 40
18.0
 40
18.0
 40
18.0
 40
19.0
 40
19.0
 40
19.0
 40
20.0
 40
20.0
 40
20.0
 40
21.0
 40
21.0
 40
21.0
 40
22.0
 40
22.0
 40
22.0
 40
23.0
 40
23.0
 40
23.0
 40
24.0
 40
24.0
 40
24.0
 40
25.0
 40
25.0
 40
25.0
 40
26.0
 40
26.0
 40
26.0
 40
27.0
 40
27.0
 40
27.0
 40
28.0
 40
28.0
 40
28.0
 40
29.0
 40
29.0
 40
29.0
 40
30.0
 40
30.0
 40
30.0
 40
31.0
 40
31.0
 40
31.0
 40
32.0
 40
32.0
 40
32.0
 40
33.0
 40
33.0
 40
33.0
 40
34.0
 40
34.0
 40
34.0
 40
35.0
 40
35.0
 40
35.0
 40
36.0
 40
36.0
 40
36.0
 40
37.0
 40
37.0
 40
37.0
 40
38.0
 40
38.0
 40
38.0
 40
39.0
 40
39.0
 40
39.0
 40
40.0
 40
40.0
 40
40.0
 40
41.0
 40
41.0
 40
41.0
 40
42.0
 40
42.0
 40
42.0
 40
43.0
 40
43.0
 40
43.0
 40
44.0
 40
44.0
 40
44.0
 40
45.0
 40
45.0
 40
45.0
 40
46.0
 40
46.0
 40
46.0
 40
47.0
 40
47.0
 40
47.0
 40
48.0
 40
48.0
 40
48.0
 40
49.0
 40
49.0
 40
49.0
 40
50.0
 40
50.0
 40
50.0
 40
51.0
 40
51.0
 40
51.0
 40
52.0
 40
52.0
 40
52.0
 40
53.0
 40
53.0
 40
53.0
 40
54.0
 40
54.0
 40
54.0
 40
55.0
 40
55.0
 40
55.0
 40
56.0
 40
56.0
 40
56.0
 40
57.0
 40
57.0
 40
57.0
 40
58.0
 40
58.0
 40
58.0
 40
59.0
 40
59.0
 40
59.0
 40
60.0
 40
60.0
 40
60.0
 40
61.0
 40
61.0
 40
61.0
 40
62.0
 40
62.0
 40
62.0
 40
63.0
 40
63.0
 40
63.0
 40
64.0
 40
64.0
 40
64.0
 40
65.0
 40
65.0
 40
65.0
 40
66.0
 40
66.0
 40
66.0
 40
66.0
 10
99.19118921131331
 20
-116.8841660949109
 10
99.19118921131331
 20
-116.8841660949109
 10
98.6323947236058
 20
-116.8841660949109
 10
98.6323947236058
 20
-116.8841660949109
 10
98.62205943715004
 20
-116.9286078266706
 10
98.61344669843692
 20
-116.9603027051349
 10
98.60069984514149
 20
-116.9985432650212
 10
98.62619355173234
 20
-116.9985432650212
 10
98.64100746231892
 20
-117.0006103223124
 10
98.64720863419237
 20
-117.0006103223124
 10
98.64720863419237
 20
-117.0006103223124
 10
98.83565535723554
 20
-117.0006103223124
 10
98.83565535723554
 20
-117.0006103223124
 10
98.83565535723554
 20
-117.0006103223124
 10
99.2101372364822
 20
-117.0006103223124
 10
99.2101372364822
 20
-117.0006103223124
 10
99.26078014011536
 20
-117.0006103223124
 10
99.54431149855142
 20
-116.9878634690169
 10
99.57600637701573
 20
-116.9878634690169
 10
99.57393931972457
 20
-117.0154242328989
 10
99.57187226243343
 20
-117.0343722580678
 10
99.57187226243343
 20
-117.064000079241
 10
99.56980520514227
 20
-117.0956949577052
 10
99.56980520514227
 20
-117.2310872102756
 10
99.56980520514227
 20
-117.2586479741576
 10
99.56980520514227
 20
-117.2586479741576
 10
99.56980520514227
 20
-117.5041110274816
 10
99.56980520514227
 20
-117.5041110274816
 10
99.56980520514227
 20
-117.5485527592413
 10
99.57393931972457
 20
-117.7452677114491
 10
99.57807343430687
 20
-117.8975409318972
 10
99.57807343430687
 20
-117.8975409318972
 10
99.35173066092597
 20
-117.8975409318972
 10
99.35173066092597
 20
-117.8975409318972
 10
99.35173066092597
 20
-117.8975409318972
 10
99.35379771821711
 20
-117.8637789961417
 10
99.35379771821711
 20
-117.8637789961417
 10
99.35379771821711
 20
-117.8637789961417
 10
98.6516872583232
 20
-117.8637789961417
 10
98.6516872583232
 20
-117.8637789961417
 10
98.6516872583232
 20
-117.8637789961417
 10
98.65375431561435
 20
-117.8975409318972
 10
98.65375431561435
 20
-117.8975409318972
 10
98.65375431561435
 20
-117.8975409318972
 10
98.43567977139803
 20
-117.8975409318972
 10
98.43567977139803
 20
-117.8975409318972
 10
98.44015839552885
 20
-117.8425916589074
 10
98.44015839552885
 20
-117.829844805612
 10
98.4463595674023
 20
-117.715639890276
 10
98.44842662469345
 20
-117.688079126394
 10
98.4504936819846
 20
-117.554926185889
 10
98.4504936819846
 20
-117.5358059059459
 10
98.4504936819846
 20
-117.5358059059459
 10
98.4504936819846
 20
-117.3327175270904
 10
98.4504936819846
 20
-117.3327175270904
 10
98.31096731483198
 20
-117.5823146949968
 10
98.14181312650622
 20
-117.7135728329848
 10
98.03604869510905
 20
-117.7790296472046
 10
98.03604869510905
 20
-117.7790296472046
 10
97.86241588265246
 20
-117.6395032800519
 10
97.86241588265246
 20
-117.6395032800519
 10
97.95129934617191
 20
-117.5886881216445
 10
98.09530433745535
 20
-117.5018717154162
 10
98.23276364731682
 20
-117.3073960752739
 10
98.32371416812741
 20
-117.1804443066424
 10
98.38917098234715
 20
-117.0366115701332
 10
98.42327742765113
 20
-116.8841660949109
 10
98.19452308743054
 20
-116.8864054069763
 10
98.0146891031005
 20
-116.892778833624
 10
97.9196044677076
 20
-116.8948458909152
 10
97.9196044677076
 20
-116.8948458909152
 10
97.9196044677076
 20
-116.7170789638763
 10
97.9196044677076
 20
-116.7170789638763
 10
98.11631941991537
 20
-116.723452390524
 10
98.39985077835144
 20
-116.7277587598806
 10
98.55005694150833
 20
-116.7277587598806
 10
98.55005694150833
 20
-116.7277587598806
 10
98.76365286159381
 20
-116.7277587598806
 10
98.76365286159381
 20
-116.7277587598806
 10
98.76365286159381
 20
-116.7277587598806
 10
98.76365286159381
 20
-116.619755016418
 10
98.76365286159381
 20
-116.619755016418
 10
98.76365286159381
 20
-116.619755016418
 10
98.61758081301922
 20
-116.619755016418
 10
98.61758081301922
 20
-116.619755016418
 10
98.44842662469345
 20
-116.619755016418
 10
98.27927243636769
 20
-116.6240613857745
 10
98.11218530533307
 20
-116.6304348124223
 10
98.11218530533307
 20
-116.6304348124223
 10
98.11218530533307
 20
-116.4590413120311
 10
98.11218530533307
 20
-116.4590413120311
 10
98.26652558307227
 20
-116.4695488532611
 10
98.45256073927575
 20
-116.4695488532611
 10
98.61758081301922
 20
-116.4695488532611
 10
98.61758081301922
 20
-116.4695488532611
 10
98.76365286159381
 20
-116.4695488532611
 10
98.76365286159381
 20
-116.4695488532611
 10
98.76365286159381
 20
-116.4695488532611
 10
98.76365286159381
 20
-116.3512098233428
 10
98.76365286159381
 20
-116.3512098233428
 10
98.76365286159381
 20
-116.3512098233428
 10
98.6323947236058
 20
-116.3512098233428
 10
98.6323947236058
 20
-116.3512098233428
 10
98.58588593455492
 20
-116.3512098233428
 10
98.38296981047371
 20
-116.3596503072816
 10
98.34059513600513
 20
-116.3596503072816
 10
98.13767901192392
 20
-116.3637844218639
 10
98.06119789215137
 20
-116.3658514791551
 10
97.9829942246362
 20
-116.3680907912205
 10
97.9829942246362
 20
-116.3680907912205
 10
97.9829942246362
 20
-116.1839504375339
 10
97.9829942246362
 20
-116.1839504375339
 10
98.09737139474649
 20
-116.1923909214727
 10
98.14181312650622
 20
-116.1923909214727
 10
98.52456323491748
 20
-116.2010036601859
 10
98.46117347798888
 20
-116.1057467700187
 10
98.43361271410689
 20
-116.0781860061367
 10
98.39778372106028
 20
-116.0421847583158
 10
98.39778372106028
 20
-116.0421847583158
 10
98.5731390812595
 20
-115.9596747214441
 10
98.5731390812595
 20
-115.9596747214441
 10
98.61344669843692
 20
-115.995675969265
 10
98.65788843019665
 20
-116.0380506437335
 10
98.73195798312952
 20
-116.147949189713
 10
98.73195798312952
 20
-116.147949189713
 10
98.61758081301922
 20
-116.203070717477
 10
98.61758081301922
 20
-116.203070717477
 10
98.61758081301922
 20
-116.203070717477
 10
98.6282606090235
 20
-116.203070717477
 10
98.6282606090235
 20
-116.203070717477
 10
98.6282606090235
 20
-116.203070717477
 10
99.1508815941359
 20
-116.203070717477
 10
99.1508815941359
 20
-116.203070717477
 10
99.1508815941359
 20
-116.203070717477
 10
99.055796958743
 20
-116.1586289857173
 10
99.055796958743
 20
-116.1586289857173
 10
99.08301321307647
 20
-116.1205606806053
 10
99.14020179813163
 20
-116.0401177010247
 10
99.1550157087182
 20
-115.9660481480918
 10
99.1550157087182
 20
-115.9660481480918
 10
99.36861162880369
 20
-116.0296101597947
 10
99.36861162880369
 20
-116.0296101597947
 10
99.3772243675168
 20
-116.0316772170858
 10
99.39823944997683
 20
-116.0421847583158
 10
99.39823944997683
 20
-116.0633720955501
 10
99.39823944997683
 20
-116.1014404006621
 10
99.33278263575708
 20
-116.1014404006621
 10
99.31383461058822
 20
-116.1014404006621
 10
99.30315481458393
 20
-116.1205606806053
 10
99.27972816528424
 20
-116.1606960430084
 10
99.25010034411109
 20
-116.2010036601859
 10
99.6500759299486
 20
-116.1946302335381
 10
99.67970375112175
 20
-116.1923909214727
 10
99.75584036134576
 20
-116.1861897495993
 10
99.75584036134576
 20
-116.1861897495993
 10
99.75584036134576
 20
-116.3680907912205
 10
99.75584036134576
 20
-116.3680907912205
 10
99.7368923361769
 20
-116.3680907912205
 10
99.71139862958604
 20
-116.3658514791551
 10
99.4916015376271
 20
-116.3574109952162
 10
99.4406141244454
 20
-116.3553439379251
 10
99.22081703248647
 20
-116.3512098233428
 10
99.17637530072675
 20
-116.3512098233428
 10
99.17637530072675
 20
-116.3512098233428
 10
98.96036781380158
 20
-116.3512098233428
 10
98.96036781380158
 20
-116.3512098233428
 10
98.96036781380158
 20
-116.3512098233428
 10
98.96036781380158
 20
-116.4695488532611
 10
98.96036781380158
 20
-116.4695488532611
 10
98.96036781380158
 20
-116.4695488532611
 10
99.13400062625817
 20
-116.4695488532611
 10
99.13400062625817
 20
-116.4695488532611
 10
99.29695364271049
 20
-116.4695488532611
 10
99.48712291349628
 20
-116.4695488532611
 10
99.64387475807514
 20
-116.4590413120311
 10
99.64387475807514
 20
-116.4590413120311
 10
99.64387475807514
 20
-116.6304348124223
 10
99.64387475807514
 20
-116.6304348124223
 10
99.43441295257196
 20
-116.6219943284834
 10
99.23769800036419
 20
-116.619755016418
 10
99.13400062625817
 20
-116.619755016418
 10
99.13400062625817
 20
-116.619755016418
 10
98.96036781380158
 20
-116.619755016418
 10
98.96036781380158
 20
-116.619755016418
 10
98.96036781380158
 20
-116.619755016418
 10
98.96036781380158
 20
-116.7277587598806
 10
98.96036781380158
 20
-116.7277587598806
 10
98.96036781380158
 20
-116.7277587598806
 10
99.19118921131331
 20
-116.7277587598806
 10
99.19118921131331
 20
-116.7277587598806
 10
99.32416989704396
 20
-116.7277587598806
 10
99.61217987961085
 20
-116.723452390524
 10
99.82129717556552
 20
-116.7170789638763
 10
99.82129717556552
 20
-116.7170789638763
 10
99.82129717556552
 20
-116.8948458909152
 10
99.82129717556552
 20
-116.8948458909152
 10
99.62906084748857
 20
-116.8884724642675
 10
99.31590166787936
 20
-116.8841660949109
 10
99.19118921131331
 20
-116.8841660949109
 97
        0
 97
        0
 92
        1
 93
        4
 72
     1
 10
99.35620928505679
 20
-117.140136689465
 11
98.64962020103205
 21
-117.140136689465
 72
     1
 10
98.64962020103205
 20
-117.140136689465
 11
98.64962020103205
 21
-117.2481404329276
 72
     1
 10
98.64962020103205
 20
-117.2481404329276
 11
99.35620928505679
 21
-117.2481404329276
 72
     1
 10
99.35620928505679
 20
-117.2481404329276
 11
99.35620928505679
 21
-117.140136689465
 97
        0
 92
        1
 93
        4
 72
     1
 10
99.35620928505679
 20
-117.3728528894936
 11
98.64962020103205
 21
-117.3728528894936
 72
     1
 10
98.64962020103205
 20
-117.3728528894936
 11
98.64962020103205
 21
-117.4872300596039
 72
     1
 10
98.64962020103205
 20
-117.4872300596039
 11
99.35620928505679
 21
-117.4872300596039
 72
     1
 10
99.35620928505679
 20
-117.4872300596039
 11
99.35620928505679
 21
-117.3728528894936
 97
        0
 92
        1
 93
        4
 72
     1
 10
99.35620928505679
 20
-117.6162488855265
 11
98.64962020103205
 21
-117.6162488855265
 72
     1
 10
98.64962020103205
 20
-117.6162488855265
 11
98.64962020103205
 21
-117.7304538008625
 72
     1
 10
98.64962020103205
 20
-117.7304538008625
 11
99.35620928505679
 21
-117.7304538008625
 72
     1
 10
99.35620928505679
 20
-117.7304538008625
 11
99.35620928505679
 21
-117.6162488855265
 97
        0
 75
     2
 76
     1
 98
        0
  0
SPLINE
  5
95
330
76
100
AcDbEntity
  8
_U+30EC_U+30A4_U+30E4_U+30FC 1
370
     0
100
AcDbSpline
210
0.0
220
0.0
230
1.0
 70
    11
 71
     3
 72
    47
 73
    43
 74
     0
 42
0.0000000001
 43
0.0000000001
 12
1.0
 22
0.0
 32
0.0
 13
1.0
 23
0.0
 33
0.0
 40
0.0
 40
0.0
 40
0.0
 40
0.0
 40
1.0
 40
1.0
 40
1.0
 40
2.0
 40
2.0
 40
2.0
 40
3.0
 40
3.0
 40
3.0
 40
4.0
 40
4.0
 40
4.0
 40
5.0
 40
5.0
 40
5.0
 40
6.0
 40
6.0
 40
6.0
 40
7.0
 40
7.0
 40
7.0
 40
8.0
 40
8.0
 40
8.0
 40
9.0
 40
9.0
 40
9.0
 40
10.0
 40
10.0
 40
10.0
 40
11.0
 40
11.0
 40
11.0
 40
12.0
 40
12.0
 40
12.0
 40
13.0
 40
13.0
 40
13.0
 40
14.0
 40
14.0
 40
14.0
 40
14.0
 10
101.1679850007497
 20
-116.8609117003855
 30
0.0
 10
101.1679850007497
 20
-116.8609117003855
 30
0.0
 10
101.0663546839348
 20
-116.8609117003855
 30
0.0
 10
101.0663546839348
 20
-116.8609117003855
 30
0.0
 10
101.0663546839348
 20
-116.9477281066138
 30
0.0
 10
101.0453396014748
 20
-117.337023896447
 30
0.0
 10
100.848624649267
 20
-117.5569932431802
 30
0.0
 10
100.6960069192704
 20
-117.726147431506
 30
0.0
 10
100.4889566806069
 20
-117.7960828698565
 30
0.0
 10
100.4042073316698
 20
-117.8234713789643
 30
0.0
 10
100.4042073316698
 20
-117.8234713789643
 30
0.0
 10
100.2095594367532
 20
-117.6563842479297
 30
0.0
 10
100.2095594367532
 20
-117.6563842479297
 30
0.0
 10
100.3070556389857
 20
-117.6436373946342
 30
0.0
 10
100.482410999185
 20
-117.6203830001088
 30
0.0
 10
100.6708577222281
 20
-117.4321085318399
 30
0.0
 10
100.744927275161
 20
-117.3602782909724
 30
0.0
 10
100.848624649267
 20
-117.2205796690455
 30
0.0
 10
100.848624649267
 20
-116.8609117003855
 30
0.0
 10
100.848624649267
 20
-116.8609117003855
 30
0.0
 10
100.6178032517553
 20
-116.8609117003855
 30
0.0
 10
100.6178032517553
 20
-116.8609117003855
 30
0.0
 10
100.4317680955518
 20
-116.8609117003855
 30
0.0
 10
100.2453884297998
 20
-116.865218069742
 30
0.0
 10
100.0593532735963
 20
-116.8800319803286
 30
0.0
 10
100.0593532735963
 20
-116.8800319803286
 30
0.0
 10
100.0593532735963
 20
-116.6600626335954
 30
0.0
 10
100.0593532735963
 20
-116.6600626335954
 30
0.0
 10
100.2477999966394
 20
-116.674876544182
 30
0.0
 10
100.5333984123667
 20
-116.6790106587643
 30
0.0
 10
100.6178032517553
 20
-116.6790106587643
 30
0.0
 10
100.6178032517553
 20
-116.6790106587643
 30
0.0
 10
101.1679850007497
 20
-116.6790106587643
 30
0.0
 10
101.1679850007497
 20
-116.6790106587643
 30
0.0
 10
101.1869330259185
 20
-116.6790106587643
 30
0.0
 10
101.5042263201101
 20
-116.6790106587643
 30
0.0
 10
101.7326361507821
 20
-116.6600626335954
 30
0.0
 10
101.7326361507821
 20
-116.6600626335954
 30
0.0
 10
101.7326361507821
 20
-116.8800319803286
 30
0.0
 10
101.7326361507821
 20
-116.8800319803286
 30
0.0
 10
101.5445339372875
 20
-116.865218069742
 30
0.0
 10
101.3560872142443
 20
-116.8609117003855
 30
0.0
 10
101.1679850007497
 20
-116.8609117003855
 30
0.0
  0
SPLINE
  5
96
330
76
100
AcDbEntity
  8
_U+30EC_U+30A4_U+30E4_U+30FC 1
370
     0
100
AcDbSpline
210
0.0
220
0.0
230
1.0
 70
    11
 71
     3
 72
    29
 73
    25
 74
     0
 42
0.0000000001
 43
0.0000000001
 12
1.0
 22
0.0
 32
0.0
 13
1.0
 23
0.0
 33
0.0
 40
0.0
 40
0.0
 40
0.0
 40
0.0
 40
1.0
 40
1.0
 40
1.0
 40
2.0
 40
2.0
 40
2.0
 40
3.0
 40
3.0
 40
3.0
 40
4.0
 40
4.0
 40
4.0
 40
5.0
 40
5.0
 40
5.0
 40
6.0
 40
6.0
 40
6.0
 40
7.0
 40
7.0
 40
7.0
 40
8.0
 40
8.0
 40
8.0
 40
8.0
 10
101.0663546839348
 20
-116.3320895433996
 30
0.0
 10
101.0663546839348
 20
-116.3320895433996
 30
0.0
 10
100.7128878871482
 20
-116.3320895433996
 30
0.0
 10
100.7128878871482
 20
-116.3320895433996
 30
0.0
 10
100.6009222838776
 20
-116.3320895433996
 30
0.0
 10
100.4613959167249
 20
-116.3384629700473
 30
0.0
 10
100.3535644280366
 20
-116.3512098233428
 30
0.0
 10
100.3535644280366
 20
-116.3512098233428
 30
0.0
 10
100.3535644280366
 20
-116.1162543112487
 30
0.0
 10
100.3535644280366
 20
-116.1162543112487
 30
0.0
 10
100.4717312031807
 20
-116.1310682218353
 30
0.0
 10
100.6560438116416
 20
-116.1353745911919
 30
0.0
 10
100.7128878871482
 20
-116.1353745911919
 30
0.0
 10
100.7128878871482
 20
-116.1353745911919
 30
0.0
 10
101.0663546839348
 20
-116.1353745911919
 30
0.0
 10
101.0663546839348
 20
-116.1353745911919
 30
0.0
 10
101.0853027091037
 20
-116.1353745911919
 30
0.0
 10
101.2885633427334
 20
-116.1353745911919
 30
0.0
 10
101.4301567671772
 20
-116.1162543112487
 30
0.0
 10
101.4301567671772
 20
-116.1162543112487
 30
0.0
 10
101.4301567671772
 20
-116.3512098233428
 30
0.0
 10
101.4301567671772
 20
-116.3512098233428
 30
0.0
 10
101.2737494321468
 20
-116.3320895433996
 30
0.0
 10
101.0832356518125
 20
-116.3320895433996
 30
0.0
 10
101.0663546839348
 20
-116.3320895433996
 30
0.0
  0
HATCH
  5
97
330
76
100
AcDbEntity
  8
_U+30EC_U+30A4_U+30E4_U+30FC 1
 62
   179
420
  2234388
100
AcDbHatch
 10
0.0
 20
0.0
 30
0.0
210
0.0
220
0.0
230
1.0
  2
SOLID
 70
     1
 71
     0
 91
        2
 92
        1
 93
        1
 72
     4
 94
        3
 73
     0
 74
     1
 95
       47
 96
       43
 40
0.0
 40
0.0
 40
0.0
 40
0.0
 40
1.0
 40
1.0
 40
1.0
 40
2.0
 40
2.0
 40
2.0
 40
3.0
 40
3.0
 40
3.0
 40
4.0
 40
4.0
 40
4.0
 40
5.0
 40
5.0
 40
5.0
 40
6.0
 40
6.0
 40
6.0
 40
7.0
 40
7.0
 40
7.0
 40
8.0
 40
8.0
 40
8.0
 40
9.0
 40
9.0
 40
9.0
 40
10.0
 40
10.0
 40
10.0
 40
11.0
 40
11.0
 40
11.0
 40
12.0
 40
12.0
 40
12.0
 40
13.0
 40
13.0
 40
13.0
 40
14.0
 40
14.0
 40
14.0
 40
14.0
 10
101.1679850007497
 20
-116.8609117003855
 10
101.1679850007497
 20
-116.8609117003855
 10
101.0663546839348
 20
-116.8609117003855
 10
101.0663546839348
 20
-116.8609117003855
 10
101.0663546839348
 20
-116.9477281066138
 10
101.0453396014748
 20
-117.337023896447
 10
100.848624649267
 20
-117.5569932431802
 10
100.6960069192704
 20
-117.726147431506
 10
100.4889566806069
 20
-117.7960828698565
 10
100.4042073316698
 20
-117.8234713789643
 10
100.4042073316698
 20
-117.8234713789643
 10
100.2095594367532
 20
-117.6563842479297
 10
100.2095594367532
 20
-117.6563842479297
 10
100.3070556389857
 20
-117.6436373946342
 10
100.482410999185
 20
-117.6203830001088
 10
100.6708577222281
 20
-117.4321085318399
 10
100.744927275161
 20
-117.3602782909724
 10
100.848624649267
 20
-117.2205796690455
 10
100.848624649267
 20
-116.8609117003855
 10
100.848624649267
 20
-116.8609117003855
 10
100.6178032517553
 20
-116.8609117003855
 10
100.6178032517553
 20
-116.8609117003855
 10
100.4317680955518
 20
-116.8609117003855
 10
100.2453884297998
 20
-116.865218069742
 10
100.0593532735963
 20
-116.8800319803286
 10
100.0593532735963
 20
-116.8800319803286
 10
100.0593532735963
 20
-116.6600626335954
 10
100.0593532735963
 20
-116.6600626335954
 10
100.2477999966394
 20
-116.674876544182
 10
100.5333984123667
 20
-116.6790106587643
 10
100.6178032517553
 20
-116.6790106587643
 10
100.6178032517553
 20
-116.6790106587643
 10
101.1679850007497
 20
-116.6790106587643
 10
101.1679850007497
 20
-116.6790106587643
 10
101.1869330259185
 20
-116.6790106587643
 10
101.5042263201101
 20
-116.6790106587643
 10
101.7326361507821
 20
-116.6600626335954
 10
101.7326361507821
 20
-116.6600626335954
 10
101.7326361507821
 20
-116.8800319803286
 10
101.7326361507821
 20
-116.8800319803286
 10
101.5445339372875
 20
-116.865218069742
 10
101.3560872142443
 20
-116.8609117003855
 10
101.1679850007497
 20
-116.8609117003855
 97
        0
 97
        0
 92
        1
 93
        1
 72
     4
 94
        3
 73
     0
 74
     1
 95
       29
 96
       25
 40
0.0
 40
0.0
 40
0.0
 40
0.0
 40
1.0
 40
1.0
 40
1.0
 40
2.0
 40
2.0
 40
2.0
 40
3.0
 40
3.0
 40
3.0
 40
4.0
 40
4.0
 40
4.0
 40
5.0
 40
5.0
 40
5.0
 40
6.0
 40
6.0
 40
6.0
 40
7.0
 40
7.0
 40
7.0
 40
8.0
 40
8.0
 40
8.0
 40
8.0
 10
101.0663546839348
 20
-116.3320895433996
 10
101.0663546839348
 20
-116.3320895433996
 10
100.7128878871482
 20
-116.3320895433996
 10
100.7128878871482
 20
-116.3320895433996
 10
100.6009222838776
 20
-116.3320895433996
 10
100.4613959167249
 20
-116.3384629700473
 10
100.3535644280366
 20
-116.3512098233428
 10
100.3535644280366
 20
-116.3512098233428
 10
100.3535644280366
 20
-116.1162543112487
 10
100.3535644280366
 20
-116.1162543112487
 10
100.4717312031807
 20
-116.1310682218353
 10
100.6560438116416
 20
-116.1353745911919
 10
100.7128878871482
 20
-116.1353745911919
 10
100.7128878871482
 20
-116.1353745911919
 10
101.0663546839348
 20
-116.1353745911919
 10
101.0663546839348
 20
-116.1353745911919
 10
101.0853027091037
 20
-116.1353745911919
 10
101.2885633427334
 20
-116.1353745911919
 10
101.4301567671772
 20
-116.1162543112487
 10
101.4301567671772
 20
-116.1162543112487
 10
101.4301567671772
 20
-116.3512098233428
 10
101.4301567671772
 20
-116.3512098233428
 10
101.2737494321468
 20
-116.3320895433996
 10
101.0832356518125
 20
-116.3320895433996
 10
101.0663546839348
 20
-116.3320895433996
 97
        0
 97
        0
 75
     2
 76
     1
 98
        0
  0
SPLINE
  5
98
330
76
100
AcDbEntity
  8
_U+30EC_U+30A4_U+30E4_U+30FC 1
370
     0
100
AcDbSpline
210
0.0
220
0.0
230
1.0
 70
    11
 71
     3
 72
    29
 73
    25
 74
     0
 42
0.0000000001
 43
0.0000000001
 12
1.0
 22
0.0
 32
0.0
 13
1.0
 23
0.0
 33
0.0
 40
0.0
 40
0.0
 40
0.0
 40
0.0
 40
1.0
 40
1.0
 40
1.0
 40
2.0
 40
2.0
 40
2.0
 40
3.0
 40
3.0
 40
3.0
 40
4.0
 40
4.0
 40
4.0
 40
5.0
 40
5.0
 40
5.0
 40
6.0
 40
6.0
 40
6.0
 40
7.0
 40
7.0
 40
7.0
 40
8.0
 40
8.0
 40
8.0
 40
8.0
 10
103.0138671617465
 20
-117.0238647168378
 30
0.0
 10
103.0138671617465
 20
-117.0238647168378
 30
0.0
 10
102.5294867365204
 20
-117.0238647168378
 30
0.0
 10
102.5294867365204
 20
-117.0238647168378
 30
0.0
 10
102.5019259726384
 20
-117.0238647168378
 30
0.0
 10
102.1846326784469
 20
-117.0238647168378
 30
0.0
 10
101.9731038156526
 20
-117.0491861686544
 30
0.0
 10
101.9731038156526
 20
-117.0491861686544
 30
0.0
 10
101.9731038156526
 20
-116.8187092806912
 30
0.0
 10
101.9731038156526
 20
-116.8187092806912
 30
0.0
 10
102.1315782079741
 20
-116.8419636752166
 30
0.0
 10
102.3220919883084
 20
-116.8440307325077
 30
0.0
 10
102.5294867365204
 20
-116.8440307325077
 30
0.0
 10
102.5294867365204
 20
-116.8440307325077
 30
0.0
 10
103.0138671617465
 20
-116.8440307325077
 30
0.0
 10
103.0138671617465
 20
-116.8440307325077
 30
0.0
 10
103.19990231795
 20
-116.8440307325077
 30
0.0
 10
103.386281983702
 20
-116.8419636752166
 30
0.0
 10
103.5702500826144
 20
-116.8187092806912
 30
0.0
 10
103.5702500826144
 20
-116.8187092806912
 30
0.0
 10
103.5702500826144
 20
-117.0491861686544
 30
0.0
 10
103.5702500826144
 20
-117.0491861686544
 30
0.0
 10
103.386281983702
 20
-117.0259317741289
 30
0.0
 10
103.1385796183126
 20
-117.0238647168378
 30
0.0
 10
103.0138671617465
 20
-117.0238647168378
 30
0.0
  0
HATCH
  5
99
330
76
100
AcDbEntity
  8
_U+30EC_U+30A4_U+30E4_U+30FC 1
 62
   179
420
  2234388
100
AcDbHatch
 10
0.0
 20
0.0
 30
0.0
210
0.0
220
0.0
230
1.0
  2
SOLID
 70
     1
 71
     0
 91
        1
 92
        1
 93
        1
 72
     4
 94
        3
 73
     0
 74
     1
 95
       29
 96
       25
 40
0.0
 40
0.0
 40
0.0
 40
0.0
 40
1.0
 40
1.0
 40
1.0
 40
2.0
 40
2.0
 40
2.0
 40
3.0
 40
3.0
 40
3.0
 40
4.0
 40
4.0
 40
4.0
 40
5.0
 40
5.0
 40
5.0
 40
6.0
 40
6.0
 40
6.0
 40
7.0
 40
7.0
 40
7.0
 40
8.0
 40
8.0
 40
8.0
 40
8.0
 10
103.0138671617465
 20
-117.0238647168378
 10
103.0138671617465
 20
-117.0238647168378
 10
102.5294867365204
 20
-117.0238647168378
 10
102.5294867365204
 20
-117.0238647168378
 10
102.5019259726384
 20
-117.0238647168378
 10
102.1846326784469
 20
-117.0238647168378
 10
101.9731038156526
 20
-117.0491861686544
 10
101.9731038156526
 20
-117.0491861686544
 10
101.9731038156526
 20
-116.8187092806912
 10
101.9731038156526
 20
-116.8187092806912
 10
102.1315782079741
 20
-116.8419636752166
 10
102.3220919883084
 20
-116.8440307325077
 10
102.5294867365204
 20
-116.8440307325077
 10
102.5294867365204
 20
-116.8440307325077
 10
103.0138671617465
 20
-116.8440307325077
 10
103.0138671617465
 20
-116.8440307325077
 10
103.19990231795
 20
-116.8440307325077
 10
103.386281983702
 20
-116.8419636752166
 10
103.5702500826144
 20
-116.8187092806912
 10
103.5702500826144
 20
-116.8187092806912
 10
103.5702500826144
 20
-117.0491861686544
 10
103.5702500826144
 20
-117.0491861686544
 10
103.386281983702
 20
-117.0259317741289
 10
103.1385796183126
 20
-117.0238647168378
 10
103.0138671617465
 20
-117.0238647168378
 97
        0
 97
        0
 75
     2
 76
     1
 98
        0
  0
SPLINE
  5
9A
330
76
100
AcDbEntity
  8
_U+30EC_U+30A4_U+30E4_U+30FC 1
370
     0
100
AcDbSpline
210
0.0
220
0.0
230
1.0
 70
    11
 71
     3
 72
    44
 73
    40
 74
     0
 42
0.0000000001
 43
0.0000000001
 12
1.0
 22
0.0
 32
0.0
 13
1.0
 23
0.0
 33
0.0
 40
0.0
 40
0.0
 40
0.0
 40
0.0
 40
1.0
 40
1.0
 40
1.0
 40
2.0
 40
2.0
 40
2.0
 40
3.0
 40
3.0
 40
3.0
 40
4.0
 40
4.0
 40
4.0
 40
5.0
 40
5.0
 40
5.0
 40
6.0
 40
6.0
 40
6.0
 40
7.0
 40
7.0
 40
7.0
 40
8.0
 40
8.0
 40
8.0
 40
9.0
 40
9.0
 40
9.0
 40
10.0
 40
10.0
 40
10.0
 40
11.0
 40
11.0
 40
11.0
 40
12.0
 40
12.0
 40
12.0
 40
13.0
 40
13.0
 40
13.0
 40
13.0
 10
105.2252739537284
 20
-116.5859930806625
 30
0.0
 10
105.1133083504578
 20
-116.9541015332615
 30
0.0
 10
105.0626654468246
 20
-117.1127481803572
 30
0.0
 10
104.8659504946169
 20
-117.3623453482636
 30
0.0
 10
104.681637886156
 20
-117.5929944910011
 30
0.0
 10
104.4449598263193
 20
-117.7790296472046
 30
0.0
 10
104.1655625824656
 20
-117.8722194800806
 30
0.0
 10
104.1655625824656
 20
-117.8722194800806
 30
0.0
 10
103.9729817448401
 20
-117.6923854957505
 30
0.0
 10
103.9729817448401
 20
-117.6923854957505
 30
0.0
 10
104.6141140146451
 20
-117.5401122753025
 30
0.0
 10
104.944154162132
 20
-116.9837293544346
 30
0.0
 10
105.0075439190606
 20
-116.543618406194
 30
0.0
 10
105.0075439190606
 20
-116.543618406194
 30
0.0
 10
104.2416991926896
 20
-116.543618406194
 30
0.0
 10
104.2416991926896
 20
-116.543618406194
 30
0.0
 10
104.1486816145878
 20
-116.543618406194
 30
0.0
 10
103.9647135156755
 20
-116.5479247755505
 30
0.0
 10
103.8079616710966
 20
-116.5668728007194
 30
0.0
 10
103.8079616710966
 20
-116.5668728007194
 30
0.0
 10
103.8079616710966
 20
-116.3469034539862
 30
0.0
 10
103.8079616710966
 20
-116.3469034539862
 30
0.0
 10
103.8947780773249
 20
-116.3680907912205
 30
0.0
 10
104.1466145572967
 20
-116.3680907912205
 30
0.0
 10
104.2458333072719
 20
-116.3680907912205
 30
0.0
 10
104.2458333072719
 20
-116.3680907912205
 30
0.0
 10
104.6775037715737
 20
-116.3680907912205
 30
0.0
 10
104.6775037715737
 20
-116.3680907912205
 30
0.0
 10
104.7198784460423
 20
-116.3680907912205
 30
0.0
 10
104.9544894485878
 20
-116.3658514791551
 30
0.0
 10
104.992730008474
 20
-116.3596503072816
 30
0.0
 10
105.0351046829426
 20
-116.3532768806339
 30
0.0
 10
105.0371717402338
 20
-116.3512098233428
 30
0.0
 10
105.0984944398712
 20
-116.3109022061653
 30
0.0
 10
105.0984944398712
 20
-116.3109022061653
 30
0.0
 10
105.2865966533659
 20
-116.4654147386788
 30
0.0
 10
105.2865966533659
 20
-116.4654147386788
 30
0.0
 10
105.2573133417412
 20
-116.4950425598519
 30
0.0
 10
105.2424994311547
 20
-116.5267374383162
 30
0.0
 10
105.2252739537284
 20
-116.5859930806625
 30
0.0
  0
SPLINE
  5
9B
330
76
100
AcDbEntity
  8
_U+30EC_U+30A4_U+30E4_U+30FC 1
370
     0
100
AcDbSpline
210
0.0
220
0.0
230
1.0
 70
    11
 71
     3
 72
    17
 73
    13
 74
     0
 42
0.0000000001
 43
0.0000000001
 12
1.0
 22
0.0
 32
0.0
 13
1.0
 23
0.0
 33
0.0
 40
0.0
 40
0.0
 40
0.0
 40
0.0
 40
1.0
 40
1.0
 40
1.0
 40
2.0
 40
2.0
 40
2.0
 40
3.0
 40
3.0
 40
3.0
 40
4.0
 40
4.0
 40
4.0
 40
4.0
 10
105.4347357592316
 20
-116.3870388163894
 30
0.0
 10
105.3079562453744
 20
-116.3870388163894
 30
0.0
 10
105.2063259285595
 20
-116.2855807543487
 30
0.0
 10
105.2063259285595
 20
-116.1586289857173
 30
0.0
 10
105.2063259285595
 20
-116.0316772170858
 30
0.0
 10
105.3079562453744
 20
-115.9279798429798
 30
0.0
 10
105.4347357592316
 20
-115.9279798429798
 30
0.0
 10
105.5618597826373
 20
-115.9279798429798
 30
0.0
 10
105.6655571567433
 20
-116.0316772170858
 30
0.0
 10
105.6655571567433
 20
-116.1586289857173
 30
0.0
 10
105.6655571567433
 20
-116.2855807543487
 30
0.0
 10
105.5618597826373
 20
-116.3870388163894
 30
0.0
 10
105.4347357592316
 20
-116.3870388163894
 30
0.0
  0
SPLINE
  5
9C
330
76
100
AcDbEntity
  8
_U+30EC_U+30A4_U+30E4_U+30FC 1
370
     0
100
AcDbSpline
210
0.0
220
0.0
230
1.0
 70
    11
 71
     3
 72
    17
 73
    13
 74
     0
 42
0.0000000001
 43
0.0000000001
 12
1.0
 22
0.0
 32
0.0
 13
1.0
 23
0.0
 33
0.0
 40
0.0
 40
0.0
 40
0.0
 40
0.0
 40
1.0
 40
1.0
 40
1.0
 40
2.0
 40
2.0
 40
2.0
 40
3.0
 40
3.0
 40
3.0
 40
4.0
 40
4.0
 40
4.0
 40
4.0
 10
105.4326687019404
 20
-116.0569986689024
 30
0.0
 10
105.377891683725
 20
-116.0569986689024
 30
0.0
 10
105.3334499519652
 20
-116.1014404006621
 30
0.0
 10
105.3334499519652
 20
-116.1565619284261
 30
0.0
 10
105.3334499519652
 20
-116.213578258707
 30
0.0
 10
105.377891683725
 20
-116.2623263598233
 30
0.0
 10
105.4368028165227
 20
-116.2623263598233
 30
0.0
 10
105.496058458869
 20
-116.2623263598233
 30
0.0
 10
105.5363660760465
 20
-116.2115112014159
 30
0.0
 10
105.5363660760465
 20
-116.1586289857173
 30
0.0
 10
105.5363660760465
 20
-116.1014404006621
 30
0.0
 10
105.4898572869956
 20
-116.0569986689024
 30
0.0
 10
105.4326687019404
 20
-116.0569986689024
 30
0.0
  0
HATCH
  5
9D
330
76
100
AcDbEntity
  8
_U+30EC_U+30A4_U+30E4_U+30FC 1
 62
   179
420
  2234388
100
AcDbHatch
 10
0.0
 20
0.0
 30
0.0
210
0.0
220
0.0
230
1.0
  2
SOLID
 70
     1
 71
     0
 91
        3
 92
        1
 93
        1
 72
     4
 94
        3
 73
     0
 74
     1
 95
       44
 96
       40
 40
0.0
 40
0.0
 40
0.0
 40
0.0
 40
1.0
 40
1.0
 40
1.0
 40
2.0
 40
2.0
 40
2.0
 40
3.0
 40
3.0
 40
3.0
 40
4.0
 40
4.0
 40
4.0
 40
5.0
 40
5.0
 40
5.0
 40
6.0
 40
6.0
 40
6.0
 40
7.0
 40
7.0
 40
7.0
 40
8.0
 40
8.0
 40
8.0
 40
9.0
 40
9.0
 40
9.0
 40
10.0
 40
10.0
 40
10.0
 40
11.0
 40
11.0
 40
11.0
 40
12.0
 40
12.0
 40
12.0
 40
13.0
 40
13.0
 40
13.0
 40
13.0
 10
105.2252739537284
 20
-116.5859930806625
 10
105.1133083504578
 20
-116.9541015332615
 10
105.0626654468246
 20
-117.1127481803572
 10
104.8659504946169
 20
-117.3623453482636
 10
104.681637886156
 20
-117.5929944910011
 10
104.4449598263193
 20
-117.7790296472046
 10
104.1655625824656
 20
-117.8722194800806
 10
104.1655625824656
 20
-117.8722194800806
 10
103.9729817448401
 20
-117.6923854957505
 10
103.9729817448401
 20
-117.6923854957505
 10
104.6141140146451
 20
-117.5401122753025
 10
104.944154162132
 20
-116.9837293544346
 10
105.0075439190606
 20
-116.543618406194
 10
105.0075439190606
 20
-116.543618406194
 10
104.2416991926896
 20
-116.543618406194
 10
104.2416991926896
 20
-116.543618406194
 10
104.1486816145878
 20
-116.543618406194
 10
103.9647135156755
 20
-116.5479247755505
 10
103.8079616710966
 20
-116.5668728007194
 10
103.8079616710966
 20
-116.5668728007194
 10
103.8079616710966
 20
-116.3469034539862
 10
103.8079616710966
 20
-116.3469034539862
 10
103.8947780773249
 20
-116.3680907912205
 10
104.1466145572967
 20
-116.3680907912205
 10
104.2458333072719
 20
-116.3680907912205
 10
104.2458333072719
 20
-116.3680907912205
 10
104.6775037715737
 20
-116.3680907912205
 10
104.6775037715737
 20
-116.3680907912205
 10
104.7198784460423
 20
-116.3680907912205
 10
104.9544894485878
 20
-116.3658514791551
 10
104.992730008474
 20
-116.3596503072816
 10
105.0351046829426
 20
-116.3532768806339
 10
105.0371717402338
 20
-116.3512098233428
 10
105.0984944398712
 20
-116.3109022061653
 10
105.0984944398712
 20
-116.3109022061653
 10
105.2865966533659
 20
-116.4654147386788
 10
105.2865966533659
 20
-116.4654147386788
 10
105.2573133417412
 20
-116.4950425598519
 10
105.2424994311547
 20
-116.5267374383162
 10
105.2252739537284
 20
-116.5859930806625
 97
        0
 97
        0
 92
        1
 93
        1
 72
     4
 94
        3
 73
     0
 74
     1
 95
       17
 96
       13
 40
0.0
 40
0.0
 40
0.0
 40
0.0
 40
1.0
 40
1.0
 40
1.0
 40
2.0
 40
2.0
 40
2.0
 40
3.0
 40
3.0
 40
3.0
 40
4.0
 40
4.0
 40
4.0
 40
4.0
 10
105.4347357592316
 20
-116.3870388163894
 10
105.3079562453744
 20
-116.3870388163894
 10
105.2063259285595
 20
-116.2855807543487
 10
105.2063259285595
 20
-116.1586289857173
 10
105.2063259285595
 20
-116.0316772170858
 10
105.3079562453744
 20
-115.9279798429798
 10
105.4347357592316
 20
-115.9279798429798
 10
105.5618597826373
 20
-115.9279798429798
 10
105.6655571567433
 20
-116.0316772170858
 10
105.6655571567433
 20
-116.1586289857173
 10
105.6655571567433
 20
-116.2855807543487
 10
105.5618597826373
 20
-116.3870388163894
 10
105.4347357592316
 20
-116.3870388163894
 97
        0
 97
        0
 92
        1
 93
        1
 72
     4
 94
        3
 73
     0
 74
     1
 95
       17
 96
       13
 40
0.0
 40
0.0
 40
0.0
 40
0.0
 40
1.0
 40
1.0
 40
1.0
 40
2.0
 40
2.0
 40
2.0
 40
3.0
 40
3.0
 40
3.0
 40
4.0
 40
4.0
 40
4.0
 40
4.0
 10
105.4326687019404
 20
-116.0569986689024
 10
105.377891683725
 20
-116.0569986689024
 10
105.3334499519652
 20
-116.1014404006621
 10
105.3334499519652
 20
-116.1565619284261
 10
105.3334499519652
 20
-116.213578258707
 10
105.377891683725
 20
-116.2623263598233
 10
105.4368028165227
 20
-116.2623263598233
 10
105.496058458869
 20
-116.2623263598233
 10
105.5363660760465
 20
-116.2115112014159
 10
105.5363660760465
 20
-116.1586289857173
 10
105.5363660760465
 20
-116.1014404006621
 10
105.4898572869956
 20
-116.0569986689024
 10
105.4326687019404
 20
-116.0569986689024
 97
        0
 97
        0
 75
     2
 76
     1
 98
        0
  0
ENDBLK
  5
79
330
76
100
AcDbEntity
  8
0
100
AcDbBlockEnd
  0
BLOCK
  5
A4
330
A2
100
AcDbEntity
  8
0
100
AcDbBlockBegin
  2
block 4
 70
     0
 10
0.0
 20
0.0
 30
0.0
  3
block 4
  1

  0
SPLINE
  5
A6
330
A2
100
AcDbEntity
  8
_U+30EC_U+30A4_U+30E4_U+30FC 1
370
     0
100
AcDbSpline
210
0.0
220
0.0
230
1.0
 70
    11
 71
     3
 72
    62
 73
    58
 74
     0
 42
0.0000000001
 43
0.0000000001
 12
1.0
 22
0.0
 32
0.0
 13
1.0
 23
0.0
 33
0.0
 40
0.0
 40
0.0
 40
0.0
 40
0.0
 40
1.0
 40
1.0
 40
1.0
 40
2.0
 40
2.0
 40
2.0
 40
3.0
 40
3.0
 40
3.0
 40
4.0
 40
4.0
 40
4.0
 40
5.0
 40
5.0
 40
5.0
 40
6.0
 40
6.0
 40
6.0
 40
7.0
 40
7.0
 40
7.0
 40
8.0
 40
8.0
 40
8.0
 40
9.0
 40
9.0
 40
9.0
 40
10.0
 40
10.0
 40
10.0
 40
11.0
 40
11.0
 40
11.0
 40
12.0
 40
12.0
 40
12.0
 40
13.0
 40
13.0
 40
13.0
 40
14.0
 40
14.0
 40
14.0
 40
15.0
 40
15.0
 40
15.0
 40
16.0
 40
16.0
 40
16.0
 40
17.0
 40
17.0
 40
17.0
 40
18.0
 40
18.0
 40
18.0
 40
19.0
 40
19.0
 40
19.0
 40
19.0
 10
89.789179122518
 20
-144.4487195819434
 30
0.0
 10
89.69374997757657
 20
-144.4487195819434
 30
0.0
 10
89.47601994290878
 20
-144.4277044994834
 30
0.0
 10
89.35096297679421
 20
-144.2416693432799
 30
0.0
 10
89.27723793340986
 20
-144.1293592304607
 30
0.0
 10
89.27275930927904
 20
-144.0301404804855
 30
0.0
 10
89.26862519469674
 20
-143.9453911315484
 30
0.0
 10
89.26862519469674
 20
-143.9453911315484
 30
0.0
 10
89.4887667962042
 20
-143.9453911315484
 30
0.0
 10
89.4887667962042
 20
-143.9453911315484
 30
0.0
 10
89.49083385349535
 20
-144.0194606844813
 30
0.0
 10
89.5011691399511
 20
-144.2540716870268
 30
0.0
 10
89.78470049838717
 20
-144.2540716870268
 30
0.0
 10
89.92215980824864
 20
-144.2540716870268
 30
0.0
 10
90.0747775382452
 20
-144.1844807582247
 30
0.0
 10
90.0747775382452
 20
-143.9560709275526
 30
0.0
 10
90.0747775382452
 20
-143.8396267001512
 30
0.0
 10
90.03653697835892
 20
-143.7910508538092
 30
0.0
 10
90.00484209989463
 20
-143.7593559753449
 30
0.0
 10
89.93077254696176
 20
-143.685286422412
 30
0.0
 10
89.81432831956032
 20
-143.6725395691166
 30
0.0
 10
89.75955130134484
 20
-143.6725395691166
 30
0.0
 10
89.74025876662743
 20
-143.6725395691166
 30
0.0
 10
89.70442977358084
 20
-143.6746066264078
 30
0.0
 10
89.67686900969885
 20
-143.67874074099
 30
0.0
 10
89.67686900969885
 20
-143.67874074099
 30
0.0
 10
89.67686900969885
 20
-143.4840928460734
 30
0.0
 10
89.67686900969885
 20
-143.4840928460734
 30
0.0
 10
89.71510956958511
 20
-143.4906385274954
 30
0.0
 10
89.75713973450516
 20
-143.4927055847866
 30
0.0
 10
89.76368541592714
 20
-143.4927055847866
 30
0.0
 10
89.82914223014689
 20
-143.4927055847866
 30
0.0
 10
90.0279242396458
 20
-143.471345992778
 30
0.0
 10
90.0279242396458
 20
-143.2346679329413
 30
0.0
 10
90.0279242396458
 20
-143.0569010059025
 30
0.0
 10
89.89701061120631
 20
-143.0017794781384
 30
0.0
 10
89.78676755567831
 20
-143.0017794781384
 30
0.0
 10
89.52252873195965
 20
-143.0017794781384
 30
0.0
 10
89.51391599324653
 20
-143.2346679329413
 30
0.0
 10
89.50978187866423
 20
-143.3063259190345
 30
0.0
 10
89.50978187866423
 20
-143.3063259190345
 30
0.0
 10
89.30652124503449
 20
-143.3063259190345
 30
0.0
 10
89.30652124503449
 20
-143.3063259190345
 30
0.0
 10
89.31513398374761
 20
-143.1816134624685
 30
0.0
 10
89.34269474762961
 20
-142.8050645259307
 30
0.0
 10
89.79951440897374
 20
-142.8050645259307
 30
0.0
 10
90.0237901250635
 20
-142.8050645259307
 30
0.0
 10
90.26494680903099
 20
-142.9321885493364
 30
0.0
 10
90.26494680903099
 20
-143.2281222515194
 30
0.0
 10
90.26494680903099
 20
-143.4145019172714
 30
0.0
 10
90.1698621736381
 20
-143.4968396993688
 30
0.0
 10
90.07029891411437
 20
-143.5581623990063
 30
0.0
 10
90.13162161375182
 20
-143.5857231628883
 30
0.0
 10
90.313522655373
 20
-143.6659938876946
 30
0.0
 10
90.313522655373
 20
-143.9433240742572
 30
0.0
 10
90.313522655373
 20
-144.2816324509088
 30
0.0
 10
90.06616479953207
 20
-144.4487195819434
 30
0.0
 10
89.789179122518
 20
-144.4487195819434
 30
0.0
  0
HATCH
  5
A7
330
A2
100
AcDbEntity
  8
_U+30EC_U+30A4_U+30E4_U+30FC 1
 62
     7
420
 16777215
100
AcDbHatch
 10
0.0
 20
0.0
 30
0.0
210
0.0
220
0.0
230
1.0
  2
SOLID
 70
     1
 71
     0
 91
        1
 92
        1
 93
        1
 72
     4
 94
        3
 73
     0
 74
     1
 95
       62
 96
       58
 40
0.0
 40
0.0
 40
0.0
 40
0.0
 40
1.0
 40
1.0
 40
1.0
 40
2.0
 40
2.0
 40
2.0
 40
3.0
 40
3.0
 40
3.0
 40
4.0
 40
4.0
 40
4.0
 40
5.0
 40
5.0
 40
5.0
 40
6.0
 40
6.0
 40
6.0
 40
7.0
 40
7.0
 40
7.0
 40
8.0
 40
8.0
 40
8.0
 40
9.0
 40
9.0
 40
9.0
 40
10.0
 40
10.0
 40
10.0
 40
11.0
 40
11.0
 40
11.0
 40
12.0
 40
12.0
 40
12.0
 40
13.0
 40
13.0
 40
13.0
 40
14.0
 40
14.0
 40
14.0
 40
15.0
 40
15.0
 40
15.0
 40
16.0
 40
16.0
 40
16.0
 40
17.0
 40
17.0
 40
17.0
 40
18.0
 40
18.0
 40
18.0
 40
19.0
 40
19.0
 40
19.0
 40
19.0
 10
89.789179122518
 20
-144.4487195819434
 10
89.69374997757657
 20
-144.4487195819434
 10
89.47601994290878
 20
-144.4277044994834
 10
89.35096297679421
 20
-144.2416693432799
 10
89.27723793340986
 20
-144.1293592304607
 10
89.27275930927904
 20
-144.0301404804855
 10
89.26862519469674
 20
-143.9453911315484
 10
89.26862519469674
 20
-143.9453911315484
 10
89.4887667962042
 20
-143.9453911315484
 10
89.4887667962042
 20
-143.9453911315484
 10
89.49083385349535
 20
-144.0194606844813
 10
89.5011691399511
 20
-144.2540716870268
 10
89.78470049838717
 20
-144.2540716870268
 10
89.92215980824864
 20
-144.2540716870268
 10
90.0747775382452
 20
-144.1844807582247
 10
90.0747775382452
 20
-143.9560709275526
 10
90.0747775382452
 20
-143.8396267001512
 10
90.03653697835892
 20
-143.7910508538092
 10
90.00484209989463
 20
-143.7593559753449
 10
89.93077254696176
 20
-143.685286422412
 10
89.81432831956032
 20
-143.6725395691166
 10
89.75955130134484
 20
-143.6725395691166
 10
89.74025876662743
 20
-143.6725395691166
 10
89.70442977358084
 20
-143.6746066264078
 10
89.67686900969885
 20
-143.67874074099
 10
89.67686900969885
 20
-143.67874074099
 10
89.67686900969885
 20
-143.4840928460734
 10
89.67686900969885
 20
-143.4840928460734
 10
89.71510956958511
 20
-143.4906385274954
 10
89.75713973450516
 20
-143.4927055847866
 10
89.76368541592714
 20
-143.4927055847866
 10
89.82914223014689
 20
-143.4927055847866
 10
90.0279242396458
 20
-143.471345992778
 10
90.0279242396458
 20
-143.2346679329413
 10
90.0279242396458
 20
-143.0569010059025
 10
89.89701061120631
 20
-143.0017794781384
 10
89.78676755567831
 20
-143.0017794781384
 10
89.52252873195965
 20
-143.0017794781384
 10
89.51391599324653
 20
-143.2346679329413
 10
89.50978187866423
 20
-143.3063259190345
 10
89.50978187866423
 20
-143.3063259190345
 10
89.30652124503449
 20
-143.3063259190345
 10
89.30652124503449
 20
-143.3063259190345
 10
89.31513398374761
 20
-143.1816134624685
 10
89.34269474762961
 20
-142.8050645259307
 10
89.79951440897374
 20
-142.8050645259307
 10
90.0237901250635
 20
-142.8050645259307
 10
90.26494680903099
 20
-142.9321885493364
 10
90.26494680903099
 20
-143.2281222515194
 10
90.26494680903099
 20
-143.4145019172714
 10
90.1698621736381
 20
-143.4968396993688
 10
90.07029891411437
 20
-143.5581623990063
 10
90.13162161375182
 20
-143.5857231628883
 10
90.313522655373
 20
-143.6659938876946
 10
90.313522655373
 20
-143.9433240742572
 10
90.313522655373
 20
-144.2816324509088
 10
90.06616479953207
 20
-144.4487195819434
 10
89.789179122518
 20
-144.4487195819434
 97
        0
 97
        0
 75
     2
 76
     1
 98
        0
  0
SPLINE
  5
A8
330
A2
100
AcDbEntity
  8
_U+30EC_U+30A4_U+30E4_U+30FC 1
370
     0
100
AcDbSpline
210
0.0
220
0.0
230
1.0
 70
    11
 71
     3
 72
    29
 73
    25
 74
     0
 42
0.0000000001
 43
0.0000000001
 12
1.0
 22
0.0
 32
0.0
 13
1.0
 23
0.0
 33
0.0
 40
0.0
 40
0.0
 40
0.0
 40
0.0
 40
1.0
 40
1.0
 40
1.0
 40
2.0
 40
2.0
 40
2.0
 40
3.0
 40
3.0
 40
3.0
 40
4.0
 40
4.0
 40
4.0
 40
5.0
 40
5.0
 40
5.0
 40
6.0
 40
6.0
 40
6.0
 40
7.0
 40
7.0
 40
7.0
 40
8.0
 40
8.0
 40
8.0
 40
8.0
 10
91.37220049799029
 20
-144.2203097512713
 30
0.0
 10
91.26402449975345
 20
-144.4297715567745
 30
0.0
 10
91.09073619684537
 20
-144.4487195819434
 30
0.0
 10
90.97429196944393
 20
-144.4487195819434
 30
0.0
 10
90.81340601028276
 20
-144.4487195819434
 30
0.0
 10
90.67181258583899
 20
-144.4022107928925
 30
0.0
 10
90.5767279504461
 20
-144.2203097512713
 30
0.0
 10
90.47303057634008
 20
-144.0256618563547
 30
0.0
 10
90.45408255117121
 20
-143.7886392869695
 30
0.0
 10
90.45408255117121
 20
-143.6260307800657
 30
0.0
 10
90.45408255117121
 20
-143.4820257887823
 30
0.0
 10
90.47096351904894
 20
-143.2301893088105
 30
0.0
 10
90.5767279504461
 20
-143.0314072993116
 30
0.0
 10
90.68455943913442
 20
-142.8284911752304
 30
0.0
 10
90.84544539829558
 20
-142.8050645259307
 30
0.0
 10
90.97429196944393
 20
-142.8050645259307
 30
0.0
 10
91.13311087131395
 20
-142.8050645259307
 30
0.0
 10
91.27677135304887
 20
-142.8495062576904
 30
0.0
 10
91.37220049799029
 20
-143.0314072993116
 30
0.0
 10
91.47141924796549
 20
-143.2239881369371
 30
0.0
 10
91.49484589726518
 20
-143.4523979676091
 30
0.0
 10
91.49484589726518
 20
-143.6260307800657
 30
0.0
 10
91.49484589726518
 20
-143.7972520256826
 30
0.0
 10
91.47348630525663
 20
-144.0277289136459
 30
0.0
 10
91.37220049799029
 20
-144.2203097512713
 30
0.0
  0
SPLINE
  5
A9
330
A2
100
AcDbEntity
  8
_U+30EC_U+30A4_U+30E4_U+30FC 1
370
     0
100
AcDbSpline
210
0.0
220
0.0
230
1.0
 70
    11
 71
     3
 72
    17
 73
    13
 74
     0
 42
0.0000000001
 43
0.0000000001
 12
1.0
 22
0.0
 32
0.0
 13
1.0
 23
0.0
 33
0.0
 40
0.0
 40
0.0
 40
0.0
 40
0.0
 40
1.0
 40
1.0
 40
1.0
 40
2.0
 40
2.0
 40
2.0
 40
3.0
 40
3.0
 40
3.0
 40
4.0
 40
4.0
 40
4.0
 40
4.0
 10
90.97429196944393
 20
-142.9976453635562
 30
0.0
 10
90.72486705631184
 20
-142.9976453635562
 30
0.0
 10
90.67801375771245
 20
-143.2811767219922
 30
0.0
 10
90.67801375771245
 20
-143.6260307800657
 30
0.0
 10
90.67801375771245
 20
-143.9453911315484
 30
0.0
 10
90.71418726030757
 20
-144.2540716870268
 30
0.0
 10
90.97429196944393
 20
-144.2540716870268
 30
0.0
 10
91.2219943348334
 20
-144.2540716870268
 30
0.0
 10
91.27057018117542
 20
-143.9729518954304
 30
0.0
 10
91.27057018117542
 20
-143.6260307800657
 30
0.0
 10
91.27057018117542
 20
-143.3063259190345
 30
0.0
 10
91.23232962128914
 20
-142.9976453635562
 30
0.0
 10
90.97429196944393
 20
-142.9976453635562
 30
0.0
  0
HATCH
  5
AA
330
A2
100
AcDbEntity
  8
_U+30EC_U+30A4_U+30E4_U+30FC 1
 62
     7
420
 16777215
100
AcDbHatch
 10
0.0
 20
0.0
 30
0.0
210
0.0
220
0.0
230
1.0
  2
SOLID
 70
     1
 71
     0
 91
        2
 92
        1
 93
        1
 72
     4
 94
        3
 73
     0
 74
     1
 95
       29
 96
       25
 40
0.0
 40
0.0
 40
0.0
 40
0.0
 40
1.0
 40
1.0
 40
1.0
 40
2.0
 40
2.0
 40
2.0
 40
3.0
 40
3.0
 40
3.0
 40
4.0
 40
4.0
 40
4.0
 40
5.0
 40
5.0
 40
5.0
 40
6.0
 40
6.0
 40
6.0
 40
7.0
 40
7.0
 40
7.0
 40
8.0
 40
8.0
 40
8.0
 40
8.0
 10
91.37220049799029
 20
-144.2203097512713
 10
91.26402449975345
 20
-144.4297715567745
 10
91.09073619684537
 20
-144.4487195819434
 10
90.97429196944393
 20
-144.4487195819434
 10
90.81340601028276
 20
-144.4487195819434
 10
90.67181258583899
 20
-144.4022107928925
 10
90.5767279504461
 20
-144.2203097512713
 10
90.47303057634008
 20
-144.0256618563547
 10
90.45408255117121
 20
-143.7886392869695
 10
90.45408255117121
 20
-143.6260307800657
 10
90.45408255117121
 20
-143.4820257887823
 10
90.47096351904894
 20
-143.2301893088105
 10
90.5767279504461
 20
-143.0314072993116
 10
90.68455943913442
 20
-142.8284911752304
 10
90.84544539829558
 20
-142.8050645259307
 10
90.97429196944393
 20
-142.8050645259307
 10
91.13311087131395
 20
-142.8050645259307
 10
91.27677135304887
 20
-142.8495062576904
 10
91.37220049799029
 20
-143.0314072993116
 10
91.47141924796549
 20
-143.2239881369371
 10
91.49484589726518
 20
-143.4523979676091
 10
91.49484589726518
 20
-143.6260307800657
 10
91.49484589726518
 20
-143.7972520256826
 10
91.47348630525663
 20
-144.0277289136459
 10
91.37220049799029
 20
-144.2203097512713
 97
        0
 97
        0
 92
        1
 93
        1
 72
     4
 94
        3
 73
     0
 74
     1
 95
       17
 96
       13
 40
0.0
 40
0.0
 40
0.0
 40
0.0
 40
1.0
 40
1.0
 40
1.0
 40
2.0
 40
2.0
 40
2.0
 40
3.0
 40
3.0
 40
3.0
 40
4.0
 40
4.0
 40
4.0
 40
4.0
 10
90.97429196944393
 20
-142.9976453635562
 10
90.72486705631184
 20
-142.9976453635562
 10
90.67801375771245
 20
-143.2811767219922
 10
90.67801375771245
 20
-143.6260307800657
 10
90.67801375771245
 20
-143.9453911315484
 10
90.71418726030757
 20
-144.2540716870268
 10
90.97429196944393
 20
-144.2540716870268
 10
91.2219943348334
 20
-144.2540716870268
 10
91.27057018117542
 20
-143.9729518954304
 10
91.27057018117542
 20
-143.6260307800657
 10
91.27057018117542
 20
-143.3063259190345
 10
91.23232962128914
 20
-142.9976453635562
 10
90.97429196944393
 20
-142.9976453635562
 97
        0
 97
        0
 75
     2
 76
     1
 98
        0
  0
ENDBLK
  5
A5
330
A2
100
AcDbEntity
  8
0
100
AcDbBlockEnd
  0
BLOCK
  5
CD
330
CB
100
AcDbEntity
  8
0
100
AcDbBlockBegin
  2
block 5
 70
     0
 10
0.0
 20
0.0
 30
0.0
  3
block 5
  1

  0
SPLINE
  5
CF
330
CB
100
AcDbEntity
  8
_U+30EC_U+30A4_U+30E4_U+30FC 1
370
     0
100
AcDbSpline
210
0.0
220
0.0
230
1.0
 70
    11
 71
     3
 72
    62
 73
    58
 74
     0
 42
0.0000000001
 43
0.0000000001
 12
1.0
 22
0.0
 32
0.0
 13
1.0
 23
0.0
 33
0.0
 40
0.0
 40
0.0
 40
0.0
 40
0.0
 40
1.0
 40
1.0
 40
1.0
 40
2.0
 40
2.0
 40
2.0
 40
3.0
 40
3.0
 40
3.0
 40
4.0
 40
4.0
 40
4.0
 40
5.0
 40
5.0
 40
5.0
 40
6.0
 40
6.0
 40
6.0
 40
7.0
 40
7.0
 40
7.0
 40
8.0
 40
8.0
 40
8.0
 40
9.0
 40
9.0
 40
9.0
 40
10.0
 40
10.0
 40
10.0
 40
11.0
 40
11.0
 40
11.0
 40
12.0
 40
12.0
 40
12.0
 40
13.0
 40
13.0
 40
13.0
 40
14.0
 40
14.0
 40
14.0
 40
15.0
 40
15.0
 40
15.0
 40
16.0
 40
16.0
 40
16.0
 40
17.0
 40
17.0
 40
17.0
 40
18.0
 40
18.0
 40
18.0
 40
19.0
 40
19.0
 40
19.0
 40
19.0
 10
71.20960691579135
 20
-126.440860970994
 30
0.0
 10
71.20960691579135
 20
-126.5362901159354
 30
0.0
 10
71.18841957855706
 20
-126.7540201506032
 30
0.0
 10
71.00221216757932
 20
-126.8790771167177
 30
0.0
 10
70.89007430953443
 20
-126.9531466696506
 30
0.0
 10
70.79068330478498
 20
-126.9572807842329
 30
0.0
 10
70.70610621062208
 20
-126.9614148988152
 30
0.0
 10
70.70610621062208
 20
-126.9614148988152
 30
0.0
 10
70.70610621062208
 20
-126.7412732973077
 30
0.0
 10
70.70610621062208
 20
-126.7412732973077
 30
0.0
 10
70.78017576355496
 20
-126.7392062400166
 30
0.0
 10
71.01495902087474
 20
-126.7288709535608
 30
0.0
 10
71.01495902087474
 20
-126.4453395951248
 30
0.0
 10
71.01495902087474
 20
-126.3078802852633
 30
0.0
 10
70.94519583729843
 20
-126.1552625552667
 30
0.0
 10
70.7166137518521
 20
-126.1552625552667
 30
0.0
 10
70.60034177922492
 20
-126.1552625552667
 30
0.0
 10
70.55159367810863
 20
-126.193503115153
 30
0.0
 10
70.51989879964434
 20
-126.2251979936173
 30
0.0
 10
70.44582924671147
 20
-126.2992675465502
 30
0.0
 10
70.4332546481903
 20
-126.4157117739516
 30
0.0
 10
70.4332546481903
 20
-126.4704887921671
 30
0.0
 10
70.4332546481903
 20
-126.4897813268845
 30
0.0
 10
70.43532170548146
 20
-126.5256103199311
 30
0.0
 10
70.43945582006376
 20
-126.5531710838131
 30
0.0
 10
70.43945582006376
 20
-126.5531710838131
 30
0.0
 10
70.24480792514713
 20
-126.5531710838131
 30
0.0
 10
70.24480792514713
 20
-126.5531710838131
 30
0.0
 10
70.25118135179484
 20
-126.5149305239268
 30
0.0
 10
70.25342066386025
 20
-126.4729003590068
 30
0.0
 10
70.25342066386025
 20
-126.4663546775848
 30
0.0
 10
70.25342066386025
 20
-126.4008978633651
 30
0.0
 10
70.23223332662597
 20
-126.2021158538661
 30
0.0
 10
69.99521075724078
 20
-126.2021158538661
 30
0.0
 10
69.81761608497615
 20
-126.2021158538661
 30
0.0
 10
69.76249455721215
 20
-126.3330294823056
 30
0.0
 10
69.76249455721215
 20
-126.4432725378336
 30
0.0
 10
69.76249455721215
 20
-126.7075113615523
 30
0.0
 10
69.99521075724078
 20
-126.7161241002654
 30
0.0
 10
70.06721325288251
 20
-126.7202582148477
 30
0.0
 10
70.06721325288251
 20
-126.7202582148477
 30
0.0
 10
70.06721325288251
 20
-126.9235188484775
 30
0.0
 10
70.06721325288251
 20
-126.9235188484775
 30
0.0
 10
69.9423285415422
 20
-126.9149061097643
 30
0.0
 10
69.5657796050044
 20
-126.8873453458823
 30
0.0
 10
69.5657796050044
 20
-126.4305256845382
 30
0.0
 10
69.5657796050044
 20
-126.2062499684484
 30
0.0
 10
69.69273137363585
 20
-125.965093284481
 30
0.0
 10
69.98883733059307
 20
-125.965093284481
 30
0.0
 10
70.17504474157083
 20
-125.965093284481
 30
0.0
 10
70.25755477844255
 20
-126.0601779198739
 30
0.0
 10
70.31887747808001
 20
-126.1597411793976
 30
0.0
 10
70.346438241962
 20
-126.0984184797601
 30
0.0
 10
70.42688122154259
 20
-125.9165174381389
 30
0.0
 10
70.70403915333094
 20
-125.9165174381389
 30
0.0
 10
71.04251978475673
 20
-125.9165174381389
 30
0.0
 10
71.20960691579135
 20
-126.1638752939799
 30
0.0
 10
71.20960691579135
 20
-126.440860970994
 30
0.0
  0
HATCH
  5
D0
330
CB
100
AcDbEntity
  8
_U+30EC_U+30A4_U+30E4_U+30FC 1
 62
   179
420
  2234388
100
AcDbHatch
 10
0.0
 20
0.0
 30
0.0
210
0.0
220
0.0
230
1.0
  2
SOLID
 70
     1
 71
     0
 91
        1
 92
        1
 93
        1
 72
     4
 94
        3
 73
     0
 74
     1
 95
       62
 96
       58
 40
0.0
 40
0.0
 40
0.0
 40
0.0
 40
1.0
 40
1.0
 40
1.0
 40
2.0
 40
2.0
 40
2.0
 40
3.0
 40
3.0
 40
3.0
 40
4.0
 40
4.0
 40
4.0
 40
5.0
 40
5.0
 40
5.0
 40
6.0
 40
6.0
 40
6.0
 40
7.0
 40
7.0
 40
7.0
 40
8.0
 40
8.0
 40
8.0
 40
9.0
 40
9.0
 40
9.0
 40
10.0
 40
10.0
 40
10.0
 40
11.0
 40
11.0
 40
11.0
 40
12.0
 40
12.0
 40
12.0
 40
13.0
 40
13.0
 40
13.0
 40
14.0
 40
14.0
 40
14.0
 40
15.0
 40
15.0
 40
15.0
 40
16.0
 40
16.0
 40
16.0
 40
17.0
 40
17.0
 40
17.0
 40
18.0
 40
18.0
 40
18.0
 40
19.0
 40
19.0
 40
19.0
 40
19.0
 10
71.20960691579135
 20
-126.440860970994
 10
71.20960691579135
 20
-126.5362901159354
 10
71.18841957855706
 20
-126.7540201506032
 10
71.00221216757932
 20
-126.8790771167177
 10
70.89007430953443
 20
-126.9531466696506
 10
70.79068330478498
 20
-126.9572807842329
 10
70.70610621062208
 20
-126.9614148988152
 10
70.70610621062208
 20
-126.9614148988152
 10
70.70610621062208
 20
-126.7412732973077
 10
70.70610621062208
 20
-126.7412732973077
 10
70.78017576355496
 20
-126.7392062400166
 10
71.01495902087474
 20
-126.7288709535608
 10
71.01495902087474
 20
-126.4453395951248
 10
71.01495902087474
 20
-126.3078802852633
 10
70.94519583729843
 20
-126.1552625552667
 10
70.7166137518521
 20
-126.1552625552667
 10
70.60034177922492
 20
-126.1552625552667
 10
70.55159367810863
 20
-126.193503115153
 10
70.51989879964434
 20
-126.2251979936173
 10
70.44582924671147
 20
-126.2992675465502
 10
70.4332546481903
 20
-126.4157117739516
 10
70.4332546481903
 20
-126.4704887921671
 10
70.4332546481903
 20
-126.4897813268845
 10
70.43532170548146
 20
-126.5256103199311
 10
70.43945582006376
 20
-126.5531710838131
 10
70.43945582006376
 20
-126.5531710838131
 10
70.24480792514713
 20
-126.5531710838131
 10
70.24480792514713
 20
-126.5531710838131
 10
70.25118135179484
 20
-126.5149305239268
 10
70.25342066386025
 20
-126.4729003590068
 10
70.25342066386025
 20
-126.4663546775848
 10
70.25342066386025
 20
-126.4008978633651
 10
70.23223332662597
 20
-126.2021158538661
 10
69.99521075724078
 20
-126.2021158538661
 10
69.81761608497615
 20
-126.2021158538661
 10
69.76249455721215
 20
-126.3330294823056
 10
69.76249455721215
 20
-126.4432725378336
 10
69.76249455721215
 20
-126.7075113615523
 10
69.99521075724078
 20
-126.7161241002654
 10
70.06721325288251
 20
-126.7202582148477
 10
70.06721325288251
 20
-126.7202582148477
 10
70.06721325288251
 20
-126.9235188484775
 10
70.06721325288251
 20
-126.9235188484775
 10
69.9423285415422
 20
-126.9149061097643
 10
69.5657796050044
 20
-126.8873453458823
 10
69.5657796050044
 20
-126.4305256845382
 10
69.5657796050044
 20
-126.2062499684484
 10
69.69273137363585
 20
-125.965093284481
 10
69.98883733059307
 20
-125.965093284481
 10
70.17504474157083
 20
-125.965093284481
 10
70.25755477844255
 20
-126.0601779198739
 10
70.31887747808001
 20
-126.1597411793976
 10
70.346438241962
 20
-126.0984184797601
 10
70.42688122154259
 20
-125.9165174381389
 10
70.70403915333094
 20
-125.9165174381389
 10
71.04251978475673
 20
-125.9165174381389
 10
71.20960691579135
 20
-126.1638752939799
 10
71.20960691579135
 20
-126.440860970994
 97
        0
 97
        0
 75
     2
 76
     1
 98
        0
  0
SPLINE
  5
D1
330
CB
100
AcDbEntity
  8
_U+30EC_U+30A4_U+30E4_U+30FC 1
370
     0
100
AcDbSpline
210
0.0
220
0.0
230
1.0
 70
    11
 71
     3
 72
    29
 73
    25
 74
     0
 42
0.0000000001
 43
0.0000000001
 12
1.0
 22
0.0
 32
0.0
 13
1.0
 23
0.0
 33
0.0
 40
0.0
 40
0.0
 40
0.0
 40
0.0
 40
1.0
 40
1.0
 40
1.0
 40
2.0
 40
2.0
 40
2.0
 40
3.0
 40
3.0
 40
3.0
 40
4.0
 40
4.0
 40
4.0
 40
5.0
 40
5.0
 40
5.0
 40
6.0
 40
6.0
 40
6.0
 40
7.0
 40
7.0
 40
7.0
 40
8.0
 40
8.0
 40
8.0
 40
8.0
 10
70.98102483034502
 20
-124.8578395955217
 30
0.0
 10
71.19048663584822
 20
-124.9660155937585
 30
0.0
 10
71.20960691579135
 20
-125.1393038966666
 30
0.0
 10
71.20960691579135
 20
-125.255748124068
 30
0.0
 10
71.20960691579135
 20
-125.4166340832292
 30
0.0
 10
71.16309812674048
 20
-125.558227507673
 30
0.0
 10
70.98102483034502
 20
-125.6533121430658
 30
0.0
 10
70.78637693542841
 20
-125.7570095171719
 30
0.0
 10
70.54952662081749
 20
-125.7763020518893
 30
0.0
 10
70.38657360436517
 20
-125.7763020518893
 30
0.0
 10
70.24274086785599
 20
-125.7763020518893
 30
0.0
 10
69.99107664265848
 20
-125.759076574463
 30
0.0
 10
69.7921223783853
 20
-125.6533121430658
 30
0.0
 10
69.58903399952983
 20
-125.5454806543775
 30
0.0
 10
69.5657796050044
 20
-125.3845946952164
 30
0.0
 10
69.5657796050044
 20
-125.255748124068
 30
0.0
 10
69.5657796050044
 20
-125.096929222198
 30
0.0
 10
69.61022133676411
 20
-124.9532687404631
 30
0.0
 10
69.7921223783853
 20
-124.8578395955217
 30
0.0
 10
69.98470321601077
 20
-124.7586208455465
 30
0.0
 10
70.21311304668284
 20
-124.7351941962468
 30
0.0
 10
70.38657360436517
 20
-124.7351941962468
 30
0.0
 10
70.55796710475634
 20
-124.7351941962468
 30
0.0
 10
70.78861624749382
 20
-124.7565537882553
 30
0.0
 10
70.98102483034502
 20
-124.8578395955217
 30
0.0
  0
SPLINE
  5
D2
330
CB
100
AcDbEntity
  8
_U+30EC_U+30A4_U+30E4_U+30FC 1
370
     0
100
AcDbSpline
210
0.0
220
0.0
230
1.0
 70
    11
 71
     3
 72
    17
 73
    13
 74
     0
 42
0.0000000001
 43
0.0000000001
 12
1.0
 22
0.0
 32
0.0
 13
1.0
 23
0.0
 33
0.0
 40
0.0
 40
0.0
 40
0.0
 40
0.0
 40
1.0
 40
1.0
 40
1.0
 40
2.0
 40
2.0
 40
2.0
 40
3.0
 40
3.0
 40
3.0
 40
4.0
 40
4.0
 40
4.0
 40
4.0
 10
69.75836044262985
 20
-125.255748124068
 30
0.0
 10
69.75836044262985
 20
-125.5055175467486
 30
0.0
 10
70.04189180106592
 20
-125.5520263357995
 30
0.0
 10
70.38657360436517
 20
-125.5520263357995
 30
0.0
 10
70.70610621062208
 20
-125.5520263357995
 30
0.0
 10
71.01495902087474
 20
-125.5158528332044
 30
0.0
 10
71.01495902087474
 20
-125.255748124068
 30
0.0
 10
71.01495902087474
 20
-125.0080457586785
 30
0.0
 10
70.73349471972982
 20
-124.9594699123365
 30
0.0
 10
70.38657360436517
 20
-124.9594699123365
 30
0.0
 10
70.06721325288251
 20
-124.9594699123365
 30
0.0
 10
69.75836044262985
 20
-124.9977104722228
 30
0.0
 10
69.75836044262985
 20
-125.255748124068
 30
0.0
  0
HATCH
  5
D3
330
CB
100
AcDbEntity
  8
_U+30EC_U+30A4_U+30E4_U+30FC 1
 62
   179
420
  2234388
100
AcDbHatch
 10
0.0
 20
0.0
 30
0.0
210
0.0
220
0.0
230
1.0
  2
SOLID
 70
     1
 71
     0
 91
        2
 92
        1
 93
        1
 72
     4
 94
        3
 73
     0
 74
     1
 95
       29
 96
       25
 40
0.0
 40
0.0
 40
0.0
 40
0.0
 40
1.0
 40
1.0
 40
1.0
 40
2.0
 40
2.0
 40
2.0
 40
3.0
 40
3.0
 40
3.0
 40
4.0
 40
4.0
 40
4.0
 40
5.0
 40
5.0
 40
5.0
 40
6.0
 40
6.0
 40
6.0
 40
7.0
 40
7.0
 40
7.0
 40
8.0
 40
8.0
 40
8.0
 40
8.0
 10
70.98102483034502
 20
-124.8578395955217
 10
71.19048663584822
 20
-124.9660155937585
 10
71.20960691579135
 20
-125.1393038966666
 10
71.20960691579135
 20
-125.255748124068
 10
71.20960691579135
 20
-125.4166340832292
 10
71.16309812674048
 20
-125.558227507673
 10
70.98102483034502
 20
-125.6533121430658
 10
70.78637693542841
 20
-125.7570095171719
 10
70.54952662081749
 20
-125.7763020518893
 10
70.38657360436517
 20
-125.7763020518893
 10
70.24274086785599
 20
-125.7763020518893
 10
69.99107664265848
 20
-125.759076574463
 10
69.7921223783853
 20
-125.6533121430658
 10
69.58903399952983
 20
-125.5454806543775
 10
69.5657796050044
 20
-125.3845946952164
 10
69.5657796050044
 20
-125.255748124068
 10
69.5657796050044
 20
-125.096929222198
 10
69.61022133676411
 20
-124.9532687404631
 10
69.7921223783853
 20
-124.8578395955217
 10
69.98470321601077
 20
-124.7586208455465
 10
70.21311304668284
 20
-124.7351941962468
 10
70.38657360436517
 20
-124.7351941962468
 10
70.55796710475634
 20
-124.7351941962468
 10
70.78861624749382
 20
-124.7565537882553
 10
70.98102483034502
 20
-124.8578395955217
 97
        0
 97
        0
 92
        1
 93
        1
 72
     4
 94
        3
 73
     0
 74
     1
 95
       17
 96
       13
 40
0.0
 40
0.0
 40
0.0
 40
0.0
 40
1.0
 40
1.0
 40
1.0
 40
2.0
 40
2.0
 40
2.0
 40
3.0
 40
3.0
 40
3.0
 40
4.0
 40
4.0
 40
4.0
 40
4.0
 10
69.75836044262985
 20
-125.255748124068
 10
69.75836044262985
 20
-125.5055175467486
 10
70.04189180106592
 20
-125.5520263357995
 10
70.38657360436517
 20
-125.5520263357995
 10
70.70610621062208
 20
-125.5520263357995
 10
71.01495902087474
 20
-125.5158528332044
 10
71.01495902087474
 20
-125.255748124068
 10
71.01495902087474
 20
-125.0080457586785
 10
70.73349471972982
 20
-124.9594699123365
 10
70.38657360436517
 20
-124.9594699123365
 10
70.06721325288251
 20
-124.9594699123365
 10
69.75836044262985
 20
-124.9977104722228
 10
69.75836044262985
 20
-125.255748124068
 97
        0
 97
        0
 75
     2
 76
     1
 98
        0
  0
ENDBLK
  5
CE
330
CB
100
AcDbEntity
  8
0
100
AcDbBlockEnd
  0
ENDSEC
  0
SECTION
  2
ENTITIES
  0
SPLINE
  5
41
330
1F
100
AcDbEntity
  8
_U+30EC_U+30A4_U+30E4_U+30FC 1
 62
   179
420
  2234388
370
     9
100
AcDbSpline
210
0.0
220
0.0
230
1.0
 70
    11
 71
     3
 72
    17
 73
    13
 74
     0
 42
0.0000000001
 43
0.0000000001
 12
1.0
 22
0.0
 32
0.0
 13
1.0
 23
0.0
 33
0.0
 40
0.0
 40
0.0
 40
0.0
 40
0.0
 40
1.0
 40
1.0
 40
1.0
 40
2.0
 40
2.0
 40
2.0
 40
3.0
 40
3.0
 40
3.0
 40
4.0
 40
4.0
 40
4.0
 40
4.0
 10
109.5636733159089
 20
-139.9563282983442
 30
0.0
 10
109.5636733159089
 20
-139.9005188539138
 30
0.0
 10
109.518905817051
 20
-139.8557160761471
 30
0.0
 10
109.4637694170782
 20
-139.8557160761471
 30
0.0
 10
109.408662764308
 20
-139.8557160761471
 30
0.0
 10
109.3638599876733
 20
-139.9005188539138
 30
0.0
 10
109.3638599876733
 20
-139.9563282983442
 30
0.0
 10
109.3638599876733
 20
-140.0114321872192
 30
0.0
 10
109.408662764308
 20
-140.0562349649859
 30
0.0
 10
109.4637694170782
 20
-140.0562349649859
 30
0.0
 10
109.518905817051
 20
-140.0562349649859
 30
0.0
 10
109.5636733159089
 20
-140.0114321872192
 30
0.0
 10
109.5636733159089
 20
-139.9563282983442
 30
0.0
  0
SPLINE
  5
42
330
1F
100
AcDbEntity
  8
_U+30EC_U+30A4_U+30E4_U+30FC 1
 62
   179
420
  2234388
370
     9
100
AcDbSpline
210
0.0
220
0.0
230
1.0
 70
    11
 71
     3
 72
    17
 73
    13
 74
     0
 42
0.0000000001
 43
0.0000000001
 12
1.0
 22
0.0
 32
0.0
 13
1.0
 23
0.0
 33
0.0
 40
0.0
 40
0.0
 40
0.0
 40
0.0
 40
1.0
 40
1.0
 40
1.0
 40
2.0
 40
2.0
 40
2.0
 40
3.0
 40
3.0
 40
3.0
 40
4.0
 40
4.0
 40
4.0
 40
4.0
 10
109.5636733159089
 20
-140.7562519092554
 30
0.0
 10
109.5636733159089
 20
-140.7011480203804
 30
0.0
 10
109.518905817051
 20
-140.6563452426137
 30
0.0
 10
109.4637694170782
 20
-140.6563452426137
 30
0.0
 10
109.408662764308
 20
-140.6563452426137
 30
0.0
 10
109.3638599876733
 20
-140.7011480203804
 30
0.0
 10
109.3638599876733
 20
-140.7562519092554
 30
0.0
 10
109.3638599876733
 20
-140.8113910759084
 30
0.0
 10
109.408662764308
 20
-140.856158575897
 30
0.0
 10
109.4637694170782
 20
-140.856158575897
 30
0.0
 10
109.518905817051
 20
-140.856158575897
 30
0.0
 10
109.5636733159089
 20
-140.8113910759084
 30
0.0
 10
109.5636733159089
 20
-140.7562519092554
 30
0.0
  0
POLYLINE
  5
43
330
1F
100
AcDbEntity
  8
_U+30EC_U+30A4_U+30E4_U+30FC 1
 62
   179
420
  2234388
370
     9
100
AcDb2dPolyline
 66
     1
 10
0.0
 20
0.0
 30
0.0
  0
VERTEX
  5
44
330
43
100
AcDbEntity
  8
_U+30EC_U+30A4_U+30E4_U+30FC 1
 62
   179
420
  2234388
370
     9
100
AcDbVertex
100
AcDb2dVertex
 10
109.4637694170782
 20
-139.9563282983442
 30
0.0
  0
VERTEX
  5
45
330
43
100
AcDbEntity
  8
_U+30EC_U+30A4_U+30E4_U+30FC 1
 62
   179
420
  2234388
370
     9
100
AcDbVertex
100
AcDb2dVertex
 10
109.4637694170782
 20
-141.8559307978695
 30
0.0
  0
SEQEND
  5
46
330
43
100
AcDbEntity
  8
_U+30EC_U+30A4_U+30E4_U+30FC 1
 62
   179
420
  2234388
370
     9
  0
POLYLINE
  5
47
330
1F
100
AcDbEntity
  8
_U+30EC_U+30A4_U+30E4_U+30FC 1
 62
   179
420
  2234388
370
     9
100
AcDb2dPolyline
 66
     1
 10
0.0
 20
0.0
 30
0.0
  0
VERTEX
  5
48
330
47
100
AcDbEntity
  8
_U+30EC_U+30A4_U+30E4_U+30FC 1
 62
   179
420
  2234388
370
     9
100
AcDbVertex
100
AcDb2dVertex
 10
108.003725300151
 20
-139.9563282983442
 30
0.0
  0
VERTEX
  5
49
330
47
100
AcDbEntity
  8
_U+30EC_U+30A4_U+30E4_U+30FC 1
 62
   179
420
  2234388
370
     9
100
AcDbVertex
100
AcDb2dVertex
 10
110.4635416390508
 20
-139.9563282983442
 30
0.0
  0
SEQEND
  5
4A
330
47
100
AcDbEntity
  8
_U+30EC_U+30A4_U+30E4_U+30FC 1
 62
   179
420
  2234388
370
     9
  0
POLYLINE
  5
4B
330
1F
100
AcDbEntity
  8
_U+30EC_U+30A4_U+30E4_U+30FC 1
 62
   179
420
  2234388
370
     9
100
AcDb2dPolyline
 66
     1
 10
0.0
 20
0.0
 30
0.0
  0
VERTEX
  5
4C
330
4B
100
AcDbEntity
  8
_U+30EC_U+30A4_U+30E4_U+30FC 1
 62
   179
420
  2234388
370
     9
100
AcDbVertex
100
AcDb2dVertex
 10
108.003725300151
 20
-140.7562519092554
 30
0.0
  0
VERTEX
  5
4D
330
4B
100
AcDbEntity
  8
_U+30EC_U+30A4_U+30E4_U+30FC 1
 62
   179
420
  2234388
370
     9
100
AcDbVertex
100
AcDb2dVertex
 10
110.4635416390508
 20
-140.7562519092554
 30
0.0
  0
SEQEND
  5
4E
330
4B
100
AcDbEntity
  8
_U+30EC_U+30A4_U+30E4_U+30FC 1
 62
   179
420
  2234388
370
     9
  0
INSERT
  5
50
330
1F
100
AcDbEntity
  8
_U+30EC_U+30A4_U+30E4_U+30FC 1
100
AcDbBlockReference
  2
block 2
 10
0.0
 20
0.0
 30
0.0
  0
POLYLINE
  5
62
330
1F
100
AcDbEntity
  8
_U+30EC_U+30A4_U+30E4_U+30FC 1
 62
   179
420
  2234388
370
    25
100
AcDb2dPolyline
 66
     1
 10
0.0
 20
0.0
 30
0.0
  0
VERTEX
  5
63
330
62
100
AcDbEntity
  8
_U+30EC_U+30A4_U+30E4_U+30FC 1
 62
   179
420
  2234388
370
    25
100
AcDbVertex
100
AcDb2dVertex
 10
76.26339222102544
 20
-110.756382472311
 30
0.0
  0
VERTEX
  5
64
330
62
100
AcDbEntity
  8
_U+30EC_U+30A4_U+30E4_U+30FC 1
 62
   179
420
  2234388
370
    25
100
AcDbVertex
100
AcDb2dVertex
 10
75.46276307478452
 20
-110.756382472311
 30
0.0
  0
VERTEX
  5
65
330
62
100
AcDbEntity
  8
_U+30EC_U+30A4_U+30E4_U+30FC 1
 62
   179
420
  2234388
370
    25
100
AcDbVertex
100
AcDb2dVertex
 10
75.46276307478452
 20
-140.7566046870331
 30
0.0
  0
VERTEX
  5
66
330
62
100
AcDbEntity
  8
_U+30EC_U+30A4_U+30E4_U+30FC 1
 62
   179
420
  2234388
370
    25
100
AcDbVertex
100
AcDb2dVertex
 10
105.4633373094061
 20
-140.7566046870331
 30
0.0
  0
VERTEX
  5
67
330
62
100
AcDbEntity
  8
_U+30EC_U+30A4_U+30E4_U+30FC 1
 62
   179
420
  2234388
370
    25
100
AcDbVertex
100
AcDb2dVertex
 10
105.4633373094061
 20
-139.9563282983442
 30
0.0
  0
VERTEX
  5
68
330
62
100
AcDbEntity
  8
_U+30EC_U+30A4_U+30E4_U+30FC 1
 62
   179
420
  2234388
370
    25
100
AcDbVertex
100
AcDb2dVertex
 10
76.26268666548788
 20
-139.9563282983442
 30
0.0
  0
VERTEX
  5
69
330
62
100
AcDbEntity
  8
_U+30EC_U+30A4_U+30E4_U+30FC 1
 62
   179
420
  2234388
370
    25
100
AcDbVertex
100
AcDb2dVertex
 10
76.26339222102544
 20
-110.756382472311
 30
0.0
  0
SEQEND
  5
6B
330
62
100
AcDbEntity
  8
_U+30EC_U+30A4_U+30E4_U+30FC 1
 62
   179
420
  2234388
370
    25
  0
HATCH
  5
6A
330
1F
100
AcDbEntity
  8
_U+30EC_U+30A4_U+30E4_U+30FC 1
 62
     9
420
 12566464
100
AcDbHatch
 10
0.0
 20
0.0
 30
0.0
210
0.0
220
0.0
230
1.0
  2
SOLID
 70
     1
 71
     0
 91
        1
 92
        1
 93
        6
 72
     1
 10
76.26339222102544
 20
-110.756382472311
 11
75.46276307478452
 21
-110.756382472311
 72
     1
 10
75.46276307478452
 20
-110.756382472311
 11
75.46276307478452
 21
-140.7566046870331
 72
     1
 10
75.46276307478452
 20
-140.7566046870331
 11
105.4633373094061
 21
-140.7566046870331
 72
     1
 10
105.4633373094061
 20
-140.7566046870331
 11
105.4633373094061
 21
-139.9563282983442
 72
     1
 10
105.4633373094061
 20
-139.9563282983442
 11
76.26268666548788
 21
-139.9563282983442
 72
     1
 10
76.26268666548788
 20
-139.9563282983442
 11
76.26339222102544
 21
-110.756382472311
 97
        0
 75
     2
 76
     1
 98
        0
  0
POLYLINE
  5
6C
330
1F
100
AcDbEntity
  8
_U+30EC_U+30A4_U+30E4_U+30FC 1
  6
AI-Linetype-1
 62
   154
420
    23468
370
    25
100
AcDb2dPolyline
 66
     1
 10
0.0
 20
0.0
 30
0.0
  0
VERTEX
  5
6D
330
6C
100
AcDbEntity
  8
_U+30EC_U+30A4_U+30E4_U+30FC 1
  6
AI-Linetype-1
 62
   154
420
    23468
370
    25
100
AcDbVertex
100
AcDb2dVertex
 10
85.46249587522564
 20
-141.7612099645598
 30
0.0
  0
VERTEX
  5
6E
330
6C
100
AcDbEntity
  8
_U+30EC_U+30A4_U+30E4_U+30FC 1
  6
AI-Linetype-1
 62
   154
420
    23468
370
    25
100
AcDbVertex
100
AcDb2dVertex
 10
105.4089036996837
 20
-141.7612099645598
 30
0.0
  0
SEQEND
  5
70
330
6C
100
AcDbEntity
  8
_U+30EC_U+30A4_U+30E4_U+30FC 1
  6
AI-Linetype-1
 62
   154
420
    23468
370
    25
  0
POLYLINE
  5
71
330
1F
100
AcDbEntity
  8
_U+30EC_U+30A4_U+30E4_U+30FC 1
  6
AI-Linetype-2
 62
   154
420
    23468
370
    25
100
AcDb2dPolyline
 66
     1
 10
0.0
 20
0.0
 30
0.0
  0
VERTEX
  5
72
330
71
100
AcDbEntity
  8
_U+30EC_U+30A4_U+30E4_U+30FC 1
  6
AI-Linetype-2
 62
   154
420
    23468
370
    25
100
AcDbVertex
100
AcDb2dVertex
 10
74.45815782263637
 20
-130.7572244117553
 30
0.0
  0
VERTEX
  5
73
330
71
100
AcDbEntity
  8
_U+30EC_U+30A4_U+30E4_U+30FC 1
  6
AI-Linetype-2
 62
   154
420
    23468
370
    25
100
AcDbVertex
100
AcDb2dVertex
 10
74.45815782263637
 20
-110.8108160834085
 30
0.0
  0
SEQEND
  5
75
330
71
100
AcDbEntity
  8
_U+30EC_U+30A4_U+30E4_U+30FC 1
  6
AI-Linetype-2
 62
   154
420
    23468
370
    25
  0
INSERT
  5
77
330
1F
100
AcDbEntity
  8
_U+30EC_U+30A4_U+30E4_U+30FC 1
100
AcDbBlockReference
  2
block 3
 10
0.0
 20
0.0
 30
0.0
  0
POLYLINE
  5
9E
330
1F
100
AcDbEntity
  8
_U+30EC_U+30A4_U+30E4_U+30FC 1
 62
     7
420
 16777215
370
     9
100
AcDb2dPolyline
 66
     1
 10
0.0
 20
0.0
 30
0.0
  0
VERTEX
  5
9F
330
9E
100
AcDbEntity
  8
_U+30EC_U+30A4_U+30E4_U+30FC 1
 62
     7
420
 16777215
370
     9
100
AcDbVertex
100
AcDb2dVertex
 10
75.46138724148629
 20
-144.9947710748623
 30
0.0
  0
VERTEX
  5
A0
330
9E
100
AcDbEntity
  8
_U+30EC_U+30A4_U+30E4_U+30FC 1
 62
     7
420
 16777215
370
     9
100
AcDbVertex
100
AcDb2dVertex
 10
105.4612559205703
 20
-144.9947710748623
 30
0.0
  0
SEQEND
  5
A1
330
9E
100
AcDbEntity
  8
_U+30EC_U+30A4_U+30E4_U+30FC 1
 62
     7
420
 16777215
370
     9
  0
INSERT
  5
A3
330
1F
100
AcDbEntity
  8
_U+30EC_U+30A4_U+30E4_U+30FC 1
100
AcDbBlockReference
  2
block 4
 10
0.0
 20
0.0
 30
0.0
  0
POLYLINE
  5
AB
330
1F
100
AcDbEntity
  8
_U+30EC_U+30A4_U+30E4_U+30FC 1
 62
   179
420
  2234388
370
     9
100
AcDb2dPolyline
 66
     1
 10
0.0
 20
0.0
 30
0.0
  0
VERTEX
  5
AC
330
AB
100
AcDbEntity
  8
_U+30EC_U+30A4_U+30E4_U+30FC 1
 62
   179
420
  2234388
370
     9
100
AcDbVertex
100
AcDb2dVertex
 10
100.9426665914047
 20
-140.7497255203681
 30
0.0
  0
VERTEX
  5
AD
330
AB
100
AcDbEntity
  8
_U+30EC_U+30A4_U+30E4_U+30FC 1
 62
   179
420
  2234388
370
     9
100
AcDbVertex
100
AcDb2dVertex
 10
100.6829163202537
 20
-141.7157369090157
 30
0.0
  0
VERTEX
  5
AE
330
AB
100
AcDbEntity
  8
_U+30EC_U+30A4_U+30E4_U+30FC 1
 62
   179
420
  2234388
370
     9
100
AcDbVertex
100
AcDb2dVertex
 10
100.4259177156992
 20
-140.7493727425903
 30
0.0
  0
SEQEND
  5
AF
330
AB
100
AcDbEntity
  8
_U+30EC_U+30A4_U+30E4_U+30FC 1
 62
   179
420
  2234388
370
     9
  0
POLYLINE
  5
B0
330
1F
100
AcDbEntity
  8
_U+30EC_U+30A4_U+30E4_U+30FC 1
 62
   179
420
  2234388
370
     9
100
AcDb2dPolyline
 66
     1
 10
0.0
 20
0.0
 30
0.0
  0
VERTEX
  5
B1
330
B0
100
AcDbEntity
  8
_U+30EC_U+30A4_U+30E4_U+30FC 1
 62
   179
420
  2234388
370
     9
100
AcDbVertex
100
AcDb2dVertex
 10
75.40141502079409
 20
-117.2627688595732
 30
0.0
  0
VERTEX
  5
B2
330
B0
100
AcDbEntity
  8
_U+30EC_U+30A4_U+30E4_U+30FC 1
 62
   179
420
  2234388
370
     9
100
AcDbVertex
100
AcDb2dVertex
 10
74.43540553694656
 20
-117.0030185818602
 30
0.0
  0
VERTEX
  5
B3
330
B0
100
AcDbEntity
  8
_U+30EC_U+30A4_U+30E4_U+30FC 1
 62
   179
420
  2234388
370
     9
100
AcDbVertex
100
AcDb2dVertex
 10
75.40212057633164
 20
-116.7460199708136
 30
0.0
  0
SEQEND
  5
B4
330
B0
100
AcDbEntity
  8
_U+30EC_U+30A4_U+30E4_U+30FC 1
 62
   179
420
  2234388
370
     9
  0
POLYLINE
  5
B5
330
1F
100
AcDbEntity
  8
_U+30EC_U+30A4_U+30E4_U+30FC 1
 62
   179
420
  2234388
370
     9
100
AcDb2dPolyline
 66
     1
 10
0.0
 20
0.0
 30
0.0
  0
VERTEX
  5
B6
330
B5
100
AcDbEntity
  8
_U+30EC_U+30A4_U+30E4_U+30FC 1
 62
   179
420
  2234388
370
     9
100
AcDbVertex
100
AcDb2dVertex
 10
100.7022132642058
 20
-141.7157369090157
 30
0.0
  0
VERTEX
  5
B7
330
B5
100
AcDbEntity
  8
_U+30EC_U+30A4_U+30E4_U+30FC 1
 62
   179
420
  2234388
370
     9
100
AcDbVertex
100
AcDb2dVertex
 10
100.7022132642058
 20
-118.9908508035857
 30
0.0
  0
SEQEND
  5
B8
330
B5
100
AcDbEntity
  8
_U+30EC_U+30A4_U+30E4_U+30FC 1
 62
   179
420
  2234388
370
     9
  0
POLYLINE
  5
B9
330
1F
100
AcDbEntity
  8
_U+30EC_U+30A4_U+30E4_U+30FC 1
 62
   179
420
  2234388
370
     9
100
AcDb2dPolyline
 66
     1
 10
0.0
 20
0.0
 30
0.0
  0
VERTEX
  5
BA
330
B9
100
AcDbEntity
  8
_U+30EC_U+30A4_U+30E4_U+30FC 1
 62
   179
420
  2234388
370
     9
100
AcDbVertex
100
AcDb2dVertex
 10
74.43540553694656
 20
-116.9816755263101
 30
0.0
  0
VERTEX
  5
BB
330
B9
100
AcDbEntity
  8
_U+30EC_U+30A4_U+30E4_U+30FC 1
 62
   179
420
  2234388
370
     9
100
AcDbVertex
100
AcDb2dVertex
 10
94.49964164304161
 20
-116.9816755263101
 30
0.0
  0
SEQEND
  5
BC
330
B9
100
AcDbEntity
  8
_U+30EC_U+30A4_U+30E4_U+30FC 1
 62
   179
420
  2234388
370
     9
  0
SPLINE
  5
BD
330
1F
100
AcDbEntity
  8
_U+30EC_U+30A4_U+30E4_U+30FC 1
 62
   179
420
  2234388
370
     9
100
AcDbSpline
210
0.0
220
0.0
230
1.0
 70
    11
 71
     3
 72
    17
 73
    13
 74
     0
 42
0.0000000001
 43
0.0000000001
 12
1.0
 22
0.0
 32
0.0
 13
1.0
 23
0.0
 33
0.0
 40
0.0
 40
0.0
 40
0.0
 40
0.0
 40
1.0
 40
1.0
 40
1.0
 40
2.0
 40
2.0
 40
2.0
 40
3.0
 40
3.0
 40
3.0
 40
4.0
 40
4.0
 40
4.0
 40
4.0
 10
71.85504594460284
 20
-140.7686696870301
 30
0.0
 10
71.85504594460284
 20
-140.713530520377
 30
0.0
 10
71.81024316796807
 20
-140.6687630203885
 30
0.0
 10
71.755139280485
 20
-140.6687630203885
 30
0.0
 10
71.70000011522505
 20
-140.6687630203885
 30
0.0
 10
71.65523261636716
 20
-140.713530520377
 30
0.0
 10
71.65523261636716
 20
-140.7686696870301
 30
0.0
 10
71.65523261636716
 20
-140.823773575905
 30
0.0
 10
71.70000011522505
 20
-140.8685763536718
 30
0.0
 10
71.755139280485
 20
-140.8685763536718
 30
0.0
 10
71.81024316796807
 20
-140.8685763536718
 30
0.0
 10
71.85504594460284
 20
-140.823773575905
 30
0.0
 10
71.85504594460284
 20
-140.7686696870301
 30
0.0
  0
SPLINE
  5
BE
330
1F
100
AcDbEntity
  8
_U+30EC_U+30A4_U+30E4_U+30FC 1
 62
   179
420
  2234388
370
     9
100
AcDbSpline
210
0.0
220
0.0
230
1.0
 70
    11
 71
     3
 72
    17
 73
    13
 74
     0
 42
0.0000000001
 43
0.0000000001
 12
1.0
 22
0.0
 32
0.0
 13
1.0
 23
0.0
 33
0.0
 40
0.0
 40
0.0
 40
0.0
 40
0.0
 40
1.0
 40
1.0
 40
1.0
 40
2.0
 40
2.0
 40
2.0
 40
3.0
 40
3.0
 40
3.0
 40
4.0
 40
4.0
 40
4.0
 40
4.0
 10
71.85504594460284
 20
-110.768447472308
 30
0.0
 10
71.85504594460284
 20
-110.7133083056549
 30
0.0
 10
71.81024316796807
 20
-110.6685408056663
 30
0.0
 10
71.755139280485
 20
-110.6685408056663
 30
0.0
 10
71.70000011522505
 20
-110.6685408056663
 30
0.0
 10
71.65523261636716
 20
-110.7133083056549
 30
0.0
 10
71.65523261636716
 20
-110.768447472308
 30
0.0
 10
71.65523261636716
 20
-110.8239041389606
 30
0.0
 10
71.70000011522505
 20
-110.8686716389495
 30
0.0
 10
71.755139280485
 20
-110.8686716389495
 30
0.0
 10
71.81024316796807
 20
-110.8686716389495
 30
0.0
 10
71.85504594460284
 20
-110.8239041389606
 30
0.0
 10
71.85504594460284
 20
-110.768447472308
 30
0.0
  0
POLYLINE
  5
BF
330
1F
100
AcDbEntity
  8
_U+30EC_U+30A4_U+30E4_U+30FC 1
 62
   179
420
  2234388
370
     9
100
AcDb2dPolyline
 66
     1
 10
0.0
 20
0.0
 30
0.0
  0
VERTEX
  5
C0
330
BF
100
AcDbEntity
  8
_U+30EC_U+30A4_U+30E4_U+30FC 1
 62
   179
420
  2234388
370
     9
100
AcDbVertex
100
AcDb2dVertex
 10
71.755139280485
 20
-110.768447472308
 30
0.0
  0
VERTEX
  5
C1
330
BF
100
AcDbEntity
  8
_U+30EC_U+30A4_U+30E4_U+30FC 1
 62
   179
420
  2234388
370
     9
100
AcDbVertex
100
AcDb2dVertex
 10
71.755139280485
 20
-140.7686696870301
 30
0.0
  0
SEQEND
  5
C2
330
BF
100
AcDbEntity
  8
_U+30EC_U+30A4_U+30E4_U+30FC 1
 62
   179
420
  2234388
370
     9
  0
POLYLINE
  5
C3
330
1F
100
AcDbEntity
  8
_U+30EC_U+30A4_U+30E4_U+30FC 1
 62
   179
420
  2234388
370
     9
100
AcDb2dPolyline
 66
     1
 10
0.0
 20
0.0
 30
0.0
  0
VERTEX
  5
C4
330
C3
100
AcDbEntity
  8
_U+30EC_U+30A4_U+30E4_U+30FC 1
 62
   179
420
  2234388
370
     9
100
AcDbVertex
100
AcDb2dVertex
 10
73.21518063212513
 20
-110.768447472308
 30
0.0
  0
VERTEX
  5
C5
330
C3
100
AcDbEntity
  8
_U+30EC_U+30A4_U+30E4_U+30FC 1
 62
   179
420
  2234388
370
     9
100
AcDbVertex
100
AcDb2dVertex
 10
70.75536708376909
 20
-110.768447472308
 30
0.0
  0
SEQEND
  5
C6
330
C3
100
AcDbEntity
  8
_U+30EC_U+30A4_U+30E4_U+30FC 1
 62
   179
420
  2234388
370
     9
  0
POLYLINE
  5
C7
330
1F
100
AcDbEntity
  8
_U+30EC_U+30A4_U+30E4_U+30FC 1
 62
   179
420
  2234388
370
     9
100
AcDb2dPolyline
 66
     1
 10
0.0
 20
0.0
 30
0.0
  0
VERTEX
  5
C8
330
C7
100
AcDbEntity
  8
_U+30EC_U+30A4_U+30E4_U+30FC 1
 62
   179
420
  2234388
370
     9
100
AcDbVertex
100
AcDb2dVertex
 10
73.21518063212513
 20
-140.7686696870301
 30
0.0
  0
VERTEX
  5
C9
330
C7
100
AcDbEntity
  8
_U+30EC_U+30A4_U+30E4_U+30FC 1
 62
   179
420
  2234388
370
     9
100
AcDbVertex
100
AcDb2dVertex
 10
70.75536708376909
 20
-140.7686696870301
 30
0.0
  0
SEQEND
  5
CA
330
C7
100
AcDbEntity
  8
_U+30EC_U+30A4_U+30E4_U+30FC 1
 62
   179
420
  2234388
370
     9
  0
INSERT
  5
CC
330
1F
100
AcDbEntity
  8
_U+30EC_U+30A4_U+30E4_U+30FC 1
100
AcDbBlockReference
  2
block 5
 10
0.0
 20
0.0
 30
0.0
  0
SPLINE
  5
D4
330
1F
100
AcDbEntity
  8
_U+30EC_U+30A4_U+30E4_U+30FC 1
 62
   179
420
  2234388
370
     9
100
AcDbSpline
210
0.0
220
0.0
230
1.0
 70
    11
 71
     3
 72
    17
 73
    13
 74
     0
 42
0.0000000001
 43
0.0000000001
 12
1.0
 22
0.0
 32
0.0
 13
1.0
 23
0.0
 33
0.0
 40
0.0
 40
0.0
 40
0.0
 40
0.0
 40
1.0
 40
1.0
 40
1.0
 40
2.0
 40
2.0
 40
2.0
 40
3.0
 40
3.0
 40
3.0
 40
4.0
 40
4.0
 40
4.0
 40
4.0
 10
75.56542140549882
 20
-144.9902907970859
 30
0.0
 10
75.56542140549882
 20
-144.9351516304328
 30
0.0
 10
75.52061862886406
 20
-144.8903841304442
 30
0.0
 10
75.46551664780017
 20
-144.8903841304442
 30
0.0
 10
75.41037557612104
 20
-144.8903841304442
 30
0.0
 10
75.36560807726315
 20
-144.9351516304328
 30
0.0
 10
75.36560807726315
 20
-144.9902907970859
 30
0.0
 10
75.36560807726315
 20
-145.0453946859608
 30
0.0
 10
75.41037557612104
 20
-145.0901974637275
 30
0.0
 10
75.46551664780017
 20
-145.0901974637275
 30
0.0
 10
75.52061862886406
 20
-145.0901974637275
 30
0.0
 10
75.56542140549882
 20
-145.0453946859608
 30
0.0
 10
75.56542140549882
 20
-144.9902907970859
 30
0.0
  0
POLYLINE
  5
D5
330
1F
100
AcDbEntity
  8
_U+30EC_U+30A4_U+30E4_U+30FC 1
 62
   179
420
  2234388
370
     9
100
AcDb2dPolyline
 66
     1
 10
0.0
 20
0.0
 30
0.0
  0
VERTEX
  5
D6
330
D5
100
AcDbEntity
  8
_U+30EC_U+30A4_U+30E4_U+30FC 1
 62
   179
420
  2234388
370
     9
100
AcDbVertex
100
AcDb2dVertex
 10
75.46551664780017
 20
-143.5302494085622
 30
0.0
  0
VERTEX
  5
D7
330
D5
100
AcDbEntity
  8
_U+30EC_U+30A4_U+30E4_U+30FC 1
 62
   179
420
  2234388
370
     9
100
AcDbVertex
100
AcDb2dVertex
 10
75.46551664780017
 20
-145.9900630190578
 30
0.0
  0
SEQEND
  5
D8
330
D5
100
AcDbEntity
  8
_U+30EC_U+30A4_U+30E4_U+30FC 1
 62
   179
420
  2234388
370
     9
  0
SPLINE
  5
D9
330
1F
100
AcDbEntity
  8
_U+30EC_U+30A4_U+30E4_U+30FC 1
 62
   179
420
  2234388
370
     9
100
AcDbSpline
210
0.0
220
0.0
230
1.0
 70
    11
 71
     3
 72
    17
 73
    13
 74
     0
 42
0.0000000001
 43
0.0000000001
 12
1.0
 22
0.0
 32
0.0
 13
1.0
 23
0.0
 33
0.0
 40
0.0
 40
0.0
 40
0.0
 40
0.0
 40
1.0
 40
1.0
 40
1.0
 40
2.0
 40
2.0
 40
2.0
 40
3.0
 40
3.0
 40
3.0
 40
4.0
 40
4.0
 40
4.0
 40
4.0
 10
105.5652900845829
 20
-144.9902907970859
 30
0.0
 10
105.5652900845829
 20
-144.9351516304328
 30
0.0
 10
105.520522585725
 20
-144.8903841304442
 30
0.0
 10
105.4653860847449
 20
-144.8903841304442
 30
0.0
 10
105.4102795329819
 20
-144.8903841304442
 30
0.0
 10
105.3654767563472
 20
-144.9351516304328
 30
0.0
 10
105.3654767563472
 20
-144.9902907970859
 30
0.0
 10
105.3654767563472
 20
-145.0453946859608
 30
0.0
 10
105.4102795329819
 20
-145.0901974637275
 30
0.0
 10
105.4653860847449
 20
-145.0901974637275
 30
0.0
 10
105.520522585725
 20
-145.0901974637275
 30
0.0
 10
105.5652900845829
 20
-145.0453946859608
 30
0.0
 10
105.5652900845829
 20
-144.9902907970859
 30
0.0
  0
POLYLINE
  5
DA
330
1F
100
AcDbEntity
  8
_U+30EC_U+30A4_U+30E4_U+30FC 1
 62
   179
420
  2234388
370
     9
100
AcDb2dPolyline
 66
     1
 10
0.0
 20
0.0
 30
0.0
  0
VERTEX
  5
DB
330
DA
100
AcDbEntity
  8
_U+30EC_U+30A4_U+30E4_U+30FC 1
 62
   179
420
  2234388
370
     9
100
AcDbVertex
100
AcDb2dVertex
 10
105.4653860847449
 20
-143.5302494085622
 30
0.0
  0
VERTEX
  5
DC
330
DA
100
AcDbEntity
  8
_U+30EC_U+30A4_U+30E4_U+30FC 1
 62
   179
420
  2234388
370
     9
100
AcDbVertex
100
AcDb2dVertex
 10
105.4653860847449
 20
-145.9900630190578
 30
0.0
  0
SEQEND
  5
DD
330
DA
100
AcDbEntity
  8
_U+30EC_U+30A4_U+30E4_U+30FC 1
 62
   179
420
  2234388
370
     9
  0
ENDSEC
  0
SECTION
  2
OBJECTS
  0
DICTIONARY
  5
C
330
0
100
AcDbDictionary
281
     1
  3
ACAD_GROUP
350
D
  3
ACAD_LAYOUT
350
1A
  3
ACAD_MATERIAL
350
3B
  3
ACAD_MLEADERSTYLE
350
DF
  3
ACAD_MLINESTYLE
350
17
  3
ACAD_PLOTSETTINGS
350
19
  3
ACAD_PLOTSTYLENAME
350
E
  3
ACAD_TABLESTYLE
350
DE
  3
ACAD_VISUALSTYLE
350
2A
  0
SUN
  5
3F
330
29
100
AcDbSun
 90
        1
290
     0
 63
     7
421
 16777215
 40
1.0
291
     1
 91
  2455826
 92
 54000000
292
     0
 70
     2
 71
   256
280
     1
  0
DICTIONARY
  5
D
102
{ACAD_REACTORS
330
C
102
}
330
C
100
AcDbDictionary
281
     1
  0
DICTIONARY
  5
1A
102
{ACAD_REACTORS
330
C
102
}
330
C
100
AcDbDictionary
281
     1
  3
Layout1
350
1E
  3
Layout2
350
26
  3
Model
350
22
  0
DICTIONARY
  5
3B
102
{ACAD_REACTORS
330
C
102
}
330
C
100
AcDbDictionary
281
     1
  3
ByBlock
350
3D
  3
ByLayer
350
3C
  3
Global
350
3E
  0
DICTIONARY
  5
DF
102
{ACAD_REACTORS
330
C
102
}
330
C
100
AcDbDictionary
281
     1
  0
DICTIONARY
  5
17
102
{ACAD_REACTORS
330
C
102
}
330
C
100
AcDbDictionary
281
     1
  3
Standard
350
18
  0
DICTIONARY
  5
19
102
{ACAD_REACTORS
330
C
102
}
330
C
100
AcDbDictionary
281
     1
  0
ACDBDICTIONARYWDFLT
  5
E
102
{ACAD_REACTORS
330
C
102
}
330
C
100
AcDbDictionary
281
     1
  3
Normal
350
F
100
AcDbDictionaryWithDefault
340
F
  0
DICTIONARY
  5
DE
102
{ACAD_REACTORS
330
C
102
}
330
C
100
AcDbDictionary
281
     1
  0
DICTIONARY
  5
2A
102
{ACAD_REACTORS
330
C
102
}
330
C
100
AcDbDictionary
281
     1
  3
2dWireframe
350
2F
  3
3D Hidden
350
31
  3
3dWireframe
350
30
  3
Basic
350
32
  3
Brighten
350
36
  3
ColorChange
350
3A
  3
Conceptual
350
34
  3
Dim
350
35
  3
Facepattern
350
39
  3
Flat
350
2B
  3
FlatWithEdges
350
2C
  3
Gouraud
350
2D
  3
GouraudWithEdges
350
2E
  3
Linepattern
350
38
  3
Realistic
350
33
  3
Thicken
350
37
  0
LAYOUT
  5
1E
102
{ACAD_REACTORS
330
1A
102
}
330
1A
100
AcDbPlotSettings
  1

  2
none_device
  4

  6

 40
0.0
 41
0.0
 42
0.0
 43
0.0
 44
0.0
 45
0.0
 46
0.0
 47
0.0
 48
0.0
 49
0.0
140
0.0
141
0.0
142
1.0
143
1.0
 70
   688
 72
     0
 73
     0
 74
     5
  7

 75
    16
 76
     0
 77
     2
 78
   300
147
1.0
148
0.0
149
0.0
100
AcDbLayout
  1
Layout1
 70
     1
 71
     1
 10
0.0
 20
0.0
 11
12.0
 21
9.0
 12
0.0
 22
0.0
 32
0.0
 14
1.000000000000000E+20
 24
1.000000000000000E+20
 34
1.000000000000000E+20
 15
-1.000000000000000E+20
 25
-1.000000000000000E+20
 35
-1.000000000000000E+20
146
0.0
 13
0.0
 23
0.0
 33
0.0
 16
1.0
 26
0.0
 36
0.0
 17
0.0
 27
1.0
 37
0.0
 76
     0
330
1B
  0
LAYOUT
  5
26
102
{ACAD_REACTORS
330
1A
102
}
330
1A
100
AcDbPlotSettings
  1

  2
none_device
  4

  6

 40
0.0
 41
0.0
 42
0.0
 43
0.0
 44
0.0
 45
0.0
 46
0.0
 47
0.0
 48
0.0
 49
0.0
140
0.0
141
0.0
142
1.0
143
1.0
 70
   688
 72
     0
 73
     0
 74
     5
  7

 75
    16
 76
     0
 77
     2
 78
   300
147
1.0
148
0.0
149
0.0
100
AcDbLayout
  1
Layout2
 70
     1
 71
     2
 10
0.0
 20
0.0
 11
0.0
 21
0.0
 12
0.0
 22
0.0
 32
0.0
 14
0.0
 24
0.0
 34
0.0
 15
0.0
 25
0.0
 35
0.0
146
0.0
 13
0.0
 23
0.0
 33
0.0
 16
1.0
 26
0.0
 36
0.0
 17
0.0
 27
1.0
 37
0.0
 76
     0
330
23
  0
LAYOUT
  5
22
102
{ACAD_REACTORS
330
1A
102
}
330
1A
100
AcDbPlotSettings
  1

  2
none_device
  4

  6

 40
0.0
 41
0.0
 42
0.0
 43
0.0
 44
0.0
 45
0.0
 46
0.0
 47
0.0
 48
0.0
 49
0.0
140
0.0
141
0.0
142
1.0
143
1.0
 70
  1712
 72
     0
 73
     0
 74
     0
  7

 75
     0
 76
     0
 77
     2
 78
   300
147
1.0
148
0.0
149
0.0
100
AcDbLayout
  1
Model
 70
     1
 71
     0
 10
0.0
 20
0.0
 11
12.0
 21
9.0
 12
0.0
 22
0.0
 32
0.0
 14
1.000000000000000E+20
 24
1.000000000000000E+20
 34
1.000000000000000E+20
 15
-1.000000000000000E+20
 25
-1.000000000000000E+20
 35
-1.000000000000000E+20
146
0.0
 13
0.0
 23
0.0
 33
0.0
 16
1.0
 26
0.0
 36
0.0
 17
0.0
 27
1.0
 37
0.0
 76
     0
330
1F
331
29
  0
MATERIAL
  5
3D
102
{ACAD_REACTORS
330
3B
102
}
330
3B
100
AcDbMaterial
  1
ByBlock
 72
     1
 94
      127
  0
MATERIAL
  5
3C
102
{ACAD_REACTORS
330
3B
102
}
330
3B
100
AcDbMaterial
  1
ByLayer
 72
     1
 94
      127
  0
MATERIAL
  5
3E
102
{ACAD_REACTORS
330
3B
102
}
330
3B
100
AcDbMaterial
  1
Global
 72
     1
 94
      127
  0
MLINESTYLE
  5
18
102
{ACAD_REACTORS
330
17
102
}
330
17
100
AcDbMlineStyle
  2
Standard
 70
     0
  3

 62
   256
 51
90.0
 52
90.0
 71
     2
 49
0.5
 62
   256
  6
BYLAYER
 49
-0.5
 62
   256
  6
BYLAYER
  0
ACDBPLACEHOLDER
  5
F
102
{ACAD_REACTORS
330
E
102
}
330
E
  0
VISUALSTYLE
  5
2F
102
{ACAD_REACTORS
330
2A
102
}
330
2A
100
AcDbVisualStyle
  2
2dWireframe
 70
     4
177
     2
291
     0
 71
     0
176
     1
 72
     2
176
     1
 73
     0
176
     1
 90
        0
176
     1
 40
-0.6
176
     1
 41
-30.0
176
     1
 62
     5
 63
     7
421
 16777215
176
     1
 74
     1
176
     1
 91
        4
176
     1
 64
     7
176
     1
 65
   257
176
     1
 75
     1
176
     1
175
     1
176
     1
 42
1.0
176
     1
 92
        0
176
     1
 66
   257
176
     1
 43
1.0
176
     1
 76
     1
176
     1
 77
     6
176
     1
 78
     2
176
     1
 67
     7
176
     1
 79
     5
176
     1
170
     0
176
     1
171
     0
176
     1
290
     0
176
     1
 93
        1
176
     1
 44
0.0
176
     1
173
     0
176
     1
  0
VISUALSTYLE
  5
31
102
{ACAD_REACTORS
330
2A
102
}
330
2A
100
AcDbVisualStyle
  2
3D Hidden
 70
     6
177
     2
291
     0
 71
     1
176
     1
 72
     2
176
     1
 73
     2
176
     1
 90
        0
176
     1
 40
-0.6
176
     1
 41
-30.0
176
     1
 62
     5
 63
     7
421
 16777215
176
     1
 74
     2
176
     1
 91
        2
176
     1
 64
     7
176
     1
 65
   257
176
     1
 75
     2
176
     1
175
     1
176
     1
 42
40.0
176
     1
 92
        0
176
     1
 66
   257
176
     1
 43
1.0
176
     1
 76
     1
176
     1
 77
     6
176
     1
 78
     2
176
     1
 67
     7
176
     1
 79
     3
176
     1
170
     0
176
     1
171
     0
176
     1
290
     0
176
     1
 93
        1
176
     1
 44
0.0
176
     1
173
     0
176
     1
  0
VISUALSTYLE
  5
30
102
{ACAD_REACTORS
330
2A
102
}
330
2A
100
AcDbVisualStyle
  2
3dWireframe
 70
     5
177
     2
291
     0
 71
     0
176
     1
 72
     2
176
     1
 73
     0
176
     1
 90
        0
176
     1
 40
-0.6
176
     1
 41
-30.0
176
     1
 62
     5
 63
     7
421
 16777215
176
     1
 74
     1
176
     1
 91
        4
176
     1
 64
     7
176
     1
 65
   257
176
     1
 75
     1
176
     1
175
     1
176
     1
 42
1.0
176
     1
 92
        0
176
     1
 66
   257
176
     1
 43
1.0
176
     1
 76
     1
176
     1
 77
     6
176
     1
 78
     2
176
     1
 67
     7
176
     1
 79
     5
176
     1
170
     0
176
     1
171
     0
176
     1
290
     0
176
     1
 93
        1
176
     1
 44
0.0
176
     1
173
     0
176
     1
  0
VISUALSTYLE
  5
32
102
{ACAD_REACTORS
330
2A
102
}
330
2A
100
AcDbVisualStyle
  2
Basic
 70
     7
177
     2
291
     1
 71
     1
176
     1
 72
     0
176
     1
 73
     1
176
     1
 90
        0
176
     1
 40
-0.6
176
     1
 41
-30.0
176
     1
 62
     5
 63
     7
421
 16777215
176
     1
 74
     0
176
     1
 91
        4
176
     1
 64
     7
176
     1
 65
   257
176
     1
 75
     1
176
     1
175
     1
176
     1
 42
1.0
176
     1
 92
        8
176
     1
 66
     7
176
     1
 43
1.0
176
     1
 76
     1
176
     1
 77
     6
176
     1
 78
     2
176
     1
 67
     7
176
     1
 79
     5
176
     1
170
     0
176
     1
171
     0
176
     1
290
     0
176
     1
 93
        1
176
     1
 44
0.0
176
     1
173
     0
176
     1
  0
VISUALSTYLE
  5
36
102
{ACAD_REACTORS
330
2A
102
}
330
2A
100
AcDbVisualStyle
  2
Brighten
 70
    12
177
     2
291
     1
 71
     2
176
     1
 72
     2
176
     1
 73
     0
176
     1
 90
        0
176
     1
 40
-0.6
176
     1
 41
-30.0
176
     1
 62
     5
 63
     7
421
 16777215
176
     1
 74
     1
176
     1
 91
        4
176
     1
 64
     7
176
     1
 65
   257
176
     1
 75
     1
176
     1
175
     1
176
     1
 42
1.0
176
     1
 92
        8
176
     1
 66
     7
176
     1
 43
1.0
176
     1
 76
     1
176
     1
 77
     6
176
     1
 78
     2
176
     1
 67
     7
176
     1
 79
     5
176
     1
170
     0
176
     1
171
     0
176
     1
290
     0
176
     1
 93
        1
176
     1
 44
50.0
176
     1
173
     0
176
     1
  0
VISUALSTYLE
  5
3A
102
{ACAD_REACTORS
330
2A
102
}
330
2A
100
AcDbVisualStyle
  2
ColorChange
 70
    16
177
     2
291
     1
 71
     2
176
     1
 72
     2
176
     1
 73
     3
176
     1
 90
        0
176
     1
 40
-0.6
176
     1
 41
-30.0
176
     1
 62
     5
 63
     8
421
  8421504
176
     1
 74
     1
176
     1
 91
        4
176
     1
 64
     7
176
     1
 65
   257
176
     1
 75
     1
176
     1
175
     1
176
     1
 42
1.0
176
     1
 92
        8
176
     1
 66
     8
424
  8421504
176
     1
 43
1.0
176
     1
 76
     1
176
     1
 77
     6
176
     1
 78
     2
176
     1
 67
     7
176
     1
 79
     5
176
     1
170
     0
176
     1
171
     0
176
     1
290
     0
176
     1
 93
        1
176
     1
 44
0.0
176
     1
173
     0
176
     1
  0
VISUALSTYLE
  5
34
102
{ACAD_REACTORS
330
2A
102
}
330
2A
100
AcDbVisualStyle
  2
Conceptual
 70
     9
177
     2
291
     0
 71
     3
176
     1
 72
     2
176
     1
 73
     0
176
     1
 90
        0
176
     1
 40
-0.6
176
     1
 41
-30.0
176
     1
 62
     5
 63
     7
421
 16777215
176
     1
 74
     2
176
     1
 91
        2
176
     1
 64
     7
176
     1
 65
   257
176
     1
 75
     1
176
     1
175
     1
176
     1
 42
40.0
176
     1
 92
        8
176
     1
 66
     7
176
     1
 43
1.0
176
     1
 76
     1
176
     1
 77
     6
176
     1
 78
     2
176
     1
 67
     7
176
     1
 79
     3
176
     1
170
     0
176
     1
171
     0
176
     1
290
     0
176
     1
 93
        1
176
     1
 44
0.0
176
     1
173
     0
176
     1
  0
VISUALSTYLE
  5
35
102
{ACAD_REACTORS
330
2A
102
}
330
2A
100
AcDbVisualStyle
  2
Dim
 70
    11
177
     2
291
     1
 71
     2
176
     1
 72
     2
176
     1
 73
     0
176
     1
 90
        0
176
     1
 40
-0.6
176
     1
 41
-30.0
176
     1
 62
     5
 63
     7
421
 16777215
176
     1
 74
     1
176
     1
 91
        4
176
     1
 64
     7
176
     1
 65
   257
176
     1
 75
     1
176
     1
175
     1
176
     1
 42
1.0
176
     1
 92
        8
176
     1
 66
     7
176
     1
 43
1.0
176
     1
 76
     1
176
     1
 77
     6
176
     1
 78
     2
176
     1
 67
     7
176
     1
 79
     5
176
     1
170
     0
176
     1
171
     0
176
     1
290
     0
176
     1
 93
        1
176
     1
 44
-50.0
176
     1
173
     0
176
     1
  0
VISUALSTYLE
  5
39
102
{ACAD_REACTORS
330
2A
102
}
330
2A
100
AcDbVisualStyle
  2
Facepattern
 70
    15
177
     2
291
     1
 71
     2
176
     1
 72
     2
176
     1
 73
     0
176
     1
 90
        0
176
     1
 40
-0.6
176
     1
 41
-30.0
176
     1
 62
     5
 63
     7
421
 16777215
176
     1
 74
     1
176
     1
 91
        4
176
     1
 64
     7
176
     1
 65
   257
176
     1
 75
     1
176
     1
175
     1
176
     1
 42
1.0
176
     1
 92
        8
176
     1
 66
     7
176
     1
 43
1.0
176
     1
 76
     1
176
     1
 77
     6
176
     1
 78
     2
176
     1
 67
     7
176
     1
 79
     5
176
     1
170
     0
176
     1
171
     0
176
     1
290
     0
176
     1
 93
        1
176
     1
 44
0.0
176
     1
173
     0
176
     1
  0
VISUALSTYLE
  5
2B
102
{ACAD_REACTORS
330
2A
102
}
330
2A
100
AcDbVisualStyle
  2
Flat
 70
     0
177
     2
291
     1
 71
     2
176
     1
 72
     1
176
     1
 73
     1
176
     1
 90
        2
176
     1
 40
-0.6
176
     1
 41
30.0
176
     1
 62
     5
 63
     7
421
 16777215
176
     1
 74
     0
176
     1
 91
        4
176
     1
 64
     7
176
     1
 65
   257
176
     1
 75
     1
176
     1
175
     1
176
     1
 42
1.0
176
     1
 92
        8
176
     1
 66
     7
176
     1
 43
1.0
176
     1
 76
     1
176
     1
 77
     6
176
     1
 78
     2
176
     1
 67
     7
176
     1
 79
     5
176
     1
170
     0
176
     1
171
     0
176
     1
290
     0
176
     1
 93
       13
176
     1
 44
0.0
176
     1
173
     0
176
     1
  0
VISUALSTYLE
  5
2C
102
{ACAD_REACTORS
330
2A
102
}
330
2A
100
AcDbVisualStyle
  2
FlatWithEdges
 70
     1
177
     2
291
     1
 71
     2
176
     1
 72
     1
176
     1
 73
     1
176
     1
 90
        2
176
     1
 40
-0.6
176
     1
 41
30.0
176
     1
 62
     5
 63
     7
421
 16777215
176
     1
 74
     1
176
     1
 91
        4
176
     1
 64
     7
176
     1
 65
   257
176
     1
 75
     1
176
     1
175
     1
176
     1
 42
1.0
176
     1
 92
        0
176
     1
 66
   257
176
     1
 43
1.0
176
     1
 76
     1
176
     1
 77
     6
176
     1
 78
     2
176
     1
 67
     7
176
     1
 79
     5
176
     1
170
     0
176
     1
171
     0
176
     1
290
     0
176
     1
 93
       13
176
     1
 44
0.0
176
     1
173
     0
176
     1
  0
VISUALSTYLE
  5
2D
102
{ACAD_REACTORS
330
2A
102
}
330
2A
100
AcDbVisualStyle
  2
Gouraud
 70
     2
177
     2
291
     1
 71
     2
176
     1
 72
     2
176
     1
 73
     1
176
     1
 90
        2
176
     1
 40
-0.6
176
     1
 41
30.0
176
     1
 62
     5
 63
     7
421
 16777215
176
     1
 74
     0
176
     1
 91
        4
176
     1
 64
     7
176
     1
 65
   257
176
     1
 75
     1
176
     1
175
     1
176
     1
 42
1.0
176
     1
 92
        0
176
     1
 66
     7
176
     1
 43
1.0
176
     1
 76
     1
176
     1
 77
     6
176
     1
 78
     2
176
     1
 67
     7
176
     1
 79
     5
176
     1
170
     0
176
     1
171
     0
176
     1
290
     0
176
     1
 93
       13
176
     1
 44
0.0
176
     1
173
     0
176
     1
  0
VISUALSTYLE
  5
2E
102
{ACAD_REACTORS
330
2A
102
}
330
2A
100
AcDbVisualStyle
  2
GouraudWithEdges
 70
     3
177
     2
291
     1
 71
     2
176
     1
 72
     2
176
     1
 73
     1
176
     1
 90
        2
176
     1
 40
-0.6
176
     1
 41
30.0
176
     1
 62
     5
 63
     7
421
 16777215
176
     1
 74
     1
176
     1
 91
        4
176
     1
 64
     7
176
     1
 65
   257
176
     1
 75
     1
176
     1
175
     1
176
     1
 42
1.0
176
     1
 92
        0
176
     1
 66
   257
176
     1
 43
1.0
176
     1
 76
     1
176
     1
 77
     6
176
     1
 78
     2
176
     1
 67
     7
176
     1
 79
     5
176
     1
170
     0
176
     1
171
     0
176
     1
290
     0
176
     1
 93
       13
176
     1
 44
0.0
176
     1
173
     0
176
     1
  0
VISUALSTYLE
  5
38
102
{ACAD_REACTORS
330
2A
102
}
330
2A
100
AcDbVisualStyle
  2
Linepattern
 70
    14
177
     2
291
     1
 71
     2
176
     1
 72
     2
176
     1
 73
     0
176
     1
 90
        0
176
     1
 40
-0.6
176
     1
 41
-30.0
176
     1
 62
     5
 63
     7
421
 16777215
176
     1
 74
     1
176
     1
 91
        4
176
     1
 64
     7
176
     1
 65
   257
176
     1
 75
     7
176
     1
175
     7
176
     1
 42
1.0
176
     1
 92
        8
176
     1
 66
     7
176
     1
 43
1.0
176
     1
 76
     1
176
     1
 77
     6
176
     1
 78
     2
176
     1
 67
     7
176
     1
 79
     5
176
     1
170
     0
176
     1
171
     0
176
     1
290
     0
176
     1
 93
        1
176
     1
 44
0.0
176
     1
173
     0
176
     1
  0
VISUALSTYLE
  5
33
102
{ACAD_REACTORS
330
2A
102
}
330
2A
100
AcDbVisualStyle
  2
Realistic
 70
     8
177
     2
291
     0
 71
     2
176
     1
 72
     2
176
     1
 73
     0
176
     1
 90
        0
176
     1
 40
-0.6
176
     1
 41
-30.0
176
     1
 62
     5
 63
     7
421
 16777215
176
     1
 74
     1
176
     1
 91
        0
176
     1
 64
     7
176
     1
 65
   257
176
     1
 75
     1
176
     1
175
     1
176
     1
 42
1.0
176
     1
 92
        8
176
     1
 66
     8
424
  7895160
176
     1
 43
1.0
176
     1
 76
     1
176
     1
 77
     6
176
     1
 78
     2
176
     1
 67
     7
176
     1
 79
     5
176
     1
170
     0
176
     1
171
     0
176
     1
290
     0
176
     1
 93
       13
176
     1
 44
0.0
176
     1
173
     0
176
     1
  0
VISUALSTYLE
  5
37
102
{ACAD_REACTORS
330
2A
102
}
330
2A
100
AcDbVisualStyle
  2
Thicken
 70
    13
177
     2
291
     1
 71
     2
176
     1
 72
     2
176
     1
 73
     0
176
     1
 90
        0
176
     1
 40
-0.6
176
     1
 41
-30.0
176
     1
 62
     5
 63
     7
421
 16777215
176
     1
 74
     1
176
     1
 91
        4
176
     1
 64
     7
176
     1
 65
   257
176
     1
 75
     1
176
     1
175
     1
176
     1
 42
1.0
176
     1
 92
       12
176
     1
 66
     7
176
     1
 43
1.0
176
     1
 76
     1
176
     1
 77
     6
176
     1
 78
     2
176
     1
 67
     7
176
     1
 79
     5
176
     1
170
     0
176
     1
171
     0
176
     1
290
     0
176
     1
 93
        1
176
     1
 44
0.0
176
     1
173
     0
176
     1
  0
ENDSEC
  0
EOF
