  0
SECTION
  2
HEADER
  9
$ACADVER
  1
AC1024
  9
$ACADMAINTVER
 70
     6
  9
$DWGCODEPAGE
  3
UNDEFINED
  9
$INSBASE
 10
0.0
 20
0.0
 30
0.0
  9
$EXTMIN
 10
1.000000000000000E+20
 20
1.000000000000000E+20
 30
1.000000000000000E+20
  9
$EXTMAX
 10
-1.000000000000000E+20
 20
-1.000000000000000E+20
 30
-1.000000000000000E+20
  9
$LIMMIN
 10
0.0
 20
0.0
  9
$LIMMAX
 10
12.0
 20
9.0
  9
$ORTHOMODE
 70
     0
  9
$REGENMODE
 70
     1
  9
$FILLMODE
 70
     1
  9
$QTEXTMODE
 70
     0
  9
$MIRRTEXT
 70
     1
  9
$LTSCALE
 40
1.0
  9
$ATTMODE
 70
     1
  9
$TEXTSIZE
 40
0.2
  9
$TRACEWID
 40
0.05
  9
$TEXTSTYLE
  7
Standard
  9
$CLAYER
  8
0
  9
$CELTYPE
  6
ByLayer
  9
$CECOLOR
 62
   256
  9
$CELTSCALE
 40
1.0
  9
$DISPSILH
 70
     0
  9
$DIMSCALE
 40
1.0
  9
$DIMASZ
 40
0.18
  9
$DIMEXO
 40
0.0625
  9
$DIMDLI
 40
0.38
  9
$DIMRND
 40
0.0
  9
$DIMDLE
 40
0.0
  9
$DIMEXE
 40
0.18
  9
$DIMTP
 40
0.0
  9
$DIMTM
 40
0.0
  9
$DIMTXT
 40
0.18
  9
$DIMCEN
 40
0.09
  9
$DIMTSZ
 40
0.0
  9
$DIMTOL
 70
     0
  9
$DIMLIM
 70
     0
  9
$DIMTIH
 70
     1
  9
$DIMTOH
 70
     1
  9
$DIMSE1
 70
     0
  9
$DIMSE2
 70
     0
  9
$DIMTAD
 70
     0
  9
$DIMZIN
 70
     0
  9
$DIMBLK
  1

  9
$DIMASO
 70
     1
  9
$DIMSHO
 70
     1
  9
$DIMPOST
  1

  9
$DIMAPOST
  1

  9
$DIMALT
 70
     0
  9
$DIMALTD
 70
     2
  9
$DIMALTF
 40
25.4
  9
$DIMLFAC
 40
1.0
  9
$DIMTOFL
 70
     0
  9
$DIMTVP
 40
0.0
  9
$DIMTIX
 70
     0
  9
$DIMSOXD
 70
     0
  9
$DIMSAH
 70
     0
  9
$DIMBLK1
  1

  9
$DIMBLK2
  1

  9
$DIMSTYLE
  2
Standard
  9
$DIMCLRD
 70
     0
  9
$DIMCLRE
 70
     0
  9
$DIMCLRT
 70
     0
  9
$DIMTFAC
 40
1.0
  9
$DIMGAP
 40
0.09
  9
$DIMJUST
 70
     0
  9
$DIMSD1
 70
     0
  9
$DIMSD2
 70
     0
  9
$DIMTOLJ
 70
     1
  9
$DIMTZIN
 70
     0
  9
$DIMALTZ
 70
     0
  9
$DIMALTTZ
 70
     0
  9
$DIMUPT
 70
     0
  9
$DIMDEC
 70
     4
  9
$DIMTDEC
 70
     4
  9
$DIMALTU
 70
     2
  9
$DIMALTTD
 70
     2
  9
$DIMTXSTY
  7
Standard
  9
$DIMAUNIT
 70
     0
  9
$DIMADEC
 70
     0
  9
$DIMALTRND
 40
0.0
  9
$DIMAZIN
 70
     0
  9
$DIMDSEP
 70
    46
  9
$DIMATFIT
 70
     3
  9
$DIMFRAC
 70
     0
  9
$DIMLDRBLK
  1

  9
$DIMLUNIT
 70
     2
  9
$DIMLWD
 70
    -2
  9
$DIMLWE
 70
    -2
  9
$DIMTMOVE
 70
     0
  9
$DIMFXL
 40
1.0
  9
$DIMFXLON
 70
     0
  9
$DIMJOGANG
 40
0.7853981633974483
  9
$DIMTFILL
 70
     0
  9
$DIMTFILLCLR
 70
     0
  9
$DIMARCSYM
 70
     0
  9
$DIMLTYPE
  6

  9
$DIMLTEX1
  6

  9
$DIMLTEX2
  6

  9
$DIMTXTDIRECTION
 70
     0
  9
$LUNITS
 70
     2
  9
$LUPREC
 70
     4
  9
$SKETCHINC
 40
0.1
  9
$FILLETRAD
 40
0.5
  9
$AUNITS
 70
     0
  9
$AUPREC
 70
     0
  9
$MENU
  1
.
  9
$ELEVATION
 40
0.0
  9
$PELEVATION
 40
0.0
  9
$THICKNESS
 40
0.0
  9
$LIMCHECK
 70
     0
  9
$CHAMFERA
 40
0.5
  9
$CHAMFERB
 40
0.5
  9
$CHAMFERC
 40
1.0
  9
$CHAMFERD
 40
0.0
  9
$SKPOLY
 70
     0
  9
$TDCREATE
 40
2457917.621087952
  9
$TDUCREATE
 40
2457917.246087963
  9
$TDUPDATE
 40
2457917.621087952
  9
$TDUUPDATE
 40
2457917.246087963
  9
$TDINDWG
 40
0.0000000116
  9
$TDUSRTIMER
 40
0.0000000116
  9
$USRTIMER
 70
     1
  9
$ANGBASE
 50
0.0
  9
$ANGDIR
 70
     0
  9
$PDMODE
 70
     0
  9
$PDSIZE
 40
0.0
  9
$PLINEWID
 40
0.0
  9
$SPLFRAME
 70
     0
  9
$SPLINETYPE
 70
     6
  9
$SPLINESEGS
 70
     8
  9
$HANDSEED
  5
E0
  9
$SURFTAB1
 70
     6
  9
$SURFTAB2
 70
     6
  9
$SURFTYPE
 70
     6
  9
$SURFU
 70
     6
  9
$SURFV
 70
     6
  9
$UCSBASE
  2

  9
$UCSNAME
  2

  9
$UCSORG
 10
0.0
 20
0.0
 30
0.0
  9
$UCSXDIR
 10
1.0
 20
0.0
 30
0.0
  9
$UCSYDIR
 10
0.0
 20
1.0
 30
0.0
  9
$UCSORTHOREF
  2

  9
$UCSORTHOVIEW
 70
     0
  9
$UCSORGTOP
 10
0.0
 20
0.0
 30
0.0
  9
$UCSORGBOTTOM
 10
0.0
 20
0.0
 30
0.0
  9
$UCSORGLEFT
 10
0.0
 20
0.0
 30
0.0
  9
$UCSORGRIGHT
 10
0.0
 20
0.0
 30
0.0
  9
$UCSORGFRONT
 10
0.0
 20
0.0
 30
0.0
  9
$UCSORGBACK
 10
0.0
 20
0.0
 30
0.0
  9
$PUCSBASE
  2

  9
$PUCSNAME
  2

  9
$PUCSORG
 10
0.0
 20
0.0
 30
0.0
  9
$PUCSXDIR
 10
1.0
 20
0.0
 30
0.0
  9
$PUCSYDIR
 10
0.0
 20
1.0
 30
0.0
  9
$PUCSORTHOREF
  2

  9
$PUCSORTHOVIEW
 70
     0
  9
$PUCSORGTOP
 10
0.0
 20
0.0
 30
0.0
  9
$PUCSORGBOTTOM
 10
0.0
 20
0.0
 30
0.0
  9
$PUCSORGLEFT
 10
0.0
 20
0.0
 30
0.0
  9
$PUCSORGRIGHT
 10
0.0
 20
0.0
 30
0.0
  9
$PUCSORGFRONT
 10
0.0
 20
0.0
 30
0.0
  9
$PUCSORGBACK
 10
0.0
 20
0.0
 30
0.0
  9
$USERI1
 70
     0
  9
$USERI2
 70
     0
  9
$USERI3
 70
     0
  9
$USERI4
 70
     0
  9
$USERI5
 70
     0
  9
$USERR1
 40
0.0
  9
$USERR2
 40
0.0
  9
$USERR3
 40
0.0
  9
$USERR4
 40
0.0
  9
$USERR5
 40
0.0
  9
$WORLDVIEW
 70
     1
  9
$SHADEDGE
 70
     3
  9
$SHADEDIF
 70
    70
  9
$TILEMODE
 70
     1
  9
$MAXACTVP
 70
    64
  9
$PINSBASE
 10
0.0
 20
0.0
 30
0.0
  9
$PLIMCHECK
 70
     0
  9
$PEXTMIN
 10
1.000000000000000E+20
 20
1.000000000000000E+20
 30
1.000000000000000E+20
  9
$PEXTMAX
 10
-1.000000000000000E+20
 20
-1.000000000000000E+20
 30
-1.000000000000000E+20
  9
$PLIMMIN
 10
0.0
 20
0.0
  9
$PLIMMAX
 10
12.0
 20
9.0
  9
$UNITMODE
 70
     0
  9
$VISRETAIN
 70
     1
  9
$PLINEGEN
 70
     0
  9
$PSLTSCALE
 70
     1
  9
$TREEDEPTH
 70
  3020
  9
$CMLSTYLE
  2
Standard
  9
$CMLJUST
 70
     0
  9
$CMLSCALE
 40
1.0
  9
$PROXYGRAPHICS
 70
     1
  9
$MEASUREMENT
 70
     0
  9
$CELWEIGHT
370
    -1
  9
$ENDCAPS
280
     0
  9
$JOINSTYLE
280
     0
  9
$LWDISPLAY
290
     1
  9
$INSUNITS
 70
     1
  9
$HYPERLINKBASE
  1

  9
$STYLESHEET
  1

  9
$XEDIT
290
     1
  9
$CEPSNTYPE
380
     0
  9
$PSTYLEMODE
290
     1
  9
$FINGERPRINTGUID
  2
{60BC56A8-2EC7-374B-E9CA-FFB05742D778}
  9
$VERSIONGUID
  2
{FAEB1C32-E019-11D5-929B-00C0DF256EC4}
  9
$EXTNAMES
290
     1
  9
$PSVPSCALE
 40
0.0
  9
$OLESTARTUP
290
     0
  9
$SORTENTS
280
   127
  9
$INDEXCTL
280
     0
  9
$HIDETEXT
280
     1
  9
$XCLIPFRAME
280
     2
  9
$HALOGAP
280
     0
  9
$OBSCOLOR
 70
   257
  9
$OBSLTYPE
280
     0
  9
$INTERSECTIONDISPLAY
280
     0
  9
$INTERSECTIONCOLOR
 70
   257
  9
$DIMASSOC
280
     2
  9
$PROJECTNAME
  1

  9
$CAMERADISPLAY
290
     0
  9
$LENSLENGTH
 40
50.0
  9
$CAMERAHEIGHT
 40
0.0
  9
$STEPSPERSEC
 40
2.0
  9
$STEPSIZE
 40
6.0
  9
$3DDWFPREC
 40
2.0
  9
$PSOLWIDTH
 40
0.25
  9
$PSOLHEIGHT
 40
4.0
  9
$LOFTANG1
 40
1.570796326794897
  9
$LOFTANG2
 40
1.570796326794897
  9
$LOFTMAG1
 40
0.0
  9
$LOFTMAG2
 40
0.0
  9
$LOFTPARAM
 70
     7
  9
$LOFTNORMALS
280
     1
  9
$LATITUDE
 40
37.795
  9
$LONGITUDE
 40
-122.394
  9
$NORTHDIRECTION
 40
0.0
  9
$TIMEZONE
 70
 -8000
  9
$LIGHTGLYPHDISPLAY
280
     1
  9
$TILEMODELIGHTSYNCH
280
     1
  9
$CMATERIAL
347
3C
  9
$SOLIDHIST
280
     1
  9
$SHOWHIST
280
     1
  9
$DWFFRAME
280
     2
  9
$DGNFRAME
280
     2
  9
$REALWORLDSCALE
290
     1
  9
$INTERFERECOLOR
 62
   256
  9
$CSHADOW
280
     0
  9
$SHADOWPLANELOCATION
 40
0.0
  0
ENDSEC
  0
SECTION
  2
CLASSES
  0
CLASS
  1
ACDBDICTIONARYWDFLT
  2
AcDbDictionaryWithDefault
  3
ObjectDBX Classes
 90
        0
 91
        4
280
     0
281
     0
  0
CLASS
  1
VISUALSTYLE
  2
AcDbVisualStyle
  3
ObjectDBX Classes
 90
     4095
 91
        4
280
     0
281
     0
  0
CLASS
  1
MATERIAL
  2
AcDbMaterial
  3
ObjectDBX Classes
 90
     1153
 91
        4
280
     0
281
     0
  0
CLASS
  1
SUN
  2
AcDbSun
  3
SCENEOE
 90
     1024
 91
        4
280
     0
281
     0
  0
ENDSEC
  0
SECTION
  2
TABLES
  0
TABLE
  2
VPORT
  5
8
330
0
100
AcDbSymbolTable
 70
     1
  0
VPORT
  5
29
330
8
100
AcDbSymbolTableRecord
100
AcDbViewportTableRecord
  2
*Active
 70
     0
 10
0.0
 20
0.0
 11
1.0
 21
1.0
 12
0.0
 22
0.0
 13
0.0
 23
0.0
 14
0.5
 24
0.5
 15
0.5
 25
0.5
 16
0.0
 26
0.0
 36
1.0
 17
91.00082462281999
 27
-128.4993055234307
 37
0.0
 40
256.9986110468615
 41
0.7081814508812795
 42
50.0
 43
0.0
 44
0.0
 50
0.0
 51
0.0
 71
     0
 72
   100
 73
     1
 74
     3
 75
     0
 76
     0
 77
     0
 78
     0
281
     0
 65
     1
110
0.0
120
0.0
130
0.0
111
1.0
121
0.0
131
0.0
112
0.0
122
1.0
132
0.0
 79
     0
146
0.0
 60
     3
 61
     5
292
     1
282
     1
141
0.0
142
0.0
 63
   250
361
3F
  0
ENDTAB
  0
TABLE
  2
LTYPE
  5
5
330
0
100
AcDbSymbolTable
 70
     3
  0
LTYPE
  5
14
330
5
100
AcDbSymbolTableRecord
100
AcDbLinetypeTableRecord
  2
ByBlock
 70
     0
  3

 72
    65
 73
     0
 40
0.0
  0
LTYPE
  5
15
330
5
100
AcDbSymbolTableRecord
100
AcDbLinetypeTableRecord
  2
ByLayer
 70
     0
  3

 72
    65
 73
     0
 40
0.0
  0
LTYPE
  5
16
330
5
100
AcDbSymbolTableRecord
100
AcDbLinetypeTableRecord
  2
Continuous
 70
     0
  3
Solid line
 72
    65
 73
     0
 40
0.0
  0
LTYPE
  5
65
330
5
100
AcDbSymbolTableRecord
100
AcDbLinetypeTableRecord
  2
AI-Linetype-1
 70
     0
  3
Adobe Illustrator Linetype No. 1
 72
    65
 73
     2
 40
1.411111110758333
 49
0.7055555553791667
 74
     0
 49
-0.7055555553791667
 74
     0
  0
LTYPE
  5
74
330
5
100
AcDbSymbolTableRecord
100
AcDbLinetypeTableRecord
  2
AI-Linetype-2
 70
     0
  3
Adobe Illustrator Linetype No. 2
 72
    65
 73
     2
 40
1.411111110758333
 49
0.7055555553791667
 74
     0
 49
-0.7055555553791667
 74
     0
  0
ENDTAB
  0
TABLE
  2
LAYER
  5
2
330
0
100
AcDbSymbolTable
 70
     2
  0
LAYER
  5
10
330
2
100
AcDbSymbolTableRecord
100
AcDbLayerTableRecord
  2
0
 70
     0
 62
     7
  6
Continuous
370
    -3
390
F
347
3E
  0
LAYER
  5
40
330
2
100
AcDbSymbolTableRecord
100
AcDbLayerTableRecord
  2
_U+30EC_U+30A4_U+30E4_U+30FC 1
 70
     0
 62
     7
  6
Continuous
370
    -3
390
F
347
3E
  0
ENDTAB
  0
TABLE
  2
STYLE
  5
3
330
0
100
AcDbSymbolTable
 70
     1
  0
STYLE
  5
11
330
3
100
AcDbSymbolTableRecord
100
AcDbTextStyleTableRecord
  2
Standard
 70
     0
 40
0.0
 41
1.0
 50
0.0
 71
     0
 42
0.2
  3
txt
  4

  0
ENDTAB
  0
TABLE
  2
VIEW
  5
6
330
0
100
AcDbSymbolTable
 70
     0
  0
ENDTAB
  0
TABLE
  2
UCS
  5
7
330
0
100
AcDbSymbolTable
 70
     0
  0
ENDTAB
  0
TABLE
  2
APPID
  5
9
330
0
100
AcDbSymbolTable
 70
     1
  0
APPID
  5
12
330
9
100
AcDbSymbolTableRecord
100
AcDbRegAppTableRecord
  2
ACAD
 70
     0
  0
ENDTAB
  0
TABLE
  2
DIMSTYLE
  5
A
330
0
100
AcDbSymbolTable
 70
     1
100
AcDbDimStyleTable
  0
DIMSTYLE
105
27
330
A
100
AcDbSymbolTableRecord
100
AcDbDimStyleTableRecord
  2
Standard
 70
     0
178
     0
340
11
  0
ENDTAB
  0
TABLE
  2
BLOCK_RECORD
  5
1
330
0
100
AcDbSymbolTable
 70
     5
  0
BLOCK_RECORD
  5
1F
330
1
100
AcDbSymbolTableRecord
100
AcDbBlockTableRecord
  2
*Model_Space
340
22
 70
     0
280
     1
281
     0
  0
BLOCK_RECORD
  5
1B
330
1
100
AcDbSymbolTableRecord
100
AcDbBlockTableRecord
  2
*Paper_Space
340
1E
 70
     0
280
     1
281
     0
  0
BLOCK_RECORD
  5
23
330
1
100
AcDbSymbolTableRecord
100
AcDbBlockTableRecord
  2
*Paper_Space0
340
26
 70
     0
280
     1
281
     0
  0
BLOCK_RECORD
  5
4F
330
1
100
AcDbSymbolTableRecord
100
AcDbBlockTableRecord
  2
block 2
340
0
102
{BLKREFS
331
50
102
}
 70
     0
280
     1
281
     0
  0
BLOCK_RECORD
  5
7E
330
1
100
AcDbSymbolTableRecord
100
AcDbBlockTableRecord
  2
block 3
340
0
102
{BLKREFS
331
7F
102
}
 70
     0
280
     1
281
     0
  0
BLOCK_RECORD
  5
AA
330
1
100
AcDbSymbolTableRecord
100
AcDbBlockTableRecord
  2
block 4
340
0
102
{BLKREFS
331
AB
102
}
 70
     0
280
     1
281
     0
  0
BLOCK_RECORD
  5
D5
330
1
100
AcDbSymbolTableRecord
100
AcDbBlockTableRecord
  2
block 5
340
0
102
{BLKREFS
331
D6
102
}
 70
     0
280
     1
281
     0
  0
ENDTAB
  0
ENDSEC
  0
SECTION
  2
BLOCKS
  0
BLOCK
  5
20
330
1F
100
AcDbEntity
  8
0
100
AcDbBlockBegin
  2
*Model_Space
 70
     0
 10
0.0
 20
0.0
 30
0.0
  3
*Model_Space
  1

  0
ENDBLK
  5
21
330
1F
100
AcDbEntity
  8
0
100
AcDbBlockEnd
  0
BLOCK
  5
1C
330
1B
100
AcDbEntity
 67
     1
  8
0
100
AcDbBlockBegin
  2
*Paper_Space
 70
     0
 10
0.0
 20
0.0
 30
0.0
  3
*Paper_Space
  1

  0
ENDBLK
  5
1D
330
1B
100
AcDbEntity
 67
     1
  8
0
100
AcDbBlockEnd
  0
BLOCK
  5
24
330
23
100
AcDbEntity
  8
0
100
AcDbBlockBegin
  2
*Paper_Space0
 70
     0
 10
0.0
 20
0.0
 30
0.0
  3
*Paper_Space0
  1

  0
ENDBLK
  5
25
330
23
100
AcDbEntity
  8
0
100
AcDbBlockEnd
  0
BLOCK
  5
51
330
4F
100
AcDbEntity
  8
0
100
AcDbBlockBegin
  2
block 2
 70
     0
 10
0.0
 20
0.0
 30
0.0
  3
block 2
  1

  0
SPLINE
  5
53
330
4F
100
AcDbEntity
  8
_U+30EC_U+30A4_U+30E4_U+30FC 1
370
     0
100
AcDbSpline
210
0.0
220
0.0
230
1.0
 70
    11
 71
     3
 72
    29
 73
    25
 74
     0
 42
0.0000000001
 43
0.0000000001
 12
1.0
 22
0.0
 32
0.0
 13
1.0
 23
0.0
 33
0.0
 40
0.0
 40
0.0
 40
0.0
 40
0.0
 40
1.0
 40
1.0
 40
1.0
 40
2.0
 40
2.0
 40
2.0
 40
3.0
 40
3.0
 40
3.0
 40
4.0
 40
4.0
 40
4.0
 40
5.0
 40
5.0
 40
5.0
 40
6.0
 40
6.0
 40
6.0
 40
7.0
 40
7.0
 40
7.0
 40
8.0
 40
8.0
 40
8.0
 40
8.0
 10
112.21778426014
 20
-140.9298990533092
 30
0.0
 10
112.4272460656432
 20
-141.038075051546
 30
0.0
 10
112.4461940908121
 20
-141.2113633544541
 30
0.0
 10
112.4461940908121
 20
-141.3278075818556
 30
0.0
 10
112.4461940908121
 20
-141.4886935410167
 30
0.0
 10
112.3996853017612
 20
-141.6302869654605
 30
0.0
 10
112.21778426014
 20
-141.7253716008534
 30
0.0
 10
112.0231363652234
 20
-141.8290689749594
 30
0.0
 10
111.7861137958382
 20
-141.8483615096768
 30
0.0
 10
111.6235052889344
 20
-141.8483615096768
 30
0.0
 10
111.479500297651
 20
-141.8483615096768
 30
0.0
 10
111.2276638176792
 20
-141.8311360322506
 30
0.0
 10
111.0288818081803
 20
-141.7253716008534
 30
0.0
 10
110.8259656840991
 20
-141.6175401121651
 30
0.0
 10
110.8025390347994
 20
-141.4566541530039
 30
0.0
 10
110.8025390347994
 20
-141.3278075818556
 30
0.0
 10
110.8025390347994
 20
-141.1689886799855
 30
0.0
 10
110.8469807665591
 20
-141.0253281982506
 30
0.0
 10
111.0288818081803
 20
-140.9298990533092
 30
0.0
 10
111.2214626458057
 20
-140.830680303334
 30
0.0
 10
111.4498724764778
 20
-140.8072536540343
 30
0.0
 10
111.6235052889344
 20
-140.8072536540343
 30
0.0
 10
111.7947265345513
 20
-140.8072536540343
 30
0.0
 10
112.0252034225145
 20
-140.8286132460429
 30
0.0
 10
112.21778426014
 20
-140.9298990533092
 30
0.0
  0
SPLINE
  5
54
330
4F
100
AcDbEntity
  8
_U+30EC_U+30A4_U+30E4_U+30FC 1
370
     0
100
AcDbSpline
210
0.0
220
0.0
230
1.0
 70
    11
 71
     3
 72
    17
 73
    13
 74
     0
 42
0.0000000001
 43
0.0000000001
 12
1.0
 22
0.0
 32
0.0
 13
1.0
 23
0.0
 33
0.0
 40
0.0
 40
0.0
 40
0.0
 40
0.0
 40
1.0
 40
1.0
 40
1.0
 40
2.0
 40
2.0
 40
2.0
 40
3.0
 40
3.0
 40
3.0
 40
4.0
 40
4.0
 40
4.0
 40
4.0
 10
110.9951198724248
 20
-141.3278075818556
 30
0.0
 10
110.9951198724248
 20
-141.5775770045362
 30
0.0
 10
111.2786512308609
 20
-141.624085793587
 30
0.0
 10
111.6235052889344
 20
-141.624085793587
 30
0.0
 10
111.9428656404171
 20
-141.624085793587
 30
0.0
 10
112.2515461958955
 20
-141.5879122909919
 30
0.0
 10
112.2515461958955
 20
-141.3278075818556
 30
0.0
 10
112.2515461958955
 20
-141.0801052164661
 30
0.0
 10
111.9704264042991
 20
-141.0315293701241
 30
0.0
 10
111.6235052889344
 20
-141.0315293701241
 30
0.0
 10
111.3038004279032
 20
-141.0315293701241
 30
0.0
 10
110.9951198724248
 20
-141.0697699300104
 30
0.0
 10
110.9951198724248
 20
-141.3278075818556
 30
0.0
  0
HATCH
  5
55
330
4F
100
AcDbEntity
  8
_U+30EC_U+30A4_U+30E4_U+30FC 1
 62
   179
420
  2234388
100
AcDbHatch
 10
0.0
 20
0.0
 30
0.0
210
0.0
220
0.0
230
1.0
  2
SOLID
 70
     1
 71
     0
 91
        2
 92
        1
 93
        1
 72
     4
 94
        3
 73
     0
 74
     1
 95
       29
 96
       25
 40
0.0
 40
0.0
 40
0.0
 40
0.0
 40
1.0
 40
1.0
 40
1.0
 40
2.0
 40
2.0
 40
2.0
 40
3.0
 40
3.0
 40
3.0
 40
4.0
 40
4.0
 40
4.0
 40
5.0
 40
5.0
 40
5.0
 40
6.0
 40
6.0
 40
6.0
 40
7.0
 40
7.0
 40
7.0
 40
8.0
 40
8.0
 40
8.0
 40
8.0
 10
112.21778426014
 20
-140.9298990533092
 10
112.4272460656432
 20
-141.038075051546
 10
112.4461940908121
 20
-141.2113633544541
 10
112.4461940908121
 20
-141.3278075818556
 10
112.4461940908121
 20
-141.4886935410167
 10
112.3996853017612
 20
-141.6302869654605
 10
112.21778426014
 20
-141.7253716008534
 10
112.0231363652234
 20
-141.8290689749594
 10
111.7861137958382
 20
-141.8483615096768
 10
111.6235052889344
 20
-141.8483615096768
 10
111.479500297651
 20
-141.8483615096768
 10
111.2276638176792
 20
-141.8311360322506
 10
111.0288818081803
 20
-141.7253716008534
 10
110.8259656840991
 20
-141.6175401121651
 10
110.8025390347994
 20
-141.4566541530039
 10
110.8025390347994
 20
-141.3278075818556
 10
110.8025390347994
 20
-141.1689886799855
 10
110.8469807665591
 20
-141.0253281982506
 10
111.0288818081803
 20
-140.9298990533092
 10
111.2214626458057
 20
-140.830680303334
 10
111.4498724764778
 20
-140.8072536540343
 10
111.6235052889344
 20
-140.8072536540343
 10
111.7947265345513
 20
-140.8072536540343
 10
112.0252034225145
 20
-140.8286132460429
 10
112.21778426014
 20
-140.9298990533092
 97
        0
 97
        0
 92
        1
 93
        1
 72
     4
 94
        3
 73
     0
 74
     1
 95
       17
 96
       13
 40
0.0
 40
0.0
 40
0.0
 40
0.0
 40
1.0
 40
1.0
 40
1.0
 40
2.0
 40
2.0
 40
2.0
 40
3.0
 40
3.0
 40
3.0
 40
4.0
 40
4.0
 40
4.0
 40
4.0
 10
110.9951198724248
 20
-141.3278075818556
 10
110.9951198724248
 20
-141.5775770045362
 10
111.2786512308609
 20
-141.624085793587
 10
111.6235052889344
 20
-141.624085793587
 10
111.9428656404171
 20
-141.624085793587
 10
112.2515461958955
 20
-141.5879122909919
 10
112.2515461958955
 20
-141.3278075818556
 10
112.2515461958955
 20
-141.0801052164661
 10
111.9704264042991
 20
-141.0315293701241
 10
111.6235052889344
 20
-141.0315293701241
 10
111.3038004279032
 20
-141.0315293701241
 10
110.9951198724248
 20
-141.0697699300104
 10
110.9951198724248
 20
-141.3278075818556
 97
        0
 97
        0
 75
     2
 76
     1
 98
        0
  0
POLYLINE
  5
56
330
4F
100
AcDbEntity
  8
_U+30EC_U+30A4_U+30E4_U+30FC 1
370
     0
100
AcDb2dPolyline
 66
     1
 10
0.0
 20
0.0
 30
0.0
  0
VERTEX
  5
57
330
56
100
AcDbEntity
  8
_U+30EC_U+30A4_U+30E4_U+30FC 1
370
     0
100
AcDbVertex
100
AcDb2dVertex
 10
112.3955511871789
 20
-140.5909016575606
 30
0.0
  0
VERTEX
  5
58
330
56
100
AcDbEntity
  8
_U+30EC_U+30A4_U+30E4_U+30FC 1
370
     0
100
AcDbVertex
100
AcDb2dVertex
 10
112.1437147072071
 20
-140.5909016575606
 30
0.0
  0
VERTEX
  5
59
330
56
100
AcDbEntity
  8
_U+30EC_U+30A4_U+30E4_U+30FC 1
370
     0
100
AcDbVertex
100
AcDb2dVertex
 10
112.1437147072071
 20
-140.3390651775889
 30
0.0
  0
VERTEX
  5
5A
330
56
100
AcDbEntity
  8
_U+30EC_U+30A4_U+30E4_U+30FC 1
370
     0
100
AcDbVertex
100
AcDb2dVertex
 10
112.3955511871789
 20
-140.3390651775889
 30
0.0
  0
VERTEX
  5
5B
330
56
100
AcDbEntity
  8
_U+30EC_U+30A4_U+30E4_U+30FC 1
370
     0
100
AcDbVertex
100
AcDb2dVertex
 10
112.3955511871789
 20
-140.5909016575606
 30
0.0
  0
SEQEND
  5
5C
330
56
100
AcDbEntity
  8
_U+30EC_U+30A4_U+30E4_U+30FC 1
370
     0
  0
HATCH
  5
5D
330
4F
100
AcDbEntity
  8
_U+30EC_U+30A4_U+30E4_U+30FC 1
 62
   179
420
  2234388
100
AcDbHatch
 10
0.0
 20
0.0
 30
0.0
210
0.0
220
0.0
230
1.0
  2
SOLID
 70
     1
 71
     0
 91
        1
 92
        1
 93
        4
 72
     1
 10
112.3955511871789
 20
-140.5909016575606
 11
112.1437147072071
 21
-140.5909016575606
 72
     1
 10
112.1437147072071
 20
-140.5909016575606
 11
112.1437147072071
 21
-140.3390651775889
 72
     1
 10
112.1437147072071
 20
-140.3390651775889
 11
112.3955511871789
 21
-140.3390651775889
 72
     1
 10
112.3955511871789
 20
-140.3390651775889
 11
112.3955511871789
 21
-140.5909016575606
 97
        0
 75
     2
 76
     1
 98
        0
  0
SPLINE
  5
5E
330
4F
100
AcDbEntity
  8
_U+30EC_U+30A4_U+30E4_U+30FC 1
370
     0
100
AcDbSpline
210
0.0
220
0.0
230
1.0
 70
    11
 71
     3
 72
    29
 73
    25
 74
     0
 42
0.0000000001
 43
0.0000000001
 12
1.0
 22
0.0
 32
0.0
 13
1.0
 23
0.0
 33
0.0
 40
0.0
 40
0.0
 40
0.0
 40
0.0
 40
1.0
 40
1.0
 40
1.0
 40
2.0
 40
2.0
 40
2.0
 40
3.0
 40
3.0
 40
3.0
 40
4.0
 40
4.0
 40
4.0
 40
5.0
 40
5.0
 40
5.0
 40
6.0
 40
6.0
 40
6.0
 40
7.0
 40
7.0
 40
7.0
 40
8.0
 40
8.0
 40
8.0
 40
8.0
 10
112.4461940908121
 20
-139.602848272391
 30
0.0
 10
112.4461940908121
 20
-139.8694986629493
 30
0.0
 10
112.3087347809506
 20
-140.1230576906637
 30
0.0
 10
111.9597466082948
 20
-140.1230576906637
 30
0.0
 10
111.7037760137407
 20
-140.1230576906637
 30
0.0
 10
111.6086913783478
 20
-139.9814642662199
 30
0.0
 10
111.5473686787104
 20
-139.8756998348227
 30
0.0
 10
111.4881130363641
 20
-140.0004122913888
 30
0.0
 10
111.3737358662538
 20
-140.0765489016128
 30
0.0
 10
111.2128499070926
 20
-140.0765489016128
 30
0.0
 10
110.9379312873697
 20
-140.0765489016128
 30
0.0
 10
110.8025390347994
 20
-139.8777668921139
 30
0.0
 10
110.8025390347994
 20
-139.602848272391
 30
0.0
 10
110.8025390347994
 20
-139.3193169139549
 30
0.0
 10
110.9465440260828
 20
-139.1288031336206
 30
0.0
 10
111.2128499070926
 20
-139.1288031336206
 30
0.0
 10
111.3737358662538
 20
-139.1288031336206
 30
0.0
 10
111.4881130363641
 20
-139.2073513106843
 30
0.0
 10
111.5473686787104
 20
-139.3320637672503
 30
0.0
 10
111.5980115823436
 20
-139.2431803037309
 30
0.0
 10
111.6930962177365
 20
-139.0843614018609
 30
0.0
 10
111.9556124937125
 20
-139.0843614018609
 30
0.0
 10
112.3300943729592
 20
-139.0843614018609
 30
0.0
 10
112.4461940908121
 20
-139.3637586457146
 30
0.0
 10
112.4461940908121
 20
-139.602848272391
 30
0.0
  0
SPLINE
  5
5F
330
4F
100
AcDbEntity
  8
_U+30EC_U+30A4_U+30E4_U+30FC 1
370
     0
100
AcDbSpline
210
0.0
220
0.0
230
1.0
 70
    11
 71
     3
 72
    17
 73
    13
 74
     0
 42
0.0000000001
 43
0.0000000001
 12
1.0
 22
0.0
 32
0.0
 13
1.0
 23
0.0
 33
0.0
 40
0.0
 40
0.0
 40
0.0
 40
0.0
 40
1.0
 40
1.0
 40
1.0
 40
2.0
 40
2.0
 40
2.0
 40
3.0
 40
3.0
 40
3.0
 40
4.0
 40
4.0
 40
4.0
 40
4.0
 10
110.9951198724248
 20
-139.602848272391
 30
0.0
 10
110.9951198724248
 20
-139.7678683461344
 30
0.0
 10
111.0902045078177
 20
-139.852273185523
 30
0.0
 10
111.225596760388
 20
-139.852273185523
 30
0.0
 10
111.3482421596629
 20
-139.852273185523
 30
0.0
 10
111.4667534443555
 20
-139.7806151994299
 30
0.0
 10
111.4667534443555
 20
-139.602848272391
 30
0.0
 10
111.4667534443555
 20
-139.4250813453521
 30
0.0
 10
111.3482421596629
 20
-139.3530788497104
 30
0.0
 10
111.225596760388
 20
-139.3530788497104
 30
0.0
 10
111.0902045078177
 20
-139.3530788497104
 30
0.0
 10
110.9951198724248
 20
-139.4398952559386
 30
0.0
 10
110.9951198724248
 20
-139.602848272391
 30
0.0
  0
SPLINE
  5
60
330
4F
100
AcDbEntity
  8
_U+30EC_U+30A4_U+30E4_U+30FC 1
370
     0
100
AcDbSpline
210
0.0
220
0.0
230
1.0
 70
    11
 71
     3
 72
    17
 73
    13
 74
     0
 42
0.0000000001
 43
0.0000000001
 12
1.0
 22
0.0
 32
0.0
 13
1.0
 23
0.0
 33
0.0
 40
0.0
 40
0.0
 40
0.0
 40
0.0
 40
1.0
 40
1.0
 40
1.0
 40
2.0
 40
2.0
 40
2.0
 40
3.0
 40
3.0
 40
3.0
 40
4.0
 40
4.0
 40
4.0
 40
4.0
 10
111.6552001673987
 20
-139.602848272391
 30
0.0
 10
111.6552001673987
 20
-139.7465087541259
 30
0.0
 10
111.742016573627
 20
-139.8991264841224
 30
0.0
 10
111.9449326977082
 20
-139.8991264841224
 30
0.0
 10
112.1502603886291
 20
-139.8991264841224
 30
0.0
 10
112.2515461958955
 20
-139.7720024607167
 30
0.0
 10
112.2515461958955
 20
-139.602848272391
 30
0.0
 10
112.2515461958955
 20
-139.4168131161875
 30
0.0
 10
112.1289007966206
 20
-139.3065700606595
 30
0.0
 10
111.9511338695817
 20
-139.3065700606595
 30
0.0
 10
111.7292697203316
 20
-139.3065700606595
 30
0.0
 10
111.6552001673987
 20
-139.4695230771118
 30
0.0
 10
111.6552001673987
 20
-139.602848272391
 30
0.0
  0
HATCH
  5
61
330
4F
100
AcDbEntity
  8
_U+30EC_U+30A4_U+30E4_U+30FC 1
 62
   179
420
  2234388
100
AcDbHatch
 10
0.0
 20
0.0
 30
0.0
210
0.0
220
0.0
230
1.0
  2
SOLID
 70
     1
 71
     0
 91
        3
 92
        1
 93
        1
 72
     4
 94
        3
 73
     0
 74
     1
 95
       29
 96
       25
 40
0.0
 40
0.0
 40
0.0
 40
0.0
 40
1.0
 40
1.0
 40
1.0
 40
2.0
 40
2.0
 40
2.0
 40
3.0
 40
3.0
 40
3.0
 40
4.0
 40
4.0
 40
4.0
 40
5.0
 40
5.0
 40
5.0
 40
6.0
 40
6.0
 40
6.0
 40
7.0
 40
7.0
 40
7.0
 40
8.0
 40
8.0
 40
8.0
 40
8.0
 10
112.4461940908121
 20
-139.602848272391
 10
112.4461940908121
 20
-139.8694986629493
 10
112.3087347809506
 20
-140.1230576906637
 10
111.9597466082948
 20
-140.1230576906637
 10
111.7037760137407
 20
-140.1230576906637
 10
111.6086913783478
 20
-139.9814642662199
 10
111.5473686787104
 20
-139.8756998348227
 10
111.4881130363641
 20
-140.0004122913888
 10
111.3737358662538
 20
-140.0765489016128
 10
111.2128499070926
 20
-140.0765489016128
 10
110.9379312873697
 20
-140.0765489016128
 10
110.8025390347994
 20
-139.8777668921139
 10
110.8025390347994
 20
-139.602848272391
 10
110.8025390347994
 20
-139.3193169139549
 10
110.9465440260828
 20
-139.1288031336206
 10
111.2128499070926
 20
-139.1288031336206
 10
111.3737358662538
 20
-139.1288031336206
 10
111.4881130363641
 20
-139.2073513106843
 10
111.5473686787104
 20
-139.3320637672503
 10
111.5980115823436
 20
-139.2431803037309
 10
111.6930962177365
 20
-139.0843614018609
 10
111.9556124937125
 20
-139.0843614018609
 10
112.3300943729592
 20
-139.0843614018609
 10
112.4461940908121
 20
-139.3637586457146
 10
112.4461940908121
 20
-139.602848272391
 97
        0
 97
        0
 92
        1
 93
        1
 72
     4
 94
        3
 73
     0
 74
     1
 95
       17
 96
       13
 40
0.0
 40
0.0
 40
0.0
 40
0.0
 40
1.0
 40
1.0
 40
1.0
 40
2.0
 40
2.0
 40
2.0
 40
3.0
 40
3.0
 40
3.0
 40
4.0
 40
4.0
 40
4.0
 40
4.0
 10
110.9951198724248
 20
-139.602848272391
 10
110.9951198724248
 20
-139.7678683461344
 10
111.0902045078177
 20
-139.852273185523
 10
111.225596760388
 20
-139.852273185523
 10
111.3482421596629
 20
-139.852273185523
 10
111.4667534443555
 20
-139.7806151994299
 10
111.4667534443555
 20
-139.602848272391
 10
111.4667534443555
 20
-139.4250813453521
 10
111.3482421596629
 20
-139.3530788497104
 10
111.225596760388
 20
-139.3530788497104
 10
111.0902045078177
 20
-139.3530788497104
 10
110.9951198724248
 20
-139.4398952559386
 10
110.9951198724248
 20
-139.602848272391
 97
        0
 97
        0
 92
        1
 93
        1
 72
     4
 94
        3
 73
     0
 74
     1
 95
       17
 96
       13
 40
0.0
 40
0.0
 40
0.0
 40
0.0
 40
1.0
 40
1.0
 40
1.0
 40
2.0
 40
2.0
 40
2.0
 40
3.0
 40
3.0
 40
3.0
 40
4.0
 40
4.0
 40
4.0
 40
4.0
 10
111.6552001673987
 20
-139.602848272391
 10
111.6552001673987
 20
-139.7465087541259
 10
111.742016573627
 20
-139.8991264841224
 10
111.9449326977082
 20
-139.8991264841224
 10
112.1502603886291
 20
-139.8991264841224
 10
112.2515461958955
 20
-139.7720024607167
 10
112.2515461958955
 20
-139.602848272391
 10
112.2515461958955
 20
-139.4168131161875
 10
112.1289007966206
 20
-139.3065700606595
 10
111.9511338695817
 20
-139.3065700606595
 10
111.7292697203316
 20
-139.3065700606595
 10
111.6552001673987
 20
-139.4695230771118
 10
111.6552001673987
 20
-139.602848272391
 97
        0
 97
        0
 75
     2
 76
     1
 98
        0
  0
ENDBLK
  5
52
330
4F
100
AcDbEntity
  8
0
100
AcDbBlockEnd
  0
BLOCK
  5
80
330
7E
100
AcDbEntity
  8
0
100
AcDbBlockBegin
  2
block 3
 70
     0
 10
0.0
 20
0.0
 30
0.0
  3
block 3
  1

  0
SPLINE
  5
82
330
7E
100
AcDbEntity
  8
_U+30EC_U+30A4_U+30E4_U+30FC 1
370
     0
100
AcDbSpline
210
0.0
220
0.0
230
1.0
 70
    11
 71
     3
 72
   242
 73
   238
 74
     0
 42
0.0000000001
 43
0.0000000001
 12
1.0
 22
0.0
 32
0.0
 13
1.0
 23
0.0
 33
0.0
 40
0.0
 40
0.0
 40
0.0
 40
0.0
 40
1.0
 40
1.0
 40
1.0
 40
2.0
 40
2.0
 40
2.0
 40
3.0
 40
3.0
 40
3.0
 40
4.0
 40
4.0
 40
4.0
 40
5.0
 40
5.0
 40
5.0
 40
6.0
 40
6.0
 40
6.0
 40
7.0
 40
7.0
 40
7.0
 40
8.0
 40
8.0
 40
8.0
 40
9.0
 40
9.0
 40
9.0
 40
10.0
 40
10.0
 40
10.0
 40
11.0
 40
11.0
 40
11.0
 40
12.0
 40
12.0
 40
12.0
 40
13.0
 40
13.0
 40
13.0
 40
14.0
 40
14.0
 40
14.0
 40
15.0
 40
15.0
 40
15.0
 40
16.0
 40
16.0
 40
16.0
 40
17.0
 40
17.0
 40
17.0
 40
18.0
 40
18.0
 40
18.0
 40
19.0
 40
19.0
 40
19.0
 40
20.0
 40
20.0
 40
20.0
 40
21.0
 40
21.0
 40
21.0
 40
22.0
 40
22.0
 40
22.0
 40
23.0
 40
23.0
 40
23.0
 40
24.0
 40
24.0
 40
24.0
 40
25.0
 40
25.0
 40
25.0
 40
26.0
 40
26.0
 40
26.0
 40
27.0
 40
27.0
 40
27.0
 40
28.0
 40
28.0
 40
28.0
 40
29.0
 40
29.0
 40
29.0
 40
30.0
 40
30.0
 40
30.0
 40
31.0
 40
31.0
 40
31.0
 40
32.0
 40
32.0
 40
32.0
 40
33.0
 40
33.0
 40
33.0
 40
34.0
 40
34.0
 40
34.0
 40
35.0
 40
35.0
 40
35.0
 40
36.0
 40
36.0
 40
36.0
 40
37.0
 40
37.0
 40
37.0
 40
38.0
 40
38.0
 40
38.0
 40
39.0
 40
39.0
 40
39.0
 40
40.0
 40
40.0
 40
40.0
 40
41.0
 40
41.0
 40
41.0
 40
42.0
 40
42.0
 40
42.0
 40
43.0
 40
43.0
 40
43.0
 40
44.0
 40
44.0
 40
44.0
 40
45.0
 40
45.0
 40
45.0
 40
46.0
 40
46.0
 40
46.0
 40
47.0
 40
47.0
 40
47.0
 40
48.0
 40
48.0
 40
48.0
 40
49.0
 40
49.0
 40
49.0
 40
50.0
 40
50.0
 40
50.0
 40
51.0
 40
51.0
 40
51.0
 40
52.0
 40
52.0
 40
52.0
 40
53.0
 40
53.0
 40
53.0
 40
54.0
 40
54.0
 40
54.0
 40
55.0
 40
55.0
 40
55.0
 40
56.0
 40
56.0
 40
56.0
 40
57.0
 40
57.0
 40
57.0
 40
58.0
 40
58.0
 40
58.0
 40
59.0
 40
59.0
 40
59.0
 40
60.0
 40
60.0
 40
60.0
 40
61.0
 40
61.0
 40
61.0
 40
62.0
 40
62.0
 40
62.0
 40
63.0
 40
63.0
 40
63.0
 40
64.0
 40
64.0
 40
64.0
 40
65.0
 40
65.0
 40
65.0
 40
66.0
 40
66.0
 40
66.0
 40
67.0
 40
67.0
 40
67.0
 40
68.0
 40
68.0
 40
68.0
 40
69.0
 40
69.0
 40
69.0
 40
70.0
 40
70.0
 40
70.0
 40
71.0
 40
71.0
 40
71.0
 40
72.0
 40
72.0
 40
72.0
 40
73.0
 40
73.0
 40
73.0
 40
74.0
 40
74.0
 40
74.0
 40
75.0
 40
75.0
 40
75.0
 40
76.0
 40
76.0
 40
76.0
 40
77.0
 40
77.0
 40
77.0
 40
78.0
 40
78.0
 40
78.0
 40
79.0
 40
79.0
 40
79.0
 40
79.0
 10
97.49964732805564
 20
-116.8278387837271
 30
0.0
 10
97.49964732805564
 20
-116.8278387837271
 30
0.0
 10
97.24574379079273
 20
-116.8278387837271
 30
0.0
 10
97.24574379079273
 20
-116.8278387837271
 30
0.0
 10
97.24574379079273
 20
-116.8278387837271
 30
0.0
 10
96.96875811377865
 20
-116.8278387837271
 30
0.0
 10
96.96875811377865
 20
-116.8278387837271
 30
0.0
 10
96.96875811377865
 20
-116.8278387837271
 30
0.0
 10
97.09553762763585
 20
-116.8702134581956
 30
0.0
 10
97.09553762763585
 20
-116.8702134581956
 30
0.0
 10
97.10621742364012
 20
-116.8745198275522
 30
0.0
 10
97.11896427693554
 20
-116.8807209994257
 30
0.0
 10
97.11896427693554
 20
-116.8934678527211
 30
0.0
 10
97.11896427693554
 20
-116.9146551899554
 30
0.0
 10
97.08692488892272
 20
-116.9210286166031
 30
0.0
 10
97.0659098064627
 20
-116.9251627311854
 30
0.0
 10
97.05523001045842
 20
-116.9484171257108
 30
0.0
 10
97.02560218928527
 20
-117.0140461947048
 30
0.0
 10
97.0066541641164
 20
-117.0584879264646
 30
0.0
 10
97.0066541641164
 20
-117.0584879264646
 30
0.0
 10
97.27743866925704
 20
-117.0584879264646
 30
0.0
 10
97.27743866925704
 20
-117.0584879264646
 30
0.0
 10
97.36838919006763
 20
-117.0584879264646
 30
0.0
 10
97.5651041422754
 20
-117.054181557108
 30
0.0
 10
97.70704207626768
 20
-117.0457410731691
 30
0.0
 10
97.70704207626768
 20
-117.0457410731691
 30
0.0
 10
97.70704207626768
 20
-117.223508000208
 30
0.0
 10
97.70704207626768
 20
-117.223508000208
 30
0.0
 10
97.62435978462169
 20
-117.2192016308515
 30
0.0
 10
97.60334470216166
 20
-117.2192016308515
 30
0.0
 10
97.42351071783163
 20
-117.2150675162692
 30
0.0
 10
97.39181583936733
 20
-117.3694077940084
 30
0.0
 10
97.3473741076076
 20
-117.4498507735889
 30
0.0
 10
97.30293237584789
 20
-117.5196139571652
 30
0.0
 10
97.42351071783163
 20
-117.5788695995115
 30
0.0
 10
97.5292751492288
 20
-117.6465657257967
 30
0.0
 10
97.63297252333481
 20
-117.7290757626684
 30
0.0
 10
97.63297252333481
 20
-117.7290757626684
 30
0.0
 10
97.51446123864223
 20
-117.896162893703
 30
0.0
 10
97.51446123864223
 20
-117.896162893703
 30
0.0
 10
97.49103458934252
 20
-117.8772148685342
 30
0.0
 10
97.4782877360471
 20
-117.8687743845953
 30
0.0
 10
97.36632213277647
 20
-117.7840250356582
 30
0.0
 10
97.31774628643446
 20
-117.7459567305462
 30
0.0
 10
97.25849064408816
 20
-117.7101277374996
 30
0.0
 10
97.17787540973332
 20
-117.6656860057398
 30
0.0
 10
96.96634654693898
 20
-117.8518934167176
 30
0.0
 10
96.76136336556661
 20
-117.875147811243
 30
0.0
 10
96.47128632570858
 20
-117.9047756324162
 30
0.0
 10
96.47128632570858
 20
-117.9047756324162
 30
0.0
 10
96.36793346115108
 20
-117.7249416480861
 30
0.0
 10
96.36793346115108
 20
-117.7249416480861
 30
0.0
 10
96.68522675534258
 20
-117.7206352787296
 30
0.0
 10
96.8605821155418
 20
-117.695313826913
 30
0.0
 10
97.01285533598984
 20
-117.5852430261592
 30
0.0
 10
96.89468856084578
 20
-117.5344278677518
 30
0.0
 10
96.80580509732633
 20
-117.5070393586441
 30
0.0
 10
96.76963159473121
 20
-117.4942925053487
 30
0.0
 10
96.75068356956233
 20
-117.5218532692306
 30
0.0
 10
96.73586965897576
 20
-117.5408012943995
 30
0.0
 10
96.70830889509377
 20
-117.5747354849292
 30
0.0
 10
96.70830889509377
 20
-117.5747354849292
 30
0.0
 10
96.511593942886
 20
-117.4922254480575
 30
0.0
 10
96.511593942886
 20
-117.4922254480575
 30
0.0
 10
96.59427623453199
 20
-117.4117824684769
 30
0.0
 10
96.65559893416943
 20
-117.3165255783098
 30
0.0
 10
96.71244300967606
 20
-117.2150675162692
 30
0.0
 10
96.52227373889026
 20
-117.2192016308515
 30
0.0
 10
96.50091414688173
 20
-117.2192016308515
 30
0.0
 10
96.41857636478424
 20
-117.223508000208
 30
0.0
 10
96.41857636478424
 20
-117.223508000208
 30
0.0
 10
96.41857636478424
 20
-117.0457410731691
 30
0.0
 10
96.41857636478424
 20
-117.0457410731691
 30
0.0
 10
96.55810273193687
 20
-117.0521144998168
 30
0.0
 10
96.76756453744005
 20
-117.0564208691734
 30
0.0
 10
96.7930582440309
 20
-117.0564208691734
 30
0.0
 10
96.80993921190863
 20
-117.0224866786437
 30
0.0
 10
96.86506073967263
 20
-116.9019083366599
 30
0.0
 10
96.8840087648415
 20
-116.8278387837271
 30
0.0
 10
96.86506073967263
 20
-116.8278387837271
 30
0.0
 10
96.68729381263374
 20
-116.8342122103748
 30
0.0
 10
96.49264591771713
 20
-116.8469590636702
 30
0.0
 10
96.49264591771713
 20
-116.8469590636702
 30
0.0
 10
96.49264591771713
 20
-116.9802842589494
 30
0.0
 10
96.49264591771713
 20
-116.9802842589494
 30
0.0
 10
96.4440700713751
 20
-117.005605710766
 30
0.0
 10
96.38481442902881
 20
-117.0373005892303
 30
0.0
 10
96.25148923374964
 20
-117.1029296582243
 30
0.0
 10
96.25148923374964
 20
-117.1029296582243
 30
0.0
 10
96.25148923374964
 20
-117.2488294520246
 30
0.0
 10
96.25148923374964
 20
-117.2488294520246
 30
0.0
 10
96.25148923374964
 20
-117.2488294520246
 30
0.0
 10
96.25148923374964
 20
-117.7165011641473
 30
0.0
 10
96.25148923374964
 20
-117.7165011641473
 30
0.0
 10
96.25148923374964
 20
-117.8432806780045
 30
0.0
 10
96.2153157311545
 20
-117.9025363203508
 30
0.0
 10
95.93212888226697
 20
-117.8940958364119
 30
0.0
 10
95.93212888226697
 20
-117.8940958364119
 30
0.0
 10
95.82843150816095
 20
-117.6868733429741
 30
0.0
 10
95.82843150816095
 20
-117.6868733429741
 30
0.0
 10
95.89182126508955
 20
-117.6994479414953
 30
0.0
 10
95.94039711143157
 20
-117.7037543108518
 30
0.0
 10
95.980704728609
 20
-117.7037543108518
 30
0.0
 10
96.05684133883301
 20
-117.7037543108518
 30
0.0
 10
96.06752113483729
 20
-117.6804999163264
 30
0.0
 10
96.06752113483729
 20
-117.6148708473324
 30
0.0
 10
96.06752113483729
 20
-117.6148708473324
 30
0.0
 10
96.06752113483729
 20
-117.185439695096
 30
0.0
 10
96.06752113483729
 20
-117.185439695096
 30
0.0
 10
95.97002493260472
 20
-117.2255750574992
 30
0.0
 10
95.95314396472699
 20
-117.2319484841469
 30
0.0
 10
95.90663517567613
 20
-117.25106876409
 30
0.0
 10
95.90250106109383
 20
-117.27208384655
 30
0.0
 10
95.898022436963
 20
-117.3017116677232
 30
0.0
 10
95.87907441179412
 20
-117.3017116677232
 30
0.0
 10
95.87080618262952
 20
-117.3017116677232
 30
0.0
 10
95.86012638662525
 20
-117.2975775531409
 30
0.0
 10
95.85358070520327
 20
-117.2743231586155
 30
0.0
 10
95.85358070520327
 20
-117.2743231586155
 30
0.0
 10
95.80087074427895
 20
-117.08174232099
 30
0.0
 10
95.80087074427895
 20
-117.08174232099
 30
0.0
 10
95.94694279285355
 20
-117.0352335319391
 30
0.0
 10
96.01239960707329
 20
-117.0119791374137
 30
0.0
 10
96.06752113483729
 20
-116.9907918001794
 30
0.0
 10
96.06752113483729
 20
-116.9907918001794
 30
0.0
 10
96.06752113483729
 20
-116.5782416158207
 30
0.0
 10
96.06752113483729
 20
-116.5782416158207
 30
0.0
 10
96.06752113483729
 20
-116.5782416158207
 30
0.0
 10
96.01446666436445
 20
-116.5782416158207
 30
0.0
 10
96.01446666436445
 20
-116.5782416158207
 30
0.0
 10
96.01446666436445
 20
-116.5782416158207
 30
0.0
 10
95.93626299684927
 20
-116.5782416158207
 30
0.0
 10
95.93626299684927
 20
-116.5782416158207
 30
0.0
 10
95.86839461578985
 20
-116.5782416158207
 30
0.0
 10
95.86012638662525
 20
-116.5782416158207
 30
0.0
 10
95.82395288403012
 20
-116.5846150424684
 30
0.0
 10
95.82395288403012
 20
-116.5846150424684
 30
0.0
 10
95.82395288403012
 20
-116.3899671475518
 30
0.0
 10
95.82395288403012
 20
-116.3899671475518
 30
0.0
 10
95.85151364791213
 20
-116.3963405741995
 30
0.0
 10
95.86012638662525
 20
-116.3963405741995
 30
0.0
 10
95.9297173154273
 20
-116.3963405741995
 30
0.0
 10
95.9297173154273
 20
-116.3963405741995
 30
0.0
 10
96.06304251070647
 20
-116.3963405741995
 30
0.0
 10
96.06304251070647
 20
-116.3963405741995
 30
0.0
 10
96.06304251070647
 20
-116.3265773906232
 30
0.0
 10
96.06304251070647
 20
-116.2440673537515
 30
0.0
 10
96.06097545341531
 20
-116.2397609843949
 30
0.0
 10
96.05270722425071
 20
-116.0599270000649
 30
0.0
 10
96.05270722425071
 20
-116.040978974896
 30
0.0
 10
96.05029565741104
 20
-115.9944701858451
 30
0.0
 10
96.05029565741104
 20
-115.9944701858451
 30
0.0
 10
96.2663031443362
 20
-116.002910669784
 30
0.0
 10
96.2663031443362
 20
-116.002910669784
 30
0.0
 10
96.27698294034047
 20
-116.002910669784
 30
0.0
 10
96.2979980228005
 20
-116.0049777270751
 30
0.0
 10
96.2979980228005
 20
-116.0218586949529
 30
0.0
 10
96.2979980228005
 20
-116.040978974896
 30
0.0
 10
96.28318411221393
 20
-116.051486516126
 30
0.0
 10
96.25769040562308
 20
-116.0706067960692
 30
0.0
 10
96.25769040562308
 20
-116.1212496997023
 30
0.0
 10
96.25148923374964
 20
-116.3498317851487
 30
0.0
 10
96.25355629104078
 20
-116.3963405741995
 30
0.0
 10
96.38274737173765
 20
-116.3963405741995
 30
0.0
 10
96.39514971548455
 20
-116.3963405741995
 30
0.0
 10
96.49264591771713
 20
-116.3879000902607
 30
0.0
 10
96.49264591771713
 20
-116.3879000902607
 30
0.0
 10
96.49264591771713
 20
-116.5825479851773
 30
0.0
 10
96.49264591771713
 20
-116.5825479851773
 30
0.0
 10
96.45440535783085
 20
-116.5803086731119
 30
0.0
 10
96.38688148631995
 20
-116.5761745585296
 30
0.0
 10
96.25148923374964
 20
-116.5782416158207
 30
0.0
 10
96.25148923374964
 20
-116.5782416158207
 30
0.0
 10
96.25148923374964
 20
-116.9167222472465
 30
0.0
 10
96.25148923374964
 20
-116.9167222472465
 30
0.0
 10
96.30661076151362
 20
-116.8934678527211
 30
0.0
 10
96.37206757573338
 20
-116.8659070888391
 30
0.0
 10
96.4206434220754
 20
-116.8426526943136
 30
0.0
 10
96.4206434220754
 20
-116.8426526943136
 30
0.0
 10
96.4206434220754
 20
-116.665058022049
 30
0.0
 10
96.4206434220754
 20
-116.665058022049
 30
0.0
 10
96.53502059218569
 20
-116.6776326205702
 30
0.0
 10
96.65353187687829
 20
-116.6776326205702
 30
0.0
 10
96.76963159473121
 20
-116.6776326205702
 30
0.0
 10
96.74654945498003
 20
-116.5825479851773
 30
0.0
 10
96.71898869109803
 20
-116.5000379483055
 30
0.0
 10
96.65559893416943
 20
-116.3667127530264
 30
0.0
 10
96.61115720240971
 20
-116.3687798103175
 30
0.0
 10
96.52847491076372
 20
-116.3730861796741
 30
0.0
 10
96.49057886042597
 20
-116.3751532369652
 30
0.0
 10
96.49057886042597
 20
-116.3751532369652
 30
0.0
 10
96.49057886042597
 20
-116.1953192526352
 30
0.0
 10
96.49057886042597
 20
-116.1953192526352
 30
0.0
 10
96.61529131699201
 20
-116.2037597365741
 30
0.0
 10
96.7889241294486
 20
-116.2080661059306
 30
0.0
 10
96.87126191154607
 20
-116.2080661059306
 30
0.0
 10
96.87126191154607
 20
-116.2080661059306
 30
0.0
 10
96.95394420319208
 20
-116.2080661059306
 30
0.0
 10
96.95394420319208
 20
-116.2080661059306
 30
0.0
 10
96.95394420319208
 20
-116.0451130894783
 30
0.0
 10
96.95394420319208
 20
-116.0346055482483
 30
0.0
 10
96.9515326363524
 20
-115.9796562752586
 30
0.0
 10
96.9515326363524
 20
-115.9796562752586
 30
0.0
 10
97.17580835244216
 20
-116.0049777270751
 30
0.0
 10
97.17580835244216
 20
-116.0049777270751
 30
0.0
 10
97.18028697657299
 20
-116.0049777270751
 30
0.0
 10
97.20130205903301
 20
-116.0070447843663
 30
0.0
 10
97.20130205903301
 20
-116.023925752244
 30
0.0
 10
97.20130205903301
 20
-116.0387396628306
 30
0.0
 10
97.19062226302874
 20
-116.0473524015437
 30
0.0
 10
97.16306149914674
 20
-116.0621663121303
 30
0.0
 10
97.1568603272733
 20
-116.12762312635
 30
0.0
 10
97.15479326998214
 20
-116.1488104635843
 30
0.0
 10
97.15479326998214
 20
-116.2080661059306
 30
0.0
 10
97.15479326998214
 20
-116.2080661059306
 30
0.0
 10
97.24987790537503
 20
-116.2080661059306
 30
0.0
 10
97.24987790537503
 20
-116.2080661059306
 30
0.0
 10
97.33256019702102
 20
-116.2080661059306
 30
0.0
 10
97.5058484999291
 20
-116.2037597365741
 30
0.0
 10
97.63090546604367
 20
-116.1953192526352
 30
0.0
 10
97.63090546604367
 20
-116.1953192526352
 30
0.0
 10
97.63090546604367
 20
-116.3751532369652
 30
0.0
 10
97.63090546604367
 20
-116.3751532369652
 30
0.0
 10
97.60127764487052
 20
-116.3730861796741
 30
0.0
 10
97.48276636017792
 20
-116.3687798103175
 30
0.0
 10
97.4424587430005
 20
-116.3667127530264
 30
0.0
 10
97.42764483241393
 20
-116.4175279114338
 30
0.0
 10
97.39388289665848
 20
-116.5296657694787
 30
0.0
 10
97.32808157289021
 20
-116.6691921366313
 30
0.0
 10
97.37045624735877
 20
-116.6691921366313
 30
0.0
 10
97.6477864339214
 20
-116.6502441114624
 30
0.0
 10
97.70910913355884
 20
-116.648004799397
 30
0.0
 10
97.70910913355884
 20
-116.648004799397
 30
0.0
 10
97.70910913355884
 20
-116.8321451530836
 30
0.0
 10
97.70910913355884
 20
-116.8321451530836
 30
0.0
 10
97.67948131238569
 20
-116.8321451530836
 30
0.0
 10
97.66260034450796
 20
-116.8278387837271
 30
0.0
 10
97.49964732805564
 20
-116.8278387837271
 30
0.0
  0
SPLINE
  5
83
330
7E
100
AcDbEntity
  8
_U+30EC_U+30A4_U+30E4_U+30FC 1
370
     0
100
AcDbSpline
210
0.0
220
0.0
230
1.0
 70
    11
 71
     3
 72
    20
 73
    16
 74
     0
 42
0.0000000001
 43
0.0000000001
 12
1.0
 22
0.0
 32
0.0
 13
1.0
 23
0.0
 33
0.0
 40
0.0
 40
0.0
 40
0.0
 40
0.0
 40
1.0
 40
1.0
 40
1.0
 40
2.0
 40
2.0
 40
2.0
 40
3.0
 40
3.0
 40
3.0
 40
4.0
 40
4.0
 40
4.0
 40
5.0
 40
5.0
 40
5.0
 40
5.0
 10
96.87126191154607
 20
-116.3625786384441
 30
0.0
 10
96.87126191154607
 20
-116.3625786384441
 30
0.0
 10
96.83956703308178
 20
-116.3625786384441
 30
0.0
 10
96.83956703308178
 20
-116.3625786384441
 30
0.0
 10
96.88607582213265
 20
-116.4619696431935
 30
0.0
 10
96.91777070059695
 20
-116.5422403679999
 30
0.0
 10
96.9515326363524
 20
-116.6691921366313
 30
0.0
 10
96.9515326363524
 20
-116.6691921366313
 30
0.0
 10
97.15892738456444
 20
-116.6691921366313
 30
0.0
 10
97.15892738456444
 20
-116.6691921366313
 30
0.0
 10
97.19062226302874
 20
-116.5761745585296
 30
0.0
 10
97.21404891232844
 20
-116.4915974643667
 30
0.0
 10
97.2371310520796
 20
-116.3625786384441
 30
0.0
 10
97.2371310520796
 20
-116.3625786384441
 30
0.0
 10
96.87126191154607
 20
-116.3625786384441
 30
0.0
 10
96.87126191154607
 20
-116.3625786384441
 30
0.0
  0
SPLINE
  5
84
330
7E
100
AcDbEntity
  8
_U+30EC_U+30A4_U+30E4_U+30FC 1
370
     0
100
AcDbSpline
210
0.0
220
0.0
230
1.0
 70
    11
 71
     3
 72
    17
 73
    13
 74
     0
 42
0.0000000001
 43
0.0000000001
 12
1.0
 22
0.0
 32
0.0
 13
1.0
 23
0.0
 33
0.0
 40
0.0
 40
0.0
 40
0.0
 40
0.0
 40
1.0
 40
1.0
 40
1.0
 40
2.0
 40
2.0
 40
2.0
 40
3.0
 40
3.0
 40
3.0
 40
4.0
 40
4.0
 40
4.0
 40
4.0
 10
96.93465166847467
 20
-117.213000458978
 30
0.0
 10
96.91777070059695
 20
-117.2424560253769
 30
0.0
 10
96.86712779696377
 20
-117.3356458582529
 30
0.0
 10
96.8564480009595
 20
-117.3545938834218
 30
0.0
 10
97.04696178129382
 20
-117.4138495257681
 30
0.0
 10
97.06797686375384
 20
-117.4202229524158
 30
0.0
 10
97.13997935939557
 20
-117.4477837162978
 30
0.0
 10
97.19510088715957
 20
-117.3609673100695
 30
0.0
 10
97.21818302691074
 20
-117.2868977571366
 30
0.0
 10
97.2329969374973
 20
-117.213000458978
 30
0.0
 10
97.2329969374973
 20
-117.213000458978
 30
0.0
 10
96.93465166847467
 20
-117.213000458978
 30
0.0
 10
96.93465166847467
 20
-117.213000458978
 30
0.0
  0
HATCH
  5
85
330
7E
100
AcDbEntity
  8
_U+30EC_U+30A4_U+30E4_U+30FC 1
 62
   179
420
  2234388
100
AcDbHatch
 10
0.0
 20
0.0
 30
0.0
210
0.0
220
0.0
230
1.0
  2
SOLID
 70
     1
 71
     0
 91
        3
 92
        1
 93
        1
 72
     4
 94
        3
 73
     0
 74
     1
 95
      242
 96
      238
 40
0.0
 40
0.0
 40
0.0
 40
0.0
 40
1.0
 40
1.0
 40
1.0
 40
2.0
 40
2.0
 40
2.0
 40
3.0
 40
3.0
 40
3.0
 40
4.0
 40
4.0
 40
4.0
 40
5.0
 40
5.0
 40
5.0
 40
6.0
 40
6.0
 40
6.0
 40
7.0
 40
7.0
 40
7.0
 40
8.0
 40
8.0
 40
8.0
 40
9.0
 40
9.0
 40
9.0
 40
10.0
 40
10.0
 40
10.0
 40
11.0
 40
11.0
 40
11.0
 40
12.0
 40
12.0
 40
12.0
 40
13.0
 40
13.0
 40
13.0
 40
14.0
 40
14.0
 40
14.0
 40
15.0
 40
15.0
 40
15.0
 40
16.0
 40
16.0
 40
16.0
 40
17.0
 40
17.0
 40
17.0
 40
18.0
 40
18.0
 40
18.0
 40
19.0
 40
19.0
 40
19.0
 40
20.0
 40
20.0
 40
20.0
 40
21.0
 40
21.0
 40
21.0
 40
22.0
 40
22.0
 40
22.0
 40
23.0
 40
23.0
 40
23.0
 40
24.0
 40
24.0
 40
24.0
 40
25.0
 40
25.0
 40
25.0
 40
26.0
 40
26.0
 40
26.0
 40
27.0
 40
27.0
 40
27.0
 40
28.0
 40
28.0
 40
28.0
 40
29.0
 40
29.0
 40
29.0
 40
30.0
 40
30.0
 40
30.0
 40
31.0
 40
31.0
 40
31.0
 40
32.0
 40
32.0
 40
32.0
 40
33.0
 40
33.0
 40
33.0
 40
34.0
 40
34.0
 40
34.0
 40
35.0
 40
35.0
 40
35.0
 40
36.0
 40
36.0
 40
36.0
 40
37.0
 40
37.0
 40
37.0
 40
38.0
 40
38.0
 40
38.0
 40
39.0
 40
39.0
 40
39.0
 40
40.0
 40
40.0
 40
40.0
 40
41.0
 40
41.0
 40
41.0
 40
42.0
 40
42.0
 40
42.0
 40
43.0
 40
43.0
 40
43.0
 40
44.0
 40
44.0
 40
44.0
 40
45.0
 40
45.0
 40
45.0
 40
46.0
 40
46.0
 40
46.0
 40
47.0
 40
47.0
 40
47.0
 40
48.0
 40
48.0
 40
48.0
 40
49.0
 40
49.0
 40
49.0
 40
50.0
 40
50.0
 40
50.0
 40
51.0
 40
51.0
 40
51.0
 40
52.0
 40
52.0
 40
52.0
 40
53.0
 40
53.0
 40
53.0
 40
54.0
 40
54.0
 40
54.0
 40
55.0
 40
55.0
 40
55.0
 40
56.0
 40
56.0
 40
56.0
 40
57.0
 40
57.0
 40
57.0
 40
58.0
 40
58.0
 40
58.0
 40
59.0
 40
59.0
 40
59.0
 40
60.0
 40
60.0
 40
60.0
 40
61.0
 40
61.0
 40
61.0
 40
62.0
 40
62.0
 40
62.0
 40
63.0
 40
63.0
 40
63.0
 40
64.0
 40
64.0
 40
64.0
 40
65.0
 40
65.0
 40
65.0
 40
66.0
 40
66.0
 40
66.0
 40
67.0
 40
67.0
 40
67.0
 40
68.0
 40
68.0
 40
68.0
 40
69.0
 40
69.0
 40
69.0
 40
70.0
 40
70.0
 40
70.0
 40
71.0
 40
71.0
 40
71.0
 40
72.0
 40
72.0
 40
72.0
 40
73.0
 40
73.0
 40
73.0
 40
74.0
 40
74.0
 40
74.0
 40
75.0
 40
75.0
 40
75.0
 40
76.0
 40
76.0
 40
76.0
 40
77.0
 40
77.0
 40
77.0
 40
78.0
 40
78.0
 40
78.0
 40
79.0
 40
79.0
 40
79.0
 40
79.0
 10
97.49964732805564
 20
-116.8278387837271
 10
97.49964732805564
 20
-116.8278387837271
 10
97.24574379079273
 20
-116.8278387837271
 10
97.24574379079273
 20
-116.8278387837271
 10
97.24574379079273
 20
-116.8278387837271
 10
96.96875811377865
 20
-116.8278387837271
 10
96.96875811377865
 20
-116.8278387837271
 10
96.96875811377865
 20
-116.8278387837271
 10
97.09553762763585
 20
-116.8702134581956
 10
97.09553762763585
 20
-116.8702134581956
 10
97.10621742364012
 20
-116.8745198275522
 10
97.11896427693554
 20
-116.8807209994257
 10
97.11896427693554
 20
-116.8934678527211
 10
97.11896427693554
 20
-116.9146551899554
 10
97.08692488892272
 20
-116.9210286166031
 10
97.0659098064627
 20
-116.9251627311854
 10
97.05523001045842
 20
-116.9484171257108
 10
97.02560218928527
 20
-117.0140461947048
 10
97.0066541641164
 20
-117.0584879264646
 10
97.0066541641164
 20
-117.0584879264646
 10
97.27743866925704
 20
-117.0584879264646
 10
97.27743866925704
 20
-117.0584879264646
 10
97.36838919006763
 20
-117.0584879264646
 10
97.5651041422754
 20
-117.054181557108
 10
97.70704207626768
 20
-117.0457410731691
 10
97.70704207626768
 20
-117.0457410731691
 10
97.70704207626768
 20
-117.223508000208
 10
97.70704207626768
 20
-117.223508000208
 10
97.62435978462169
 20
-117.2192016308515
 10
97.60334470216166
 20
-117.2192016308515
 10
97.42351071783163
 20
-117.2150675162692
 10
97.39181583936733
 20
-117.3694077940084
 10
97.3473741076076
 20
-117.4498507735889
 10
97.30293237584789
 20
-117.5196139571652
 10
97.42351071783163
 20
-117.5788695995115
 10
97.5292751492288
 20
-117.6465657257967
 10
97.63297252333481
 20
-117.7290757626684
 10
97.63297252333481
 20
-117.7290757626684
 10
97.51446123864223
 20
-117.896162893703
 10
97.51446123864223
 20
-117.896162893703
 10
97.49103458934252
 20
-117.8772148685342
 10
97.4782877360471
 20
-117.8687743845953
 10
97.36632213277647
 20
-117.7840250356582
 10
97.31774628643446
 20
-117.7459567305462
 10
97.25849064408816
 20
-117.7101277374996
 10
97.17787540973332
 20
-117.6656860057398
 10
96.96634654693898
 20
-117.8518934167176
 10
96.76136336556661
 20
-117.875147811243
 10
96.47128632570858
 20
-117.9047756324162
 10
96.47128632570858
 20
-117.9047756324162
 10
96.36793346115108
 20
-117.7249416480861
 10
96.36793346115108
 20
-117.7249416480861
 10
96.68522675534258
 20
-117.7206352787296
 10
96.8605821155418
 20
-117.695313826913
 10
97.01285533598984
 20
-117.5852430261592
 10
96.89468856084578
 20
-117.5344278677518
 10
96.80580509732633
 20
-117.5070393586441
 10
96.76963159473121
 20
-117.4942925053487
 10
96.75068356956233
 20
-117.5218532692306
 10
96.73586965897576
 20
-117.5408012943995
 10
96.70830889509377
 20
-117.5747354849292
 10
96.70830889509377
 20
-117.5747354849292
 10
96.511593942886
 20
-117.4922254480575
 10
96.511593942886
 20
-117.4922254480575
 10
96.59427623453199
 20
-117.4117824684769
 10
96.65559893416943
 20
-117.3165255783098
 10
96.71244300967606
 20
-117.2150675162692
 10
96.52227373889026
 20
-117.2192016308515
 10
96.50091414688173
 20
-117.2192016308515
 10
96.41857636478424
 20
-117.223508000208
 10
96.41857636478424
 20
-117.223508000208
 10
96.41857636478424
 20
-117.0457410731691
 10
96.41857636478424
 20
-117.0457410731691
 10
96.55810273193687
 20
-117.0521144998168
 10
96.76756453744005
 20
-117.0564208691734
 10
96.7930582440309
 20
-117.0564208691734
 10
96.80993921190863
 20
-117.0224866786437
 10
96.86506073967263
 20
-116.9019083366599
 10
96.8840087648415
 20
-116.8278387837271
 10
96.86506073967263
 20
-116.8278387837271
 10
96.68729381263374
 20
-116.8342122103748
 10
96.49264591771713
 20
-116.8469590636702
 10
96.49264591771713
 20
-116.8469590636702
 10
96.49264591771713
 20
-116.9802842589494
 10
96.49264591771713
 20
-116.9802842589494
 10
96.4440700713751
 20
-117.005605710766
 10
96.38481442902881
 20
-117.0373005892303
 10
96.25148923374964
 20
-117.1029296582243
 10
96.25148923374964
 20
-117.1029296582243
 10
96.25148923374964
 20
-117.2488294520246
 10
96.25148923374964
 20
-117.2488294520246
 10
96.25148923374964
 20
-117.2488294520246
 10
96.25148923374964
 20
-117.7165011641473
 10
96.25148923374964
 20
-117.7165011641473
 10
96.25148923374964
 20
-117.8432806780045
 10
96.2153157311545
 20
-117.9025363203508
 10
95.93212888226697
 20
-117.8940958364119
 10
95.93212888226697
 20
-117.8940958364119
 10
95.82843150816095
 20
-117.6868733429741
 10
95.82843150816095
 20
-117.6868733429741
 10
95.89182126508955
 20
-117.6994479414953
 10
95.94039711143157
 20
-117.7037543108518
 10
95.980704728609
 20
-117.7037543108518
 10
96.05684133883301
 20
-117.7037543108518
 10
96.06752113483729
 20
-117.6804999163264
 10
96.06752113483729
 20
-117.6148708473324
 10
96.06752113483729
 20
-117.6148708473324
 10
96.06752113483729
 20
-117.185439695096
 10
96.06752113483729
 20
-117.185439695096
 10
95.97002493260472
 20
-117.2255750574992
 10
95.95314396472699
 20
-117.2319484841469
 10
95.90663517567613
 20
-117.25106876409
 10
95.90250106109383
 20
-117.27208384655
 10
95.898022436963
 20
-117.3017116677232
 10
95.87907441179412
 20
-117.3017116677232
 10
95.87080618262952
 20
-117.3017116677232
 10
95.86012638662525
 20
-117.2975775531409
 10
95.85358070520327
 20
-117.2743231586155
 10
95.85358070520327
 20
-117.2743231586155
 10
95.80087074427895
 20
-117.08174232099
 10
95.80087074427895
 20
-117.08174232099
 10
95.94694279285355
 20
-117.0352335319391
 10
96.01239960707329
 20
-117.0119791374137
 10
96.06752113483729
 20
-116.9907918001794
 10
96.06752113483729
 20
-116.9907918001794
 10
96.06752113483729
 20
-116.5782416158207
 10
96.06752113483729
 20
-116.5782416158207
 10
96.06752113483729
 20
-116.5782416158207
 10
96.01446666436445
 20
-116.5782416158207
 10
96.01446666436445
 20
-116.5782416158207
 10
96.01446666436445
 20
-116.5782416158207
 10
95.93626299684927
 20
-116.5782416158207
 10
95.93626299684927
 20
-116.5782416158207
 10
95.86839461578985
 20
-116.5782416158207
 10
95.86012638662525
 20
-116.5782416158207
 10
95.82395288403012
 20
-116.5846150424684
 10
95.82395288403012
 20
-116.5846150424684
 10
95.82395288403012
 20
-116.3899671475518
 10
95.82395288403012
 20
-116.3899671475518
 10
95.85151364791213
 20
-116.3963405741995
 10
95.86012638662525
 20
-116.3963405741995
 10
95.9297173154273
 20
-116.3963405741995
 10
95.9297173154273
 20
-116.3963405741995
 10
96.06304251070647
 20
-116.3963405741995
 10
96.06304251070647
 20
-116.3963405741995
 10
96.06304251070647
 20
-116.3265773906232
 10
96.06304251070647
 20
-116.2440673537515
 10
96.06097545341531
 20
-116.2397609843949
 10
96.05270722425071
 20
-116.0599270000649
 10
96.05270722425071
 20
-116.040978974896
 10
96.05029565741104
 20
-115.9944701858451
 10
96.05029565741104
 20
-115.9944701858451
 10
96.2663031443362
 20
-116.002910669784
 10
96.2663031443362
 20
-116.002910669784
 10
96.27698294034047
 20
-116.002910669784
 10
96.2979980228005
 20
-116.0049777270751
 10
96.2979980228005
 20
-116.0218586949529
 10
96.2979980228005
 20
-116.040978974896
 10
96.28318411221393
 20
-116.051486516126
 10
96.25769040562308
 20
-116.0706067960692
 10
96.25769040562308
 20
-116.1212496997023
 10
96.25148923374964
 20
-116.3498317851487
 10
96.25355629104078
 20
-116.3963405741995
 10
96.38274737173765
 20
-116.3963405741995
 10
96.39514971548455
 20
-116.3963405741995
 10
96.49264591771713
 20
-116.3879000902607
 10
96.49264591771713
 20
-116.3879000902607
 10
96.49264591771713
 20
-116.5825479851773
 10
96.49264591771713
 20
-116.5825479851773
 10
96.45440535783085
 20
-116.5803086731119
 10
96.38688148631995
 20
-116.5761745585296
 10
96.25148923374964
 20
-116.5782416158207
 10
96.25148923374964
 20
-116.5782416158207
 10
96.25148923374964
 20
-116.9167222472465
 10
96.25148923374964
 20
-116.9167222472465
 10
96.30661076151362
 20
-116.8934678527211
 10
96.37206757573338
 20
-116.8659070888391
 10
96.4206434220754
 20
-116.8426526943136
 10
96.4206434220754
 20
-116.8426526943136
 10
96.4206434220754
 20
-116.665058022049
 10
96.4206434220754
 20
-116.665058022049
 10
96.53502059218569
 20
-116.6776326205702
 10
96.65353187687829
 20
-116.6776326205702
 10
96.76963159473121
 20
-116.6776326205702
 10
96.74654945498003
 20
-116.5825479851773
 10
96.71898869109803
 20
-116.5000379483055
 10
96.65559893416943
 20
-116.3667127530264
 10
96.61115720240971
 20
-116.3687798103175
 10
96.52847491076372
 20
-116.3730861796741
 10
96.49057886042597
 20
-116.3751532369652
 10
96.49057886042597
 20
-116.3751532369652
 10
96.49057886042597
 20
-116.1953192526352
 10
96.49057886042597
 20
-116.1953192526352
 10
96.61529131699201
 20
-116.2037597365741
 10
96.7889241294486
 20
-116.2080661059306
 10
96.87126191154607
 20
-116.2080661059306
 10
96.87126191154607
 20
-116.2080661059306
 10
96.95394420319208
 20
-116.2080661059306
 10
96.95394420319208
 20
-116.2080661059306
 10
96.95394420319208
 20
-116.0451130894783
 10
96.95394420319208
 20
-116.0346055482483
 10
96.9515326363524
 20
-115.9796562752586
 10
96.9515326363524
 20
-115.9796562752586
 10
97.17580835244216
 20
-116.0049777270751
 10
97.17580835244216
 20
-116.0049777270751
 10
97.18028697657299
 20
-116.0049777270751
 10
97.20130205903301
 20
-116.0070447843663
 10
97.20130205903301
 20
-116.023925752244
 10
97.20130205903301
 20
-116.0387396628306
 10
97.19062226302874
 20
-116.0473524015437
 10
97.16306149914674
 20
-116.0621663121303
 10
97.1568603272733
 20
-116.12762312635
 10
97.15479326998214
 20
-116.1488104635843
 10
97.15479326998214
 20
-116.2080661059306
 10
97.15479326998214
 20
-116.2080661059306
 10
97.24987790537503
 20
-116.2080661059306
 10
97.24987790537503
 20
-116.2080661059306
 10
97.33256019702102
 20
-116.2080661059306
 10
97.5058484999291
 20
-116.2037597365741
 10
97.63090546604367
 20
-116.1953192526352
 10
97.63090546604367
 20
-116.1953192526352
 10
97.63090546604367
 20
-116.3751532369652
 10
97.63090546604367
 20
-116.3751532369652
 10
97.60127764487052
 20
-116.3730861796741
 10
97.48276636017792
 20
-116.3687798103175
 10
97.4424587430005
 20
-116.3667127530264
 10
97.42764483241393
 20
-116.4175279114338
 10
97.39388289665848
 20
-116.5296657694787
 10
97.32808157289021
 20
-116.6691921366313
 10
97.37045624735877
 20
-116.6691921366313
 10
97.6477864339214
 20
-116.6502441114624
 10
97.70910913355884
 20
-116.648004799397
 10
97.70910913355884
 20
-116.648004799397
 10
97.70910913355884
 20
-116.8321451530836
 10
97.70910913355884
 20
-116.8321451530836
 10
97.67948131238569
 20
-116.8321451530836
 10
97.66260034450796
 20
-116.8278387837271
 10
97.49964732805564
 20
-116.8278387837271
 97
        0
 97
        0
 92
        1
 93
        1
 72
     4
 94
        3
 73
     0
 74
     1
 95
       20
 96
       16
 40
0.0
 40
0.0
 40
0.0
 40
0.0
 40
1.0
 40
1.0
 40
1.0
 40
2.0
 40
2.0
 40
2.0
 40
3.0
 40
3.0
 40
3.0
 40
4.0
 40
4.0
 40
4.0
 40
5.0
 40
5.0
 40
5.0
 40
5.0
 10
96.87126191154607
 20
-116.3625786384441
 10
96.87126191154607
 20
-116.3625786384441
 10
96.83956703308178
 20
-116.3625786384441
 10
96.83956703308178
 20
-116.3625786384441
 10
96.88607582213265
 20
-116.4619696431935
 10
96.91777070059695
 20
-116.5422403679999
 10
96.9515326363524
 20
-116.6691921366313
 10
96.9515326363524
 20
-116.6691921366313
 10
97.15892738456444
 20
-116.6691921366313
 10
97.15892738456444
 20
-116.6691921366313
 10
97.19062226302874
 20
-116.5761745585296
 10
97.21404891232844
 20
-116.4915974643667
 10
97.2371310520796
 20
-116.3625786384441
 10
97.2371310520796
 20
-116.3625786384441
 10
96.87126191154607
 20
-116.3625786384441
 10
96.87126191154607
 20
-116.3625786384441
 97
        0
 97
        0
 92
        1
 93
        1
 72
     4
 94
        3
 73
     0
 74
     1
 95
       17
 96
       13
 40
0.0
 40
0.0
 40
0.0
 40
0.0
 40
1.0
 40
1.0
 40
1.0
 40
2.0
 40
2.0
 40
2.0
 40
3.0
 40
3.0
 40
3.0
 40
4.0
 40
4.0
 40
4.0
 40
4.0
 10
96.93465166847467
 20
-117.213000458978
 10
96.91777070059695
 20
-117.2424560253769
 10
96.86712779696377
 20
-117.3356458582529
 10
96.8564480009595
 20
-117.3545938834218
 10
97.04696178129382
 20
-117.4138495257681
 10
97.06797686375384
 20
-117.4202229524158
 10
97.13997935939557
 20
-117.4477837162978
 10
97.19510088715957
 20
-117.3609673100695
 10
97.21818302691074
 20
-117.2868977571366
 10
97.2329969374973
 20
-117.213000458978
 10
97.2329969374973
 20
-117.213000458978
 10
96.93465166847467
 20
-117.213000458978
 10
96.93465166847467
 20
-117.213000458978
 97
        0
 97
        0
 75
     2
 76
     1
 98
        0
  0
SPLINE
  5
86
330
7E
100
AcDbEntity
  8
_U+30EC_U+30A4_U+30E4_U+30FC 1
370
     0
100
AcDbSpline
210
0.0
220
0.0
230
1.0
 70
    11
 71
     3
 72
   203
 73
   199
 74
     0
 42
0.0000000001
 43
0.0000000001
 12
1.0
 22
0.0
 32
0.0
 13
1.0
 23
0.0
 33
0.0
 40
0.0
 40
0.0
 40
0.0
 40
0.0
 40
1.0
 40
1.0
 40
1.0
 40
2.0
 40
2.0
 40
2.0
 40
3.0
 40
3.0
 40
3.0
 40
4.0
 40
4.0
 40
4.0
 40
5.0
 40
5.0
 40
5.0
 40
6.0
 40
6.0
 40
6.0
 40
7.0
 40
7.0
 40
7.0
 40
8.0
 40
8.0
 40
8.0
 40
9.0
 40
9.0
 40
9.0
 40
10.0
 40
10.0
 40
10.0
 40
11.0
 40
11.0
 40
11.0
 40
12.0
 40
12.0
 40
12.0
 40
13.0
 40
13.0
 40
13.0
 40
14.0
 40
14.0
 40
14.0
 40
15.0
 40
15.0
 40
15.0
 40
16.0
 40
16.0
 40
16.0
 40
17.0
 40
17.0
 40
17.0
 40
18.0
 40
18.0
 40
18.0
 40
19.0
 40
19.0
 40
19.0
 40
20.0
 40
20.0
 40
20.0
 40
21.0
 40
21.0
 40
21.0
 40
22.0
 40
22.0
 40
22.0
 40
23.0
 40
23.0
 40
23.0
 40
24.0
 40
24.0
 40
24.0
 40
25.0
 40
25.0
 40
25.0
 40
26.0
 40
26.0
 40
26.0
 40
27.0
 40
27.0
 40
27.0
 40
28.0
 40
28.0
 40
28.0
 40
29.0
 40
29.0
 40
29.0
 40
30.0
 40
30.0
 40
30.0
 40
31.0
 40
31.0
 40
31.0
 40
32.0
 40
32.0
 40
32.0
 40
33.0
 40
33.0
 40
33.0
 40
34.0
 40
34.0
 40
34.0
 40
35.0
 40
35.0
 40
35.0
 40
36.0
 40
36.0
 40
36.0
 40
37.0
 40
37.0
 40
37.0
 40
38.0
 40
38.0
 40
38.0
 40
39.0
 40
39.0
 40
39.0
 40
40.0
 40
40.0
 40
40.0
 40
41.0
 40
41.0
 40
41.0
 40
42.0
 40
42.0
 40
42.0
 40
43.0
 40
43.0
 40
43.0
 40
44.0
 40
44.0
 40
44.0
 40
45.0
 40
45.0
 40
45.0
 40
46.0
 40
46.0
 40
46.0
 40
47.0
 40
47.0
 40
47.0
 40
48.0
 40
48.0
 40
48.0
 40
49.0
 40
49.0
 40
49.0
 40
50.0
 40
50.0
 40
50.0
 40
51.0
 40
51.0
 40
51.0
 40
52.0
 40
52.0
 40
52.0
 40
53.0
 40
53.0
 40
53.0
 40
54.0
 40
54.0
 40
54.0
 40
55.0
 40
55.0
 40
55.0
 40
56.0
 40
56.0
 40
56.0
 40
57.0
 40
57.0
 40
57.0
 40
58.0
 40
58.0
 40
58.0
 40
59.0
 40
59.0
 40
59.0
 40
60.0
 40
60.0
 40
60.0
 40
61.0
 40
61.0
 40
61.0
 40
62.0
 40
62.0
 40
62.0
 40
63.0
 40
63.0
 40
63.0
 40
64.0
 40
64.0
 40
64.0
 40
65.0
 40
65.0
 40
65.0
 40
66.0
 40
66.0
 40
66.0
 40
66.0
 10
99.19118921131331
 20
-116.8955349100122
 30
0.0
 10
99.19118921131331
 20
-116.8955349100122
 30
0.0
 10
98.6323947236058
 20
-116.8955349100122
 30
0.0
 10
98.6323947236058
 20
-116.8955349100122
 30
0.0
 10
98.62205943715004
 20
-116.9399766417719
 30
0.0
 10
98.61344669843692
 20
-116.9716715202363
 30
0.0
 10
98.60069984514149
 20
-117.0099120801225
 30
0.0
 10
98.62619355173234
 20
-117.0099120801225
 30
0.0
 10
98.64100746231892
 20
-117.0119791374137
 30
0.0
 10
98.64720863419237
 20
-117.0119791374137
 30
0.0
 10
98.64720863419237
 20
-117.0119791374137
 30
0.0
 10
98.83565535723554
 20
-117.0119791374137
 30
0.0
 10
98.83565535723554
 20
-117.0119791374137
 30
0.0
 10
98.83565535723554
 20
-117.0119791374137
 30
0.0
 10
99.2101372364822
 20
-117.0119791374137
 30
0.0
 10
99.2101372364822
 20
-117.0119791374137
 30
0.0
 10
99.26078014011536
 20
-117.0119791374137
 30
0.0
 10
99.54431149855142
 20
-116.9992322841182
 30
0.0
 10
99.57600637701573
 20
-116.9992322841182
 30
0.0
 10
99.57393931972457
 20
-117.0267930480003
 30
0.0
 10
99.57187226243343
 20
-117.0457410731691
 30
0.0
 10
99.57187226243343
 20
-117.0753688943423
 30
0.0
 10
99.56980520514227
 20
-117.1070637728066
 30
0.0
 10
99.56980520514227
 20
-117.2424560253769
 30
0.0
 10
99.56980520514227
 20
-117.2700167892589
 30
0.0
 10
99.56980520514227
 20
-117.2700167892589
 30
0.0
 10
99.56980520514227
 20
-117.5154798425829
 30
0.0
 10
99.56980520514227
 20
-117.5154798425829
 30
0.0
 10
99.56980520514227
 20
-117.5599215743427
 30
0.0
 10
99.57393931972457
 20
-117.7566365265504
 30
0.0
 10
99.57807343430687
 20
-117.9089097469985
 30
0.0
 10
99.57807343430687
 20
-117.9089097469985
 30
0.0
 10
99.35173066092597
 20
-117.9089097469985
 30
0.0
 10
99.35173066092597
 20
-117.9089097469985
 30
0.0
 10
99.35173066092597
 20
-117.9089097469985
 30
0.0
 10
99.35379771821711
 20
-117.875147811243
 30
0.0
 10
99.35379771821711
 20
-117.875147811243
 30
0.0
 10
99.35379771821711
 20
-117.875147811243
 30
0.0
 10
98.6516872583232
 20
-117.875147811243
 30
0.0
 10
98.6516872583232
 20
-117.875147811243
 30
0.0
 10
98.6516872583232
 20
-117.875147811243
 30
0.0
 10
98.65375431561435
 20
-117.9089097469985
 30
0.0
 10
98.65375431561435
 20
-117.9089097469985
 30
0.0
 10
98.65375431561435
 20
-117.9089097469985
 30
0.0
 10
98.43567977139803
 20
-117.9089097469985
 30
0.0
 10
98.43567977139803
 20
-117.9089097469985
 30
0.0
 10
98.44015839552885
 20
-117.8539604740087
 30
0.0
 10
98.44015839552885
 20
-117.8412136207133
 30
0.0
 10
98.4463595674023
 20
-117.7270087053773
 30
0.0
 10
98.44842662469345
 20
-117.6994479414953
 30
0.0
 10
98.4504936819846
 20
-117.5662950009904
 30
0.0
 10
98.4504936819846
 20
-117.5471747210472
 30
0.0
 10
98.4504936819846
 20
-117.5471747210472
 30
0.0
 10
98.4504936819846
 20
-117.3440863421918
 30
0.0
 10
98.4504936819846
 20
-117.3440863421918
 30
0.0
 10
98.31096731483198
 20
-117.5936835100981
 30
0.0
 10
98.14181312650622
 20
-117.7249416480861
 30
0.0
 10
98.03604869510905
 20
-117.7903984623059
 30
0.0
 10
98.03604869510905
 20
-117.7903984623059
 30
0.0
 10
97.86241588265246
 20
-117.6508720951533
 30
0.0
 10
97.86241588265246
 20
-117.6508720951533
 30
0.0
 10
97.95129934617191
 20
-117.6000569367458
 30
0.0
 10
98.09530433745535
 20
-117.5132405305175
 30
0.0
 10
98.23276364731682
 20
-117.3187648903752
 30
0.0
 10
98.32371416812741
 20
-117.1918131217437
 30
0.0
 10
98.38917098234715
 20
-117.0479803852345
 30
0.0
 10
98.42327742765113
 20
-116.8955349100122
 30
0.0
 10
98.19452308743054
 20
-116.8977742220776
 30
0.0
 10
98.0146891031005
 20
-116.9041476487254
 30
0.0
 10
97.9196044677076
 20
-116.9062147060165
 30
0.0
 10
97.9196044677076
 20
-116.9062147060165
 30
0.0
 10
97.9196044677076
 20
-116.7284477789776
 30
0.0
 10
97.9196044677076
 20
-116.7284477789776
 30
0.0
 10
98.11631941991537
 20
-116.7348212056253
 30
0.0
 10
98.39985077835144
 20
-116.7391275749819
 30
0.0
 10
98.55005694150833
 20
-116.7391275749819
 30
0.0
 10
98.55005694150833
 20
-116.7391275749819
 30
0.0
 10
98.76365286159381
 20
-116.7391275749819
 30
0.0
 10
98.76365286159381
 20
-116.7391275749819
 30
0.0
 10
98.76365286159381
 20
-116.7391275749819
 30
0.0
 10
98.76365286159381
 20
-116.6311238315193
 30
0.0
 10
98.76365286159381
 20
-116.6311238315193
 30
0.0
 10
98.76365286159381
 20
-116.6311238315193
 30
0.0
 10
98.61758081301922
 20
-116.6311238315193
 30
0.0
 10
98.61758081301922
 20
-116.6311238315193
 30
0.0
 10
98.44842662469345
 20
-116.6311238315193
 30
0.0
 10
98.27927243636769
 20
-116.6354302008759
 30
0.0
 10
98.11218530533307
 20
-116.6418036275236
 30
0.0
 10
98.11218530533307
 20
-116.6418036275236
 30
0.0
 10
98.11218530533307
 20
-116.4704101271324
 30
0.0
 10
98.11218530533307
 20
-116.4704101271324
 30
0.0
 10
98.26652558307227
 20
-116.4809176683624
 30
0.0
 10
98.45256073927575
 20
-116.4809176683624
 30
0.0
 10
98.61758081301922
 20
-116.4809176683624
 30
0.0
 10
98.61758081301922
 20
-116.4809176683624
 30
0.0
 10
98.76365286159381
 20
-116.4809176683624
 30
0.0
 10
98.76365286159381
 20
-116.4809176683624
 30
0.0
 10
98.76365286159381
 20
-116.4809176683624
 30
0.0
 10
98.76365286159381
 20
-116.3625786384441
 30
0.0
 10
98.76365286159381
 20
-116.3625786384441
 30
0.0
 10
98.76365286159381
 20
-116.3625786384441
 30
0.0
 10
98.6323947236058
 20
-116.3625786384441
 30
0.0
 10
98.6323947236058
 20
-116.3625786384441
 30
0.0
 10
98.58588593455492
 20
-116.3625786384441
 30
0.0
 10
98.38296981047371
 20
-116.3710191223829
 30
0.0
 10
98.34059513600513
 20
-116.3710191223829
 30
0.0
 10
98.13767901192392
 20
-116.3751532369652
 30
0.0
 10
98.06119789215137
 20
-116.3772202942564
 30
0.0
 10
97.9829942246362
 20
-116.3794596063218
 30
0.0
 10
97.9829942246362
 20
-116.3794596063218
 30
0.0
 10
97.9829942246362
 20
-116.1953192526352
 30
0.0
 10
97.9829942246362
 20
-116.1953192526352
 30
0.0
 10
98.09737139474649
 20
-116.2037597365741
 30
0.0
 10
98.14181312650622
 20
-116.2037597365741
 30
0.0
 10
98.52456323491748
 20
-116.2123724752872
 30
0.0
 10
98.46117347798888
 20
-116.11711558512
 30
0.0
 10
98.43361271410689
 20
-116.089554821238
 30
0.0
 10
98.39778372106028
 20
-116.0535535734172
 30
0.0
 10
98.39778372106028
 20
-116.0535535734172
 30
0.0
 10
98.5731390812595
 20
-115.9710435365454
 30
0.0
 10
98.5731390812595
 20
-115.9710435365454
 30
0.0
 10
98.61344669843692
 20
-116.0070447843663
 30
0.0
 10
98.65788843019665
 20
-116.0494194588349
 30
0.0
 10
98.73195798312952
 20
-116.1593180048143
 30
0.0
 10
98.73195798312952
 20
-116.1593180048143
 30
0.0
 10
98.61758081301922
 20
-116.2144395325783
 30
0.0
 10
98.61758081301922
 20
-116.2144395325783
 30
0.0
 10
98.61758081301922
 20
-116.2144395325783
 30
0.0
 10
98.6282606090235
 20
-116.2144395325783
 30
0.0
 10
98.6282606090235
 20
-116.2144395325783
 30
0.0
 10
98.6282606090235
 20
-116.2144395325783
 30
0.0
 10
99.1508815941359
 20
-116.2144395325783
 30
0.0
 10
99.1508815941359
 20
-116.2144395325783
 30
0.0
 10
99.1508815941359
 20
-116.2144395325783
 30
0.0
 10
99.055796958743
 20
-116.1699978008186
 30
0.0
 10
99.055796958743
 20
-116.1699978008186
 30
0.0
 10
99.08301321307647
 20
-116.1319294957066
 30
0.0
 10
99.14020179813163
 20
-116.051486516126
 30
0.0
 10
99.1550157087182
 20
-115.9774169631931
 30
0.0
 10
99.1550157087182
 20
-115.9774169631931
 30
0.0
 10
99.36861162880369
 20
-116.040978974896
 30
0.0
 10
99.36861162880369
 20
-116.040978974896
 30
0.0
 10
99.3772243675168
 20
-116.0430460321872
 30
0.0
 10
99.39823944997683
 20
-116.0535535734172
 30
0.0
 10
99.39823944997683
 20
-116.0747409106515
 30
0.0
 10
99.39823944997683
 20
-116.1128092157635
 30
0.0
 10
99.33278263575708
 20
-116.1128092157635
 30
0.0
 10
99.31383461058822
 20
-116.1128092157635
 30
0.0
 10
99.30315481458393
 20
-116.1319294957066
 30
0.0
 10
99.27972816528424
 20
-116.1720648581098
 30
0.0
 10
99.25010034411109
 20
-116.2123724752872
 30
0.0
 10
99.6500759299486
 20
-116.2059990486395
 30
0.0
 10
99.67970375112175
 20
-116.2037597365741
 30
0.0
 10
99.75584036134576
 20
-116.1975585647006
 30
0.0
 10
99.75584036134576
 20
-116.1975585647006
 30
0.0
 10
99.75584036134576
 20
-116.3794596063218
 30
0.0
 10
99.75584036134576
 20
-116.3794596063218
 30
0.0
 10
99.7368923361769
 20
-116.3794596063218
 30
0.0
 10
99.71139862958604
 20
-116.3772202942564
 30
0.0
 10
99.4916015376271
 20
-116.3687798103175
 30
0.0
 10
99.4406141244454
 20
-116.3667127530264
 30
0.0
 10
99.22081703248647
 20
-116.3625786384441
 30
0.0
 10
99.17637530072675
 20
-116.3625786384441
 30
0.0
 10
99.17637530072675
 20
-116.3625786384441
 30
0.0
 10
98.96036781380158
 20
-116.3625786384441
 30
0.0
 10
98.96036781380158
 20
-116.3625786384441
 30
0.0
 10
98.96036781380158
 20
-116.3625786384441
 30
0.0
 10
98.96036781380158
 20
-116.4809176683624
 30
0.0
 10
98.96036781380158
 20
-116.4809176683624
 30
0.0
 10
98.96036781380158
 20
-116.4809176683624
 30
0.0
 10
99.13400062625817
 20
-116.4809176683624
 30
0.0
 10
99.13400062625817
 20
-116.4809176683624
 30
0.0
 10
99.29695364271049
 20
-116.4809176683624
 30
0.0
 10
99.48712291349628
 20
-116.4809176683624
 30
0.0
 10
99.64387475807514
 20
-116.4704101271324
 30
0.0
 10
99.64387475807514
 20
-116.4704101271324
 30
0.0
 10
99.64387475807514
 20
-116.6418036275236
 30
0.0
 10
99.64387475807514
 20
-116.6418036275236
 30
0.0
 10
99.43441295257196
 20
-116.6333631435847
 30
0.0
 10
99.23769800036419
 20
-116.6311238315193
 30
0.0
 10
99.13400062625817
 20
-116.6311238315193
 30
0.0
 10
99.13400062625817
 20
-116.6311238315193
 30
0.0
 10
98.96036781380158
 20
-116.6311238315193
 30
0.0
 10
98.96036781380158
 20
-116.6311238315193
 30
0.0
 10
98.96036781380158
 20
-116.6311238315193
 30
0.0
 10
98.96036781380158
 20
-116.7391275749819
 30
0.0
 10
98.96036781380158
 20
-116.7391275749819
 30
0.0
 10
98.96036781380158
 20
-116.7391275749819
 30
0.0
 10
99.19118921131331
 20
-116.7391275749819
 30
0.0
 10
99.19118921131331
 20
-116.7391275749819
 30
0.0
 10
99.32416989704396
 20
-116.7391275749819
 30
0.0
 10
99.61217987961085
 20
-116.7348212056253
 30
0.0
 10
99.82129717556552
 20
-116.7284477789776
 30
0.0
 10
99.82129717556552
 20
-116.7284477789776
 30
0.0
 10
99.82129717556552
 20
-116.9062147060165
 30
0.0
 10
99.82129717556552
 20
-116.9062147060165
 30
0.0
 10
99.62906084748857
 20
-116.8998412793688
 30
0.0
 10
99.31590166787936
 20
-116.8955349100122
 30
0.0
 10
99.19118921131331
 20
-116.8955349100122
 30
0.0
  0
POLYLINE
  5
87
330
7E
100
AcDbEntity
  8
_U+30EC_U+30A4_U+30E4_U+30FC 1
370
     0
100
AcDb2dPolyline
 66
     1
 10
0.0
 20
0.0
 30
0.0
  0
VERTEX
  5
88
330
87
100
AcDbEntity
  8
_U+30EC_U+30A4_U+30E4_U+30FC 1
370
     0
100
AcDbVertex
100
AcDb2dVertex
 10
99.35620928505679
 20
-117.1515055045663
 30
0.0
  0
VERTEX
  5
89
330
87
100
AcDbEntity
  8
_U+30EC_U+30A4_U+30E4_U+30FC 1
370
     0
100
AcDbVertex
100
AcDb2dVertex
 10
98.64962020103205
 20
-117.1515055045663
 30
0.0
  0
VERTEX
  5
8A
330
87
100
AcDbEntity
  8
_U+30EC_U+30A4_U+30E4_U+30FC 1
370
     0
100
AcDbVertex
100
AcDb2dVertex
 10
98.64962020103205
 20
-117.2595092480289
 30
0.0
  0
VERTEX
  5
8B
330
87
100
AcDbEntity
  8
_U+30EC_U+30A4_U+30E4_U+30FC 1
370
     0
100
AcDbVertex
100
AcDb2dVertex
 10
99.35620928505679
 20
-117.2595092480289
 30
0.0
  0
VERTEX
  5
8C
330
87
100
AcDbEntity
  8
_U+30EC_U+30A4_U+30E4_U+30FC 1
370
     0
100
AcDbVertex
100
AcDb2dVertex
 10
99.35620928505679
 20
-117.1515055045663
 30
0.0
  0
SEQEND
  5
8D
330
87
100
AcDbEntity
  8
_U+30EC_U+30A4_U+30E4_U+30FC 1
370
     0
  0
POLYLINE
  5
8E
330
7E
100
AcDbEntity
  8
_U+30EC_U+30A4_U+30E4_U+30FC 1
370
     0
100
AcDb2dPolyline
 66
     1
 10
0.0
 20
0.0
 30
0.0
  0
VERTEX
  5
8F
330
8E
100
AcDbEntity
  8
_U+30EC_U+30A4_U+30E4_U+30FC 1
370
     0
100
AcDbVertex
100
AcDb2dVertex
 10
99.35620928505679
 20
-117.3842217045949
 30
0.0
  0
VERTEX
  5
90
330
8E
100
AcDbEntity
  8
_U+30EC_U+30A4_U+30E4_U+30FC 1
370
     0
100
AcDbVertex
100
AcDb2dVertex
 10
98.64962020103205
 20
-117.3842217045949
 30
0.0
  0
VERTEX
  5
91
330
8E
100
AcDbEntity
  8
_U+30EC_U+30A4_U+30E4_U+30FC 1
370
     0
100
AcDbVertex
100
AcDb2dVertex
 10
98.64962020103205
 20
-117.4985988747052
 30
0.0
  0
VERTEX
  5
92
330
8E
100
AcDbEntity
  8
_U+30EC_U+30A4_U+30E4_U+30FC 1
370
     0
100
AcDbVertex
100
AcDb2dVertex
 10
99.35620928505679
 20
-117.4985988747052
 30
0.0
  0
VERTEX
  5
93
330
8E
100
AcDbEntity
  8
_U+30EC_U+30A4_U+30E4_U+30FC 1
370
     0
100
AcDbVertex
100
AcDb2dVertex
 10
99.35620928505679
 20
-117.3842217045949
 30
0.0
  0
SEQEND
  5
94
330
8E
100
AcDbEntity
  8
_U+30EC_U+30A4_U+30E4_U+30FC 1
370
     0
  0
POLYLINE
  5
95
330
7E
100
AcDbEntity
  8
_U+30EC_U+30A4_U+30E4_U+30FC 1
370
     0
100
AcDb2dPolyline
 66
     1
 10
0.0
 20
0.0
 30
0.0
  0
VERTEX
  5
96
330
95
100
AcDbEntity
  8
_U+30EC_U+30A4_U+30E4_U+30FC 1
370
     0
100
AcDbVertex
100
AcDb2dVertex
 10
99.35620928505679
 20
-117.6276177006278
 30
0.0
  0
VERTEX
  5
97
330
95
100
AcDbEntity
  8
_U+30EC_U+30A4_U+30E4_U+30FC 1
370
     0
100
AcDbVertex
100
AcDb2dVertex
 10
98.64962020103205
 20
-117.6276177006278
 30
0.0
  0
VERTEX
  5
98
330
95
100
AcDbEntity
  8
_U+30EC_U+30A4_U+30E4_U+30FC 1
370
     0
100
AcDbVertex
100
AcDb2dVertex
 10
98.64962020103205
 20
-117.7418226159639
 30
0.0
  0
VERTEX
  5
99
330
95
100
AcDbEntity
  8
_U+30EC_U+30A4_U+30E4_U+30FC 1
370
     0
100
AcDbVertex
100
AcDb2dVertex
 10
99.35620928505679
 20
-117.7418226159639
 30
0.0
  0
VERTEX
  5
9A
330
95
100
AcDbEntity
  8
_U+30EC_U+30A4_U+30E4_U+30FC 1
370
     0
100
AcDbVertex
100
AcDb2dVertex
 10
99.35620928505679
 20
-117.6276177006278
 30
0.0
  0
SEQEND
  5
9B
330
95
100
AcDbEntity
  8
_U+30EC_U+30A4_U+30E4_U+30FC 1
370
     0
  0
HATCH
  5
9C
330
7E
100
AcDbEntity
  8
_U+30EC_U+30A4_U+30E4_U+30FC 1
 62
   179
420
  2234388
100
AcDbHatch
 10
0.0
 20
0.0
 30
0.0
210
0.0
220
0.0
230
1.0
  2
SOLID
 70
     1
 71
     0
 91
        4
 92
        1
 93
        1
 72
     4
 94
        3
 73
     0
 74
     1
 95
      203
 96
      199
 40
0.0
 40
0.0
 40
0.0
 40
0.0
 40
1.0
 40
1.0
 40
1.0
 40
2.0
 40
2.0
 40
2.0
 40
3.0
 40
3.0
 40
3.0
 40
4.0
 40
4.0
 40
4.0
 40
5.0
 40
5.0
 40
5.0
 40
6.0
 40
6.0
 40
6.0
 40
7.0
 40
7.0
 40
7.0
 40
8.0
 40
8.0
 40
8.0
 40
9.0
 40
9.0
 40
9.0
 40
10.0
 40
10.0
 40
10.0
 40
11.0
 40
11.0
 40
11.0
 40
12.0
 40
12.0
 40
12.0
 40
13.0
 40
13.0
 40
13.0
 40
14.0
 40
14.0
 40
14.0
 40
15.0
 40
15.0
 40
15.0
 40
16.0
 40
16.0
 40
16.0
 40
17.0
 40
17.0
 40
17.0
 40
18.0
 40
18.0
 40
18.0
 40
19.0
 40
19.0
 40
19.0
 40
20.0
 40
20.0
 40
20.0
 40
21.0
 40
21.0
 40
21.0
 40
22.0
 40
22.0
 40
22.0
 40
23.0
 40
23.0
 40
23.0
 40
24.0
 40
24.0
 40
24.0
 40
25.0
 40
25.0
 40
25.0
 40
26.0
 40
26.0
 40
26.0
 40
27.0
 40
27.0
 40
27.0
 40
28.0
 40
28.0
 40
28.0
 40
29.0
 40
29.0
 40
29.0
 40
30.0
 40
30.0
 40
30.0
 40
31.0
 40
31.0
 40
31.0
 40
32.0
 40
32.0
 40
32.0
 40
33.0
 40
33.0
 40
33.0
 40
34.0
 40
34.0
 40
34.0
 40
35.0
 40
35.0
 40
35.0
 40
36.0
 40
36.0
 40
36.0
 40
37.0
 40
37.0
 40
37.0
 40
38.0
 40
38.0
 40
38.0
 40
39.0
 40
39.0
 40
39.0
 40
40.0
 40
40.0
 40
40.0
 40
41.0
 40
41.0
 40
41.0
 40
42.0
 40
42.0
 40
42.0
 40
43.0
 40
43.0
 40
43.0
 40
44.0
 40
44.0
 40
44.0
 40
45.0
 40
45.0
 40
45.0
 40
46.0
 40
46.0
 40
46.0
 40
47.0
 40
47.0
 40
47.0
 40
48.0
 40
48.0
 40
48.0
 40
49.0
 40
49.0
 40
49.0
 40
50.0
 40
50.0
 40
50.0
 40
51.0
 40
51.0
 40
51.0
 40
52.0
 40
52.0
 40
52.0
 40
53.0
 40
53.0
 40
53.0
 40
54.0
 40
54.0
 40
54.0
 40
55.0
 40
55.0
 40
55.0
 40
56.0
 40
56.0
 40
56.0
 40
57.0
 40
57.0
 40
57.0
 40
58.0
 40
58.0
 40
58.0
 40
59.0
 40
59.0
 40
59.0
 40
60.0
 40
60.0
 40
60.0
 40
61.0
 40
61.0
 40
61.0
 40
62.0
 40
62.0
 40
62.0
 40
63.0
 40
63.0
 40
63.0
 40
64.0
 40
64.0
 40
64.0
 40
65.0
 40
65.0
 40
65.0
 40
66.0
 40
66.0
 40
66.0
 40
66.0
 10
99.19118921131331
 20
-116.8955349100122
 10
99.19118921131331
 20
-116.8955349100122
 10
98.6323947236058
 20
-116.8955349100122
 10
98.6323947236058
 20
-116.8955349100122
 10
98.62205943715004
 20
-116.9399766417719
 10
98.61344669843692
 20
-116.9716715202363
 10
98.60069984514149
 20
-117.0099120801225
 10
98.62619355173234
 20
-117.0099120801225
 10
98.64100746231892
 20
-117.0119791374137
 10
98.64720863419237
 20
-117.0119791374137
 10
98.64720863419237
 20
-117.0119791374137
 10
98.83565535723554
 20
-117.0119791374137
 10
98.83565535723554
 20
-117.0119791374137
 10
98.83565535723554
 20
-117.0119791374137
 10
99.2101372364822
 20
-117.0119791374137
 10
99.2101372364822
 20
-117.0119791374137
 10
99.26078014011536
 20
-117.0119791374137
 10
99.54431149855142
 20
-116.9992322841182
 10
99.57600637701573
 20
-116.9992322841182
 10
99.57393931972457
 20
-117.0267930480003
 10
99.57187226243343
 20
-117.0457410731691
 10
99.57187226243343
 20
-117.0753688943423
 10
99.56980520514227
 20
-117.1070637728066
 10
99.56980520514227
 20
-117.2424560253769
 10
99.56980520514227
 20
-117.2700167892589
 10
99.56980520514227
 20
-117.2700167892589
 10
99.56980520514227
 20
-117.5154798425829
 10
99.56980520514227
 20
-117.5154798425829
 10
99.56980520514227
 20
-117.5599215743427
 10
99.57393931972457
 20
-117.7566365265504
 10
99.57807343430687
 20
-117.9089097469985
 10
99.57807343430687
 20
-117.9089097469985
 10
99.35173066092597
 20
-117.9089097469985
 10
99.35173066092597
 20
-117.9089097469985
 10
99.35173066092597
 20
-117.9089097469985
 10
99.35379771821711
 20
-117.875147811243
 10
99.35379771821711
 20
-117.875147811243
 10
99.35379771821711
 20
-117.875147811243
 10
98.6516872583232
 20
-117.875147811243
 10
98.6516872583232
 20
-117.875147811243
 10
98.6516872583232
 20
-117.875147811243
 10
98.65375431561435
 20
-117.9089097469985
 10
98.65375431561435
 20
-117.9089097469985
 10
98.65375431561435
 20
-117.9089097469985
 10
98.43567977139803
 20
-117.9089097469985
 10
98.43567977139803
 20
-117.9089097469985
 10
98.44015839552885
 20
-117.8539604740087
 10
98.44015839552885
 20
-117.8412136207133
 10
98.4463595674023
 20
-117.7270087053773
 10
98.44842662469345
 20
-117.6994479414953
 10
98.4504936819846
 20
-117.5662950009904
 10
98.4504936819846
 20
-117.5471747210472
 10
98.4504936819846
 20
-117.5471747210472
 10
98.4504936819846
 20
-117.3440863421918
 10
98.4504936819846
 20
-117.3440863421918
 10
98.31096731483198
 20
-117.5936835100981
 10
98.14181312650622
 20
-117.7249416480861
 10
98.03604869510905
 20
-117.7903984623059
 10
98.03604869510905
 20
-117.7903984623059
 10
97.86241588265246
 20
-117.6508720951533
 10
97.86241588265246
 20
-117.6508720951533
 10
97.95129934617191
 20
-117.6000569367458
 10
98.09530433745535
 20
-117.5132405305175
 10
98.23276364731682
 20
-117.3187648903752
 10
98.32371416812741
 20
-117.1918131217437
 10
98.38917098234715
 20
-117.0479803852345
 10
98.42327742765113
 20
-116.8955349100122
 10
98.19452308743054
 20
-116.8977742220776
 10
98.0146891031005
 20
-116.9041476487254
 10
97.9196044677076
 20
-116.9062147060165
 10
97.9196044677076
 20
-116.9062147060165
 10
97.9196044677076
 20
-116.7284477789776
 10
97.9196044677076
 20
-116.7284477789776
 10
98.11631941991537
 20
-116.7348212056253
 10
98.39985077835144
 20
-116.7391275749819
 10
98.55005694150833
 20
-116.7391275749819
 10
98.55005694150833
 20
-116.7391275749819
 10
98.76365286159381
 20
-116.7391275749819
 10
98.76365286159381
 20
-116.7391275749819
 10
98.76365286159381
 20
-116.7391275749819
 10
98.76365286159381
 20
-116.6311238315193
 10
98.76365286159381
 20
-116.6311238315193
 10
98.76365286159381
 20
-116.6311238315193
 10
98.61758081301922
 20
-116.6311238315193
 10
98.61758081301922
 20
-116.6311238315193
 10
98.44842662469345
 20
-116.6311238315193
 10
98.27927243636769
 20
-116.6354302008759
 10
98.11218530533307
 20
-116.6418036275236
 10
98.11218530533307
 20
-116.6418036275236
 10
98.11218530533307
 20
-116.4704101271324
 10
98.11218530533307
 20
-116.4704101271324
 10
98.26652558307227
 20
-116.4809176683624
 10
98.45256073927575
 20
-116.4809176683624
 10
98.61758081301922
 20
-116.4809176683624
 10
98.61758081301922
 20
-116.4809176683624
 10
98.76365286159381
 20
-116.4809176683624
 10
98.76365286159381
 20
-116.4809176683624
 10
98.76365286159381
 20
-116.4809176683624
 10
98.76365286159381
 20
-116.3625786384441
 10
98.76365286159381
 20
-116.3625786384441
 10
98.76365286159381
 20
-116.3625786384441
 10
98.6323947236058
 20
-116.3625786384441
 10
98.6323947236058
 20
-116.3625786384441
 10
98.58588593455492
 20
-116.3625786384441
 10
98.38296981047371
 20
-116.3710191223829
 10
98.34059513600513
 20
-116.3710191223829
 10
98.13767901192392
 20
-116.3751532369652
 10
98.06119789215137
 20
-116.3772202942564
 10
97.9829942246362
 20
-116.3794596063218
 10
97.9829942246362
 20
-116.3794596063218
 10
97.9829942246362
 20
-116.1953192526352
 10
97.9829942246362
 20
-116.1953192526352
 10
98.09737139474649
 20
-116.2037597365741
 10
98.14181312650622
 20
-116.2037597365741
 10
98.52456323491748
 20
-116.2123724752872
 10
98.46117347798888
 20
-116.11711558512
 10
98.43361271410689
 20
-116.089554821238
 10
98.39778372106028
 20
-116.0535535734172
 10
98.39778372106028
 20
-116.0535535734172
 10
98.5731390812595
 20
-115.9710435365454
 10
98.5731390812595
 20
-115.9710435365454
 10
98.61344669843692
 20
-116.0070447843663
 10
98.65788843019665
 20
-116.0494194588349
 10
98.73195798312952
 20
-116.1593180048143
 10
98.73195798312952
 20
-116.1593180048143
 10
98.61758081301922
 20
-116.2144395325783
 10
98.61758081301922
 20
-116.2144395325783
 10
98.61758081301922
 20
-116.2144395325783
 10
98.6282606090235
 20
-116.2144395325783
 10
98.6282606090235
 20
-116.2144395325783
 10
98.6282606090235
 20
-116.2144395325783
 10
99.1508815941359
 20
-116.2144395325783
 10
99.1508815941359
 20
-116.2144395325783
 10
99.1508815941359
 20
-116.2144395325783
 10
99.055796958743
 20
-116.1699978008186
 10
99.055796958743
 20
-116.1699978008186
 10
99.08301321307647
 20
-116.1319294957066
 10
99.14020179813163
 20
-116.051486516126
 10
99.1550157087182
 20
-115.9774169631931
 10
99.1550157087182
 20
-115.9774169631931
 10
99.36861162880369
 20
-116.040978974896
 10
99.36861162880369
 20
-116.040978974896
 10
99.3772243675168
 20
-116.0430460321872
 10
99.39823944997683
 20
-116.0535535734172
 10
99.39823944997683
 20
-116.0747409106515
 10
99.39823944997683
 20
-116.1128092157635
 10
99.33278263575708
 20
-116.1128092157635
 10
99.31383461058822
 20
-116.1128092157635
 10
99.30315481458393
 20
-116.1319294957066
 10
99.27972816528424
 20
-116.1720648581098
 10
99.25010034411109
 20
-116.2123724752872
 10
99.6500759299486
 20
-116.2059990486395
 10
99.67970375112175
 20
-116.2037597365741
 10
99.75584036134576
 20
-116.1975585647006
 10
99.75584036134576
 20
-116.1975585647006
 10
99.75584036134576
 20
-116.3794596063218
 10
99.75584036134576
 20
-116.3794596063218
 10
99.7368923361769
 20
-116.3794596063218
 10
99.71139862958604
 20
-116.3772202942564
 10
99.4916015376271
 20
-116.3687798103175
 10
99.4406141244454
 20
-116.3667127530264
 10
99.22081703248647
 20
-116.3625786384441
 10
99.17637530072675
 20
-116.3625786384441
 10
99.17637530072675
 20
-116.3625786384441
 10
98.96036781380158
 20
-116.3625786384441
 10
98.96036781380158
 20
-116.3625786384441
 10
98.96036781380158
 20
-116.3625786384441
 10
98.96036781380158
 20
-116.4809176683624
 10
98.96036781380158
 20
-116.4809176683624
 10
98.96036781380158
 20
-116.4809176683624
 10
99.13400062625817
 20
-116.4809176683624
 10
99.13400062625817
 20
-116.4809176683624
 10
99.29695364271049
 20
-116.4809176683624
 10
99.48712291349628
 20
-116.4809176683624
 10
99.64387475807514
 20
-116.4704101271324
 10
99.64387475807514
 20
-116.4704101271324
 10
99.64387475807514
 20
-116.6418036275236
 10
99.64387475807514
 20
-116.6418036275236
 10
99.43441295257196
 20
-116.6333631435847
 10
99.23769800036419
 20
-116.6311238315193
 10
99.13400062625817
 20
-116.6311238315193
 10
99.13400062625817
 20
-116.6311238315193
 10
98.96036781380158
 20
-116.6311238315193
 10
98.96036781380158
 20
-116.6311238315193
 10
98.96036781380158
 20
-116.6311238315193
 10
98.96036781380158
 20
-116.7391275749819
 10
98.96036781380158
 20
-116.7391275749819
 10
98.96036781380158
 20
-116.7391275749819
 10
99.19118921131331
 20
-116.7391275749819
 10
99.19118921131331
 20
-116.7391275749819
 10
99.32416989704396
 20
-116.7391275749819
 10
99.61217987961085
 20
-116.7348212056253
 10
99.82129717556552
 20
-116.7284477789776
 10
99.82129717556552
 20
-116.7284477789776
 10
99.82129717556552
 20
-116.9062147060165
 10
99.82129717556552
 20
-116.9062147060165
 10
99.62906084748857
 20
-116.8998412793688
 10
99.31590166787936
 20
-116.8955349100122
 10
99.19118921131331
 20
-116.8955349100122
 97
        0
 97
        0
 92
        1
 93
        4
 72
     1
 10
99.35620928505679
 20
-117.1515055045663
 11
98.64962020103205
 21
-117.1515055045663
 72
     1
 10
98.64962020103205
 20
-117.1515055045663
 11
98.64962020103205
 21
-117.2595092480289
 72
     1
 10
98.64962020103205
 20
-117.2595092480289
 11
99.35620928505679
 21
-117.2595092480289
 72
     1
 10
99.35620928505679
 20
-117.2595092480289
 11
99.35620928505679
 21
-117.1515055045663
 97
        0
 92
        1
 93
        4
 72
     1
 10
99.35620928505679
 20
-117.3842217045949
 11
98.64962020103205
 21
-117.3842217045949
 72
     1
 10
98.64962020103205
 20
-117.3842217045949
 11
98.64962020103205
 21
-117.4985988747052
 72
     1
 10
98.64962020103205
 20
-117.4985988747052
 11
99.35620928505679
 21
-117.4985988747052
 72
     1
 10
99.35620928505679
 20
-117.4985988747052
 11
99.35620928505679
 21
-117.3842217045949
 97
        0
 92
        1
 93
        4
 72
     1
 10
99.35620928505679
 20
-117.6276177006278
 11
98.64962020103205
 21
-117.6276177006278
 72
     1
 10
98.64962020103205
 20
-117.6276177006278
 11
98.64962020103205
 21
-117.7418226159639
 72
     1
 10
98.64962020103205
 20
-117.7418226159639
 11
99.35620928505679
 21
-117.7418226159639
 72
     1
 10
99.35620928505679
 20
-117.7418226159639
 11
99.35620928505679
 21
-117.6276177006278
 97
        0
 75
     2
 76
     1
 98
        0
  0
SPLINE
  5
9D
330
7E
100
AcDbEntity
  8
_U+30EC_U+30A4_U+30E4_U+30FC 1
370
     0
100
AcDbSpline
210
0.0
220
0.0
230
1.0
 70
    11
 71
     3
 72
    47
 73
    43
 74
     0
 42
0.0000000001
 43
0.0000000001
 12
1.0
 22
0.0
 32
0.0
 13
1.0
 23
0.0
 33
0.0
 40
0.0
 40
0.0
 40
0.0
 40
0.0
 40
1.0
 40
1.0
 40
1.0
 40
2.0
 40
2.0
 40
2.0
 40
3.0
 40
3.0
 40
3.0
 40
4.0
 40
4.0
 40
4.0
 40
5.0
 40
5.0
 40
5.0
 40
6.0
 40
6.0
 40
6.0
 40
7.0
 40
7.0
 40
7.0
 40
8.0
 40
8.0
 40
8.0
 40
9.0
 40
9.0
 40
9.0
 40
10.0
 40
10.0
 40
10.0
 40
11.0
 40
11.0
 40
11.0
 40
12.0
 40
12.0
 40
12.0
 40
13.0
 40
13.0
 40
13.0
 40
14.0
 40
14.0
 40
14.0
 40
14.0
 10
101.1679850007497
 20
-116.8722805154868
 30
0.0
 10
101.1679850007497
 20
-116.8722805154868
 30
0.0
 10
101.0663546839348
 20
-116.8722805154868
 30
0.0
 10
101.0663546839348
 20
-116.8722805154868
 30
0.0
 10
101.0663546839348
 20
-116.9590969217151
 30
0.0
 10
101.0453396014748
 20
-117.3483927115483
 30
0.0
 10
100.848624649267
 20
-117.5683620582815
 30
0.0
 10
100.6960069192704
 20
-117.7375162466073
 30
0.0
 10
100.4889566806069
 20
-117.8074516849579
 30
0.0
 10
100.4042073316698
 20
-117.8348401940656
 30
0.0
 10
100.4042073316698
 20
-117.8348401940656
 30
0.0
 10
100.2095594367532
 20
-117.667753063031
 30
0.0
 10
100.2095594367532
 20
-117.667753063031
 30
0.0
 10
100.3070556389857
 20
-117.6550062097356
 30
0.0
 10
100.482410999185
 20
-117.6317518152101
 30
0.0
 10
100.6708577222281
 20
-117.4434773469412
 30
0.0
 10
100.744927275161
 20
-117.3716471060738
 30
0.0
 10
100.848624649267
 20
-117.2319484841469
 30
0.0
 10
100.848624649267
 20
-116.8722805154868
 30
0.0
 10
100.848624649267
 20
-116.8722805154868
 30
0.0
 10
100.6178032517553
 20
-116.8722805154868
 30
0.0
 10
100.6178032517553
 20
-116.8722805154868
 30
0.0
 10
100.4317680955518
 20
-116.8722805154868
 30
0.0
 10
100.2453884297998
 20
-116.8765868848434
 30
0.0
 10
100.0593532735963
 20
-116.8914007954299
 30
0.0
 10
100.0593532735963
 20
-116.8914007954299
 30
0.0
 10
100.0593532735963
 20
-116.6714314486967
 30
0.0
 10
100.0593532735963
 20
-116.6714314486967
 30
0.0
 10
100.2477999966394
 20
-116.6862453592833
 30
0.0
 10
100.5333984123667
 20
-116.6903794738656
 30
0.0
 10
100.6178032517553
 20
-116.6903794738656
 30
0.0
 10
100.6178032517553
 20
-116.6903794738656
 30
0.0
 10
101.1679850007497
 20
-116.6903794738656
 30
0.0
 10
101.1679850007497
 20
-116.6903794738656
 30
0.0
 10
101.1869330259185
 20
-116.6903794738656
 30
0.0
 10
101.5042263201101
 20
-116.6903794738656
 30
0.0
 10
101.7326361507821
 20
-116.6714314486967
 30
0.0
 10
101.7326361507821
 20
-116.6714314486967
 30
0.0
 10
101.7326361507821
 20
-116.8914007954299
 30
0.0
 10
101.7326361507821
 20
-116.8914007954299
 30
0.0
 10
101.5445339372875
 20
-116.8765868848434
 30
0.0
 10
101.3560872142443
 20
-116.8722805154868
 30
0.0
 10
101.1679850007497
 20
-116.8722805154868
 30
0.0
  0
SPLINE
  5
9E
330
7E
100
AcDbEntity
  8
_U+30EC_U+30A4_U+30E4_U+30FC 1
370
     0
100
AcDbSpline
210
0.0
220
0.0
230
1.0
 70
    11
 71
     3
 72
    29
 73
    25
 74
     0
 42
0.0000000001
 43
0.0000000001
 12
1.0
 22
0.0
 32
0.0
 13
1.0
 23
0.0
 33
0.0
 40
0.0
 40
0.0
 40
0.0
 40
0.0
 40
1.0
 40
1.0
 40
1.0
 40
2.0
 40
2.0
 40
2.0
 40
3.0
 40
3.0
 40
3.0
 40
4.0
 40
4.0
 40
4.0
 40
5.0
 40
5.0
 40
5.0
 40
6.0
 40
6.0
 40
6.0
 40
7.0
 40
7.0
 40
7.0
 40
8.0
 40
8.0
 40
8.0
 40
8.0
 10
101.0663546839348
 20
-116.3434583585009
 30
0.0
 10
101.0663546839348
 20
-116.3434583585009
 30
0.0
 10
100.7128878871482
 20
-116.3434583585009
 30
0.0
 10
100.7128878871482
 20
-116.3434583585009
 30
0.0
 10
100.6009222838776
 20
-116.3434583585009
 30
0.0
 10
100.4613959167249
 20
-116.3498317851487
 30
0.0
 10
100.3535644280366
 20
-116.3625786384441
 30
0.0
 10
100.3535644280366
 20
-116.3625786384441
 30
0.0
 10
100.3535644280366
 20
-116.12762312635
 30
0.0
 10
100.3535644280366
 20
-116.12762312635
 30
0.0
 10
100.4717312031807
 20
-116.1424370369366
 30
0.0
 10
100.6560438116416
 20
-116.1467434062932
 30
0.0
 10
100.7128878871482
 20
-116.1467434062932
 30
0.0
 10
100.7128878871482
 20
-116.1467434062932
 30
0.0
 10
101.0663546839348
 20
-116.1467434062932
 30
0.0
 10
101.0663546839348
 20
-116.1467434062932
 30
0.0
 10
101.0853027091037
 20
-116.1467434062932
 30
0.0
 10
101.2885633427334
 20
-116.1467434062932
 30
0.0
 10
101.4301567671772
 20
-116.12762312635
 30
0.0
 10
101.4301567671772
 20
-116.12762312635
 30
0.0
 10
101.4301567671772
 20
-116.3625786384441
 30
0.0
 10
101.4301567671772
 20
-116.3625786384441
 30
0.0
 10
101.2737494321468
 20
-116.3434583585009
 30
0.0
 10
101.0832356518125
 20
-116.3434583585009
 30
0.0
 10
101.0663546839348
 20
-116.3434583585009
 30
0.0
  0
HATCH
  5
9F
330
7E
100
AcDbEntity
  8
_U+30EC_U+30A4_U+30E4_U+30FC 1
 62
   179
420
  2234388
100
AcDbHatch
 10
0.0
 20
0.0
 30
0.0
210
0.0
220
0.0
230
1.0
  2
SOLID
 70
     1
 71
     0
 91
        2
 92
        1
 93
        1
 72
     4
 94
        3
 73
     0
 74
     1
 95
       47
 96
       43
 40
0.0
 40
0.0
 40
0.0
 40
0.0
 40
1.0
 40
1.0
 40
1.0
 40
2.0
 40
2.0
 40
2.0
 40
3.0
 40
3.0
 40
3.0
 40
4.0
 40
4.0
 40
4.0
 40
5.0
 40
5.0
 40
5.0
 40
6.0
 40
6.0
 40
6.0
 40
7.0
 40
7.0
 40
7.0
 40
8.0
 40
8.0
 40
8.0
 40
9.0
 40
9.0
 40
9.0
 40
10.0
 40
10.0
 40
10.0
 40
11.0
 40
11.0
 40
11.0
 40
12.0
 40
12.0
 40
12.0
 40
13.0
 40
13.0
 40
13.0
 40
14.0
 40
14.0
 40
14.0
 40
14.0
 10
101.1679850007497
 20
-116.8722805154868
 10
101.1679850007497
 20
-116.8722805154868
 10
101.0663546839348
 20
-116.8722805154868
 10
101.0663546839348
 20
-116.8722805154868
 10
101.0663546839348
 20
-116.9590969217151
 10
101.0453396014748
 20
-117.3483927115483
 10
100.848624649267
 20
-117.5683620582815
 10
100.6960069192704
 20
-117.7375162466073
 10
100.4889566806069
 20
-117.8074516849579
 10
100.4042073316698
 20
-117.8348401940656
 10
100.4042073316698
 20
-117.8348401940656
 10
100.2095594367532
 20
-117.667753063031
 10
100.2095594367532
 20
-117.667753063031
 10
100.3070556389857
 20
-117.6550062097356
 10
100.482410999185
 20
-117.6317518152101
 10
100.6708577222281
 20
-117.4434773469412
 10
100.744927275161
 20
-117.3716471060738
 10
100.848624649267
 20
-117.2319484841469
 10
100.848624649267
 20
-116.8722805154868
 10
100.848624649267
 20
-116.8722805154868
 10
100.6178032517553
 20
-116.8722805154868
 10
100.6178032517553
 20
-116.8722805154868
 10
100.4317680955518
 20
-116.8722805154868
 10
100.2453884297998
 20
-116.8765868848434
 10
100.0593532735963
 20
-116.8914007954299
 10
100.0593532735963
 20
-116.8914007954299
 10
100.0593532735963
 20
-116.6714314486967
 10
100.0593532735963
 20
-116.6714314486967
 10
100.2477999966394
 20
-116.6862453592833
 10
100.5333984123667
 20
-116.6903794738656
 10
100.6178032517553
 20
-116.6903794738656
 10
100.6178032517553
 20
-116.6903794738656
 10
101.1679850007497
 20
-116.6903794738656
 10
101.1679850007497
 20
-116.6903794738656
 10
101.1869330259185
 20
-116.6903794738656
 10
101.5042263201101
 20
-116.6903794738656
 10
101.7326361507821
 20
-116.6714314486967
 10
101.7326361507821
 20
-116.6714314486967
 10
101.7326361507821
 20
-116.8914007954299
 10
101.7326361507821
 20
-116.8914007954299
 10
101.5445339372875
 20
-116.8765868848434
 10
101.3560872142443
 20
-116.8722805154868
 10
101.1679850007497
 20
-116.8722805154868
 97
        0
 97
        0
 92
        1
 93
        1
 72
     4
 94
        3
 73
     0
 74
     1
 95
       29
 96
       25
 40
0.0
 40
0.0
 40
0.0
 40
0.0
 40
1.0
 40
1.0
 40
1.0
 40
2.0
 40
2.0
 40
2.0
 40
3.0
 40
3.0
 40
3.0
 40
4.0
 40
4.0
 40
4.0
 40
5.0
 40
5.0
 40
5.0
 40
6.0
 40
6.0
 40
6.0
 40
7.0
 40
7.0
 40
7.0
 40
8.0
 40
8.0
 40
8.0
 40
8.0
 10
101.0663546839348
 20
-116.3434583585009
 10
101.0663546839348
 20
-116.3434583585009
 10
100.7128878871482
 20
-116.3434583585009
 10
100.7128878871482
 20
-116.3434583585009
 10
100.6009222838776
 20
-116.3434583585009
 10
100.4613959167249
 20
-116.3498317851487
 10
100.3535644280366
 20
-116.3625786384441
 10
100.3535644280366
 20
-116.3625786384441
 10
100.3535644280366
 20
-116.12762312635
 10
100.3535644280366
 20
-116.12762312635
 10
100.4717312031807
 20
-116.1424370369366
 10
100.6560438116416
 20
-116.1467434062932
 10
100.7128878871482
 20
-116.1467434062932
 10
100.7128878871482
 20
-116.1467434062932
 10
101.0663546839348
 20
-116.1467434062932
 10
101.0663546839348
 20
-116.1467434062932
 10
101.0853027091037
 20
-116.1467434062932
 10
101.2885633427334
 20
-116.1467434062932
 10
101.4301567671772
 20
-116.12762312635
 10
101.4301567671772
 20
-116.12762312635
 10
101.4301567671772
 20
-116.3625786384441
 10
101.4301567671772
 20
-116.3625786384441
 10
101.2737494321468
 20
-116.3434583585009
 10
101.0832356518125
 20
-116.3434583585009
 10
101.0663546839348
 20
-116.3434583585009
 97
        0
 97
        0
 75
     2
 76
     1
 98
        0
  0
SPLINE
  5
A0
330
7E
100
AcDbEntity
  8
_U+30EC_U+30A4_U+30E4_U+30FC 1
370
     0
100
AcDbSpline
210
0.0
220
0.0
230
1.0
 70
    11
 71
     3
 72
    29
 73
    25
 74
     0
 42
0.0000000001
 43
0.0000000001
 12
1.0
 22
0.0
 32
0.0
 13
1.0
 23
0.0
 33
0.0
 40
0.0
 40
0.0
 40
0.0
 40
0.0
 40
1.0
 40
1.0
 40
1.0
 40
2.0
 40
2.0
 40
2.0
 40
3.0
 40
3.0
 40
3.0
 40
4.0
 40
4.0
 40
4.0
 40
5.0
 40
5.0
 40
5.0
 40
6.0
 40
6.0
 40
6.0
 40
7.0
 40
7.0
 40
7.0
 40
8.0
 40
8.0
 40
8.0
 40
8.0
 10
103.0138671617465
 20
-117.0352335319391
 30
0.0
 10
103.0138671617465
 20
-117.0352335319391
 30
0.0
 10
102.5294867365204
 20
-117.0352335319391
 30
0.0
 10
102.5294867365204
 20
-117.0352335319391
 30
0.0
 10
102.5019259726384
 20
-117.0352335319391
 30
0.0
 10
102.1846326784469
 20
-117.0352335319391
 30
0.0
 10
101.9731038156526
 20
-117.0605549837557
 30
0.0
 10
101.9731038156526
 20
-117.0605549837557
 30
0.0
 10
101.9731038156526
 20
-116.8300780957925
 30
0.0
 10
101.9731038156526
 20
-116.8300780957925
 30
0.0
 10
102.1315782079741
 20
-116.8533324903179
 30
0.0
 10
102.3220919883084
 20
-116.8553995476091
 30
0.0
 10
102.5294867365204
 20
-116.8553995476091
 30
0.0
 10
102.5294867365204
 20
-116.8553995476091
 30
0.0
 10
103.0138671617465
 20
-116.8553995476091
 30
0.0
 10
103.0138671617465
 20
-116.8553995476091
 30
0.0
 10
103.19990231795
 20
-116.8553995476091
 30
0.0
 10
103.386281983702
 20
-116.8533324903179
 30
0.0
 10
103.5702500826144
 20
-116.8300780957925
 30
0.0
 10
103.5702500826144
 20
-116.8300780957925
 30
0.0
 10
103.5702500826144
 20
-117.0605549837557
 30
0.0
 10
103.5702500826144
 20
-117.0605549837557
 30
0.0
 10
103.386281983702
 20
-117.0373005892303
 30
0.0
 10
103.1385796183126
 20
-117.0352335319391
 30
0.0
 10
103.0138671617465
 20
-117.0352335319391
 30
0.0
  0
HATCH
  5
A1
330
7E
100
AcDbEntity
  8
_U+30EC_U+30A4_U+30E4_U+30FC 1
 62
   179
420
  2234388
100
AcDbHatch
 10
0.0
 20
0.0
 30
0.0
210
0.0
220
0.0
230
1.0
  2
SOLID
 70
     1
 71
     0
 91
        1
 92
        1
 93
        1
 72
     4
 94
        3
 73
     0
 74
     1
 95
       29
 96
       25
 40
0.0
 40
0.0
 40
0.0
 40
0.0
 40
1.0
 40
1.0
 40
1.0
 40
2.0
 40
2.0
 40
2.0
 40
3.0
 40
3.0
 40
3.0
 40
4.0
 40
4.0
 40
4.0
 40
5.0
 40
5.0
 40
5.0
 40
6.0
 40
6.0
 40
6.0
 40
7.0
 40
7.0
 40
7.0
 40
8.0
 40
8.0
 40
8.0
 40
8.0
 10
103.0138671617465
 20
-117.0352335319391
 10
103.0138671617465
 20
-117.0352335319391
 10
102.5294867365204
 20
-117.0352335319391
 10
102.5294867365204
 20
-117.0352335319391
 10
102.5019259726384
 20
-117.0352335319391
 10
102.1846326784469
 20
-117.0352335319391
 10
101.9731038156526
 20
-117.0605549837557
 10
101.9731038156526
 20
-117.0605549837557
 10
101.9731038156526
 20
-116.8300780957925
 10
101.9731038156526
 20
-116.8300780957925
 10
102.1315782079741
 20
-116.8533324903179
 10
102.3220919883084
 20
-116.8553995476091
 10
102.5294867365204
 20
-116.8553995476091
 10
102.5294867365204
 20
-116.8553995476091
 10
103.0138671617465
 20
-116.8553995476091
 10
103.0138671617465
 20
-116.8553995476091
 10
103.19990231795
 20
-116.8553995476091
 10
103.386281983702
 20
-116.8533324903179
 10
103.5702500826144
 20
-116.8300780957925
 10
103.5702500826144
 20
-116.8300780957925
 10
103.5702500826144
 20
-117.0605549837557
 10
103.5702500826144
 20
-117.0605549837557
 10
103.386281983702
 20
-117.0373005892303
 10
103.1385796183126
 20
-117.0352335319391
 10
103.0138671617465
 20
-117.0352335319391
 97
        0
 97
        0
 75
     2
 76
     1
 98
        0
  0
SPLINE
  5
A2
330
7E
100
AcDbEntity
  8
_U+30EC_U+30A4_U+30E4_U+30FC 1
370
     0
100
AcDbSpline
210
0.0
220
0.0
230
1.0
 70
    11
 71
     3
 72
    44
 73
    40
 74
     0
 42
0.0000000001
 43
0.0000000001
 12
1.0
 22
0.0
 32
0.0
 13
1.0
 23
0.0
 33
0.0
 40
0.0
 40
0.0
 40
0.0
 40
0.0
 40
1.0
 40
1.0
 40
1.0
 40
2.0
 40
2.0
 40
2.0
 40
3.0
 40
3.0
 40
3.0
 40
4.0
 40
4.0
 40
4.0
 40
5.0
 40
5.0
 40
5.0
 40
6.0
 40
6.0
 40
6.0
 40
7.0
 40
7.0
 40
7.0
 40
8.0
 40
8.0
 40
8.0
 40
9.0
 40
9.0
 40
9.0
 40
10.0
 40
10.0
 40
10.0
 40
11.0
 40
11.0
 40
11.0
 40
12.0
 40
12.0
 40
12.0
 40
13.0
 40
13.0
 40
13.0
 40
13.0
 10
105.2252739537284
 20
-116.5973618957639
 30
0.0
 10
105.1133083504578
 20
-116.9654703483628
 30
0.0
 10
105.0626654468246
 20
-117.1241169954586
 30
0.0
 10
104.8659504946169
 20
-117.3737141633649
 30
0.0
 10
104.681637886156
 20
-117.6043633061024
 30
0.0
 10
104.4449598263193
 20
-117.7903984623059
 30
0.0
 10
104.1655625824656
 20
-117.8835882951819
 30
0.0
 10
104.1655625824656
 20
-117.8835882951819
 30
0.0
 10
103.9729817448401
 20
-117.7037543108518
 30
0.0
 10
103.9729817448401
 20
-117.7037543108518
 30
0.0
 10
104.6141140146451
 20
-117.5514810904038
 30
0.0
 10
104.944154162132
 20
-116.995098169536
 30
0.0
 10
105.0075439190606
 20
-116.5549872212953
 30
0.0
 10
105.0075439190606
 20
-116.5549872212953
 30
0.0
 10
104.2416991926896
 20
-116.5549872212953
 30
0.0
 10
104.2416991926896
 20
-116.5549872212953
 30
0.0
 10
104.1486816145878
 20
-116.5549872212953
 30
0.0
 10
103.9647135156755
 20
-116.5592935906518
 30
0.0
 10
103.8079616710966
 20
-116.5782416158207
 30
0.0
 10
103.8079616710966
 20
-116.5782416158207
 30
0.0
 10
103.8079616710966
 20
-116.3582722690875
 30
0.0
 10
103.8079616710966
 20
-116.3582722690875
 30
0.0
 10
103.8947780773249
 20
-116.3794596063218
 30
0.0
 10
104.1466145572967
 20
-116.3794596063218
 30
0.0
 10
104.2458333072719
 20
-116.3794596063218
 30
0.0
 10
104.2458333072719
 20
-116.3794596063218
 30
0.0
 10
104.6775037715737
 20
-116.3794596063218
 30
0.0
 10
104.6775037715737
 20
-116.3794596063218
 30
0.0
 10
104.7198784460423
 20
-116.3794596063218
 30
0.0
 10
104.9544894485878
 20
-116.3772202942564
 30
0.0
 10
104.992730008474
 20
-116.3710191223829
 30
0.0
 10
105.0351046829426
 20
-116.3646456957352
 30
0.0
 10
105.0371717402338
 20
-116.3625786384441
 30
0.0
 10
105.0984944398712
 20
-116.3222710212667
 30
0.0
 10
105.0984944398712
 20
-116.3222710212667
 30
0.0
 10
105.2865966533659
 20
-116.4767835537801
 30
0.0
 10
105.2865966533659
 20
-116.4767835537801
 30
0.0
 10
105.2573133417412
 20
-116.5064113749533
 30
0.0
 10
105.2424994311547
 20
-116.5381062534176
 30
0.0
 10
105.2252739537284
 20
-116.5973618957639
 30
0.0
  0
SPLINE
  5
A3
330
7E
100
AcDbEntity
  8
_U+30EC_U+30A4_U+30E4_U+30FC 1
370
     0
100
AcDbSpline
210
0.0
220
0.0
230
1.0
 70
    11
 71
     3
 72
    17
 73
    13
 74
     0
 42
0.0000000001
 43
0.0000000001
 12
1.0
 22
0.0
 32
0.0
 13
1.0
 23
0.0
 33
0.0
 40
0.0
 40
0.0
 40
0.0
 40
0.0
 40
1.0
 40
1.0
 40
1.0
 40
2.0
 40
2.0
 40
2.0
 40
3.0
 40
3.0
 40
3.0
 40
4.0
 40
4.0
 40
4.0
 40
4.0
 10
105.4347357592316
 20
-116.3984076314907
 30
0.0
 10
105.3079562453744
 20
-116.3984076314907
 30
0.0
 10
105.2063259285595
 20
-116.2969495694501
 30
0.0
 10
105.2063259285595
 20
-116.1699978008186
 30
0.0
 10
105.2063259285595
 20
-116.0430460321872
 30
0.0
 10
105.3079562453744
 20
-115.9393486580811
 30
0.0
 10
105.4347357592316
 20
-115.9393486580811
 30
0.0
 10
105.5618597826373
 20
-115.9393486580811
 30
0.0
 10
105.6655571567433
 20
-116.0430460321872
 30
0.0
 10
105.6655571567433
 20
-116.1699978008186
 30
0.0
 10
105.6655571567433
 20
-116.2969495694501
 30
0.0
 10
105.5618597826373
 20
-116.3984076314907
 30
0.0
 10
105.4347357592316
 20
-116.3984076314907
 30
0.0
  0
SPLINE
  5
A4
330
7E
100
AcDbEntity
  8
_U+30EC_U+30A4_U+30E4_U+30FC 1
370
     0
100
AcDbSpline
210
0.0
220
0.0
230
1.0
 70
    11
 71
     3
 72
    17
 73
    13
 74
     0
 42
0.0000000001
 43
0.0000000001
 12
1.0
 22
0.0
 32
0.0
 13
1.0
 23
0.0
 33
0.0
 40
0.0
 40
0.0
 40
0.0
 40
0.0
 40
1.0
 40
1.0
 40
1.0
 40
2.0
 40
2.0
 40
2.0
 40
3.0
 40
3.0
 40
3.0
 40
4.0
 40
4.0
 40
4.0
 40
4.0
 10
105.4326687019404
 20
-116.0683674840037
 30
0.0
 10
105.377891683725
 20
-116.0683674840037
 30
0.0
 10
105.3334499519652
 20
-116.1128092157635
 30
0.0
 10
105.3334499519652
 20
-116.1679307435275
 30
0.0
 10
105.3334499519652
 20
-116.2249470738084
 30
0.0
 10
105.377891683725
 20
-116.2736951749246
 30
0.0
 10
105.4368028165227
 20
-116.2736951749246
 30
0.0
 10
105.496058458869
 20
-116.2736951749246
 30
0.0
 10
105.5363660760465
 20
-116.2228800165172
 30
0.0
 10
105.5363660760465
 20
-116.1699978008186
 30
0.0
 10
105.5363660760465
 20
-116.1128092157635
 30
0.0
 10
105.4898572869956
 20
-116.0683674840037
 30
0.0
 10
105.4326687019404
 20
-116.0683674840037
 30
0.0
  0
HATCH
  5
A5
330
7E
100
AcDbEntity
  8
_U+30EC_U+30A4_U+30E4_U+30FC 1
 62
   179
420
  2234388
100
AcDbHatch
 10
0.0
 20
0.0
 30
0.0
210
0.0
220
0.0
230
1.0
  2
SOLID
 70
     1
 71
     0
 91
        3
 92
        1
 93
        1
 72
     4
 94
        3
 73
     0
 74
     1
 95
       44
 96
       40
 40
0.0
 40
0.0
 40
0.0
 40
0.0
 40
1.0
 40
1.0
 40
1.0
 40
2.0
 40
2.0
 40
2.0
 40
3.0
 40
3.0
 40
3.0
 40
4.0
 40
4.0
 40
4.0
 40
5.0
 40
5.0
 40
5.0
 40
6.0
 40
6.0
 40
6.0
 40
7.0
 40
7.0
 40
7.0
 40
8.0
 40
8.0
 40
8.0
 40
9.0
 40
9.0
 40
9.0
 40
10.0
 40
10.0
 40
10.0
 40
11.0
 40
11.0
 40
11.0
 40
12.0
 40
12.0
 40
12.0
 40
13.0
 40
13.0
 40
13.0
 40
13.0
 10
105.2252739537284
 20
-116.5973618957639
 10
105.1133083504578
 20
-116.9654703483628
 10
105.0626654468246
 20
-117.1241169954586
 10
104.8659504946169
 20
-117.3737141633649
 10
104.681637886156
 20
-117.6043633061024
 10
104.4449598263193
 20
-117.7903984623059
 10
104.1655625824656
 20
-117.8835882951819
 10
104.1655625824656
 20
-117.8835882951819
 10
103.9729817448401
 20
-117.7037543108518
 10
103.9729817448401
 20
-117.7037543108518
 10
104.6141140146451
 20
-117.5514810904038
 10
104.944154162132
 20
-116.995098169536
 10
105.0075439190606
 20
-116.5549872212953
 10
105.0075439190606
 20
-116.5549872212953
 10
104.2416991926896
 20
-116.5549872212953
 10
104.2416991926896
 20
-116.5549872212953
 10
104.1486816145878
 20
-116.5549872212953
 10
103.9647135156755
 20
-116.5592935906518
 10
103.8079616710966
 20
-116.5782416158207
 10
103.8079616710966
 20
-116.5782416158207
 10
103.8079616710966
 20
-116.3582722690875
 10
103.8079616710966
 20
-116.3582722690875
 10
103.8947780773249
 20
-116.3794596063218
 10
104.1466145572967
 20
-116.3794596063218
 10
104.2458333072719
 20
-116.3794596063218
 10
104.2458333072719
 20
-116.3794596063218
 10
104.6775037715737
 20
-116.3794596063218
 10
104.6775037715737
 20
-116.3794596063218
 10
104.7198784460423
 20
-116.3794596063218
 10
104.9544894485878
 20
-116.3772202942564
 10
104.992730008474
 20
-116.3710191223829
 10
105.0351046829426
 20
-116.3646456957352
 10
105.0371717402338
 20
-116.3625786384441
 10
105.0984944398712
 20
-116.3222710212667
 10
105.0984944398712
 20
-116.3222710212667
 10
105.2865966533659
 20
-116.4767835537801
 10
105.2865966533659
 20
-116.4767835537801
 10
105.2573133417412
 20
-116.5064113749533
 10
105.2424994311547
 20
-116.5381062534176
 10
105.2252739537284
 20
-116.5973618957639
 97
        0
 97
        0
 92
        1
 93
        1
 72
     4
 94
        3
 73
     0
 74
     1
 95
       17
 96
       13
 40
0.0
 40
0.0
 40
0.0
 40
0.0
 40
1.0
 40
1.0
 40
1.0
 40
2.0
 40
2.0
 40
2.0
 40
3.0
 40
3.0
 40
3.0
 40
4.0
 40
4.0
 40
4.0
 40
4.0
 10
105.4347357592316
 20
-116.3984076314907
 10
105.3079562453744
 20
-116.3984076314907
 10
105.2063259285595
 20
-116.2969495694501
 10
105.2063259285595
 20
-116.1699978008186
 10
105.2063259285595
 20
-116.0430460321872
 10
105.3079562453744
 20
-115.9393486580811
 10
105.4347357592316
 20
-115.9393486580811
 10
105.5618597826373
 20
-115.9393486580811
 10
105.6655571567433
 20
-116.0430460321872
 10
105.6655571567433
 20
-116.1699978008186
 10
105.6655571567433
 20
-116.2969495694501
 10
105.5618597826373
 20
-116.3984076314907
 10
105.4347357592316
 20
-116.3984076314907
 97
        0
 97
        0
 92
        1
 93
        1
 72
     4
 94
        3
 73
     0
 74
     1
 95
       17
 96
       13
 40
0.0
 40
0.0
 40
0.0
 40
0.0
 40
1.0
 40
1.0
 40
1.0
 40
2.0
 40
2.0
 40
2.0
 40
3.0
 40
3.0
 40
3.0
 40
4.0
 40
4.0
 40
4.0
 40
4.0
 10
105.4326687019404
 20
-116.0683674840037
 10
105.377891683725
 20
-116.0683674840037
 10
105.3334499519652
 20
-116.1128092157635
 10
105.3334499519652
 20
-116.1679307435275
 10
105.3334499519652
 20
-116.2249470738084
 10
105.377891683725
 20
-116.2736951749246
 10
105.4368028165227
 20
-116.2736951749246
 10
105.496058458869
 20
-116.2736951749246
 10
105.5363660760465
 20
-116.2228800165172
 10
105.5363660760465
 20
-116.1699978008186
 10
105.5363660760465
 20
-116.1128092157635
 10
105.4898572869956
 20
-116.0683674840037
 10
105.4326687019404
 20
-116.0683674840037
 97
        0
 97
        0
 75
     2
 76
     1
 98
        0
  0
ENDBLK
  5
81
330
7E
100
AcDbEntity
  8
0
100
AcDbBlockEnd
  0
BLOCK
  5
AC
330
AA
100
AcDbEntity
  8
0
100
AcDbBlockBegin
  2
block 4
 70
     0
 10
0.0
 20
0.0
 30
0.0
  3
block 4
  1

  0
SPLINE
  5
AE
330
AA
100
AcDbEntity
  8
_U+30EC_U+30A4_U+30E4_U+30FC 1
370
     0
100
AcDbSpline
210
0.0
220
0.0
230
1.0
 70
    11
 71
     3
 72
    62
 73
    58
 74
     0
 42
0.0000000001
 43
0.0000000001
 12
1.0
 22
0.0
 32
0.0
 13
1.0
 23
0.0
 33
0.0
 40
0.0
 40
0.0
 40
0.0
 40
0.0
 40
1.0
 40
1.0
 40
1.0
 40
2.0
 40
2.0
 40
2.0
 40
3.0
 40
3.0
 40
3.0
 40
4.0
 40
4.0
 40
4.0
 40
5.0
 40
5.0
 40
5.0
 40
6.0
 40
6.0
 40
6.0
 40
7.0
 40
7.0
 40
7.0
 40
8.0
 40
8.0
 40
8.0
 40
9.0
 40
9.0
 40
9.0
 40
10.0
 40
10.0
 40
10.0
 40
11.0
 40
11.0
 40
11.0
 40
12.0
 40
12.0
 40
12.0
 40
13.0
 40
13.0
 40
13.0
 40
14.0
 40
14.0
 40
14.0
 40
15.0
 40
15.0
 40
15.0
 40
16.0
 40
16.0
 40
16.0
 40
17.0
 40
17.0
 40
17.0
 40
18.0
 40
18.0
 40
18.0
 40
19.0
 40
19.0
 40
19.0
 40
19.0
 10
89.78900686774372
 20
-144.4421739005214
 30
0.0
 10
89.6935777228023
 20
-144.4421739005214
 30
0.0
 10
89.47584768813451
 20
-144.4211588180614
 30
0.0
 10
89.35079072201995
 20
-144.2351236618579
 30
0.0
 10
89.2770656786356
 20
-144.1228135490387
 30
0.0
 10
89.27258705450477
 20
-144.0235947990635
 30
0.0
 10
89.26845293992247
 20
-143.9388454501264
 30
0.0
 10
89.26845293992247
 20
-143.9388454501264
 30
0.0
 10
89.48859454142993
 20
-143.9388454501264
 30
0.0
 10
89.48859454142993
 20
-143.9388454501264
 30
0.0
 10
89.49066159872109
 20
-144.0129150030593
 30
0.0
 10
89.50099688517683
 20
-144.2475260056048
 30
0.0
 10
89.7845282436129
 20
-144.2475260056048
 30
0.0
 10
89.92198755347437
 20
-144.2475260056048
 30
0.0
 10
90.07460528347093
 20
-144.1779350768028
 30
0.0
 10
90.07460528347093
 20
-143.9495252461307
 30
0.0
 10
90.07460528347093
 20
-143.8330810187292
 30
0.0
 10
90.03636472358467
 20
-143.7845051723872
 30
0.0
 10
90.00466984512036
 20
-143.7528102939229
 30
0.0
 10
89.93060029218749
 20
-143.67874074099
 30
0.0
 10
89.81415606478605
 20
-143.6659938876946
 30
0.0
 10
89.75937904657057
 20
-143.6659938876946
 30
0.0
 10
89.74008651185318
 20
-143.6659938876946
 30
0.0
 10
89.70425751880659
 20
-143.6680609449858
 30
0.0
 10
89.67669675492458
 20
-143.6721950595681
 30
0.0
 10
89.67669675492458
 20
-143.6721950595681
 30
0.0
 10
89.67669675492458
 20
-143.4775471646514
 30
0.0
 10
89.67669675492458
 20
-143.4775471646514
 30
0.0
 10
89.71493731481085
 20
-143.4840928460734
 30
0.0
 10
89.7569674797309
 20
-143.4861599033646
 30
0.0
 10
89.76351316115287
 20
-143.4861599033646
 30
0.0
 10
89.82896997537263
 20
-143.4861599033646
 30
0.0
 10
90.02775198487154
 20
-143.464800311356
 30
0.0
 10
90.02775198487154
 20
-143.2281222515194
 30
0.0
 10
90.02775198487154
 20
-143.0503553244805
 30
0.0
 10
89.89683835643204
 20
-142.9952337967165
 30
0.0
 10
89.78659530090405
 20
-142.9952337967165
 30
0.0
 10
89.52235647718538
 20
-142.9952337967165
 30
0.0
 10
89.51374373847226
 20
-143.2281222515194
 30
0.0
 10
89.50960962388996
 20
-143.2997802376126
 30
0.0
 10
89.50960962388996
 20
-143.2997802376126
 30
0.0
 10
89.30634899026022
 20
-143.2997802376126
 30
0.0
 10
89.30634899026022
 20
-143.2997802376126
 30
0.0
 10
89.31496172897334
 20
-143.1750677810465
 30
0.0
 10
89.34252249285535
 20
-142.7985188445087
 30
0.0
 10
89.79934215419948
 20
-142.7985188445087
 30
0.0
 10
90.02361787028924
 20
-142.7985188445087
 30
0.0
 10
90.26477455425673
 20
-142.9256428679144
 30
0.0
 10
90.26477455425673
 20
-143.2215765700974
 30
0.0
 10
90.26477455425673
 20
-143.4079562358494
 30
0.0
 10
90.16968991886384
 20
-143.4902940179469
 30
0.0
 10
90.0701266593401
 20
-143.5516167175843
 30
0.0
 10
90.13144935897756
 20
-143.5791774814663
 30
0.0
 10
90.31335040059875
 20
-143.6594482062727
 30
0.0
 10
90.31335040059875
 20
-143.9367783928353
 30
0.0
 10
90.31335040059875
 20
-144.2750867694868
 30
0.0
 10
90.0659925447578
 20
-144.4421739005214
 30
0.0
 10
89.78900686774372
 20
-144.4421739005214
 30
0.0
  0
HATCH
  5
AF
330
AA
100
AcDbEntity
  8
_U+30EC_U+30A4_U+30E4_U+30FC 1
 62
     7
420
 16777215
100
AcDbHatch
 10
0.0
 20
0.0
 30
0.0
210
0.0
220
0.0
230
1.0
  2
SOLID
 70
     1
 71
     0
 91
        1
 92
        1
 93
        1
 72
     4
 94
        3
 73
     0
 74
     1
 95
       62
 96
       58
 40
0.0
 40
0.0
 40
0.0
 40
0.0
 40
1.0
 40
1.0
 40
1.0
 40
2.0
 40
2.0
 40
2.0
 40
3.0
 40
3.0
 40
3.0
 40
4.0
 40
4.0
 40
4.0
 40
5.0
 40
5.0
 40
5.0
 40
6.0
 40
6.0
 40
6.0
 40
7.0
 40
7.0
 40
7.0
 40
8.0
 40
8.0
 40
8.0
 40
9.0
 40
9.0
 40
9.0
 40
10.0
 40
10.0
 40
10.0
 40
11.0
 40
11.0
 40
11.0
 40
12.0
 40
12.0
 40
12.0
 40
13.0
 40
13.0
 40
13.0
 40
14.0
 40
14.0
 40
14.0
 40
15.0
 40
15.0
 40
15.0
 40
16.0
 40
16.0
 40
16.0
 40
17.0
 40
17.0
 40
17.0
 40
18.0
 40
18.0
 40
18.0
 40
19.0
 40
19.0
 40
19.0
 40
19.0
 10
89.78900686774372
 20
-144.4421739005214
 10
89.6935777228023
 20
-144.4421739005214
 10
89.47584768813451
 20
-144.4211588180614
 10
89.35079072201995
 20
-144.2351236618579
 10
89.2770656786356
 20
-144.1228135490387
 10
89.27258705450477
 20
-144.0235947990635
 10
89.26845293992247
 20
-143.9388454501264
 10
89.26845293992247
 20
-143.9388454501264
 10
89.48859454142993
 20
-143.9388454501264
 10
89.48859454142993
 20
-143.9388454501264
 10
89.49066159872109
 20
-144.0129150030593
 10
89.50099688517683
 20
-144.2475260056048
 10
89.7845282436129
 20
-144.2475260056048
 10
89.92198755347437
 20
-144.2475260056048
 10
90.07460528347093
 20
-144.1779350768028
 10
90.07460528347093
 20
-143.9495252461307
 10
90.07460528347093
 20
-143.8330810187292
 10
90.03636472358467
 20
-143.7845051723872
 10
90.00466984512036
 20
-143.7528102939229
 10
89.93060029218749
 20
-143.67874074099
 10
89.81415606478605
 20
-143.6659938876946
 10
89.75937904657057
 20
-143.6659938876946
 10
89.74008651185318
 20
-143.6659938876946
 10
89.70425751880659
 20
-143.6680609449858
 10
89.67669675492458
 20
-143.6721950595681
 10
89.67669675492458
 20
-143.6721950595681
 10
89.67669675492458
 20
-143.4775471646514
 10
89.67669675492458
 20
-143.4775471646514
 10
89.71493731481085
 20
-143.4840928460734
 10
89.7569674797309
 20
-143.4861599033646
 10
89.76351316115287
 20
-143.4861599033646
 10
89.82896997537263
 20
-143.4861599033646
 10
90.02775198487154
 20
-143.464800311356
 10
90.02775198487154
 20
-143.2281222515194
 10
90.02775198487154
 20
-143.0503553244805
 10
89.89683835643204
 20
-142.9952337967165
 10
89.78659530090405
 20
-142.9952337967165
 10
89.52235647718538
 20
-142.9952337967165
 10
89.51374373847226
 20
-143.2281222515194
 10
89.50960962388996
 20
-143.2997802376126
 10
89.50960962388996
 20
-143.2997802376126
 10
89.30634899026022
 20
-143.2997802376126
 10
89.30634899026022
 20
-143.2997802376126
 10
89.31496172897334
 20
-143.1750677810465
 10
89.34252249285535
 20
-142.7985188445087
 10
89.79934215419948
 20
-142.7985188445087
 10
90.02361787028924
 20
-142.7985188445087
 10
90.26477455425673
 20
-142.9256428679144
 10
90.26477455425673
 20
-143.2215765700974
 10
90.26477455425673
 20
-143.4079562358494
 10
90.16968991886384
 20
-143.4902940179469
 10
90.0701266593401
 20
-143.5516167175843
 10
90.13144935897756
 20
-143.5791774814663
 10
90.31335040059875
 20
-143.6594482062727
 10
90.31335040059875
 20
-143.9367783928353
 10
90.31335040059875
 20
-144.2750867694868
 10
90.0659925447578
 20
-144.4421739005214
 10
89.78900686774372
 20
-144.4421739005214
 97
        0
 97
        0
 75
     2
 76
     1
 98
        0
  0
SPLINE
  5
B0
330
AA
100
AcDbEntity
  8
_U+30EC_U+30A4_U+30E4_U+30FC 1
370
     0
100
AcDbSpline
210
0.0
220
0.0
230
1.0
 70
    11
 71
     3
 72
    29
 73
    25
 74
     0
 42
0.0000000001
 43
0.0000000001
 12
1.0
 22
0.0
 32
0.0
 13
1.0
 23
0.0
 33
0.0
 40
0.0
 40
0.0
 40
0.0
 40
0.0
 40
1.0
 40
1.0
 40
1.0
 40
2.0
 40
2.0
 40
2.0
 40
3.0
 40
3.0
 40
3.0
 40
4.0
 40
4.0
 40
4.0
 40
5.0
 40
5.0
 40
5.0
 40
6.0
 40
6.0
 40
6.0
 40
7.0
 40
7.0
 40
7.0
 40
8.0
 40
8.0
 40
8.0
 40
8.0
 10
91.37220049799029
 20
-144.2137640698493
 30
0.0
 10
91.26385224497918
 20
-144.4232258753525
 30
0.0
 10
91.09056394207111
 20
-144.4421739005214
 30
0.0
 10
90.97411971466967
 20
-144.4421739005214
 30
0.0
 10
90.8132337555085
 20
-144.4421739005214
 30
0.0
 10
90.67164033106474
 20
-144.3956651114705
 30
0.0
 10
90.57655569567184
 20
-144.2137640698493
 30
0.0
 10
90.47285832156582
 20
-144.0191161749327
 30
0.0
 10
90.45391029639694
 20
-143.7820936055475
 30
0.0
 10
90.45391029639694
 20
-143.6194850986437
 30
0.0
 10
90.45391029639694
 20
-143.4754801073603
 30
0.0
 10
90.47079126427467
 20
-143.2236436273885
 30
0.0
 10
90.57655569567184
 20
-143.0248616178896
 30
0.0
 10
90.68438718436016
 20
-142.8219454938084
 30
0.0
 10
90.84527314352133
 20
-142.7985188445087
 30
0.0
 10
90.97411971466967
 20
-142.7985188445087
 30
0.0
 10
91.13293861653969
 20
-142.7985188445087
 30
0.0
 10
91.2765990982746
 20
-142.8429605762684
 30
0.0
 10
91.37220049799029
 20
-143.0248616178896
 30
0.0
 10
91.47141924796549
 20
-143.2174424555151
 30
0.0
 10
91.49484589726518
 20
-143.4458522861871
 30
0.0
 10
91.49484589726518
 20
-143.6194850986437
 30
0.0
 10
91.49484589726518
 20
-143.7907063442607
 30
0.0
 10
91.47348630525663
 20
-144.0211832322239
 30
0.0
 10
91.37220049799029
 20
-144.2137640698493
 30
0.0
  0
SPLINE
  5
B1
330
AA
100
AcDbEntity
  8
_U+30EC_U+30A4_U+30E4_U+30FC 1
370
     0
100
AcDbSpline
210
0.0
220
0.0
230
1.0
 70
    11
 71
     3
 72
    17
 73
    13
 74
     0
 42
0.0000000001
 43
0.0000000001
 12
1.0
 22
0.0
 32
0.0
 13
1.0
 23
0.0
 33
0.0
 40
0.0
 40
0.0
 40
0.0
 40
0.0
 40
1.0
 40
1.0
 40
1.0
 40
2.0
 40
2.0
 40
2.0
 40
3.0
 40
3.0
 40
3.0
 40
4.0
 40
4.0
 40
4.0
 40
4.0
 10
90.97411971466967
 20
-142.9910996821342
 30
0.0
 10
90.72469480153758
 20
-142.9910996821342
 30
0.0
 10
90.67784150293818
 20
-143.2746310405702
 30
0.0
 10
90.67784150293818
 20
-143.6194850986437
 30
0.0
 10
90.67784150293818
 20
-143.9388454501264
 30
0.0
 10
90.71401500553331
 20
-144.2475260056048
 30
0.0
 10
90.97411971466967
 20
-144.2475260056048
 30
0.0
 10
91.22182208005913
 20
-144.2475260056048
 30
0.0
 10
91.27039792640116
 20
-143.9664062140084
 30
0.0
 10
91.27039792640116
 20
-143.6194850986437
 30
0.0
 10
91.27039792640116
 20
-143.2997802376126
 30
0.0
 10
91.23215736651488
 20
-142.9910996821342
 30
0.0
 10
90.97411971466967
 20
-142.9910996821342
 30
0.0
  0
HATCH
  5
B2
330
AA
100
AcDbEntity
  8
_U+30EC_U+30A4_U+30E4_U+30FC 1
 62
     7
420
 16777215
100
AcDbHatch
 10
0.0
 20
0.0
 30
0.0
210
0.0
220
0.0
230
1.0
  2
SOLID
 70
     1
 71
     0
 91
        2
 92
        1
 93
        1
 72
     4
 94
        3
 73
     0
 74
     1
 95
       29
 96
       25
 40
0.0
 40
0.0
 40
0.0
 40
0.0
 40
1.0
 40
1.0
 40
1.0
 40
2.0
 40
2.0
 40
2.0
 40
3.0
 40
3.0
 40
3.0
 40
4.0
 40
4.0
 40
4.0
 40
5.0
 40
5.0
 40
5.0
 40
6.0
 40
6.0
 40
6.0
 40
7.0
 40
7.0
 40
7.0
 40
8.0
 40
8.0
 40
8.0
 40
8.0
 10
91.37220049799029
 20
-144.2137640698493
 10
91.26385224497918
 20
-144.4232258753525
 10
91.09056394207111
 20
-144.4421739005214
 10
90.97411971466967
 20
-144.4421739005214
 10
90.8132337555085
 20
-144.4421739005214
 10
90.67164033106474
 20
-144.3956651114705
 10
90.57655569567184
 20
-144.2137640698493
 10
90.47285832156582
 20
-144.0191161749327
 10
90.45391029639694
 20
-143.7820936055475
 10
90.45391029639694
 20
-143.6194850986437
 10
90.45391029639694
 20
-143.4754801073603
 10
90.47079126427467
 20
-143.2236436273885
 10
90.57655569567184
 20
-143.0248616178896
 10
90.68438718436016
 20
-142.8219454938084
 10
90.84527314352133
 20
-142.7985188445087
 10
90.97411971466967
 20
-142.7985188445087
 10
91.13293861653969
 20
-142.7985188445087
 10
91.2765990982746
 20
-142.8429605762684
 10
91.37220049799029
 20
-143.0248616178896
 10
91.47141924796549
 20
-143.2174424555151
 10
91.49484589726518
 20
-143.4458522861871
 10
91.49484589726518
 20
-143.6194850986437
 10
91.49484589726518
 20
-143.7907063442607
 10
91.47348630525663
 20
-144.0211832322239
 10
91.37220049799029
 20
-144.2137640698493
 97
        0
 97
        0
 92
        1
 93
        1
 72
     4
 94
        3
 73
     0
 74
     1
 95
       17
 96
       13
 40
0.0
 40
0.0
 40
0.0
 40
0.0
 40
1.0
 40
1.0
 40
1.0
 40
2.0
 40
2.0
 40
2.0
 40
3.0
 40
3.0
 40
3.0
 40
4.0
 40
4.0
 40
4.0
 40
4.0
 10
90.97411971466967
 20
-142.9910996821342
 10
90.72469480153758
 20
-142.9910996821342
 10
90.67784150293818
 20
-143.2746310405702
 10
90.67784150293818
 20
-143.6194850986437
 10
90.67784150293818
 20
-143.9388454501264
 10
90.71401500553331
 20
-144.2475260056048
 10
90.97411971466967
 20
-144.2475260056048
 10
91.22182208005913
 20
-144.2475260056048
 10
91.27039792640116
 20
-143.9664062140084
 10
91.27039792640116
 20
-143.6194850986437
 10
91.27039792640116
 20
-143.2997802376126
 10
91.23215736651488
 20
-142.9910996821342
 10
90.97411971466967
 20
-142.9910996821342
 97
        0
 97
        0
 75
     2
 76
     1
 98
        0
  0
ENDBLK
  5
AD
330
AA
100
AcDbEntity
  8
0
100
AcDbBlockEnd
  0
BLOCK
  5
D7
330
D5
100
AcDbEntity
  8
0
100
AcDbBlockBegin
  2
block 5
 70
     0
 10
0.0
 20
0.0
 30
0.0
  3
block 5
  1

  0
SPLINE
  5
D9
330
D5
100
AcDbEntity
  8
_U+30EC_U+30A4_U+30E4_U+30FC 1
370
     0
100
AcDbSpline
210
0.0
220
0.0
230
1.0
 70
    11
 71
     3
 72
    62
 73
    58
 74
     0
 42
0.0000000001
 43
0.0000000001
 12
1.0
 22
0.0
 32
0.0
 13
1.0
 23
0.0
 33
0.0
 40
0.0
 40
0.0
 40
0.0
 40
0.0
 40
1.0
 40
1.0
 40
1.0
 40
2.0
 40
2.0
 40
2.0
 40
3.0
 40
3.0
 40
3.0
 40
4.0
 40
4.0
 40
4.0
 40
5.0
 40
5.0
 40
5.0
 40
6.0
 40
6.0
 40
6.0
 40
7.0
 40
7.0
 40
7.0
 40
8.0
 40
8.0
 40
8.0
 40
9.0
 40
9.0
 40
9.0
 40
10.0
 40
10.0
 40
10.0
 40
11.0
 40
11.0
 40
11.0
 40
12.0
 40
12.0
 40
12.0
 40
13.0
 40
13.0
 40
13.0
 40
14.0
 40
14.0
 40
14.0
 40
15.0
 40
15.0
 40
15.0
 40
16.0
 40
16.0
 40
16.0
 40
17.0
 40
17.0
 40
17.0
 40
18.0
 40
18.0
 40
18.0
 40
19.0
 40
19.0
 40
19.0
 40
19.0
 10
71.20943466101708
 20
-126.4598089961628
 30
0.0
 10
71.20943466101708
 20
-126.5552381411043
 30
0.0
 10
71.1882473237828
 20
-126.772968175772
 30
0.0
 10
71.00203991280505
 20
-126.8980251418866
 30
0.0
 10
70.88990205476017
 20
-126.9720946948195
 30
0.0
 10
70.7905110500107
 20
-126.9762288094018
 30
0.0
 10
70.70593395584783
 20
-126.9803629239841
 30
0.0
 10
70.70593395584783
 20
-126.9803629239841
 30
0.0
 10
70.70593395584783
 20
-126.7602213224766
 30
0.0
 10
70.70593395584783
 20
-126.7602213224766
 30
0.0
 10
70.7800035087807
 20
-126.7581542651855
 30
0.0
 10
71.01478676610047
 20
-126.7478189787297
 30
0.0
 10
71.01478676610047
 20
-126.4642876202937
 30
0.0
 10
71.01478676610047
 20
-126.3268283104322
 30
0.0
 10
70.94502358252416
 20
-126.1742105804356
 30
0.0
 10
70.71644149707784
 20
-126.1742105804356
 30
0.0
 10
70.60016952445065
 20
-126.1742105804356
 30
0.0
 10
70.55142142333438
 20
-126.2124511403219
 30
0.0
 10
70.51972654487007
 20
-126.2441460187862
 30
0.0
 10
70.4456569919372
 20
-126.3182155717191
 30
0.0
 10
70.43308239341604
 20
-126.4346597991205
 30
0.0
 10
70.43308239341604
 20
-126.489436817336
 30
0.0
 10
70.43308239341604
 20
-126.5087293520534
 30
0.0
 10
70.43514945070719
 20
-126.5445583451
 30
0.0
 10
70.43928356528949
 20
-126.572119108982
 30
0.0
 10
70.43928356528949
 20
-126.572119108982
 30
0.0
 10
70.24463567037287
 20
-126.572119108982
 30
0.0
 10
70.24463567037287
 20
-126.572119108982
 30
0.0
 10
70.25100909702059
 20
-126.5338785490957
 30
0.0
 10
70.253248409086
 20
-126.4918483841757
 30
0.0
 10
70.253248409086
 20
-126.4853027027537
 30
0.0
 10
70.253248409086
 20
-126.4198458885339
 30
0.0
 10
70.2320610718517
 20
-126.221063879035
 30
0.0
 10
69.99503850246653
 20
-126.221063879035
 30
0.0
 10
69.8174438302019
 20
-126.221063879035
 30
0.0
 10
69.7623223024379
 20
-126.3519775074745
 30
0.0
 10
69.7623223024379
 20
-126.4622205630025
 30
0.0
 10
69.7623223024379
 20
-126.7264593867212
 30
0.0
 10
69.99503850246653
 20
-126.7350721254343
 30
0.0
 10
70.06704099810824
 20
-126.7392062400166
 30
0.0
 10
70.06704099810824
 20
-126.7392062400166
 30
0.0
 10
70.06704099810824
 20
-126.9424668736463
 30
0.0
 10
70.06704099810824
 20
-126.9424668736463
 30
0.0
 10
69.94215628676794
 20
-126.9338541349332
 30
0.0
 10
69.56560735023012
 20
-126.9062933710512
 30
0.0
 10
69.56560735023012
 20
-126.4494737097071
 30
0.0
 10
69.56560735023012
 20
-126.2251979936173
 30
0.0
 10
69.69255911886158
 20
-125.9840413096498
 30
0.0
 10
69.98866507581882
 20
-125.9840413096498
 30
0.0
 10
70.17487248679656
 20
-125.9840413096498
 30
0.0
 10
70.2573825236683
 20
-126.0791259450427
 30
0.0
 10
70.31870522330574
 20
-126.1786892045664
 30
0.0
 10
70.34626598718775
 20
-126.117366504929
 30
0.0
 10
70.42670896676833
 20
-125.9354654633078
 30
0.0
 10
70.70386689855667
 20
-125.9354654633078
 30
0.0
 10
71.04234752998248
 20
-125.9354654633078
 30
0.0
 10
71.20943466101708
 20
-126.1828233191487
 30
0.0
 10
71.20943466101708
 20
-126.4598089961628
 30
0.0
  0
HATCH
  5
DA
330
D5
100
AcDbEntity
  8
_U+30EC_U+30A4_U+30E4_U+30FC 1
 62
   179
420
  2234388
100
AcDbHatch
 10
0.0
 20
0.0
 30
0.0
210
0.0
220
0.0
230
1.0
  2
SOLID
 70
     1
 71
     0
 91
        1
 92
        1
 93
        1
 72
     4
 94
        3
 73
     0
 74
     1
 95
       62
 96
       58
 40
0.0
 40
0.0
 40
0.0
 40
0.0
 40
1.0
 40
1.0
 40
1.0
 40
2.0
 40
2.0
 40
2.0
 40
3.0
 40
3.0
 40
3.0
 40
4.0
 40
4.0
 40
4.0
 40
5.0
 40
5.0
 40
5.0
 40
6.0
 40
6.0
 40
6.0
 40
7.0
 40
7.0
 40
7.0
 40
8.0
 40
8.0
 40
8.0
 40
9.0
 40
9.0
 40
9.0
 40
10.0
 40
10.0
 40
10.0
 40
11.0
 40
11.0
 40
11.0
 40
12.0
 40
12.0
 40
12.0
 40
13.0
 40
13.0
 40
13.0
 40
14.0
 40
14.0
 40
14.0
 40
15.0
 40
15.0
 40
15.0
 40
16.0
 40
16.0
 40
16.0
 40
17.0
 40
17.0
 40
17.0
 40
18.0
 40
18.0
 40
18.0
 40
19.0
 40
19.0
 40
19.0
 40
19.0
 10
71.20943466101708
 20
-126.4598089961628
 10
71.20943466101708
 20
-126.5552381411043
 10
71.1882473237828
 20
-126.772968175772
 10
71.00203991280505
 20
-126.8980251418866
 10
70.88990205476017
 20
-126.9720946948195
 10
70.7905110500107
 20
-126.9762288094018
 10
70.70593395584783
 20
-126.9803629239841
 10
70.70593395584783
 20
-126.9803629239841
 10
70.70593395584783
 20
-126.7602213224766
 10
70.70593395584783
 20
-126.7602213224766
 10
70.7800035087807
 20
-126.7581542651855
 10
71.01478676610047
 20
-126.7478189787297
 10
71.01478676610047
 20
-126.4642876202937
 10
71.01478676610047
 20
-126.3268283104322
 10
70.94502358252416
 20
-126.1742105804356
 10
70.71644149707784
 20
-126.1742105804356
 10
70.60016952445065
 20
-126.1742105804356
 10
70.55142142333438
 20
-126.2124511403219
 10
70.51972654487007
 20
-126.2441460187862
 10
70.4456569919372
 20
-126.3182155717191
 10
70.43308239341604
 20
-126.4346597991205
 10
70.43308239341604
 20
-126.489436817336
 10
70.43308239341604
 20
-126.5087293520534
 10
70.43514945070719
 20
-126.5445583451
 10
70.43928356528949
 20
-126.572119108982
 10
70.43928356528949
 20
-126.572119108982
 10
70.24463567037287
 20
-126.572119108982
 10
70.24463567037287
 20
-126.572119108982
 10
70.25100909702059
 20
-126.5338785490957
 10
70.253248409086
 20
-126.4918483841757
 10
70.253248409086
 20
-126.4853027027537
 10
70.253248409086
 20
-126.4198458885339
 10
70.2320610718517
 20
-126.221063879035
 10
69.99503850246653
 20
-126.221063879035
 10
69.8174438302019
 20
-126.221063879035
 10
69.7623223024379
 20
-126.3519775074745
 10
69.7623223024379
 20
-126.4622205630025
 10
69.7623223024379
 20
-126.7264593867212
 10
69.99503850246653
 20
-126.7350721254343
 10
70.06704099810824
 20
-126.7392062400166
 10
70.06704099810824
 20
-126.7392062400166
 10
70.06704099810824
 20
-126.9424668736463
 10
70.06704099810824
 20
-126.9424668736463
 10
69.94215628676794
 20
-126.9338541349332
 10
69.56560735023012
 20
-126.9062933710512
 10
69.56560735023012
 20
-126.4494737097071
 10
69.56560735023012
 20
-126.2251979936173
 10
69.69255911886158
 20
-125.9840413096498
 10
69.98866507581882
 20
-125.9840413096498
 10
70.17487248679656
 20
-125.9840413096498
 10
70.2573825236683
 20
-126.0791259450427
 10
70.31870522330574
 20
-126.1786892045664
 10
70.34626598718775
 20
-126.117366504929
 10
70.42670896676833
 20
-125.9354654633078
 10
70.70386689855667
 20
-125.9354654633078
 10
71.04234752998248
 20
-125.9354654633078
 10
71.20943466101708
 20
-126.1828233191487
 10
71.20943466101708
 20
-126.4598089961628
 97
        0
 97
        0
 75
     2
 76
     1
 98
        0
  0
SPLINE
  5
DB
330
D5
100
AcDbEntity
  8
_U+30EC_U+30A4_U+30E4_U+30FC 1
370
     0
100
AcDbSpline
210
0.0
220
0.0
230
1.0
 70
    11
 71
     3
 72
    29
 73
    25
 74
     0
 42
0.0000000001
 43
0.0000000001
 12
1.0
 22
0.0
 32
0.0
 13
1.0
 23
0.0
 33
0.0
 40
0.0
 40
0.0
 40
0.0
 40
0.0
 40
1.0
 40
1.0
 40
1.0
 40
2.0
 40
2.0
 40
2.0
 40
3.0
 40
3.0
 40
3.0
 40
4.0
 40
4.0
 40
4.0
 40
5.0
 40
5.0
 40
5.0
 40
6.0
 40
6.0
 40
6.0
 40
7.0
 40
7.0
 40
7.0
 40
8.0
 40
8.0
 40
8.0
 40
8.0
 10
70.98085257557076
 20
-124.8767876206905
 30
0.0
 10
71.19031438107395
 20
-124.9849636189274
 30
0.0
 10
71.20943466101708
 20
-125.1582519218354
 30
0.0
 10
71.20943466101708
 20
-125.2746961492369
 30
0.0
 10
71.20943466101708
 20
-125.4355821083981
 30
0.0
 10
71.16292587196622
 20
-125.5771755328418
 30
0.0
 10
70.98085257557076
 20
-125.6722601682347
 30
0.0
 10
70.78620468065415
 20
-125.7759575423407
 30
0.0
 10
70.54935436604322
 20
-125.7952500770581
 30
0.0
 10
70.3864013495909
 20
-125.7952500770581
 30
0.0
 10
70.24256861308172
 20
-125.7952500770581
 30
0.0
 10
69.99090438788423
 20
-125.7780245996319
 30
0.0
 10
69.79195012361104
 20
-125.6722601682347
 30
0.0
 10
69.58886174475556
 20
-125.5644286795464
 30
0.0
 10
69.56560735023012
 20
-125.4035427203852
 30
0.0
 10
69.56560735023012
 20
-125.2746961492369
 30
0.0
 10
69.56560735023012
 20
-125.1158772473669
 30
0.0
 10
69.61004908198986
 20
-124.972216765632
 30
0.0
 10
69.79195012361104
 20
-124.8767876206905
 30
0.0
 10
69.98453096123652
 20
-124.7775688707153
 30
0.0
 10
70.21294079190858
 20
-124.7541422214156
 30
0.0
 10
70.3864013495909
 20
-124.7541422214156
 30
0.0
 10
70.55779484998209
 20
-124.7541422214156
 30
0.0
 10
70.78844399271956
 20
-124.7755018134242
 30
0.0
 10
70.98085257557076
 20
-124.8767876206905
 30
0.0
  0
SPLINE
  5
DC
330
D5
100
AcDbEntity
  8
_U+30EC_U+30A4_U+30E4_U+30FC 1
370
     0
100
AcDbSpline
210
0.0
220
0.0
230
1.0
 70
    11
 71
     3
 72
    17
 73
    13
 74
     0
 42
0.0000000001
 43
0.0000000001
 12
1.0
 22
0.0
 32
0.0
 13
1.0
 23
0.0
 33
0.0
 40
0.0
 40
0.0
 40
0.0
 40
0.0
 40
1.0
 40
1.0
 40
1.0
 40
2.0
 40
2.0
 40
2.0
 40
3.0
 40
3.0
 40
3.0
 40
4.0
 40
4.0
 40
4.0
 40
4.0
 10
69.7581881878556
 20
-125.2746961492369
 30
0.0
 10
69.7581881878556
 20
-125.5244655719175
 30
0.0
 10
70.04171954629166
 20
-125.5709743609684
 30
0.0
 10
70.3864013495909
 20
-125.5709743609684
 30
0.0
 10
70.70593395584783
 20
-125.5709743609684
 30
0.0
 10
71.01478676610047
 20
-125.5348008583732
 30
0.0
 10
71.01478676610047
 20
-125.2746961492369
 30
0.0
 10
71.01478676610047
 20
-125.0269937838474
 30
0.0
 10
70.73332246495556
 20
-124.9784179375054
 30
0.0
 10
70.3864013495909
 20
-124.9784179375054
 30
0.0
 10
70.06704099810824
 20
-124.9784179375054
 30
0.0
 10
69.7581881878556
 20
-125.0166584973917
 30
0.0
 10
69.7581881878556
 20
-125.2746961492369
 30
0.0
  0
HATCH
  5
DD
330
D5
100
AcDbEntity
  8
_U+30EC_U+30A4_U+30E4_U+30FC 1
 62
   179
420
  2234388
100
AcDbHatch
 10
0.0
 20
0.0
 30
0.0
210
0.0
220
0.0
230
1.0
  2
SOLID
 70
     1
 71
     0
 91
        2
 92
        1
 93
        1
 72
     4
 94
        3
 73
     0
 74
     1
 95
       29
 96
       25
 40
0.0
 40
0.0
 40
0.0
 40
0.0
 40
1.0
 40
1.0
 40
1.0
 40
2.0
 40
2.0
 40
2.0
 40
3.0
 40
3.0
 40
3.0
 40
4.0
 40
4.0
 40
4.0
 40
5.0
 40
5.0
 40
5.0
 40
6.0
 40
6.0
 40
6.0
 40
7.0
 40
7.0
 40
7.0
 40
8.0
 40
8.0
 40
8.0
 40
8.0
 10
70.98085257557076
 20
-124.8767876206905
 10
71.19031438107395
 20
-124.9849636189274
 10
71.20943466101708
 20
-125.1582519218354
 10
71.20943466101708
 20
-125.2746961492369
 10
71.20943466101708
 20
-125.4355821083981
 10
71.16292587196622
 20
-125.5771755328418
 10
70.98085257557076
 20
-125.6722601682347
 10
70.78620468065415
 20
-125.7759575423407
 10
70.54935436604322
 20
-125.7952500770581
 10
70.3864013495909
 20
-125.7952500770581
 10
70.24256861308172
 20
-125.7952500770581
 10
69.99090438788423
 20
-125.7780245996319
 10
69.79195012361104
 20
-125.6722601682347
 10
69.58886174475556
 20
-125.5644286795464
 10
69.56560735023012
 20
-125.4035427203852
 10
69.56560735023012
 20
-125.2746961492369
 10
69.56560735023012
 20
-125.1158772473669
 10
69.61004908198986
 20
-124.972216765632
 10
69.79195012361104
 20
-124.8767876206905
 10
69.98453096123652
 20
-124.7775688707153
 10
70.21294079190858
 20
-124.7541422214156
 10
70.3864013495909
 20
-124.7541422214156
 10
70.55779484998209
 20
-124.7541422214156
 10
70.78844399271956
 20
-124.7755018134242
 10
70.98085257557076
 20
-124.8767876206905
 97
        0
 97
        0
 92
        1
 93
        1
 72
     4
 94
        3
 73
     0
 74
     1
 95
       17
 96
       13
 40
0.0
 40
0.0
 40
0.0
 40
0.0
 40
1.0
 40
1.0
 40
1.0
 40
2.0
 40
2.0
 40
2.0
 40
3.0
 40
3.0
 40
3.0
 40
4.0
 40
4.0
 40
4.0
 40
4.0
 10
69.7581881878556
 20
-125.2746961492369
 10
69.7581881878556
 20
-125.5244655719175
 10
70.04171954629166
 20
-125.5709743609684
 10
70.3864013495909
 20
-125.5709743609684
 10
70.70593395584783
 20
-125.5709743609684
 10
71.01478676610047
 20
-125.5348008583732
 10
71.01478676610047
 20
-125.2746961492369
 10
71.01478676610047
 20
-125.0269937838474
 10
70.73332246495556
 20
-124.9784179375054
 10
70.3864013495909
 20
-124.9784179375054
 10
70.06704099810824
 20
-124.9784179375054
 10
69.7581881878556
 20
-125.0166584973917
 10
69.7581881878556
 20
-125.2746961492369
 97
        0
 97
        0
 75
     2
 76
     1
 98
        0
  0
ENDBLK
  5
D8
330
D5
100
AcDbEntity
  8
0
100
AcDbBlockEnd
  0
ENDSEC
  0
SECTION
  2
ENTITIES
  0
SPLINE
  5
41
330
1F
100
AcDbEntity
  8
_U+30EC_U+30A4_U+30E4_U+30FC 1
 62
   179
420
  2234388
370
     9
100
AcDbSpline
210
0.0
220
0.0
230
1.0
 70
    11
 71
     3
 72
    17
 73
    13
 74
     0
 42
0.0000000001
 43
0.0000000001
 12
1.0
 22
0.0
 32
0.0
 13
1.0
 23
0.0
 33
0.0
 40
0.0
 40
0.0
 40
0.0
 40
0.0
 40
1.0
 40
1.0
 40
1.0
 40
2.0
 40
2.0
 40
2.0
 40
3.0
 40
3.0
 40
3.0
 40
4.0
 40
4.0
 40
4.0
 40
4.0
 10
109.5636733159089
 20
-139.9676877427857
 30
0.0
 10
109.5636733159089
 20
-139.9118782983553
 30
0.0
 10
109.518905817051
 20
-139.8670755205886
 30
0.0
 10
109.4637694170782
 20
-139.8670755205886
 30
0.0
 10
109.408662764308
 20
-139.8670755205886
 30
0.0
 10
109.3638599876733
 20
-139.9118782983553
 30
0.0
 10
109.3638599876733
 20
-139.9676877427857
 30
0.0
 10
109.3638599876733
 20
-140.0227916316613
 30
0.0
 10
109.408662764308
 20
-140.0675944094274
 30
0.0
 10
109.4637694170782
 20
-140.0675944094274
 30
0.0
 10
109.518905817051
 20
-140.0675944094274
 30
0.0
 10
109.5636733159089
 20
-140.0227916316613
 30
0.0
 10
109.5636733159089
 20
-139.9676877427857
 30
0.0
  0
SPLINE
  5
42
330
1F
100
AcDbEntity
  8
_U+30EC_U+30A4_U+30E4_U+30FC 1
 62
   179
420
  2234388
370
     9
100
AcDbSpline
210
0.0
220
0.0
230
1.0
 70
    11
 71
     3
 72
    17
 73
    13
 74
     0
 42
0.0000000001
 43
0.0000000001
 12
1.0
 22
0.0
 32
0.0
 13
1.0
 23
0.0
 33
0.0
 40
0.0
 40
0.0
 40
0.0
 40
0.0
 40
1.0
 40
1.0
 40
1.0
 40
2.0
 40
2.0
 40
2.0
 40
3.0
 40
3.0
 40
3.0
 40
4.0
 40
4.0
 40
4.0
 40
4.0
 10
109.5636733159089
 20
-140.767646631475
 30
0.0
 10
109.5636733159089
 20
-140.7125074648219
 30
0.0
 10
109.518905817051
 20
-140.6677399648333
 30
0.0
 10
109.4637694170782
 20
-140.6677399648333
 30
0.0
 10
109.408662764308
 20
-140.6677399648333
 30
0.0
 10
109.3638599876733
 20
-140.7125074648219
 30
0.0
 10
109.3638599876733
 20
-140.767646631475
 30
0.0
 10
109.3638599876733
 20
-140.8227505203499
 30
0.0
 10
109.408662764308
 20
-140.8675532981166
 30
0.0
 10
109.4637694170782
 20
-140.8675532981166
 30
0.0
 10
109.518905817051
 20
-140.8675532981166
 30
0.0
 10
109.5636733159089
 20
-140.8227505203499
 30
0.0
 10
109.5636733159089
 20
-140.767646631475
 30
0.0
  0
POLYLINE
  5
43
330
1F
100
AcDbEntity
  8
_U+30EC_U+30A4_U+30E4_U+30FC 1
 62
   179
420
  2234388
370
     9
100
AcDb2dPolyline
 66
     1
 10
0.0
 20
0.0
 30
0.0
  0
VERTEX
  5
44
330
43
100
AcDbEntity
  8
_U+30EC_U+30A4_U+30E4_U+30FC 1
 62
   179
420
  2234388
370
     9
100
AcDbVertex
100
AcDb2dVertex
 10
109.4637694170782
 20
-139.9676877427857
 30
0.0
  0
VERTEX
  5
45
330
43
100
AcDbEntity
  8
_U+30EC_U+30A4_U+30E4_U+30FC 1
 62
   179
420
  2234388
370
     9
100
AcDbVertex
100
AcDb2dVertex
 10
109.4637694170782
 20
-141.8673255200885
 30
0.0
  0
SEQEND
  5
46
330
43
100
AcDbEntity
  8
_U+30EC_U+30A4_U+30E4_U+30FC 1
 62
   179
420
  2234388
370
     9
  0
POLYLINE
  5
47
330
1F
100
AcDbEntity
  8
_U+30EC_U+30A4_U+30E4_U+30FC 1
 62
   179
420
  2234388
370
     9
100
AcDb2dPolyline
 66
     1
 10
0.0
 20
0.0
 30
0.0
  0
VERTEX
  5
48
330
47
100
AcDbEntity
  8
_U+30EC_U+30A4_U+30E4_U+30FC 1
 62
   179
420
  2234388
370
     9
100
AcDbVertex
100
AcDb2dVertex
 10
108.003725300151
 20
-139.9676877427857
 30
0.0
  0
VERTEX
  5
49
330
47
100
AcDbEntity
  8
_U+30EC_U+30A4_U+30E4_U+30FC 1
 62
   179
420
  2234388
370
     9
100
AcDbVertex
100
AcDb2dVertex
 10
110.4635416390508
 20
-139.9676877427857
 30
0.0
  0
SEQEND
  5
4A
330
47
100
AcDbEntity
  8
_U+30EC_U+30A4_U+30E4_U+30FC 1
 62
   179
420
  2234388
370
     9
  0
POLYLINE
  5
4B
330
1F
100
AcDbEntity
  8
_U+30EC_U+30A4_U+30E4_U+30FC 1
 62
   179
420
  2234388
370
     9
100
AcDb2dPolyline
 66
     1
 10
0.0
 20
0.0
 30
0.0
  0
VERTEX
  5
4C
330
4B
100
AcDbEntity
  8
_U+30EC_U+30A4_U+30E4_U+30FC 1
 62
   179
420
  2234388
370
     9
100
AcDbVertex
100
AcDb2dVertex
 10
108.003725300151
 20
-140.767646631475
 30
0.0
  0
VERTEX
  5
4D
330
4B
100
AcDbEntity
  8
_U+30EC_U+30A4_U+30E4_U+30FC 1
 62
   179
420
  2234388
370
     9
100
AcDbVertex
100
AcDb2dVertex
 10
110.4635416390508
 20
-140.767646631475
 30
0.0
  0
SEQEND
  5
4E
330
4B
100
AcDbEntity
  8
_U+30EC_U+30A4_U+30E4_U+30FC 1
 62
   179
420
  2234388
370
     9
  0
INSERT
  5
50
330
1F
100
AcDbEntity
  8
_U+30EC_U+30A4_U+30E4_U+30FC 1
100
AcDbBlockReference
  2
block 2
 10
0.0
 20
0.0
 30
0.0
  0
POLYLINE
  5
62
330
1F
100
AcDbEntity
  8
_U+30EC_U+30A4_U+30E4_U+30FC 1
  6
AI-Linetype-1
 62
   154
420
    23468
370
    25
100
AcDb2dPolyline
 66
     1
 10
0.0
 20
0.0
 30
0.0
  0
VERTEX
  5
63
330
62
100
AcDbEntity
  8
_U+30EC_U+30A4_U+30E4_U+30FC 1
  6
AI-Linetype-1
 62
   154
420
    23468
370
    25
100
AcDbVertex
100
AcDb2dVertex
 10
85.46249587522564
 20
-138.9679155208138
 30
0.0
  0
VERTEX
  5
64
330
62
100
AcDbEntity
  8
_U+30EC_U+30A4_U+30E4_U+30FC 1
  6
AI-Linetype-1
 62
   154
420
    23468
370
    25
100
AcDbVertex
100
AcDb2dVertex
 10
105.4089036996837
 20
-138.9679155208138
 30
0.0
  0
SEQEND
  5
66
330
62
100
AcDbEntity
  8
_U+30EC_U+30A4_U+30E4_U+30FC 1
  6
AI-Linetype-1
 62
   154
420
    23468
370
    25
  0
POLYLINE
  5
67
330
1F
100
AcDbEntity
  8
_U+30EC_U+30A4_U+30E4_U+30FC 1
 62
   179
420
  2234388
370
    25
100
AcDb2dPolyline
 66
     1
 10
0.0
 20
0.0
 30
0.0
  0
VERTEX
  5
68
330
67
100
AcDbEntity
  8
_U+30EC_U+30A4_U+30E4_U+30FC 1
 62
   179
420
  2234388
370
    25
100
AcDbVertex
100
AcDb2dVertex
 10
76.26286305437227
 20
-110.7677419167524
 30
0.0
  0
VERTEX
  5
69
330
67
100
AcDbEntity
  8
_U+30EC_U+30A4_U+30E4_U+30FC 1
 62
   179
420
  2234388
370
    25
100
AcDbVertex
100
AcDb2dVertex
 10
75.46276307478452
 20
-110.7677419167524
 30
0.0
  0
VERTEX
  5
6A
330
67
100
AcDbEntity
  8
_U+30EC_U+30A4_U+30E4_U+30FC 1
 62
   179
420
  2234388
370
    25
100
AcDbVertex
100
AcDb2dVertex
 10
75.46276307478452
 20
-140.7679641314746
 30
0.0
  0
VERTEX
  5
6B
330
67
100
AcDbEntity
  8
_U+30EC_U+30A4_U+30E4_U+30FC 1
 62
   179
420
  2234388
370
    25
100
AcDbVertex
100
AcDb2dVertex
 10
105.4633373094061
 20
-140.7679641314746
 30
0.0
  0
VERTEX
  5
6C
330
67
100
AcDbEntity
  8
_U+30EC_U+30A4_U+30E4_U+30FC 1
 62
   179
420
  2234388
370
    25
100
AcDbVertex
100
AcDb2dVertex
 10
105.4633373094061
 20
-139.9676877427857
 30
0.0
  0
VERTEX
  5
6D
330
67
100
AcDbEntity
  8
_U+30EC_U+30A4_U+30E4_U+30FC 1
 62
   179
420
  2234388
370
    25
100
AcDbVertex
100
AcDb2dVertex
 10
76.26268666548788
 20
-139.9676877427857
 30
0.0
  0
VERTEX
  5
6E
330
67
100
AcDbEntity
  8
_U+30EC_U+30A4_U+30E4_U+30FC 1
 62
   179
420
  2234388
370
    25
100
AcDbVertex
100
AcDb2dVertex
 10
76.26286305437227
 20
-110.7677419167524
 30
0.0
  0
SEQEND
  5
70
330
67
100
AcDbEntity
  8
_U+30EC_U+30A4_U+30E4_U+30FC 1
 62
   179
420
  2234388
370
    25
  0
HATCH
  5
6F
330
1F
100
AcDbEntity
  8
_U+30EC_U+30A4_U+30E4_U+30FC 1
 62
     9
420
 12566464
100
AcDbHatch
 10
0.0
 20
0.0
 30
0.0
210
0.0
220
0.0
230
1.0
  2
SOLID
 70
     1
 71
     0
 91
        1
 92
        1
 93
        6
 72
     1
 10
76.26286305437227
 20
-110.7677419167524
 11
75.46276307478452
 21
-110.7677419167524
 72
     1
 10
75.46276307478452
 20
-110.7677419167524
 11
75.46276307478452
 21
-140.7679641314746
 72
     1
 10
75.46276307478452
 20
-140.7679641314746
 11
105.4633373094061
 21
-140.7679641314746
 72
     1
 10
105.4633373094061
 20
-140.7679641314746
 11
105.4633373094061
 21
-139.9676877427857
 72
     1
 10
105.4633373094061
 20
-139.9676877427857
 11
76.26268666548788
 21
-139.9676877427857
 72
     1
 10
76.26268666548788
 20
-139.9676877427857
 11
76.26286305437227
 21
-110.7677419167524
 97
        0
 75
     2
 76
     1
 98
        0
  0
POLYLINE
  5
71
330
1F
100
AcDbEntity
  8
_U+30EC_U+30A4_U+30E4_U+30FC 1
  6
AI-Linetype-2
 62
   154
420
    23468
370
    25
100
AcDb2dPolyline
 66
     1
 10
0.0
 20
0.0
 30
0.0
  0
VERTEX
  5
72
330
71
100
AcDbEntity
  8
_U+30EC_U+30A4_U+30E4_U+30FC 1
  6
AI-Linetype-2
 62
   154
420
    23468
370
    25
100
AcDbVertex
100
AcDb2dVertex
 10
77.26521052880025
 20
-130.768231078419
 30
0.0
  0
VERTEX
  5
73
330
71
100
AcDbEntity
  8
_U+30EC_U+30A4_U+30E4_U+30FC 1
  6
AI-Linetype-2
 62
   154
420
    23468
370
    25
100
AcDbVertex
100
AcDb2dVertex
 10
77.26521052880025
 20
-110.8218227500722
 30
0.0
  0
SEQEND
  5
75
330
71
100
AcDbEntity
  8
_U+30EC_U+30A4_U+30E4_U+30FC 1
  6
AI-Linetype-2
 62
   154
420
    23468
370
    25
  0
POLYLINE
  5
76
330
1F
100
AcDbEntity
  8
_U+30EC_U+30A4_U+30E4_U+30FC 1
 62
   179
420
  2234388
370
     9
100
AcDb2dPolyline
 66
     1
 10
0.0
 20
0.0
 30
0.0
  0
VERTEX
  5
77
330
76
100
AcDbEntity
  8
_U+30EC_U+30A4_U+30E4_U+30FC 1
 62
   179
420
  2234388
370
     9
100
AcDbVertex
100
AcDb2dVertex
 10
77.46520024592031
 20
-116.9930349707516
 30
0.0
  0
VERTEX
  5
78
330
76
100
AcDbEntity
  8
_U+30EC_U+30A4_U+30E4_U+30FC 1
 62
   179
420
  2234388
370
     9
100
AcDbVertex
100
AcDb2dVertex
 10
94.9988550763773
 20
-116.9930349707516
 30
0.0
  0
SEQEND
  5
79
330
76
100
AcDbEntity
  8
_U+30EC_U+30A4_U+30E4_U+30FC 1
 62
   179
420
  2234388
370
     9
  0
POLYLINE
  5
7A
330
1F
100
AcDbEntity
  8
_U+30EC_U+30A4_U+30E4_U+30FC 1
 62
   179
420
  2234388
370
     9
100
AcDb2dPolyline
 66
     1
 10
0.0
 20
0.0
 30
0.0
  0
VERTEX
  5
7B
330
7A
100
AcDbEntity
  8
_U+30EC_U+30A4_U+30E4_U+30FC 1
 62
   179
420
  2234388
370
     9
100
AcDbVertex
100
AcDb2dVertex
 10
100.6829163202537
 20
-138.8042619097434
 30
0.0
  0
VERTEX
  5
7C
330
7A
100
AcDbEntity
  8
_U+30EC_U+30A4_U+30E4_U+30FC 1
 62
   179
420
  2234388
370
     9
100
AcDbVertex
100
AcDb2dVertex
 10
100.6829163202537
 20
-119.0022102480272
 30
0.0
  0
SEQEND
  5
7D
330
7A
100
AcDbEntity
  8
_U+30EC_U+30A4_U+30E4_U+30FC 1
 62
   179
420
  2234388
370
     9
  0
INSERT
  5
7F
330
1F
100
AcDbEntity
  8
_U+30EC_U+30A4_U+30E4_U+30FC 1
100
AcDbBlockReference
  2
block 3
 10
0.0
 20
0.0
 30
0.0
  0
POLYLINE
  5
A6
330
1F
100
AcDbEntity
  8
_U+30EC_U+30A4_U+30E4_U+30FC 1
 62
     7
420
 16777215
370
     9
100
AcDb2dPolyline
 66
     1
 10
0.0
 20
0.0
 30
0.0
  0
VERTEX
  5
A7
330
A6
100
AcDbEntity
  8
_U+30EC_U+30A4_U+30E4_U+30FC 1
 62
     7
420
 16777215
370
     9
100
AcDbVertex
100
AcDb2dVertex
 10
75.46103446371751
 20
-144.9882094081975
 30
0.0
  0
VERTEX
  5
A8
330
A6
100
AcDbEntity
  8
_U+30EC_U+30A4_U+30E4_U+30FC 1
 62
     7
420
 16777215
370
     9
100
AcDbVertex
100
AcDb2dVertex
 10
105.4612559205703
 20
-144.9882094081975
 30
0.0
  0
SEQEND
  5
A9
330
A6
100
AcDbEntity
  8
_U+30EC_U+30A4_U+30E4_U+30FC 1
 62
     7
420
 16777215
370
     9
  0
INSERT
  5
AB
330
1F
100
AcDbEntity
  8
_U+30EC_U+30A4_U+30E4_U+30FC 1
100
AcDbBlockReference
  2
block 4
 10
0.0
 20
0.0
 30
0.0
  0
POLYLINE
  5
B3
330
1F
100
AcDbEntity
  8
_U+30EC_U+30A4_U+30E4_U+30FC 1
 62
   179
420
  2234388
370
     9
100
AcDb2dPolyline
 66
     1
 10
0.0
 20
0.0
 30
0.0
  0
VERTEX
  5
B4
330
B3
100
AcDbEntity
  8
_U+30EC_U+30A4_U+30E4_U+30FC 1
 62
   179
420
  2234388
370
     9
100
AcDbVertex
100
AcDb2dVertex
 10
100.9426665914047
 20
-137.8382857988739
 30
0.0
  0
VERTEX
  5
B5
330
B3
100
AcDbEntity
  8
_U+30EC_U+30A4_U+30E4_U+30FC 1
 62
   179
420
  2234388
370
     9
100
AcDbVertex
100
AcDb2dVertex
 10
100.6829163202537
 20
-138.8042619097434
 30
0.0
  0
VERTEX
  5
B6
330
B3
100
AcDbEntity
  8
_U+30EC_U+30A4_U+30E4_U+30FC 1
 62
   179
420
  2234388
370
     9
100
AcDbVertex
100
AcDb2dVertex
 10
100.4252121601616
 20
-137.8379330210961
 30
0.0
  0
SEQEND
  5
B7
330
B3
100
AcDbEntity
  8
_U+30EC_U+30A4_U+30E4_U+30FC 1
 62
   179
420
  2234388
370
     9
  0
POLYLINE
  5
B8
330
1F
100
AcDbEntity
  8
_U+30EC_U+30A4_U+30E4_U+30FC 1
 62
   179
420
  2234388
370
     9
100
AcDb2dPolyline
 66
     1
 10
0.0
 20
0.0
 30
0.0
  0
VERTEX
  5
B9
330
B8
100
AcDbEntity
  8
_U+30EC_U+30A4_U+30E4_U+30FC 1
 62
   179
420
  2234388
370
     9
100
AcDbVertex
100
AcDb2dVertex
 10
78.4312116101642
 20
-117.2741635817925
 30
0.0
  0
VERTEX
  5
BA
330
B8
100
AcDbEntity
  8
_U+30EC_U+30A4_U+30E4_U+30FC 1
 62
   179
420
  2234388
370
     9
100
AcDbVertex
100
AcDb2dVertex
 10
77.46520024592031
 20
-117.014378026302
 30
0.0
  0
VERTEX
  5
BB
330
B8
100
AcDbEntity
  8
_U+30EC_U+30A4_U+30E4_U+30FC 1
 62
   179
420
  2234388
370
     9
100
AcDbVertex
100
AcDb2dVertex
 10
78.43156438793298
 20
-116.7570266374773
 30
0.0
  0
SEQEND
  5
BC
330
B8
100
AcDbEntity
  8
_U+30EC_U+30A4_U+30E4_U+30FC 1
 62
   179
420
  2234388
370
     9
  0
SPLINE
  5
BD
330
1F
100
AcDbEntity
  8
_U+30EC_U+30A4_U+30E4_U+30FC 1
 62
   179
420
  2234388
370
     9
100
AcDbSpline
210
0.0
220
0.0
230
1.0
 70
    11
 71
     3
 72
    17
 73
    13
 74
     0
 42
0.0000000001
 43
0.0000000001
 12
1.0
 22
0.0
 32
0.0
 13
1.0
 23
0.0
 33
0.0
 40
0.0
 40
0.0
 40
0.0
 40
0.0
 40
1.0
 40
1.0
 40
1.0
 40
2.0
 40
2.0
 40
2.0
 40
3.0
 40
3.0
 40
3.0
 40
4.0
 40
4.0
 40
4.0
 40
4.0
 10
105.6403964715556
 20
-144.9902907970859
 30
0.0
 10
105.6403964715556
 20
-144.9351516304328
 30
0.0
 10
105.5956289726977
 20
-144.8903841304442
 30
0.0
 10
105.5404898074378
 20
-144.8903841304442
 30
0.0
 10
105.4853859199547
 20
-144.8903841304442
 30
0.0
 10
105.44058314332
 20
-144.9351516304328
 30
0.0
 10
105.44058314332
 20
-144.9902907970859
 30
0.0
 10
105.44058314332
 20
-145.0453946859608
 30
0.0
 10
105.4853859199547
 20
-145.0901974637275
 30
0.0
 10
105.5404898074378
 20
-145.0901974637275
 30
0.0
 10
105.5956289726977
 20
-145.0901974637275
 30
0.0
 10
105.6403964715556
 20
-145.0453946859608
 30
0.0
 10
105.6403964715556
 20
-144.9902907970859
 30
0.0
  0
POLYLINE
  5
BE
330
1F
100
AcDbEntity
  8
_U+30EC_U+30A4_U+30E4_U+30FC 1
 62
   179
420
  2234388
370
     9
100
AcDb2dPolyline
 66
     1
 10
0.0
 20
0.0
 30
0.0
  0
VERTEX
  5
BF
330
BE
100
AcDbEntity
  8
_U+30EC_U+30A4_U+30E4_U+30FC 1
 62
   179
420
  2234388
370
     9
100
AcDbVertex
100
AcDb2dVertex
 10
105.5404898074378
 20
-143.5302494085622
 30
0.0
  0
VERTEX
  5
C0
330
BE
100
AcDbEntity
  8
_U+30EC_U+30A4_U+30E4_U+30FC 1
 62
   179
420
  2234388
370
     9
100
AcDbVertex
100
AcDb2dVertex
 10
105.5404898074378
 20
-145.9900630190578
 30
0.0
  0
SEQEND
  5
C1
330
BE
100
AcDbEntity
  8
_U+30EC_U+30A4_U+30E4_U+30FC 1
 62
   179
420
  2234388
370
     9
  0
SPLINE
  5
C2
330
1F
100
AcDbEntity
  8
_U+30EC_U+30A4_U+30E4_U+30FC 1
 62
   179
420
  2234388
370
     9
100
AcDbSpline
210
0.0
220
0.0
230
1.0
 70
    11
 71
     3
 72
    17
 73
    13
 74
     0
 42
0.0000000001
 43
0.0000000001
 12
1.0
 22
0.0
 32
0.0
 13
1.0
 23
0.0
 33
0.0
 40
0.0
 40
0.0
 40
0.0
 40
0.0
 40
1.0
 40
1.0
 40
1.0
 40
2.0
 40
2.0
 40
2.0
 40
3.0
 40
3.0
 40
3.0
 40
4.0
 40
4.0
 40
4.0
 40
4.0
 10
75.64070418135597
 20
-144.9902907970859
 30
0.0
 10
75.64070418135597
 20
-144.9351516304328
 30
0.0
 10
75.59590140472122
 20
-144.8903841304442
 30
0.0
 10
75.54076223946126
 20
-144.8903841304442
 30
0.0
 10
75.48565835197819
 20
-144.8903841304442
 30
0.0
 10
75.44085557534343
 20
-144.9351516304328
 30
0.0
 10
75.44085557534343
 20
-144.9902907970859
 30
0.0
 10
75.44085557534343
 20
-145.0453946859608
 30
0.0
 10
75.48565835197819
 20
-145.0901974637275
 30
0.0
 10
75.54076223946126
 20
-145.0901974637275
 30
0.0
 10
75.59590140472122
 20
-145.0901974637275
 30
0.0
 10
75.64070418135597
 20
-145.0453946859608
 30
0.0
 10
75.64070418135597
 20
-144.9902907970859
 30
0.0
  0
POLYLINE
  5
C3
330
1F
100
AcDbEntity
  8
_U+30EC_U+30A4_U+30E4_U+30FC 1
 62
   179
420
  2234388
370
     9
100
AcDb2dPolyline
 66
     1
 10
0.0
 20
0.0
 30
0.0
  0
VERTEX
  5
C4
330
C3
100
AcDbEntity
  8
_U+30EC_U+30A4_U+30E4_U+30FC 1
 62
   179
420
  2234388
370
     9
100
AcDbVertex
100
AcDb2dVertex
 10
75.54076223946126
 20
-143.5302494085622
 30
0.0
  0
VERTEX
  5
C5
330
C3
100
AcDbEntity
  8
_U+30EC_U+30A4_U+30E4_U+30FC 1
 62
   179
420
  2234388
370
     9
100
AcDbVertex
100
AcDb2dVertex
 10
75.54076223946126
 20
-145.9900630190578
 30
0.0
  0
SEQEND
  5
C6
330
C3
100
AcDbEntity
  8
_U+30EC_U+30A4_U+30E4_U+30FC 1
 62
   179
420
  2234388
370
     9
  0
SPLINE
  5
C7
330
1F
100
AcDbEntity
  8
_U+30EC_U+30A4_U+30E4_U+30FC 1
 62
   179
420
  2234388
370
     9
100
AcDbSpline
210
0.0
220
0.0
230
1.0
 70
    11
 71
     3
 72
    17
 73
    13
 74
     0
 42
0.0000000001
 43
0.0000000001
 12
1.0
 22
0.0
 32
0.0
 13
1.0
 23
0.0
 33
0.0
 40
0.0
 40
0.0
 40
0.0
 40
0.0
 40
1.0
 40
1.0
 40
1.0
 40
2.0
 40
2.0
 40
2.0
 40
3.0
 40
3.0
 40
3.0
 40
4.0
 40
4.0
 40
4.0
 40
4.0
 10
71.85469316683405
 20
-140.7876138536922
 30
0.0
 10
71.85469316683405
 20
-140.7325099648166
 30
0.0
 10
71.80992566797617
 20
-140.6877071870505
 30
0.0
 10
71.75478650271621
 20
-140.6877071870505
 30
0.0
 10
71.69968261523314
 20
-140.6877071870505
 30
0.0
 10
71.65487983859839
 20
-140.7325099648166
 30
0.0
 10
71.65487983859839
 20
-140.7876138536922
 30
0.0
 10
71.65487983859839
 20
-140.8427530203446
 30
0.0
 10
71.69968261523314
 20
-140.8875205203338
 30
0.0
 10
71.75478650271621
 20
-140.8875205203338
 30
0.0
 10
71.80992566797617
 20
-140.8875205203338
 30
0.0
 10
71.85469316683405
 20
-140.8427530203446
 30
0.0
 10
71.85469316683405
 20
-140.7876138536922
 30
0.0
  0
SPLINE
  5
C8
330
1F
100
AcDbEntity
  8
_U+30EC_U+30A4_U+30E4_U+30FC 1
 62
   179
420
  2234388
370
     9
100
AcDbSpline
210
0.0
220
0.0
230
1.0
 70
    11
 71
     3
 72
    17
 73
    13
 74
     0
 42
0.0000000001
 43
0.0000000001
 12
1.0
 22
0.0
 32
0.0
 13
1.0
 23
0.0
 33
0.0
 40
0.0
 40
0.0
 40
0.0
 40
0.0
 40
1.0
 40
1.0
 40
1.0
 40
2.0
 40
2.0
 40
2.0
 40
3.0
 40
3.0
 40
3.0
 40
4.0
 40
4.0
 40
4.0
 40
4.0
 10
71.85469316683405
 20
-110.7873916389697
 30
0.0
 10
71.85469316683405
 20
-110.7322524723169
 30
0.0
 10
71.80992566797617
 20
-110.6874849723281
 30
0.0
 10
71.75478650271621
 20
-110.6874849723281
 30
0.0
 10
71.69968261523314
 20
-110.6874849723281
 30
0.0
 10
71.65487983859839
 20
-110.7322524723169
 30
0.0
 10
71.65487983859839
 20
-110.7873916389697
 30
0.0
 10
71.65487983859839
 20
-110.8428483056227
 30
0.0
 10
71.69968261523314
 20
-110.8876158056116
 30
0.0
 10
71.75478650271621
 20
-110.8876158056116
 30
0.0
 10
71.80992566797617
 20
-110.8876158056116
 30
0.0
 10
71.85469316683405
 20
-110.8428483056227
 30
0.0
 10
71.85469316683405
 20
-110.7873916389697
 30
0.0
  0
POLYLINE
  5
C9
330
1F
100
AcDbEntity
  8
_U+30EC_U+30A4_U+30E4_U+30FC 1
 62
   179
420
  2234388
370
     9
100
AcDb2dPolyline
 66
     1
 10
0.0
 20
0.0
 30
0.0
  0
VERTEX
  5
CA
330
C9
100
AcDbEntity
  8
_U+30EC_U+30A4_U+30E4_U+30FC 1
 62
   179
420
  2234388
370
     9
100
AcDbVertex
100
AcDb2dVertex
 10
71.75478650271621
 20
-110.7873916389697
 30
0.0
  0
VERTEX
  5
CB
330
C9
100
AcDbEntity
  8
_U+30EC_U+30A4_U+30E4_U+30FC 1
 62
   179
420
  2234388
370
     9
100
AcDbVertex
100
AcDb2dVertex
 10
71.75478650271621
 20
-140.7876138536922
 30
0.0
  0
SEQEND
  5
CC
330
C9
100
AcDbEntity
  8
_U+30EC_U+30A4_U+30E4_U+30FC 1
 62
   179
420
  2234388
370
     9
  0
POLYLINE
  5
CD
330
1F
100
AcDbEntity
  8
_U+30EC_U+30A4_U+30E4_U+30FC 1
 62
   179
420
  2234388
370
     9
100
AcDb2dPolyline
 66
     1
 10
0.0
 20
0.0
 30
0.0
  0
VERTEX
  5
CE
330
CD
100
AcDbEntity
  8
_U+30EC_U+30A4_U+30E4_U+30FC 1
 62
   179
420
  2234388
370
     9
100
AcDbVertex
100
AcDb2dVertex
 10
73.21482785435634
 20
-110.7873916389697
 30
0.0
  0
VERTEX
  5
CF
330
CD
100
AcDbEntity
  8
_U+30EC_U+30A4_U+30E4_U+30FC 1
 62
   179
420
  2234388
370
     9
100
AcDbVertex
100
AcDb2dVertex
 10
70.7550143060003
 20
-110.7873916389697
 30
0.0
  0
SEQEND
  5
D0
330
CD
100
AcDbEntity
  8
_U+30EC_U+30A4_U+30E4_U+30FC 1
 62
   179
420
  2234388
370
     9
  0
POLYLINE
  5
D1
330
1F
100
AcDbEntity
  8
_U+30EC_U+30A4_U+30E4_U+30FC 1
 62
   179
420
  2234388
370
     9
100
AcDb2dPolyline
 66
     1
 10
0.0
 20
0.0
 30
0.0
  0
VERTEX
  5
D2
330
D1
100
AcDbEntity
  8
_U+30EC_U+30A4_U+30E4_U+30FC 1
 62
   179
420
  2234388
370
     9
100
AcDbVertex
100
AcDb2dVertex
 10
73.21482785435634
 20
-140.7876138536922
 30
0.0
  0
VERTEX
  5
D3
330
D1
100
AcDbEntity
  8
_U+30EC_U+30A4_U+30E4_U+30FC 1
 62
   179
420
  2234388
370
     9
100
AcDbVertex
100
AcDb2dVertex
 10
70.7550143060003
 20
-140.7876138536922
 30
0.0
  0
SEQEND
  5
D4
330
D1
100
AcDbEntity
  8
_U+30EC_U+30A4_U+30E4_U+30FC 1
 62
   179
420
  2234388
370
     9
  0
INSERT
  5
D6
330
1F
100
AcDbEntity
  8
_U+30EC_U+30A4_U+30E4_U+30FC 1
100
AcDbBlockReference
  2
block 5
 10
0.0
 20
0.0
 30
0.0
  0
ENDSEC
  0
SECTION
  2
OBJECTS
  0
DICTIONARY
  5
C
330
0
100
AcDbDictionary
281
     1
  3
ACAD_GROUP
350
D
  3
ACAD_LAYOUT
350
1A
  3
ACAD_MATERIAL
350
3B
  3
ACAD_MLEADERSTYLE
350
DF
  3
ACAD_MLINESTYLE
350
17
  3
ACAD_PLOTSETTINGS
350
19
  3
ACAD_PLOTSTYLENAME
350
E
  3
ACAD_TABLESTYLE
350
DE
  3
ACAD_VISUALSTYLE
350
2A
  0
SUN
  5
3F
330
29
100
AcDbSun
 90
        1
290
     0
 63
     7
421
 16777215
 40
1.0
291
     1
 91
  2455826
 92
 54000000
292
     0
 70
     2
 71
   256
280
     1
  0
DICTIONARY
  5
D
102
{ACAD_REACTORS
330
C
102
}
330
C
100
AcDbDictionary
281
     1
  0
DICTIONARY
  5
1A
102
{ACAD_REACTORS
330
C
102
}
330
C
100
AcDbDictionary
281
     1
  3
Layout1
350
1E
  3
Layout2
350
26
  3
Model
350
22
  0
DICTIONARY
  5
3B
102
{ACAD_REACTORS
330
C
102
}
330
C
100
AcDbDictionary
281
     1
  3
ByBlock
350
3D
  3
ByLayer
350
3C
  3
Global
350
3E
  0
DICTIONARY
  5
DF
102
{ACAD_REACTORS
330
C
102
}
330
C
100
AcDbDictionary
281
     1
  0
DICTIONARY
  5
17
102
{ACAD_REACTORS
330
C
102
}
330
C
100
AcDbDictionary
281
     1
  3
Standard
350
18
  0
DICTIONARY
  5
19
102
{ACAD_REACTORS
330
C
102
}
330
C
100
AcDbDictionary
281
     1
  0
ACDBDICTIONARYWDFLT
  5
E
102
{ACAD_REACTORS
330
C
102
}
330
C
100
AcDbDictionary
281
     1
  3
Normal
350
F
100
AcDbDictionaryWithDefault
340
F
  0
DICTIONARY
  5
DE
102
{ACAD_REACTORS
330
C
102
}
330
C
100
AcDbDictionary
281
     1
  0
DICTIONARY
  5
2A
102
{ACAD_REACTORS
330
C
102
}
330
C
100
AcDbDictionary
281
     1
  3
2dWireframe
350
2F
  3
3D Hidden
350
31
  3
3dWireframe
350
30
  3
Basic
350
32
  3
Brighten
350
36
  3
ColorChange
350
3A
  3
Conceptual
350
34
  3
Dim
350
35
  3
Facepattern
350
39
  3
Flat
350
2B
  3
FlatWithEdges
350
2C
  3
Gouraud
350
2D
  3
GouraudWithEdges
350
2E
  3
Linepattern
350
38
  3
Realistic
350
33
  3
Thicken
350
37
  0
LAYOUT
  5
1E
102
{ACAD_REACTORS
330
1A
102
}
330
1A
100
AcDbPlotSettings
  1

  2
none_device
  4

  6

 40
0.0
 41
0.0
 42
0.0
 43
0.0
 44
0.0
 45
0.0
 46
0.0
 47
0.0
 48
0.0
 49
0.0
140
0.0
141
0.0
142
1.0
143
1.0
 70
   688
 72
     0
 73
     0
 74
     5
  7

 75
    16
 76
     0
 77
     2
 78
   300
147
1.0
148
0.0
149
0.0
100
AcDbLayout
  1
Layout1
 70
     1
 71
     1
 10
0.0
 20
0.0
 11
12.0
 21
9.0
 12
0.0
 22
0.0
 32
0.0
 14
1.000000000000000E+20
 24
1.000000000000000E+20
 34
1.000000000000000E+20
 15
-1.000000000000000E+20
 25
-1.000000000000000E+20
 35
-1.000000000000000E+20
146
0.0
 13
0.0
 23
0.0
 33
0.0
 16
1.0
 26
0.0
 36
0.0
 17
0.0
 27
1.0
 37
0.0
 76
     0
330
1B
  0
LAYOUT
  5
26
102
{ACAD_REACTORS
330
1A
102
}
330
1A
100
AcDbPlotSettings
  1

  2
none_device
  4

  6

 40
0.0
 41
0.0
 42
0.0
 43
0.0
 44
0.0
 45
0.0
 46
0.0
 47
0.0
 48
0.0
 49
0.0
140
0.0
141
0.0
142
1.0
143
1.0
 70
   688
 72
     0
 73
     0
 74
     5
  7

 75
    16
 76
     0
 77
     2
 78
   300
147
1.0
148
0.0
149
0.0
100
AcDbLayout
  1
Layout2
 70
     1
 71
     2
 10
0.0
 20
0.0
 11
0.0
 21
0.0
 12
0.0
 22
0.0
 32
0.0
 14
0.0
 24
0.0
 34
0.0
 15
0.0
 25
0.0
 35
0.0
146
0.0
 13
0.0
 23
0.0
 33
0.0
 16
1.0
 26
0.0
 36
0.0
 17
0.0
 27
1.0
 37
0.0
 76
     0
330
23
  0
LAYOUT
  5
22
102
{ACAD_REACTORS
330
1A
102
}
330
1A
100
AcDbPlotSettings
  1

  2
none_device
  4

  6

 40
0.0
 41
0.0
 42
0.0
 43
0.0
 44
0.0
 45
0.0
 46
0.0
 47
0.0
 48
0.0
 49
0.0
140
0.0
141
0.0
142
1.0
143
1.0
 70
  1712
 72
     0
 73
     0
 74
     0
  7

 75
     0
 76
     0
 77
     2
 78
   300
147
1.0
148
0.0
149
0.0
100
AcDbLayout
  1
Model
 70
     1
 71
     0
 10
0.0
 20
0.0
 11
12.0
 21
9.0
 12
0.0
 22
0.0
 32
0.0
 14
1.000000000000000E+20
 24
1.000000000000000E+20
 34
1.000000000000000E+20
 15
-1.000000000000000E+20
 25
-1.000000000000000E+20
 35
-1.000000000000000E+20
146
0.0
 13
0.0
 23
0.0
 33
0.0
 16
1.0
 26
0.0
 36
0.0
 17
0.0
 27
1.0
 37
0.0
 76
     0
330
1F
331
29
  0
MATERIAL
  5
3D
102
{ACAD_REACTORS
330
3B
102
}
330
3B
100
AcDbMaterial
  1
ByBlock
 72
     1
 94
      127
  0
MATERIAL
  5
3C
102
{ACAD_REACTORS
330
3B
102
}
330
3B
100
AcDbMaterial
  1
ByLayer
 72
     1
 94
      127
  0
MATERIAL
  5
3E
102
{ACAD_REACTORS
330
3B
102
}
330
3B
100
AcDbMaterial
  1
Global
 72
     1
 94
      127
  0
MLINESTYLE
  5
18
102
{ACAD_REACTORS
330
17
102
}
330
17
100
AcDbMlineStyle
  2
Standard
 70
     0
  3

 62
   256
 51
90.0
 52
90.0
 71
     2
 49
0.5
 62
   256
  6
BYLAYER
 49
-0.5
 62
   256
  6
BYLAYER
  0
ACDBPLACEHOLDER
  5
F
102
{ACAD_REACTORS
330
E
102
}
330
E
  0
VISUALSTYLE
  5
2F
102
{ACAD_REACTORS
330
2A
102
}
330
2A
100
AcDbVisualStyle
  2
2dWireframe
 70
     4
177
     2
291
     0
 71
     0
176
     1
 72
     2
176
     1
 73
     0
176
     1
 90
        0
176
     1
 40
-0.6
176
     1
 41
-30.0
176
     1
 62
     5
 63
     7
421
 16777215
176
     1
 74
     1
176
     1
 91
        4
176
     1
 64
     7
176
     1
 65
   257
176
     1
 75
     1
176
     1
175
     1
176
     1
 42
1.0
176
     1
 92
        0
176
     1
 66
   257
176
     1
 43
1.0
176
     1
 76
     1
176
     1
 77
     6
176
     1
 78
     2
176
     1
 67
     7
176
     1
 79
     5
176
     1
170
     0
176
     1
171
     0
176
     1
290
     0
176
     1
 93
        1
176
     1
 44
0.0
176
     1
173
     0
176
     1
  0
VISUALSTYLE
  5
31
102
{ACAD_REACTORS
330
2A
102
}
330
2A
100
AcDbVisualStyle
  2
3D Hidden
 70
     6
177
     2
291
     0
 71
     1
176
     1
 72
     2
176
     1
 73
     2
176
     1
 90
        0
176
     1
 40
-0.6
176
     1
 41
-30.0
176
     1
 62
     5
 63
     7
421
 16777215
176
     1
 74
     2
176
     1
 91
        2
176
     1
 64
     7
176
     1
 65
   257
176
     1
 75
     2
176
     1
175
     1
176
     1
 42
40.0
176
     1
 92
        0
176
     1
 66
   257
176
     1
 43
1.0
176
     1
 76
     1
176
     1
 77
     6
176
     1
 78
     2
176
     1
 67
     7
176
     1
 79
     3
176
     1
170
     0
176
     1
171
     0
176
     1
290
     0
176
     1
 93
        1
176
     1
 44
0.0
176
     1
173
     0
176
     1
  0
VISUALSTYLE
  5
30
102
{ACAD_REACTORS
330
2A
102
}
330
2A
100
AcDbVisualStyle
  2
3dWireframe
 70
     5
177
     2
291
     0
 71
     0
176
     1
 72
     2
176
     1
 73
     0
176
     1
 90
        0
176
     1
 40
-0.6
176
     1
 41
-30.0
176
     1
 62
     5
 63
     7
421
 16777215
176
     1
 74
     1
176
     1
 91
        4
176
     1
 64
     7
176
     1
 65
   257
176
     1
 75
     1
176
     1
175
     1
176
     1
 42
1.0
176
     1
 92
        0
176
     1
 66
   257
176
     1
 43
1.0
176
     1
 76
     1
176
     1
 77
     6
176
     1
 78
     2
176
     1
 67
     7
176
     1
 79
     5
176
     1
170
     0
176
     1
171
     0
176
     1
290
     0
176
     1
 93
        1
176
     1
 44
0.0
176
     1
173
     0
176
     1
  0
VISUALSTYLE
  5
32
102
{ACAD_REACTORS
330
2A
102
}
330
2A
100
AcDbVisualStyle
  2
Basic
 70
     7
177
     2
291
     1
 71
     1
176
     1
 72
     0
176
     1
 73
     1
176
     1
 90
        0
176
     1
 40
-0.6
176
     1
 41
-30.0
176
     1
 62
     5
 63
     7
421
 16777215
176
     1
 74
     0
176
     1
 91
        4
176
     1
 64
     7
176
     1
 65
   257
176
     1
 75
     1
176
     1
175
     1
176
     1
 42
1.0
176
     1
 92
        8
176
     1
 66
     7
176
     1
 43
1.0
176
     1
 76
     1
176
     1
 77
     6
176
     1
 78
     2
176
     1
 67
     7
176
     1
 79
     5
176
     1
170
     0
176
     1
171
     0
176
     1
290
     0
176
     1
 93
        1
176
     1
 44
0.0
176
     1
173
     0
176
     1
  0
VISUALSTYLE
  5
36
102
{ACAD_REACTORS
330
2A
102
}
330
2A
100
AcDbVisualStyle
  2
Brighten
 70
    12
177
     2
291
     1
 71
     2
176
     1
 72
     2
176
     1
 73
     0
176
     1
 90
        0
176
     1
 40
-0.6
176
     1
 41
-30.0
176
     1
 62
     5
 63
     7
421
 16777215
176
     1
 74
     1
176
     1
 91
        4
176
     1
 64
     7
176
     1
 65
   257
176
     1
 75
     1
176
     1
175
     1
176
     1
 42
1.0
176
     1
 92
        8
176
     1
 66
     7
176
     1
 43
1.0
176
     1
 76
     1
176
     1
 77
     6
176
     1
 78
     2
176
     1
 67
     7
176
     1
 79
     5
176
     1
170
     0
176
     1
171
     0
176
     1
290
     0
176
     1
 93
        1
176
     1
 44
50.0
176
     1
173
     0
176
     1
  0
VISUALSTYLE
  5
3A
102
{ACAD_REACTORS
330
2A
102
}
330
2A
100
AcDbVisualStyle
  2
ColorChange
 70
    16
177
     2
291
     1
 71
     2
176
     1
 72
     2
176
     1
 73
     3
176
     1
 90
        0
176
     1
 40
-0.6
176
     1
 41
-30.0
176
     1
 62
     5
 63
     8
421
  8421504
176
     1
 74
     1
176
     1
 91
        4
176
     1
 64
     7
176
     1
 65
   257
176
     1
 75
     1
176
     1
175
     1
176
     1
 42
1.0
176
     1
 92
        8
176
     1
 66
     8
424
  8421504
176
     1
 43
1.0
176
     1
 76
     1
176
     1
 77
     6
176
     1
 78
     2
176
     1
 67
     7
176
     1
 79
     5
176
     1
170
     0
176
     1
171
     0
176
     1
290
     0
176
     1
 93
        1
176
     1
 44
0.0
176
     1
173
     0
176
     1
  0
VISUALSTYLE
  5
34
102
{ACAD_REACTORS
330
2A
102
}
330
2A
100
AcDbVisualStyle
  2
Conceptual
 70
     9
177
     2
291
     0
 71
     3
176
     1
 72
     2
176
     1
 73
     0
176
     1
 90
        0
176
     1
 40
-0.6
176
     1
 41
-30.0
176
     1
 62
     5
 63
     7
421
 16777215
176
     1
 74
     2
176
     1
 91
        2
176
     1
 64
     7
176
     1
 65
   257
176
     1
 75
     1
176
     1
175
     1
176
     1
 42
40.0
176
     1
 92
        8
176
     1
 66
     7
176
     1
 43
1.0
176
     1
 76
     1
176
     1
 77
     6
176
     1
 78
     2
176
     1
 67
     7
176
     1
 79
     3
176
     1
170
     0
176
     1
171
     0
176
     1
290
     0
176
     1
 93
        1
176
     1
 44
0.0
176
     1
173
     0
176
     1
  0
VISUALSTYLE
  5
35
102
{ACAD_REACTORS
330
2A
102
}
330
2A
100
AcDbVisualStyle
  2
Dim
 70
    11
177
     2
291
     1
 71
     2
176
     1
 72
     2
176
     1
 73
     0
176
     1
 90
        0
176
     1
 40
-0.6
176
     1
 41
-30.0
176
     1
 62
     5
 63
     7
421
 16777215
176
     1
 74
     1
176
     1
 91
        4
176
     1
 64
     7
176
     1
 65
   257
176
     1
 75
     1
176
     1
175
     1
176
     1
 42
1.0
176
     1
 92
        8
176
     1
 66
     7
176
     1
 43
1.0
176
     1
 76
     1
176
     1
 77
     6
176
     1
 78
     2
176
     1
 67
     7
176
     1
 79
     5
176
     1
170
     0
176
     1
171
     0
176
     1
290
     0
176
     1
 93
        1
176
     1
 44
-50.0
176
     1
173
     0
176
     1
  0
VISUALSTYLE
  5
39
102
{ACAD_REACTORS
330
2A
102
}
330
2A
100
AcDbVisualStyle
  2
Facepattern
 70
    15
177
     2
291
     1
 71
     2
176
     1
 72
     2
176
     1
 73
     0
176
     1
 90
        0
176
     1
 40
-0.6
176
     1
 41
-30.0
176
     1
 62
     5
 63
     7
421
 16777215
176
     1
 74
     1
176
     1
 91
        4
176
     1
 64
     7
176
     1
 65
   257
176
     1
 75
     1
176
     1
175
     1
176
     1
 42
1.0
176
     1
 92
        8
176
     1
 66
     7
176
     1
 43
1.0
176
     1
 76
     1
176
     1
 77
     6
176
     1
 78
     2
176
     1
 67
     7
176
     1
 79
     5
176
     1
170
     0
176
     1
171
     0
176
     1
290
     0
176
     1
 93
        1
176
     1
 44
0.0
176
     1
173
     0
176
     1
  0
VISUALSTYLE
  5
2B
102
{ACAD_REACTORS
330
2A
102
}
330
2A
100
AcDbVisualStyle
  2
Flat
 70
     0
177
     2
291
     1
 71
     2
176
     1
 72
     1
176
     1
 73
     1
176
     1
 90
        2
176
     1
 40
-0.6
176
     1
 41
30.0
176
     1
 62
     5
 63
     7
421
 16777215
176
     1
 74
     0
176
     1
 91
        4
176
     1
 64
     7
176
     1
 65
   257
176
     1
 75
     1
176
     1
175
     1
176
     1
 42
1.0
176
     1
 92
        8
176
     1
 66
     7
176
     1
 43
1.0
176
     1
 76
     1
176
     1
 77
     6
176
     1
 78
     2
176
     1
 67
     7
176
     1
 79
     5
176
     1
170
     0
176
     1
171
     0
176
     1
290
     0
176
     1
 93
       13
176
     1
 44
0.0
176
     1
173
     0
176
     1
  0
VISUALSTYLE
  5
2C
102
{ACAD_REACTORS
330
2A
102
}
330
2A
100
AcDbVisualStyle
  2
FlatWithEdges
 70
     1
177
     2
291
     1
 71
     2
176
     1
 72
     1
176
     1
 73
     1
176
     1
 90
        2
176
     1
 40
-0.6
176
     1
 41
30.0
176
     1
 62
     5
 63
     7
421
 16777215
176
     1
 74
     1
176
     1
 91
        4
176
     1
 64
     7
176
     1
 65
   257
176
     1
 75
     1
176
     1
175
     1
176
     1
 42
1.0
176
     1
 92
        0
176
     1
 66
   257
176
     1
 43
1.0
176
     1
 76
     1
176
     1
 77
     6
176
     1
 78
     2
176
     1
 67
     7
176
     1
 79
     5
176
     1
170
     0
176
     1
171
     0
176
     1
290
     0
176
     1
 93
       13
176
     1
 44
0.0
176
     1
173
     0
176
     1
  0
VISUALSTYLE
  5
2D
102
{ACAD_REACTORS
330
2A
102
}
330
2A
100
AcDbVisualStyle
  2
Gouraud
 70
     2
177
     2
291
     1
 71
     2
176
     1
 72
     2
176
     1
 73
     1
176
     1
 90
        2
176
     1
 40
-0.6
176
     1
 41
30.0
176
     1
 62
     5
 63
     7
421
 16777215
176
     1
 74
     0
176
     1
 91
        4
176
     1
 64
     7
176
     1
 65
   257
176
     1
 75
     1
176
     1
175
     1
176
     1
 42
1.0
176
     1
 92
        0
176
     1
 66
     7
176
     1
 43
1.0
176
     1
 76
     1
176
     1
 77
     6
176
     1
 78
     2
176
     1
 67
     7
176
     1
 79
     5
176
     1
170
     0
176
     1
171
     0
176
     1
290
     0
176
     1
 93
       13
176
     1
 44
0.0
176
     1
173
     0
176
     1
  0
VISUALSTYLE
  5
2E
102
{ACAD_REACTORS
330
2A
102
}
330
2A
100
AcDbVisualStyle
  2
GouraudWithEdges
 70
     3
177
     2
291
     1
 71
     2
176
     1
 72
     2
176
     1
 73
     1
176
     1
 90
        2
176
     1
 40
-0.6
176
     1
 41
30.0
176
     1
 62
     5
 63
     7
421
 16777215
176
     1
 74
     1
176
     1
 91
        4
176
     1
 64
     7
176
     1
 65
   257
176
     1
 75
     1
176
     1
175
     1
176
     1
 42
1.0
176
     1
 92
        0
176
     1
 66
   257
176
     1
 43
1.0
176
     1
 76
     1
176
     1
 77
     6
176
     1
 78
     2
176
     1
 67
     7
176
     1
 79
     5
176
     1
170
     0
176
     1
171
     0
176
     1
290
     0
176
     1
 93
       13
176
     1
 44
0.0
176
     1
173
     0
176
     1
  0
VISUALSTYLE
  5
38
102
{ACAD_REACTORS
330
2A
102
}
330
2A
100
AcDbVisualStyle
  2
Linepattern
 70
    14
177
     2
291
     1
 71
     2
176
     1
 72
     2
176
     1
 73
     0
176
     1
 90
        0
176
     1
 40
-0.6
176
     1
 41
-30.0
176
     1
 62
     5
 63
     7
421
 16777215
176
     1
 74
     1
176
     1
 91
        4
176
     1
 64
     7
176
     1
 65
   257
176
     1
 75
     7
176
     1
175
     7
176
     1
 42
1.0
176
     1
 92
        8
176
     1
 66
     7
176
     1
 43
1.0
176
     1
 76
     1
176
     1
 77
     6
176
     1
 78
     2
176
     1
 67
     7
176
     1
 79
     5
176
     1
170
     0
176
     1
171
     0
176
     1
290
     0
176
     1
 93
        1
176
     1
 44
0.0
176
     1
173
     0
176
     1
  0
VISUALSTYLE
  5
33
102
{ACAD_REACTORS
330
2A
102
}
330
2A
100
AcDbVisualStyle
  2
Realistic
 70
     8
177
     2
291
     0
 71
     2
176
     1
 72
     2
176
     1
 73
     0
176
     1
 90
        0
176
     1
 40
-0.6
176
     1
 41
-30.0
176
     1
 62
     5
 63
     7
421
 16777215
176
     1
 74
     1
176
     1
 91
        0
176
     1
 64
     7
176
     1
 65
   257
176
     1
 75
     1
176
     1
175
     1
176
     1
 42
1.0
176
     1
 92
        8
176
     1
 66
     8
424
  7895160
176
     1
 43
1.0
176
     1
 76
     1
176
     1
 77
     6
176
     1
 78
     2
176
     1
 67
     7
176
     1
 79
     5
176
     1
170
     0
176
     1
171
     0
176
     1
290
     0
176
     1
 93
       13
176
     1
 44
0.0
176
     1
173
     0
176
     1
  0
VISUALSTYLE
  5
37
102
{ACAD_REACTORS
330
2A
102
}
330
2A
100
AcDbVisualStyle
  2
Thicken
 70
    13
177
     2
291
     1
 71
     2
176
     1
 72
     2
176
     1
 73
     0
176
     1
 90
        0
176
     1
 40
-0.6
176
     1
 41
-30.0
176
     1
 62
     5
 63
     7
421
 16777215
176
     1
 74
     1
176
     1
 91
        4
176
     1
 64
     7
176
     1
 65
   257
176
     1
 75
     1
176
     1
175
     1
176
     1
 42
1.0
176
     1
 92
       12
176
     1
 66
     7
176
     1
 43
1.0
176
     1
 76
     1
176
     1
 77
     6
176
     1
 78
     2
176
     1
 67
     7
176
     1
 79
     5
176
     1
170
     0
176
     1
171
     0
176
     1
290
     0
176
     1
 93
        1
176
     1
 44
0.0
176
     1
173
     0
176
     1
  0
ENDSEC
  0
EOF
