  0
SECTION
  2
HEADER
  9
$ACADVER
  1
AC1024
  9
$ACADMAINTVER
 70
     6
  9
$DWGCODEPAGE
  3
UNDEFINED
  9
$INSBASE
 10
0.0
 20
0.0
 30
0.0
  9
$EXTMIN
 10
1.000000000000000E+20
 20
1.000000000000000E+20
 30
1.000000000000000E+20
  9
$EXTMAX
 10
-1.000000000000000E+20
 20
-1.000000000000000E+20
 30
-1.000000000000000E+20
  9
$LIMMIN
 10
0.0
 20
0.0
  9
$LIMMAX
 10
12.0
 20
9.0
  9
$ORTHOMODE
 70
     0
  9
$REGENMODE
 70
     1
  9
$FILLMODE
 70
     1
  9
$QTEXTMODE
 70
     0
  9
$MIRRTEXT
 70
     1
  9
$LTSCALE
 40
1.0
  9
$ATTMODE
 70
     1
  9
$TEXTSIZE
 40
0.2
  9
$TRACEWID
 40
0.05
  9
$TEXTSTYLE
  7
Standard
  9
$CLAYER
  8
0
  9
$CELTYPE
  6
ByLayer
  9
$CECOLOR
 62
   256
  9
$CELTSCALE
 40
1.0
  9
$DISPSILH
 70
     0
  9
$DIMSCALE
 40
1.0
  9
$DIMASZ
 40
0.18
  9
$DIMEXO
 40
0.0625
  9
$DIMDLI
 40
0.38
  9
$DIMRND
 40
0.0
  9
$DIMDLE
 40
0.0
  9
$DIMEXE
 40
0.18
  9
$DIMTP
 40
0.0
  9
$DIMTM
 40
0.0
  9
$DIMTXT
 40
0.18
  9
$DIMCEN
 40
0.09
  9
$DIMTSZ
 40
0.0
  9
$DIMTOL
 70
     0
  9
$DIMLIM
 70
     0
  9
$DIMTIH
 70
     1
  9
$DIMTOH
 70
     1
  9
$DIMSE1
 70
     0
  9
$DIMSE2
 70
     0
  9
$DIMTAD
 70
     0
  9
$DIMZIN
 70
     0
  9
$DIMBLK
  1

  9
$DIMASO
 70
     1
  9
$DIMSHO
 70
     1
  9
$DIMPOST
  1

  9
$DIMAPOST
  1

  9
$DIMALT
 70
     0
  9
$DIMALTD
 70
     2
  9
$DIMALTF
 40
25.4
  9
$DIMLFAC
 40
1.0
  9
$DIMTOFL
 70
     0
  9
$DIMTVP
 40
0.0
  9
$DIMTIX
 70
     0
  9
$DIMSOXD
 70
     0
  9
$DIMSAH
 70
     0
  9
$DIMBLK1
  1

  9
$DIMBLK2
  1

  9
$DIMSTYLE
  2
Standard
  9
$DIMCLRD
 70
     0
  9
$DIMCLRE
 70
     0
  9
$DIMCLRT
 70
     0
  9
$DIMTFAC
 40
1.0
  9
$DIMGAP
 40
0.09
  9
$DIMJUST
 70
     0
  9
$DIMSD1
 70
     0
  9
$DIMSD2
 70
     0
  9
$DIMTOLJ
 70
     1
  9
$DIMTZIN
 70
     0
  9
$DIMALTZ
 70
     0
  9
$DIMALTTZ
 70
     0
  9
$DIMUPT
 70
     0
  9
$DIMDEC
 70
     4
  9
$DIMTDEC
 70
     4
  9
$DIMALTU
 70
     2
  9
$DIMALTTD
 70
     2
  9
$DIMTXSTY
  7
Standard
  9
$DIMAUNIT
 70
     0
  9
$DIMADEC
 70
     0
  9
$DIMALTRND
 40
0.0
  9
$DIMAZIN
 70
     0
  9
$DIMDSEP
 70
    46
  9
$DIMATFIT
 70
     3
  9
$DIMFRAC
 70
     0
  9
$DIMLDRBLK
  1

  9
$DIMLUNIT
 70
     2
  9
$DIMLWD
 70
    -2
  9
$DIMLWE
 70
    -2
  9
$DIMTMOVE
 70
     0
  9
$DIMFXL
 40
1.0
  9
$DIMFXLON
 70
     0
  9
$DIMJOGANG
 40
0.7853981633974483
  9
$DIMTFILL
 70
     0
  9
$DIMTFILLCLR
 70
     0
  9
$DIMARCSYM
 70
     0
  9
$DIMLTYPE
  6

  9
$DIMLTEX1
  6

  9
$DIMLTEX2
  6

  9
$DIMTXTDIRECTION
 70
     0
  9
$LUNITS
 70
     2
  9
$LUPREC
 70
     4
  9
$SKETCHINC
 40
0.1
  9
$FILLETRAD
 40
0.5
  9
$AUNITS
 70
     0
  9
$AUPREC
 70
     0
  9
$MENU
  1
.
  9
$ELEVATION
 40
0.0
  9
$PELEVATION
 40
0.0
  9
$THICKNESS
 40
0.0
  9
$LIMCHECK
 70
     0
  9
$CHAMFERA
 40
0.5
  9
$CHAMFERB
 40
0.5
  9
$CHAMFERC
 40
1.0
  9
$CHAMFERD
 40
0.0
  9
$SKPOLY
 70
     0
  9
$TDCREATE
 40
2457917.620405081
  9
$TDUCREATE
 40
2457917.245405092
  9
$TDUPDATE
 40
2457917.620405081
  9
$TDUUPDATE
 40
2457917.245405092
  9
$TDINDWG
 40
0.0000000116
  9
$TDUSRTIMER
 40
0.0000000116
  9
$USRTIMER
 70
     1
  9
$ANGBASE
 50
0.0
  9
$ANGDIR
 70
     0
  9
$PDMODE
 70
     0
  9
$PDSIZE
 40
0.0
  9
$PLINEWID
 40
0.0
  9
$SPLFRAME
 70
     0
  9
$SPLINETYPE
 70
     6
  9
$SPLINESEGS
 70
     8
  9
$HANDSEED
  5
B4
  9
$SURFTAB1
 70
     6
  9
$SURFTAB2
 70
     6
  9
$SURFTYPE
 70
     6
  9
$SURFU
 70
     6
  9
$SURFV
 70
     6
  9
$UCSBASE
  2

  9
$UCSNAME
  2

  9
$UCSORG
 10
0.0
 20
0.0
 30
0.0
  9
$UCSXDIR
 10
1.0
 20
0.0
 30
0.0
  9
$UCSYDIR
 10
0.0
 20
1.0
 30
0.0
  9
$UCSORTHOREF
  2

  9
$UCSORTHOVIEW
 70
     0
  9
$UCSORGTOP
 10
0.0
 20
0.0
 30
0.0
  9
$UCSORGBOTTOM
 10
0.0
 20
0.0
 30
0.0
  9
$UCSORGLEFT
 10
0.0
 20
0.0
 30
0.0
  9
$UCSORGRIGHT
 10
0.0
 20
0.0
 30
0.0
  9
$UCSORGFRONT
 10
0.0
 20
0.0
 30
0.0
  9
$UCSORGBACK
 10
0.0
 20
0.0
 30
0.0
  9
$PUCSBASE
  2

  9
$PUCSNAME
  2

  9
$PUCSORG
 10
0.0
 20
0.0
 30
0.0
  9
$PUCSXDIR
 10
1.0
 20
0.0
 30
0.0
  9
$PUCSYDIR
 10
0.0
 20
1.0
 30
0.0
  9
$PUCSORTHOREF
  2

  9
$PUCSORTHOVIEW
 70
     0
  9
$PUCSORGTOP
 10
0.0
 20
0.0
 30
0.0
  9
$PUCSORGBOTTOM
 10
0.0
 20
0.0
 30
0.0
  9
$PUCSORGLEFT
 10
0.0
 20
0.0
 30
0.0
  9
$PUCSORGRIGHT
 10
0.0
 20
0.0
 30
0.0
  9
$PUCSORGFRONT
 10
0.0
 20
0.0
 30
0.0
  9
$PUCSORGBACK
 10
0.0
 20
0.0
 30
0.0
  9
$USERI1
 70
     0
  9
$USERI2
 70
     0
  9
$USERI3
 70
     0
  9
$USERI4
 70
     0
  9
$USERI5
 70
     0
  9
$USERR1
 40
0.0
  9
$USERR2
 40
0.0
  9
$USERR3
 40
0.0
  9
$USERR4
 40
0.0
  9
$USERR5
 40
0.0
  9
$WORLDVIEW
 70
     1
  9
$SHADEDGE
 70
     3
  9
$SHADEDIF
 70
    70
  9
$TILEMODE
 70
     1
  9
$MAXACTVP
 70
    64
  9
$PINSBASE
 10
0.0
 20
0.0
 30
0.0
  9
$PLIMCHECK
 70
     0
  9
$PEXTMIN
 10
1.000000000000000E+20
 20
1.000000000000000E+20
 30
1.000000000000000E+20
  9
$PEXTMAX
 10
-1.000000000000000E+20
 20
-1.000000000000000E+20
 30
-1.000000000000000E+20
  9
$PLIMMIN
 10
0.0
 20
0.0
  9
$PLIMMAX
 10
12.0
 20
9.0
  9
$UNITMODE
 70
     0
  9
$VISRETAIN
 70
     1
  9
$PLINEGEN
 70
     0
  9
$PSLTSCALE
 70
     1
  9
$TREEDEPTH
 70
  3020
  9
$CMLSTYLE
  2
Standard
  9
$CMLJUST
 70
     0
  9
$CMLSCALE
 40
1.0
  9
$PROXYGRAPHICS
 70
     1
  9
$MEASUREMENT
 70
     0
  9
$CELWEIGHT
370
    -1
  9
$ENDCAPS
280
     0
  9
$JOINSTYLE
280
     0
  9
$LWDISPLAY
290
     1
  9
$INSUNITS
 70
     1
  9
$HYPERLINKBASE
  1

  9
$STYLESHEET
  1

  9
$XEDIT
290
     1
  9
$CEPSNTYPE
380
     0
  9
$PSTYLEMODE
290
     1
  9
$FINGERPRINTGUID
  2
{1C2D5892-1EA2-46F3-4EBC-4EA5319DEE02}
  9
$VERSIONGUID
  2
{FAEB1C32-E019-11D5-929B-00C0DF256EC4}
  9
$EXTNAMES
290
     1
  9
$PSVPSCALE
 40
0.0
  9
$OLESTARTUP
290
     0
  9
$SORTENTS
280
   127
  9
$INDEXCTL
280
     0
  9
$HIDETEXT
280
     1
  9
$XCLIPFRAME
280
     2
  9
$HALOGAP
280
     0
  9
$OBSCOLOR
 70
   257
  9
$OBSLTYPE
280
     0
  9
$INTERSECTIONDISPLAY
280
     0
  9
$INTERSECTIONCOLOR
 70
   257
  9
$DIMASSOC
280
     2
  9
$PROJECTNAME
  1

  9
$CAMERADISPLAY
290
     0
  9
$LENSLENGTH
 40
50.0
  9
$CAMERAHEIGHT
 40
0.0
  9
$STEPSPERSEC
 40
2.0
  9
$STEPSIZE
 40
6.0
  9
$3DDWFPREC
 40
2.0
  9
$PSOLWIDTH
 40
0.25
  9
$PSOLHEIGHT
 40
4.0
  9
$LOFTANG1
 40
1.570796326794897
  9
$LOFTANG2
 40
1.570796326794897
  9
$LOFTMAG1
 40
0.0
  9
$LOFTMAG2
 40
0.0
  9
$LOFTPARAM
 70
     7
  9
$LOFTNORMALS
280
     1
  9
$LATITUDE
 40
37.795
  9
$LONGITUDE
 40
-122.394
  9
$NORTHDIRECTION
 40
0.0
  9
$TIMEZONE
 70
 -8000
  9
$LIGHTGLYPHDISPLAY
280
     1
  9
$TILEMODELIGHTSYNCH
280
     1
  9
$CMATERIAL
347
3C
  9
$SOLIDHIST
280
     1
  9
$SHOWHIST
280
     1
  9
$DWFFRAME
280
     2
  9
$DGNFRAME
280
     2
  9
$REALWORLDSCALE
290
     1
  9
$INTERFERECOLOR
 62
   256
  9
$CSHADOW
280
     0
  9
$SHADOWPLANELOCATION
 40
0.0
  0
ENDSEC
  0
SECTION
  2
CLASSES
  0
CLASS
  1
ACDBDICTIONARYWDFLT
  2
AcDbDictionaryWithDefault
  3
ObjectDBX Classes
 90
        0
 91
        4
280
     0
281
     0
  0
CLASS
  1
VISUALSTYLE
  2
AcDbVisualStyle
  3
ObjectDBX Classes
 90
     4095
 91
        4
280
     0
281
     0
  0
CLASS
  1
MATERIAL
  2
AcDbMaterial
  3
ObjectDBX Classes
 90
     1153
 91
        4
280
     0
281
     0
  0
CLASS
  1
SUN
  2
AcDbSun
  3
SCENEOE
 90
     1024
 91
        4
280
     0
281
     0
  0
ENDSEC
  0
SECTION
  2
TABLES
  0
TABLE
  2
VPORT
  5
8
330
0
100
AcDbSymbolTable
 70
     1
  0
VPORT
  5
29
330
8
100
AcDbSymbolTableRecord
100
AcDbViewportTableRecord
  2
*Active
 70
     0
 10
0.0
 20
0.0
 11
1.0
 21
1.0
 12
0.0
 22
0.0
 13
0.0
 23
0.0
 14
0.5
 24
0.5
 15
0.5
 25
0.5
 16
0.0
 26
0.0
 36
1.0
 17
91.00082462281999
 27
-128.4993055234307
 37
0.0
 40
256.9986110468615
 41
0.7081814508812795
 42
50.0
 43
0.0
 44
0.0
 50
0.0
 51
0.0
 71
     0
 72
   100
 73
     1
 74
     3
 75
     0
 76
     0
 77
     0
 78
     0
281
     0
 65
     1
110
0.0
120
0.0
130
0.0
111
1.0
121
0.0
131
0.0
112
0.0
122
1.0
132
0.0
 79
     0
146
0.0
 60
     3
 61
     5
292
     1
282
     1
141
0.0
142
0.0
 63
   250
361
3F
  0
ENDTAB
  0
TABLE
  2
LTYPE
  5
5
330
0
100
AcDbSymbolTable
 70
     1
  0
LTYPE
  5
14
330
5
100
AcDbSymbolTableRecord
100
AcDbLinetypeTableRecord
  2
ByBlock
 70
     0
  3

 72
    65
 73
     0
 40
0.0
  0
LTYPE
  5
15
330
5
100
AcDbSymbolTableRecord
100
AcDbLinetypeTableRecord
  2
ByLayer
 70
     0
  3

 72
    65
 73
     0
 40
0.0
  0
LTYPE
  5
16
330
5
100
AcDbSymbolTableRecord
100
AcDbLinetypeTableRecord
  2
Continuous
 70
     0
  3
Solid line
 72
    65
 73
     0
 40
0.0
  0
ENDTAB
  0
TABLE
  2
LAYER
  5
2
330
0
100
AcDbSymbolTable
 70
     2
  0
LAYER
  5
10
330
2
100
AcDbSymbolTableRecord
100
AcDbLayerTableRecord
  2
0
 70
     0
 62
     7
  6
Continuous
370
    -3
390
F
347
3E
  0
LAYER
  5
40
330
2
100
AcDbSymbolTableRecord
100
AcDbLayerTableRecord
  2
_U+30EC_U+30A4_U+30E4_U+30FC 1
 70
     0
 62
     7
  6
Continuous
370
    -3
390
F
347
3E
  0
ENDTAB
  0
TABLE
  2
STYLE
  5
3
330
0
100
AcDbSymbolTable
 70
     1
  0
STYLE
  5
11
330
3
100
AcDbSymbolTableRecord
100
AcDbTextStyleTableRecord
  2
Standard
 70
     0
 40
0.0
 41
1.0
 50
0.0
 71
     0
 42
0.2
  3
txt
  4

  0
ENDTAB
  0
TABLE
  2
VIEW
  5
6
330
0
100
AcDbSymbolTable
 70
     0
  0
ENDTAB
  0
TABLE
  2
UCS
  5
7
330
0
100
AcDbSymbolTable
 70
     0
  0
ENDTAB
  0
TABLE
  2
APPID
  5
9
330
0
100
AcDbSymbolTable
 70
     1
  0
APPID
  5
12
330
9
100
AcDbSymbolTableRecord
100
AcDbRegAppTableRecord
  2
ACAD
 70
     0
  0
ENDTAB
  0
TABLE
  2
DIMSTYLE
  5
A
330
0
100
AcDbSymbolTable
 70
     1
100
AcDbDimStyleTable
  0
DIMSTYLE
105
27
330
A
100
AcDbSymbolTableRecord
100
AcDbDimStyleTableRecord
  2
Standard
 70
     0
178
     0
340
11
  0
ENDTAB
  0
TABLE
  2
BLOCK_RECORD
  5
1
330
0
100
AcDbSymbolTable
 70
     4
  0
BLOCK_RECORD
  5
1F
330
1
100
AcDbSymbolTableRecord
100
AcDbBlockTableRecord
  2
*Model_Space
340
22
 70
     0
280
     1
281
     0
  0
BLOCK_RECORD
  5
1B
330
1
100
AcDbSymbolTableRecord
100
AcDbBlockTableRecord
  2
*Paper_Space
340
1E
 70
     0
280
     1
281
     0
  0
BLOCK_RECORD
  5
23
330
1
100
AcDbSymbolTableRecord
100
AcDbBlockTableRecord
  2
*Paper_Space0
340
26
 70
     0
280
     1
281
     0
  0
BLOCK_RECORD
  5
75
330
1
100
AcDbSymbolTableRecord
100
AcDbBlockTableRecord
  2
block 2
340
0
102
{BLKREFS
331
76
102
}
 70
     0
280
     1
281
     0
  0
BLOCK_RECORD
  5
94
330
1
100
AcDbSymbolTableRecord
100
AcDbBlockTableRecord
  2
block 3
340
0
102
{BLKREFS
331
95
102
}
 70
     0
280
     1
281
     0
  0
BLOCK_RECORD
  5
A9
330
1
100
AcDbSymbolTableRecord
100
AcDbBlockTableRecord
  2
block 4
340
0
102
{BLKREFS
331
AA
102
}
 70
     0
280
     1
281
     0
  0
ENDTAB
  0
ENDSEC
  0
SECTION
  2
BLOCKS
  0
BLOCK
  5
20
330
1F
100
AcDbEntity
  8
0
100
AcDbBlockBegin
  2
*Model_Space
 70
     0
 10
0.0
 20
0.0
 30
0.0
  3
*Model_Space
  1

  0
ENDBLK
  5
21
330
1F
100
AcDbEntity
  8
0
100
AcDbBlockEnd
  0
BLOCK
  5
1C
330
1B
100
AcDbEntity
 67
     1
  8
0
100
AcDbBlockBegin
  2
*Paper_Space
 70
     0
 10
0.0
 20
0.0
 30
0.0
  3
*Paper_Space
  1

  0
ENDBLK
  5
1D
330
1B
100
AcDbEntity
 67
     1
  8
0
100
AcDbBlockEnd
  0
BLOCK
  5
24
330
23
100
AcDbEntity
  8
0
100
AcDbBlockBegin
  2
*Paper_Space0
 70
     0
 10
0.0
 20
0.0
 30
0.0
  3
*Paper_Space0
  1

  0
ENDBLK
  5
25
330
23
100
AcDbEntity
  8
0
100
AcDbBlockEnd
  0
BLOCK
  5
77
330
75
100
AcDbEntity
  8
0
100
AcDbBlockBegin
  2
block 2
 70
     0
 10
0.0
 20
0.0
 30
0.0
  3
block 2
  1

  0
SPLINE
  5
79
330
75
100
AcDbEntity
  8
_U+30EC_U+30A4_U+30E4_U+30FC 1
370
     0
100
AcDbSpline
210
0.0
220
0.0
230
1.0
 70
    11
 71
     3
 72
    29
 73
    25
 74
     0
 42
0.0000000001
 43
0.0000000001
 12
1.0
 22
0.0
 32
0.0
 13
1.0
 23
0.0
 33
0.0
 40
0.0
 40
0.0
 40
0.0
 40
0.0
 40
1.0
 40
1.0
 40
1.0
 40
2.0
 40
2.0
 40
2.0
 40
3.0
 40
3.0
 40
3.0
 40
4.0
 40
4.0
 40
4.0
 40
5.0
 40
5.0
 40
5.0
 40
6.0
 40
6.0
 40
6.0
 40
7.0
 40
7.0
 40
7.0
 40
8.0
 40
8.0
 40
8.0
 40
8.0
 10
112.3359510352841
 20
-141.1910372910911
 30
0.0
 10
112.5454128407873
 20
-141.299213289328
 30
0.0
 10
112.5643608659561
 20
-141.4725015922361
 30
0.0
 10
112.5643608659561
 20
-141.5889458196375
 30
0.0
 10
112.5643608659561
 20
-141.7498317787987
 30
0.0
 10
112.5178520769053
 20
-141.8914252032424
 30
0.0
 10
112.3359510352841
 20
-141.9865098386353
 30
0.0
 10
112.1413031403675
 20
-142.0902072127413
 30
0.0
 10
111.9046250805308
 20
-142.1094997474588
 30
0.0
 10
111.7416720640785
 20
-142.1094997474588
 30
0.0
 10
111.597667072795
 20
-142.1094997474588
 30
0.0
 10
111.3458305928233
 20
-142.0922742700325
 30
0.0
 10
111.1470485833243
 20
-141.9865098386353
 30
0.0
 10
110.9441324592431
 20
-141.878678349947
 30
0.0
 10
110.9207058099434
 20
-141.7177923907858
 30
0.0
 10
110.9207058099434
 20
-141.5889458196375
 30
0.0
 10
110.9207058099434
 20
-141.4301269177675
 30
0.0
 10
110.9651475417032
 20
-141.2864664360326
 30
0.0
 10
111.1470485833243
 20
-141.1910372910911
 30
0.0
 10
111.3396294209498
 20
-141.0918185411159
 30
0.0
 10
111.5680392516219
 20
-141.0683918918162
 30
0.0
 10
111.7416720640785
 20
-141.0683918918162
 30
0.0
 10
111.9128933096954
 20
-141.0683918918162
 30
0.0
 10
112.1433701976586
 20
-141.0897514838248
 30
0.0
 10
112.3359510352841
 20
-141.1910372910911
 30
0.0
  0
SPLINE
  5
7A
330
75
100
AcDbEntity
  8
_U+30EC_U+30A4_U+30E4_U+30FC 1
370
     0
100
AcDbSpline
210
0.0
220
0.0
230
1.0
 70
    11
 71
     3
 72
    17
 73
    13
 74
     0
 42
0.0000000001
 43
0.0000000001
 12
1.0
 22
0.0
 32
0.0
 13
1.0
 23
0.0
 33
0.0
 40
0.0
 40
0.0
 40
0.0
 40
0.0
 40
1.0
 40
1.0
 40
1.0
 40
2.0
 40
2.0
 40
2.0
 40
3.0
 40
3.0
 40
3.0
 40
4.0
 40
4.0
 40
4.0
 40
4.0
 10
111.1132866475689
 20
-141.5889458196375
 30
0.0
 10
111.1132866475689
 20
-141.8387152423181
 30
0.0
 10
111.396818006005
 20
-141.885224031369
 30
0.0
 10
111.7416720640785
 20
-141.885224031369
 30
0.0
 10
112.0610324155611
 20
-141.885224031369
 30
0.0
 10
112.3697129710395
 20
-141.8490505287739
 30
0.0
 10
112.3697129710395
 20
-141.5889458196375
 30
0.0
 10
112.3697129710395
 20
-141.341243454248
 30
0.0
 10
112.0885931794431
 20
-141.292667607906
 30
0.0
 10
111.7416720640785
 20
-141.292667607906
 30
0.0
 10
111.4219672030473
 20
-141.292667607906
 30
0.0
 10
111.1132866475689
 20
-141.3309081677923
 30
0.0
 10
111.1132866475689
 20
-141.5889458196375
 30
0.0
  0
HATCH
  5
7B
330
75
100
AcDbEntity
  8
_U+30EC_U+30A4_U+30E4_U+30FC 1
 62
   179
420
  2234388
100
AcDbHatch
 10
0.0
 20
0.0
 30
0.0
210
0.0
220
0.0
230
1.0
  2
SOLID
 70
     1
 71
     0
 91
        2
 92
        1
 93
        1
 72
     4
 94
        3
 73
     0
 74
     1
 95
       29
 96
       25
 40
0.0
 40
0.0
 40
0.0
 40
0.0
 40
1.0
 40
1.0
 40
1.0
 40
2.0
 40
2.0
 40
2.0
 40
3.0
 40
3.0
 40
3.0
 40
4.0
 40
4.0
 40
4.0
 40
5.0
 40
5.0
 40
5.0
 40
6.0
 40
6.0
 40
6.0
 40
7.0
 40
7.0
 40
7.0
 40
8.0
 40
8.0
 40
8.0
 40
8.0
 10
112.3359510352841
 20
-141.1910372910911
 10
112.5454128407873
 20
-141.299213289328
 10
112.5643608659561
 20
-141.4725015922361
 10
112.5643608659561
 20
-141.5889458196375
 10
112.5643608659561
 20
-141.7498317787987
 10
112.5178520769053
 20
-141.8914252032424
 10
112.3359510352841
 20
-141.9865098386353
 10
112.1413031403675
 20
-142.0902072127413
 10
111.9046250805308
 20
-142.1094997474588
 10
111.7416720640785
 20
-142.1094997474588
 10
111.597667072795
 20
-142.1094997474588
 10
111.3458305928233
 20
-142.0922742700325
 10
111.1470485833243
 20
-141.9865098386353
 10
110.9441324592431
 20
-141.878678349947
 10
110.9207058099434
 20
-141.7177923907858
 10
110.9207058099434
 20
-141.5889458196375
 10
110.9207058099434
 20
-141.4301269177675
 10
110.9651475417032
 20
-141.2864664360326
 10
111.1470485833243
 20
-141.1910372910911
 10
111.3396294209498
 20
-141.0918185411159
 10
111.5680392516219
 20
-141.0683918918162
 10
111.7416720640785
 20
-141.0683918918162
 10
111.9128933096954
 20
-141.0683918918162
 10
112.1433701976586
 20
-141.0897514838248
 10
112.3359510352841
 20
-141.1910372910911
 97
        0
 97
        0
 92
        1
 93
        1
 72
     4
 94
        3
 73
     0
 74
     1
 95
       17
 96
       13
 40
0.0
 40
0.0
 40
0.0
 40
0.0
 40
1.0
 40
1.0
 40
1.0
 40
2.0
 40
2.0
 40
2.0
 40
3.0
 40
3.0
 40
3.0
 40
4.0
 40
4.0
 40
4.0
 40
4.0
 10
111.1132866475689
 20
-141.5889458196375
 10
111.1132866475689
 20
-141.8387152423181
 10
111.396818006005
 20
-141.885224031369
 10
111.7416720640785
 20
-141.885224031369
 10
112.0610324155611
 20
-141.885224031369
 10
112.3697129710395
 20
-141.8490505287739
 10
112.3697129710395
 20
-141.5889458196375
 10
112.3697129710395
 20
-141.341243454248
 10
112.0885931794431
 20
-141.292667607906
 10
111.7416720640785
 20
-141.292667607906
 10
111.4219672030473
 20
-141.292667607906
 10
111.1132866475689
 20
-141.3309081677923
 10
111.1132866475689
 20
-141.5889458196375
 97
        0
 97
        0
 75
     2
 76
     1
 98
        0
  0
POLYLINE
  5
7C
330
75
100
AcDbEntity
  8
_U+30EC_U+30A4_U+30E4_U+30FC 1
370
     0
100
AcDb2dPolyline
 66
     1
 10
0.0
 20
0.0
 30
0.0
  0
VERTEX
  5
7D
330
7C
100
AcDbEntity
  8
_U+30EC_U+30A4_U+30E4_U+30FC 1
370
     0
100
AcDbVertex
100
AcDb2dVertex
 10
112.513717962323
 20
-140.8520398953426
 30
0.0
  0
VERTEX
  5
7E
330
7C
100
AcDbEntity
  8
_U+30EC_U+30A4_U+30E4_U+30FC 1
370
     0
100
AcDbVertex
100
AcDb2dVertex
 10
112.2618814823512
 20
-140.8520398953426
 30
0.0
  0
VERTEX
  5
7F
330
7C
100
AcDbEntity
  8
_U+30EC_U+30A4_U+30E4_U+30FC 1
370
     0
100
AcDbVertex
100
AcDb2dVertex
 10
112.2618814823512
 20
-140.6002034153708
 30
0.0
  0
VERTEX
  5
80
330
7C
100
AcDbEntity
  8
_U+30EC_U+30A4_U+30E4_U+30FC 1
370
     0
100
AcDbVertex
100
AcDb2dVertex
 10
112.513717962323
 20
-140.6002034153708
 30
0.0
  0
VERTEX
  5
81
330
7C
100
AcDbEntity
  8
_U+30EC_U+30A4_U+30E4_U+30FC 1
370
     0
100
AcDbVertex
100
AcDb2dVertex
 10
112.513717962323
 20
-140.8520398953426
 30
0.0
  0
SEQEND
  5
82
330
7C
100
AcDbEntity
  8
_U+30EC_U+30A4_U+30E4_U+30FC 1
370
     0
  0
HATCH
  5
83
330
75
100
AcDbEntity
  8
_U+30EC_U+30A4_U+30E4_U+30FC 1
 62
   179
420
  2234388
100
AcDbHatch
 10
0.0
 20
0.0
 30
0.0
210
0.0
220
0.0
230
1.0
  2
SOLID
 70
     1
 71
     0
 91
        1
 92
        1
 93
        4
 72
     1
 10
112.513717962323
 20
-140.8520398953426
 11
112.2618814823512
 21
-140.8520398953426
 72
     1
 10
112.2618814823512
 20
-140.8520398953426
 11
112.2618814823512
 21
-140.6002034153708
 72
     1
 10
112.2618814823512
 20
-140.6002034153708
 11
112.513717962323
 21
-140.6002034153708
 72
     1
 10
112.513717962323
 20
-140.6002034153708
 11
112.513717962323
 21
-140.8520398953426
 97
        0
 75
     2
 76
     1
 98
        0
  0
SPLINE
  5
84
330
75
100
AcDbEntity
  8
_U+30EC_U+30A4_U+30E4_U+30FC 1
370
     0
100
AcDbSpline
210
0.0
220
0.0
230
1.0
 70
    11
 71
     3
 72
    29
 73
    25
 74
     0
 42
0.0000000001
 43
0.0000000001
 12
1.0
 22
0.0
 32
0.0
 13
1.0
 23
0.0
 33
0.0
 40
0.0
 40
0.0
 40
0.0
 40
0.0
 40
1.0
 40
1.0
 40
1.0
 40
2.0
 40
2.0
 40
2.0
 40
3.0
 40
3.0
 40
3.0
 40
4.0
 40
4.0
 40
4.0
 40
5.0
 40
5.0
 40
5.0
 40
6.0
 40
6.0
 40
6.0
 40
7.0
 40
7.0
 40
7.0
 40
8.0
 40
8.0
 40
8.0
 40
8.0
 10
112.5643608659561
 20
-139.8639865101729
 30
0.0
 10
112.5643608659561
 20
-140.1306369007312
 30
0.0
 10
112.4269015560947
 20
-140.3841959284456
 30
0.0
 10
112.0779133834389
 20
-140.3841959284456
 30
0.0
 10
111.8219427888848
 20
-140.3841959284456
 30
0.0
 10
111.7268581534919
 20
-140.2426025040019
 30
0.0
 10
111.6655354538545
 20
-140.1368380726047
 30
0.0
 10
111.6062798115082
 20
-140.2615505291707
 30
0.0
 10
111.4919026413979
 20
-140.3376871393947
 30
0.0
 10
111.3310166822367
 20
-140.3376871393947
 30
0.0
 10
111.0560980625138
 20
-140.3376871393947
 30
0.0
 10
110.9207058099434
 20
-140.1389051298958
 30
0.0
 10
110.9207058099434
 20
-139.8639865101729
 30
0.0
 10
110.9207058099434
 20
-139.5804551517368
 30
0.0
 10
111.0647108012269
 20
-139.3899413714025
 30
0.0
 10
111.3310166822367
 20
-139.3899413714025
 30
0.0
 10
111.4919026413979
 20
-139.3899413714025
 30
0.0
 10
111.6062798115082
 20
-139.4684895484662
 30
0.0
 10
111.6655354538545
 20
-139.5932020050323
 30
0.0
 10
111.7161783574876
 20
-139.5043185415128
 30
0.0
 10
111.8112629928805
 20
-139.3454996396428
 30
0.0
 10
112.0737792688566
 20
-139.3454996396428
 30
0.0
 10
112.4482611481032
 20
-139.3454996396428
 30
0.0
 10
112.5643608659561
 20
-139.6248968834965
 30
0.0
 10
112.5643608659561
 20
-139.8639865101729
 30
0.0
  0
SPLINE
  5
85
330
75
100
AcDbEntity
  8
_U+30EC_U+30A4_U+30E4_U+30FC 1
370
     0
100
AcDbSpline
210
0.0
220
0.0
230
1.0
 70
    11
 71
     3
 72
    17
 73
    13
 74
     0
 42
0.0000000001
 43
0.0000000001
 12
1.0
 22
0.0
 32
0.0
 13
1.0
 23
0.0
 33
0.0
 40
0.0
 40
0.0
 40
0.0
 40
0.0
 40
1.0
 40
1.0
 40
1.0
 40
2.0
 40
2.0
 40
2.0
 40
3.0
 40
3.0
 40
3.0
 40
4.0
 40
4.0
 40
4.0
 40
4.0
 10
111.1132866475689
 20
-139.8639865101729
 30
0.0
 10
111.1132866475689
 20
-140.0290065839164
 30
0.0
 10
111.2083712829618
 20
-140.113411423305
 30
0.0
 10
111.3437635355321
 20
-140.113411423305
 30
0.0
 10
111.466408934807
 20
-140.113411423305
 30
0.0
 10
111.5849202194996
 20
-140.0417534372118
 30
0.0
 10
111.5849202194996
 20
-139.8639865101729
 30
0.0
 10
111.5849202194996
 20
-139.686219583134
 30
0.0
 10
111.466408934807
 20
-139.6142170874923
 30
0.0
 10
111.3437635355321
 20
-139.6142170874923
 30
0.0
 10
111.2083712829618
 20
-139.6142170874923
 30
0.0
 10
111.1132866475689
 20
-139.7010334937206
 30
0.0
 10
111.1132866475689
 20
-139.8639865101729
 30
0.0
  0
SPLINE
  5
86
330
75
100
AcDbEntity
  8
_U+30EC_U+30A4_U+30E4_U+30FC 1
370
     0
100
AcDbSpline
210
0.0
220
0.0
230
1.0
 70
    11
 71
     3
 72
    17
 73
    13
 74
     0
 42
0.0000000001
 43
0.0000000001
 12
1.0
 22
0.0
 32
0.0
 13
1.0
 23
0.0
 33
0.0
 40
0.0
 40
0.0
 40
0.0
 40
0.0
 40
1.0
 40
1.0
 40
1.0
 40
2.0
 40
2.0
 40
2.0
 40
3.0
 40
3.0
 40
3.0
 40
4.0
 40
4.0
 40
4.0
 40
4.0
 10
111.7733669425428
 20
-139.8639865101729
 30
0.0
 10
111.7733669425428
 20
-140.0076469919078
 30
0.0
 10
111.8601833487711
 20
-140.1602647219044
 30
0.0
 10
112.0630994728523
 20
-140.1602647219044
 30
0.0
 10
112.2684271637732
 20
-140.1602647219044
 30
0.0
 10
112.3697129710395
 20
-140.0331406984987
 30
0.0
 10
112.3697129710395
 20
-139.8639865101729
 30
0.0
 10
112.3697129710395
 20
-139.6779513539694
 30
0.0
 10
112.2470675717646
 20
-139.5677082984414
 30
0.0
 10
112.0693006447257
 20
-139.5677082984414
 30
0.0
 10
111.8474364954756
 20
-139.5677082984414
 30
0.0
 10
111.7733669425428
 20
-139.7306613148937
 30
0.0
 10
111.7733669425428
 20
-139.8639865101729
 30
0.0
  0
HATCH
  5
87
330
75
100
AcDbEntity
  8
_U+30EC_U+30A4_U+30E4_U+30FC 1
 62
   179
420
  2234388
100
AcDbHatch
 10
0.0
 20
0.0
 30
0.0
210
0.0
220
0.0
230
1.0
  2
SOLID
 70
     1
 71
     0
 91
        3
 92
        1
 93
        1
 72
     4
 94
        3
 73
     0
 74
     1
 95
       29
 96
       25
 40
0.0
 40
0.0
 40
0.0
 40
0.0
 40
1.0
 40
1.0
 40
1.0
 40
2.0
 40
2.0
 40
2.0
 40
3.0
 40
3.0
 40
3.0
 40
4.0
 40
4.0
 40
4.0
 40
5.0
 40
5.0
 40
5.0
 40
6.0
 40
6.0
 40
6.0
 40
7.0
 40
7.0
 40
7.0
 40
8.0
 40
8.0
 40
8.0
 40
8.0
 10
112.5643608659561
 20
-139.8639865101729
 10
112.5643608659561
 20
-140.1306369007312
 10
112.4269015560947
 20
-140.3841959284456
 10
112.0779133834389
 20
-140.3841959284456
 10
111.8219427888848
 20
-140.3841959284456
 10
111.7268581534919
 20
-140.2426025040019
 10
111.6655354538545
 20
-140.1368380726047
 10
111.6062798115082
 20
-140.2615505291707
 10
111.4919026413979
 20
-140.3376871393947
 10
111.3310166822367
 20
-140.3376871393947
 10
111.0560980625138
 20
-140.3376871393947
 10
110.9207058099434
 20
-140.1389051298958
 10
110.9207058099434
 20
-139.8639865101729
 10
110.9207058099434
 20
-139.5804551517368
 10
111.0647108012269
 20
-139.3899413714025
 10
111.3310166822367
 20
-139.3899413714025
 10
111.4919026413979
 20
-139.3899413714025
 10
111.6062798115082
 20
-139.4684895484662
 10
111.6655354538545
 20
-139.5932020050323
 10
111.7161783574876
 20
-139.5043185415128
 10
111.8112629928805
 20
-139.3454996396428
 10
112.0737792688566
 20
-139.3454996396428
 10
112.4482611481032
 20
-139.3454996396428
 10
112.5643608659561
 20
-139.6248968834965
 10
112.5643608659561
 20
-139.8639865101729
 97
        0
 97
        0
 92
        1
 93
        1
 72
     4
 94
        3
 73
     0
 74
     1
 95
       17
 96
       13
 40
0.0
 40
0.0
 40
0.0
 40
0.0
 40
1.0
 40
1.0
 40
1.0
 40
2.0
 40
2.0
 40
2.0
 40
3.0
 40
3.0
 40
3.0
 40
4.0
 40
4.0
 40
4.0
 40
4.0
 10
111.1132866475689
 20
-139.8639865101729
 10
111.1132866475689
 20
-140.0290065839164
 10
111.2083712829618
 20
-140.113411423305
 10
111.3437635355321
 20
-140.113411423305
 10
111.466408934807
 20
-140.113411423305
 10
111.5849202194996
 20
-140.0417534372118
 10
111.5849202194996
 20
-139.8639865101729
 10
111.5849202194996
 20
-139.686219583134
 10
111.466408934807
 20
-139.6142170874923
 10
111.3437635355321
 20
-139.6142170874923
 10
111.2083712829618
 20
-139.6142170874923
 10
111.1132866475689
 20
-139.7010334937206
 10
111.1132866475689
 20
-139.8639865101729
 97
        0
 97
        0
 92
        1
 93
        1
 72
     4
 94
        3
 73
     0
 74
     1
 95
       17
 96
       13
 40
0.0
 40
0.0
 40
0.0
 40
0.0
 40
1.0
 40
1.0
 40
1.0
 40
2.0
 40
2.0
 40
2.0
 40
3.0
 40
3.0
 40
3.0
 40
4.0
 40
4.0
 40
4.0
 40
4.0
 10
111.7733669425428
 20
-139.8639865101729
 10
111.7733669425428
 20
-140.0076469919078
 10
111.8601833487711
 20
-140.1602647219044
 10
112.0630994728523
 20
-140.1602647219044
 10
112.2684271637732
 20
-140.1602647219044
 10
112.3697129710395
 20
-140.0331406984987
 10
112.3697129710395
 20
-139.8639865101729
 10
112.3697129710395
 20
-139.6779513539694
 10
112.2470675717646
 20
-139.5677082984414
 10
112.0693006447257
 20
-139.5677082984414
 10
111.8474364954756
 20
-139.5677082984414
 10
111.7733669425428
 20
-139.7306613148937
 10
111.7733669425428
 20
-139.8639865101729
 97
        0
 97
        0
 75
     2
 76
     1
 98
        0
  0
ENDBLK
  5
78
330
75
100
AcDbEntity
  8
0
100
AcDbBlockEnd
  0
BLOCK
  5
96
330
94
100
AcDbEntity
  8
0
100
AcDbBlockBegin
  2
block 3
 70
     0
 10
0.0
 20
0.0
 30
0.0
  3
block 3
  1

  0
SPLINE
  5
98
330
94
100
AcDbEntity
  8
_U+30EC_U+30A4_U+30E4_U+30FC 1
370
     0
100
AcDbSpline
210
0.0
220
0.0
230
1.0
 70
    11
 71
     3
 72
    62
 73
    58
 74
     0
 42
0.0000000001
 43
0.0000000001
 12
1.0
 22
0.0
 32
0.0
 13
1.0
 23
0.0
 33
0.0
 40
0.0
 40
0.0
 40
0.0
 40
0.0
 40
1.0
 40
1.0
 40
1.0
 40
2.0
 40
2.0
 40
2.0
 40
3.0
 40
3.0
 40
3.0
 40
4.0
 40
4.0
 40
4.0
 40
5.0
 40
5.0
 40
5.0
 40
6.0
 40
6.0
 40
6.0
 40
7.0
 40
7.0
 40
7.0
 40
8.0
 40
8.0
 40
8.0
 40
9.0
 40
9.0
 40
9.0
 40
10.0
 40
10.0
 40
10.0
 40
11.0
 40
11.0
 40
11.0
 40
12.0
 40
12.0
 40
12.0
 40
13.0
 40
13.0
 40
13.0
 40
14.0
 40
14.0
 40
14.0
 40
15.0
 40
15.0
 40
15.0
 40
16.0
 40
16.0
 40
16.0
 40
17.0
 40
17.0
 40
17.0
 40
18.0
 40
18.0
 40
18.0
 40
19.0
 40
19.0
 40
19.0
 40
19.0
 10
89.67445744285916
 20
-144.4824815176988
 30
0.0
 10
89.57902829791774
 20
-144.4824815176988
 30
0.0
 10
89.36129826324996
 20
-144.4614664352388
 30
0.0
 10
89.2362412971354
 20
-144.2754312790353
 30
0.0
 10
89.16217174420251
 20
-144.1631211662162
 30
0.0
 10
89.15803762962021
 20
-144.063902416241
 30
0.0
 10
89.15390351503791
 20
-143.9791530673038
 30
0.0
 10
89.15390351503791
 20
-143.9791530673038
 30
0.0
 10
89.37404511654537
 20
-143.9791530673038
 30
0.0
 10
89.37404511654537
 20
-143.9791530673038
 30
0.0
 10
89.37611217383653
 20
-144.0532226202367
 30
0.0
 10
89.38644746029227
 20
-144.2878336227822
 30
0.0
 10
89.66997881872834
 20
-144.2878336227822
 30
0.0
 10
89.80743812858981
 20
-144.2878336227822
 30
0.0
 10
89.96005585858637
 20
-144.2182426939802
 30
0.0
 10
89.96005585858637
 20
-143.9898328633081
 30
0.0
 10
89.96005585858637
 20
-143.8733886359067
 30
0.0
 10
89.92181529870011
 20
-143.8248127895646
 30
0.0
 10
89.8901204202358
 20
-143.7931179111003
 30
0.0
 10
89.81605086730293
 20
-143.7190483581675
 30
0.0
 10
89.69960663990149
 20
-143.706301504872
 30
0.0
 10
89.64482962168601
 20
-143.706301504872
 30
0.0
 10
89.62553708696862
 20
-143.706301504872
 30
0.0
 10
89.58970809392203
 20
-143.7083685621632
 30
0.0
 10
89.56214733004002
 20
-143.7125026767455
 30
0.0
 10
89.56214733004002
 20
-143.7125026767455
 30
0.0
 10
89.56214733004002
 20
-143.5178547818289
 30
0.0
 10
89.56214733004002
 20
-143.5178547818289
 30
0.0
 10
89.6003878899263
 20
-143.5244004632509
 30
0.0
 10
89.64241805484635
 20
-143.526467520542
 30
0.0
 10
89.64896373626831
 20
-143.526467520542
 30
0.0
 10
89.71442055048807
 20
-143.526467520542
 30
0.0
 10
89.91320255998698
 20
-143.5051079285334
 30
0.0
 10
89.91320255998698
 20
-143.2684298686968
 30
0.0
 10
89.91320255998698
 20
-143.0906629416579
 30
0.0
 10
89.78228893154748
 20
-143.0355414138939
 30
0.0
 10
89.6720458760195
 20
-143.0355414138939
 30
0.0
 10
89.40780705230083
 20
-143.0355414138939
 30
0.0
 10
89.3991943135877
 20
-143.2684298686968
 30
0.0
 10
89.3950601990054
 20
-143.34008785479
 30
0.0
 10
89.3950601990054
 20
-143.34008785479
 30
0.0
 10
89.19179956537566
 20
-143.34008785479
 30
0.0
 10
89.19179956537566
 20
-143.34008785479
 30
0.0
 10
89.20041230408879
 20
-143.2153753982239
 30
0.0
 10
89.2279730679708
 20
-142.8388264616861
 30
0.0
 10
89.68479272931492
 20
-142.8388264616861
 30
0.0
 10
89.90906844540469
 20
-142.8388264616861
 30
0.0
 10
90.15022512937217
 20
-142.9659504850918
 30
0.0
 10
90.15022512937217
 20
-143.2618841872748
 30
0.0
 10
90.15022512937217
 20
-143.4482638530268
 30
0.0
 10
90.05514049397928
 20
-143.5306016351243
 30
0.0
 10
89.95557723445556
 20
-143.5919243347618
 30
0.0
 10
90.016899934093
 20
-143.6194850986437
 30
0.0
 10
90.19880097571419
 20
-143.6997558234501
 30
0.0
 10
90.19880097571419
 20
-143.9770860100127
 30
0.0
 10
90.19880097571419
 20
-144.3153943866642
 30
0.0
 10
89.95144311987326
 20
-144.4824815176988
 30
0.0
 10
89.67445744285916
 20
-144.4824815176988
 30
0.0
  0
HATCH
  5
99
330
94
100
AcDbEntity
  8
_U+30EC_U+30A4_U+30E4_U+30FC 1
 62
   179
420
  2234388
100
AcDbHatch
 10
0.0
 20
0.0
 30
0.0
210
0.0
220
0.0
230
1.0
  2
SOLID
 70
     1
 71
     0
 91
        1
 92
        1
 93
        1
 72
     4
 94
        3
 73
     0
 74
     1
 95
       62
 96
       58
 40
0.0
 40
0.0
 40
0.0
 40
0.0
 40
1.0
 40
1.0
 40
1.0
 40
2.0
 40
2.0
 40
2.0
 40
3.0
 40
3.0
 40
3.0
 40
4.0
 40
4.0
 40
4.0
 40
5.0
 40
5.0
 40
5.0
 40
6.0
 40
6.0
 40
6.0
 40
7.0
 40
7.0
 40
7.0
 40
8.0
 40
8.0
 40
8.0
 40
9.0
 40
9.0
 40
9.0
 40
10.0
 40
10.0
 40
10.0
 40
11.0
 40
11.0
 40
11.0
 40
12.0
 40
12.0
 40
12.0
 40
13.0
 40
13.0
 40
13.0
 40
14.0
 40
14.0
 40
14.0
 40
15.0
 40
15.0
 40
15.0
 40
16.0
 40
16.0
 40
16.0
 40
17.0
 40
17.0
 40
17.0
 40
18.0
 40
18.0
 40
18.0
 40
19.0
 40
19.0
 40
19.0
 40
19.0
 10
89.67445744285916
 20
-144.4824815176988
 10
89.57902829791774
 20
-144.4824815176988
 10
89.36129826324996
 20
-144.4614664352388
 10
89.2362412971354
 20
-144.2754312790353
 10
89.16217174420251
 20
-144.1631211662162
 10
89.15803762962021
 20
-144.063902416241
 10
89.15390351503791
 20
-143.9791530673038
 10
89.15390351503791
 20
-143.9791530673038
 10
89.37404511654537
 20
-143.9791530673038
 10
89.37404511654537
 20
-143.9791530673038
 10
89.37611217383653
 20
-144.0532226202367
 10
89.38644746029227
 20
-144.2878336227822
 10
89.66997881872834
 20
-144.2878336227822
 10
89.80743812858981
 20
-144.2878336227822
 10
89.96005585858637
 20
-144.2182426939802
 10
89.96005585858637
 20
-143.9898328633081
 10
89.96005585858637
 20
-143.8733886359067
 10
89.92181529870011
 20
-143.8248127895646
 10
89.8901204202358
 20
-143.7931179111003
 10
89.81605086730293
 20
-143.7190483581675
 10
89.69960663990149
 20
-143.706301504872
 10
89.64482962168601
 20
-143.706301504872
 10
89.62553708696862
 20
-143.706301504872
 10
89.58970809392203
 20
-143.7083685621632
 10
89.56214733004002
 20
-143.7125026767455
 10
89.56214733004002
 20
-143.7125026767455
 10
89.56214733004002
 20
-143.5178547818289
 10
89.56214733004002
 20
-143.5178547818289
 10
89.6003878899263
 20
-143.5244004632509
 10
89.64241805484635
 20
-143.526467520542
 10
89.64896373626831
 20
-143.526467520542
 10
89.71442055048807
 20
-143.526467520542
 10
89.91320255998698
 20
-143.5051079285334
 10
89.91320255998698
 20
-143.2684298686968
 10
89.91320255998698
 20
-143.0906629416579
 10
89.78228893154748
 20
-143.0355414138939
 10
89.6720458760195
 20
-143.0355414138939
 10
89.40780705230083
 20
-143.0355414138939
 10
89.3991943135877
 20
-143.2684298686968
 10
89.3950601990054
 20
-143.34008785479
 10
89.3950601990054
 20
-143.34008785479
 10
89.19179956537566
 20
-143.34008785479
 10
89.19179956537566
 20
-143.34008785479
 10
89.20041230408879
 20
-143.2153753982239
 10
89.2279730679708
 20
-142.8388264616861
 10
89.68479272931492
 20
-142.8388264616861
 10
89.90906844540469
 20
-142.8388264616861
 10
90.15022512937217
 20
-142.9659504850918
 10
90.15022512937217
 20
-143.2618841872748
 10
90.15022512937217
 20
-143.4482638530268
 10
90.05514049397928
 20
-143.5306016351243
 10
89.95557723445556
 20
-143.5919243347618
 10
90.016899934093
 20
-143.6194850986437
 10
90.19880097571419
 20
-143.6997558234501
 10
90.19880097571419
 20
-143.9770860100127
 10
90.19880097571419
 20
-144.3153943866642
 10
89.95144311987326
 20
-144.4824815176988
 10
89.67445744285916
 20
-144.4824815176988
 97
        0
 97
        0
 75
     2
 76
     1
 98
        0
  0
SPLINE
  5
9A
330
94
100
AcDbEntity
  8
_U+30EC_U+30A4_U+30E4_U+30FC 1
370
     0
100
AcDbSpline
210
0.0
220
0.0
230
1.0
 70
    11
 71
     3
 72
    29
 73
    25
 74
     0
 42
0.0000000001
 43
0.0000000001
 12
1.0
 22
0.0
 32
0.0
 13
1.0
 23
0.0
 33
0.0
 40
0.0
 40
0.0
 40
0.0
 40
0.0
 40
1.0
 40
1.0
 40
1.0
 40
2.0
 40
2.0
 40
2.0
 40
3.0
 40
3.0
 40
3.0
 40
4.0
 40
4.0
 40
4.0
 40
5.0
 40
5.0
 40
5.0
 40
6.0
 40
6.0
 40
6.0
 40
7.0
 40
7.0
 40
7.0
 40
8.0
 40
8.0
 40
8.0
 40
8.0
 10
91.25747881833146
 20
-144.2540716870268
 30
0.0
 10
91.14930282009462
 20
-144.46353349253
 30
0.0
 10
90.97601451718656
 20
-144.4824815176988
 30
0.0
 10
90.85957028978511
 20
-144.4824815176988
 30
0.0
 10
90.69868433062395
 20
-144.4824815176988
 30
0.0
 10
90.55709090618018
 20
-144.435972728648
 30
0.0
 10
90.46200627078728
 20
-144.2540716870268
 30
0.0
 10
90.35830889668127
 20
-144.0594237921102
 30
0.0
 10
90.33901636196386
 20
-143.8224012227249
 30
0.0
 10
90.33901636196386
 20
-143.6597927158212
 30
0.0
 10
90.33901636196386
 20
-143.5157877245377
 30
0.0
 10
90.35624183939011
 20
-143.263951244566
 30
0.0
 10
90.46200627078728
 20
-143.0651692350671
 30
0.0
 10
90.5698377594756
 20
-142.8622531109858
 30
0.0
 10
90.73072371863677
 20
-142.8388264616861
 30
0.0
 10
90.85957028978511
 20
-142.8388264616861
 30
0.0
 10
91.01838919165513
 20
-142.8388264616861
 30
0.0
 10
91.16204967339004
 20
-142.8832681934458
 30
0.0
 10
91.25747881833146
 20
-143.0651692350671
 30
0.0
 10
91.35669756830666
 20
-143.2577500726925
 30
0.0
 10
91.38012421760637
 20
-143.4861599033646
 30
0.0
 10
91.38012421760637
 20
-143.6597927158212
 30
0.0
 10
91.38012421760637
 20
-143.8310139614381
 30
0.0
 10
91.35876462559781
 20
-144.0614908494013
 30
0.0
 10
91.25747881833146
 20
-144.2540716870268
 30
0.0
  0
SPLINE
  5
9B
330
94
100
AcDbEntity
  8
_U+30EC_U+30A4_U+30E4_U+30FC 1
370
     0
100
AcDbSpline
210
0.0
220
0.0
230
1.0
 70
    11
 71
     3
 72
    17
 73
    13
 74
     0
 42
0.0000000001
 43
0.0000000001
 12
1.0
 22
0.0
 32
0.0
 13
1.0
 23
0.0
 33
0.0
 40
0.0
 40
0.0
 40
0.0
 40
0.0
 40
1.0
 40
1.0
 40
1.0
 40
2.0
 40
2.0
 40
2.0
 40
3.0
 40
3.0
 40
3.0
 40
4.0
 40
4.0
 40
4.0
 40
4.0
 10
90.85957028978511
 20
-143.0314072993116
 30
0.0
 10
90.6098008671045
 20
-143.0314072993116
 30
0.0
 10
90.56329207805362
 20
-143.3149386577477
 30
0.0
 10
90.56329207805362
 20
-143.6597927158212
 30
0.0
 10
90.56329207805362
 20
-143.9791530673038
 30
0.0
 10
90.59946558064875
 20
-144.2878336227822
 30
0.0
 10
90.85957028978511
 20
-144.2878336227822
 30
0.0
 10
91.10727265517457
 20
-144.2878336227822
 30
0.0
 10
91.1558485015166
 20
-144.0067138311858
 30
0.0
 10
91.1558485015166
 20
-143.6597927158212
 30
0.0
 10
91.1558485015166
 20
-143.34008785479
 30
0.0
 10
91.11760794163033
 20
-143.0314072993116
 30
0.0
 10
90.85957028978511
 20
-143.0314072993116
 30
0.0
  0
HATCH
  5
9C
330
94
100
AcDbEntity
  8
_U+30EC_U+30A4_U+30E4_U+30FC 1
 62
   179
420
  2234388
100
AcDbHatch
 10
0.0
 20
0.0
 30
0.0
210
0.0
220
0.0
230
1.0
  2
SOLID
 70
     1
 71
     0
 91
        2
 92
        1
 93
        1
 72
     4
 94
        3
 73
     0
 74
     1
 95
       29
 96
       25
 40
0.0
 40
0.0
 40
0.0
 40
0.0
 40
1.0
 40
1.0
 40
1.0
 40
2.0
 40
2.0
 40
2.0
 40
3.0
 40
3.0
 40
3.0
 40
4.0
 40
4.0
 40
4.0
 40
5.0
 40
5.0
 40
5.0
 40
6.0
 40
6.0
 40
6.0
 40
7.0
 40
7.0
 40
7.0
 40
8.0
 40
8.0
 40
8.0
 40
8.0
 10
91.25747881833146
 20
-144.2540716870268
 10
91.14930282009462
 20
-144.46353349253
 10
90.97601451718656
 20
-144.4824815176988
 10
90.85957028978511
 20
-144.4824815176988
 10
90.69868433062395
 20
-144.4824815176988
 10
90.55709090618018
 20
-144.435972728648
 10
90.46200627078728
 20
-144.2540716870268
 10
90.35830889668127
 20
-144.0594237921102
 10
90.33901636196386
 20
-143.8224012227249
 10
90.33901636196386
 20
-143.6597927158212
 10
90.33901636196386
 20
-143.5157877245377
 10
90.35624183939011
 20
-143.263951244566
 10
90.46200627078728
 20
-143.0651692350671
 10
90.5698377594756
 20
-142.8622531109858
 10
90.73072371863677
 20
-142.8388264616861
 10
90.85957028978511
 20
-142.8388264616861
 10
91.01838919165513
 20
-142.8388264616861
 10
91.16204967339004
 20
-142.8832681934458
 10
91.25747881833146
 20
-143.0651692350671
 10
91.35669756830666
 20
-143.2577500726925
 10
91.38012421760637
 20
-143.4861599033646
 10
91.38012421760637
 20
-143.6597927158212
 10
91.38012421760637
 20
-143.8310139614381
 10
91.35876462559781
 20
-144.0614908494013
 10
91.25747881833146
 20
-144.2540716870268
 97
        0
 97
        0
 92
        1
 93
        1
 72
     4
 94
        3
 73
     0
 74
     1
 95
       17
 96
       13
 40
0.0
 40
0.0
 40
0.0
 40
0.0
 40
1.0
 40
1.0
 40
1.0
 40
2.0
 40
2.0
 40
2.0
 40
3.0
 40
3.0
 40
3.0
 40
4.0
 40
4.0
 40
4.0
 40
4.0
 10
90.85957028978511
 20
-143.0314072993116
 10
90.6098008671045
 20
-143.0314072993116
 10
90.56329207805362
 20
-143.3149386577477
 10
90.56329207805362
 20
-143.6597927158212
 10
90.56329207805362
 20
-143.9791530673038
 10
90.59946558064875
 20
-144.2878336227822
 10
90.85957028978511
 20
-144.2878336227822
 10
91.10727265517457
 20
-144.2878336227822
 10
91.1558485015166
 20
-144.0067138311858
 10
91.1558485015166
 20
-143.6597927158212
 10
91.1558485015166
 20
-143.34008785479
 10
91.11760794163033
 20
-143.0314072993116
 10
90.85957028978511
 20
-143.0314072993116
 97
        0
 97
        0
 75
     2
 76
     1
 98
        0
  0
ENDBLK
  5
97
330
94
100
AcDbEntity
  8
0
100
AcDbBlockEnd
  0
BLOCK
  5
AB
330
A9
100
AcDbEntity
  8
0
100
AcDbBlockBegin
  2
block 4
 70
     0
 10
0.0
 20
0.0
 30
0.0
  3
block 4
  1

  0
SPLINE
  5
AD
330
A9
100
AcDbEntity
  8
_U+30EC_U+30A4_U+30E4_U+30FC 1
370
     0
100
AcDbSpline
210
0.0
220
0.0
230
1.0
 70
    11
 71
     3
 72
    62
 73
    58
 74
     0
 42
0.0000000001
 43
0.0000000001
 12
1.0
 22
0.0
 32
0.0
 13
1.0
 23
0.0
 33
0.0
 40
0.0
 40
0.0
 40
0.0
 40
0.0
 40
1.0
 40
1.0
 40
1.0
 40
2.0
 40
2.0
 40
2.0
 40
3.0
 40
3.0
 40
3.0
 40
4.0
 40
4.0
 40
4.0
 40
5.0
 40
5.0
 40
5.0
 40
6.0
 40
6.0
 40
6.0
 40
7.0
 40
7.0
 40
7.0
 40
8.0
 40
8.0
 40
8.0
 40
9.0
 40
9.0
 40
9.0
 40
10.0
 40
10.0
 40
10.0
 40
11.0
 40
11.0
 40
11.0
 40
12.0
 40
12.0
 40
12.0
 40
13.0
 40
13.0
 40
13.0
 40
14.0
 40
14.0
 40
14.0
 40
15.0
 40
15.0
 40
15.0
 40
16.0
 40
16.0
 40
16.0
 40
17.0
 40
17.0
 40
17.0
 40
18.0
 40
18.0
 40
18.0
 40
19.0
 40
19.0
 40
19.0
 40
19.0
 10
70.8015353555635
 20
-126.7013101896788
 30
0.0
 10
70.8015353555635
 20
-126.7967393346203
 30
0.0
 10
70.78034801832922
 20
-127.0144693692881
 30
0.0
 10
70.59414060735146
 20
-127.1395263354026
 30
0.0
 10
70.48200274930659
 20
-127.2135958883355
 30
0.0
 10
70.38261174455712
 20
-127.2177300029178
 30
0.0
 10
70.29803465039424
 20
-127.2218641175001
 30
0.0
 10
70.29803465039424
 20
-127.2218641175001
 30
0.0
 10
70.29803465039424
 20
-127.0017225159926
 30
0.0
 10
70.29803465039424
 20
-127.0017225159926
 30
0.0
 10
70.37210420332711
 20
-126.9996554587015
 30
0.0
 10
70.60688746064689
 20
-126.9893201722457
 30
0.0
 10
70.60688746064689
 20
-126.7057888138097
 30
0.0
 10
70.60688746064689
 20
-126.5683295039482
 30
0.0
 10
70.53712427707059
 20
-126.4157117739516
 30
0.0
 10
70.30854219162426
 20
-126.4157117739516
 30
0.0
 10
70.19227021899708
 20
-126.4157117739516
 30
0.0
 10
70.14352211788079
 20
-126.4539523338379
 30
0.0
 10
70.11182723941648
 20
-126.4856472123022
 30
0.0
 10
70.03775768648362
 20
-126.5597167652351
 30
0.0
 10
70.02518308796246
 20
-126.6761609926365
 30
0.0
 10
70.02518308796246
 20
-126.730938010852
 30
0.0
 10
70.02518308796246
 20
-126.7502305455694
 30
0.0
 10
70.0272501452536
 20
-126.786059538616
 30
0.0
 10
70.0313842598359
 20
-126.813620302498
 30
0.0
 10
70.0313842598359
 20
-126.813620302498
 30
0.0
 10
69.83673636491929
 20
-126.813620302498
 30
0.0
 10
69.83673636491929
 20
-126.813620302498
 30
0.0
 10
69.843109791567
 20
-126.7753797426117
 30
0.0
 10
69.84534910363242
 20
-126.7333495776917
 30
0.0
 10
69.84534910363242
 20
-126.7268038962697
 30
0.0
 10
69.84534910363242
 20
-126.6613470820499
 30
0.0
 10
69.82416176639813
 20
-126.462565072551
 30
0.0
 10
69.58713919701295
 20
-126.462565072551
 30
0.0
 10
69.40954452474831
 20
-126.462565072551
 30
0.0
 10
69.35442299698431
 20
-126.5934787009905
 30
0.0
 10
69.35442299698431
 20
-126.7037217565185
 30
0.0
 10
69.35442299698431
 20
-126.9679605802372
 30
0.0
 10
69.58713919701295
 20
-126.9765733189503
 30
0.0
 10
69.65914169265466
 20
-126.9807074335326
 30
0.0
 10
69.65914169265466
 20
-126.9807074335326
 30
0.0
 10
69.65914169265466
 20
-127.1839680671624
 30
0.0
 10
69.65914169265466
 20
-127.1839680671624
 30
0.0
 10
69.53425698131436
 20
-127.1753553284492
 30
0.0
 10
69.15770804477656
 20
-127.1477945645672
 30
0.0
 10
69.15770804477656
 20
-126.6909749032231
 30
0.0
 10
69.15770804477656
 20
-126.4666991871333
 30
0.0
 10
69.284659813408
 20
-126.2255425031658
 30
0.0
 10
69.58076577036523
 20
-126.2255425031658
 30
0.0
 10
69.76697318134298
 20
-126.2255425031658
 30
0.0
 10
69.84948321821471
 20
-126.3206271385587
 30
0.0
 10
69.91080591785216
 20
-126.4201903980825
 30
0.0
 10
69.93836668173417
 20
-126.358867698445
 30
0.0
 10
70.01880966131475
 20
-126.1769666568238
 30
0.0
 10
70.2959675931031
 20
-126.1769666568238
 30
0.0
 10
70.6344482245289
 20
-126.1769666568238
 30
0.0
 10
70.8015353555635
 20
-126.4243245126648
 30
0.0
 10
70.8015353555635
 20
-126.7013101896788
 30
0.0
  0
HATCH
  5
AE
330
A9
100
AcDbEntity
  8
_U+30EC_U+30A4_U+30E4_U+30FC 1
 62
   179
420
  2234388
100
AcDbHatch
 10
0.0
 20
0.0
 30
0.0
210
0.0
220
0.0
230
1.0
  2
SOLID
 70
     1
 71
     0
 91
        1
 92
        1
 93
        1
 72
     4
 94
        3
 73
     0
 74
     1
 95
       62
 96
       58
 40
0.0
 40
0.0
 40
0.0
 40
0.0
 40
1.0
 40
1.0
 40
1.0
 40
2.0
 40
2.0
 40
2.0
 40
3.0
 40
3.0
 40
3.0
 40
4.0
 40
4.0
 40
4.0
 40
5.0
 40
5.0
 40
5.0
 40
6.0
 40
6.0
 40
6.0
 40
7.0
 40
7.0
 40
7.0
 40
8.0
 40
8.0
 40
8.0
 40
9.0
 40
9.0
 40
9.0
 40
10.0
 40
10.0
 40
10.0
 40
11.0
 40
11.0
 40
11.0
 40
12.0
 40
12.0
 40
12.0
 40
13.0
 40
13.0
 40
13.0
 40
14.0
 40
14.0
 40
14.0
 40
15.0
 40
15.0
 40
15.0
 40
16.0
 40
16.0
 40
16.0
 40
17.0
 40
17.0
 40
17.0
 40
18.0
 40
18.0
 40
18.0
 40
19.0
 40
19.0
 40
19.0
 40
19.0
 10
70.8015353555635
 20
-126.7013101896788
 10
70.8015353555635
 20
-126.7967393346203
 10
70.78034801832922
 20
-127.0144693692881
 10
70.59414060735146
 20
-127.1395263354026
 10
70.48200274930659
 20
-127.2135958883355
 10
70.38261174455712
 20
-127.2177300029178
 10
70.29803465039424
 20
-127.2218641175001
 10
70.29803465039424
 20
-127.2218641175001
 10
70.29803465039424
 20
-127.0017225159926
 10
70.29803465039424
 20
-127.0017225159926
 10
70.37210420332711
 20
-126.9996554587015
 10
70.60688746064689
 20
-126.9893201722457
 10
70.60688746064689
 20
-126.7057888138097
 10
70.60688746064689
 20
-126.5683295039482
 10
70.53712427707059
 20
-126.4157117739516
 10
70.30854219162426
 20
-126.4157117739516
 10
70.19227021899708
 20
-126.4157117739516
 10
70.14352211788079
 20
-126.4539523338379
 10
70.11182723941648
 20
-126.4856472123022
 10
70.03775768648362
 20
-126.5597167652351
 10
70.02518308796246
 20
-126.6761609926365
 10
70.02518308796246
 20
-126.730938010852
 10
70.02518308796246
 20
-126.7502305455694
 10
70.0272501452536
 20
-126.786059538616
 10
70.0313842598359
 20
-126.813620302498
 10
70.0313842598359
 20
-126.813620302498
 10
69.83673636491929
 20
-126.813620302498
 10
69.83673636491929
 20
-126.813620302498
 10
69.843109791567
 20
-126.7753797426117
 10
69.84534910363242
 20
-126.7333495776917
 10
69.84534910363242
 20
-126.7268038962697
 10
69.84534910363242
 20
-126.6613470820499
 10
69.82416176639813
 20
-126.462565072551
 10
69.58713919701295
 20
-126.462565072551
 10
69.40954452474831
 20
-126.462565072551
 10
69.35442299698431
 20
-126.5934787009905
 10
69.35442299698431
 20
-126.7037217565185
 10
69.35442299698431
 20
-126.9679605802372
 10
69.58713919701295
 20
-126.9765733189503
 10
69.65914169265466
 20
-126.9807074335326
 10
69.65914169265466
 20
-126.9807074335326
 10
69.65914169265466
 20
-127.1839680671624
 10
69.65914169265466
 20
-127.1839680671624
 10
69.53425698131436
 20
-127.1753553284492
 10
69.15770804477656
 20
-127.1477945645672
 10
69.15770804477656
 20
-126.6909749032231
 10
69.15770804477656
 20
-126.4666991871333
 10
69.284659813408
 20
-126.2255425031658
 10
69.58076577036523
 20
-126.2255425031658
 10
69.76697318134298
 20
-126.2255425031658
 10
69.84948321821471
 20
-126.3206271385587
 10
69.91080591785216
 20
-126.4201903980825
 10
69.93836668173417
 20
-126.358867698445
 10
70.01880966131475
 20
-126.1769666568238
 10
70.2959675931031
 20
-126.1769666568238
 10
70.6344482245289
 20
-126.1769666568238
 10
70.8015353555635
 20
-126.4243245126648
 10
70.8015353555635
 20
-126.7013101896788
 97
        0
 97
        0
 75
     2
 76
     1
 98
        0
  0
SPLINE
  5
AF
330
A9
100
AcDbEntity
  8
_U+30EC_U+30A4_U+30E4_U+30FC 1
370
     0
100
AcDbSpline
210
0.0
220
0.0
230
1.0
 70
    11
 71
     3
 72
    29
 73
    25
 74
     0
 42
0.0000000001
 43
0.0000000001
 12
1.0
 22
0.0
 32
0.0
 13
1.0
 23
0.0
 33
0.0
 40
0.0
 40
0.0
 40
0.0
 40
0.0
 40
1.0
 40
1.0
 40
1.0
 40
2.0
 40
2.0
 40
2.0
 40
3.0
 40
3.0
 40
3.0
 40
4.0
 40
4.0
 40
4.0
 40
5.0
 40
5.0
 40
5.0
 40
6.0
 40
6.0
 40
6.0
 40
7.0
 40
7.0
 40
7.0
 40
8.0
 40
8.0
 40
8.0
 40
8.0
 10
70.57295327011718
 20
-125.1182888142066
 30
0.0
 10
70.78241507562038
 20
-125.2264648124434
 30
0.0
 10
70.8015353555635
 20
-125.3997531153515
 30
0.0
 10
70.8015353555635
 20
-125.5161973427529
 30
0.0
 10
70.8015353555635
 20
-125.6770833019141
 30
0.0
 10
70.75502656651264
 20
-125.8186767263578
 30
0.0
 10
70.57295327011718
 20
-125.9137613617507
 30
0.0
 10
70.37830537520057
 20
-126.0174587358567
 30
0.0
 10
70.14145506058964
 20
-126.0367512705742
 30
0.0
 10
69.97850204413733
 20
-126.0367512705742
 30
0.0
 10
69.83466930762815
 20
-126.0367512705742
 30
0.0
 10
69.58300508243065
 20
-126.0195257931479
 30
0.0
 10
69.38405081815746
 20
-125.9137613617507
 30
0.0
 10
69.18096243930198
 20
-125.8059298730624
 30
0.0
 10
69.15770804477656
 20
-125.6450439139012
 30
0.0
 10
69.15770804477656
 20
-125.5161973427529
 30
0.0
 10
69.15770804477656
 20
-125.3573784408829
 30
0.0
 10
69.20214977653627
 20
-125.213717959148
 30
0.0
 10
69.38405081815746
 20
-125.1182888142066
 30
0.0
 10
69.57663165578293
 20
-125.0190700642313
 30
0.0
 10
69.805041486455
 20
-124.9956434149316
 30
0.0
 10
69.97850204413733
 20
-124.9956434149316
 30
0.0
 10
70.1498955445285
 20
-124.9956434149316
 30
0.0
 10
70.38054468726598
 20
-125.0170030069402
 30
0.0
 10
70.57295327011718
 20
-125.1182888142066
 30
0.0
  0
SPLINE
  5
B0
330
A9
100
AcDbEntity
  8
_U+30EC_U+30A4_U+30E4_U+30FC 1
370
     0
100
AcDbSpline
210
0.0
220
0.0
230
1.0
 70
    11
 71
     3
 72
    17
 73
    13
 74
     0
 42
0.0000000001
 43
0.0000000001
 12
1.0
 22
0.0
 32
0.0
 13
1.0
 23
0.0
 33
0.0
 40
0.0
 40
0.0
 40
0.0
 40
0.0
 40
1.0
 40
1.0
 40
1.0
 40
2.0
 40
2.0
 40
2.0
 40
3.0
 40
3.0
 40
3.0
 40
4.0
 40
4.0
 40
4.0
 40
4.0
 10
69.35028888240201
 20
-125.5161973427529
 30
0.0
 10
69.35028888240201
 20
-125.7659667654335
 30
0.0
 10
69.63382024083808
 20
-125.8124755544844
 30
0.0
 10
69.97850204413733
 20
-125.8124755544844
 30
0.0
 10
70.29803465039424
 20
-125.8124755544844
 30
0.0
 10
70.60688746064689
 20
-125.7763020518893
 30
0.0
 10
70.60688746064689
 20
-125.5161973427529
 30
0.0
 10
70.60688746064689
 20
-125.2684949773634
 30
0.0
 10
70.32542315950198
 20
-125.2199191310214
 30
0.0
 10
69.97850204413733
 20
-125.2199191310214
 30
0.0
 10
69.65914169265466
 20
-125.2199191310214
 30
0.0
 10
69.35028888240201
 20
-125.2581596909077
 30
0.0
 10
69.35028888240201
 20
-125.5161973427529
 30
0.0
  0
HATCH
  5
B1
330
A9
100
AcDbEntity
  8
_U+30EC_U+30A4_U+30E4_U+30FC 1
 62
   179
420
  2234388
100
AcDbHatch
 10
0.0
 20
0.0
 30
0.0
210
0.0
220
0.0
230
1.0
  2
SOLID
 70
     1
 71
     0
 91
        2
 92
        1
 93
        1
 72
     4
 94
        3
 73
     0
 74
     1
 95
       29
 96
       25
 40
0.0
 40
0.0
 40
0.0
 40
0.0
 40
1.0
 40
1.0
 40
1.0
 40
2.0
 40
2.0
 40
2.0
 40
3.0
 40
3.0
 40
3.0
 40
4.0
 40
4.0
 40
4.0
 40
5.0
 40
5.0
 40
5.0
 40
6.0
 40
6.0
 40
6.0
 40
7.0
 40
7.0
 40
7.0
 40
8.0
 40
8.0
 40
8.0
 40
8.0
 10
70.57295327011718
 20
-125.1182888142066
 10
70.78241507562038
 20
-125.2264648124434
 10
70.8015353555635
 20
-125.3997531153515
 10
70.8015353555635
 20
-125.5161973427529
 10
70.8015353555635
 20
-125.6770833019141
 10
70.75502656651264
 20
-125.8186767263578
 10
70.57295327011718
 20
-125.9137613617507
 10
70.37830537520057
 20
-126.0174587358567
 10
70.14145506058964
 20
-126.0367512705742
 10
69.97850204413733
 20
-126.0367512705742
 10
69.83466930762815
 20
-126.0367512705742
 10
69.58300508243065
 20
-126.0195257931479
 10
69.38405081815746
 20
-125.9137613617507
 10
69.18096243930198
 20
-125.8059298730624
 10
69.15770804477656
 20
-125.6450439139012
 10
69.15770804477656
 20
-125.5161973427529
 10
69.15770804477656
 20
-125.3573784408829
 10
69.20214977653627
 20
-125.213717959148
 10
69.38405081815746
 20
-125.1182888142066
 10
69.57663165578293
 20
-125.0190700642313
 10
69.805041486455
 20
-124.9956434149316
 10
69.97850204413733
 20
-124.9956434149316
 10
70.1498955445285
 20
-124.9956434149316
 10
70.38054468726598
 20
-125.0170030069402
 10
70.57295327011718
 20
-125.1182888142066
 97
        0
 97
        0
 92
        1
 93
        1
 72
     4
 94
        3
 73
     0
 74
     1
 95
       17
 96
       13
 40
0.0
 40
0.0
 40
0.0
 40
0.0
 40
1.0
 40
1.0
 40
1.0
 40
2.0
 40
2.0
 40
2.0
 40
3.0
 40
3.0
 40
3.0
 40
4.0
 40
4.0
 40
4.0
 40
4.0
 10
69.35028888240201
 20
-125.5161973427529
 10
69.35028888240201
 20
-125.7659667654335
 10
69.63382024083808
 20
-125.8124755544844
 10
69.97850204413733
 20
-125.8124755544844
 10
70.29803465039424
 20
-125.8124755544844
 10
70.60688746064689
 20
-125.7763020518893
 10
70.60688746064689
 20
-125.5161973427529
 10
70.60688746064689
 20
-125.2684949773634
 10
70.32542315950198
 20
-125.2199191310214
 10
69.97850204413733
 20
-125.2199191310214
 10
69.65914169265466
 20
-125.2199191310214
 10
69.35028888240201
 20
-125.2581596909077
 10
69.35028888240201
 20
-125.5161973427529
 97
        0
 97
        0
 75
     2
 76
     1
 98
        0
  0
ENDBLK
  5
AC
330
A9
100
AcDbEntity
  8
0
100
AcDbBlockEnd
  0
ENDSEC
  0
SECTION
  2
ENTITIES
  0
POLYLINE
  5
41
330
1F
100
AcDbEntity
  8
_U+30EC_U+30A4_U+30E4_U+30FC 1
370
     0
100
AcDb2dPolyline
 66
     1
 10
0.0
 20
0.0
 30
0.0
  0
VERTEX
  5
42
330
41
100
AcDbEntity
  8
_U+30EC_U+30A4_U+30E4_U+30FC 1
370
     0
100
AcDbVertex
100
AcDb2dVertex
 10
76.24649416590098
 20
-111.0288680277983
 30
0.0
  0
VERTEX
  5
43
330
41
100
AcDbEntity
  8
_U+30EC_U+30A4_U+30E4_U+30FC 1
370
     0
100
AcDbVertex
100
AcDb2dVertex
 10
75.34666391107979
 20
-111.0288680277983
 30
0.0
  0
VERTEX
  5
44
330
41
100
AcDbEntity
  8
_U+30EC_U+30A4_U+30E4_U+30FC 1
370
     0
100
AcDbVertex
100
AcDb2dVertex
 10
75.34666391107979
 20
-141.029125520298
 30
0.0
  0
VERTEX
  5
45
330
41
100
AcDbEntity
  8
_U+30EC_U+30A4_U+30E4_U+30FC 1
370
     0
100
AcDbVertex
100
AcDb2dVertex
 10
105.3472381457014
 20
-141.029125520298
 30
0.0
  0
VERTEX
  5
46
330
41
100
AcDbEntity
  8
_U+30EC_U+30A4_U+30E4_U+30FC 1
370
     0
100
AcDbVertex
100
AcDb2dVertex
 10
105.3472381457014
 20
-140.1292599649677
 30
0.0
  0
VERTEX
  5
47
330
41
100
AcDbEntity
  8
_U+30EC_U+30A4_U+30E4_U+30FC 1
370
     0
100
AcDbVertex
100
AcDb2dVertex
 10
76.24649416590098
 20
-140.1292599649677
 30
0.0
  0
VERTEX
  5
48
330
41
100
AcDbEntity
  8
_U+30EC_U+30A4_U+30E4_U+30FC 1
370
     0
100
AcDbVertex
100
AcDb2dVertex
 10
76.24649416590098
 20
-111.0288680277983
 30
0.0
  0
SEQEND
  5
4A
330
41
100
AcDbEntity
  8
_U+30EC_U+30A4_U+30E4_U+30FC 1
370
     0
  0
HATCH
  5
49
330
1F
100
AcDbEntity
  8
_U+30EC_U+30A4_U+30E4_U+30FC 1
 62
   253
420
 11711154
100
AcDbHatch
 10
0.0
 20
0.0
 30
0.0
210
0.0
220
0.0
230
1.0
  2
SOLID
 70
     1
 71
     0
 91
        1
 92
        1
 93
        6
 72
     1
 10
76.24649416590098
 20
-111.0288680277983
 11
75.34666391107979
 21
-111.0288680277983
 72
     1
 10
75.34666391107979
 20
-111.0288680277983
 11
75.34666391107979
 21
-141.029125520298
 72
     1
 10
75.34666391107979
 20
-141.029125520298
 11
105.3472381457014
 21
-141.029125520298
 72
     1
 10
105.3472381457014
 20
-141.029125520298
 11
105.3472381457014
 21
-140.1292599649677
 72
     1
 10
105.3472381457014
 20
-140.1292599649677
 11
76.24649416590098
 21
-140.1292599649677
 72
     1
 10
76.24649416590098
 20
-140.1292599649677
 11
76.24649416590098
 21
-111.0288680277983
 97
        0
 75
     2
 76
     1
 98
        0
  0
POLYLINE
  5
4B
330
1F
100
AcDbEntity
  8
_U+30EC_U+30A4_U+30E4_U+30FC 1
 62
   179
420
  2234388
370
    25
100
AcDb2dPolyline
 66
     1
 10
0.0
 20
0.0
 30
0.0
  0
VERTEX
  5
4C
330
4B
100
AcDbEntity
  8
_U+30EC_U+30A4_U+30E4_U+30FC 1
 62
   179
420
  2234388
370
    25
100
AcDbVertex
100
AcDb2dVertex
 10
75.34666391107979
 20
-111.0288680277983
 30
0.0
  0
VERTEX
  5
4D
330
4B
100
AcDbEntity
  8
_U+30EC_U+30A4_U+30E4_U+30FC 1
 62
   179
420
  2234388
370
    25
100
AcDbVertex
100
AcDb2dVertex
 10
75.34666391107979
 20
-141.029125520298
 30
0.0
  0
SEQEND
  5
4E
330
4B
100
AcDbEntity
  8
_U+30EC_U+30A4_U+30E4_U+30FC 1
 62
   179
420
  2234388
370
    25
  0
POLYLINE
  5
4F
330
1F
100
AcDbEntity
  8
_U+30EC_U+30A4_U+30E4_U+30FC 1
 62
   179
420
  2234388
370
    25
100
AcDb2dPolyline
 66
     1
 10
0.0
 20
0.0
 30
0.0
  0
VERTEX
  5
50
330
4F
100
AcDbEntity
  8
_U+30EC_U+30A4_U+30E4_U+30FC 1
 62
   179
420
  2234388
370
    25
100
AcDbVertex
100
AcDb2dVertex
 10
75.34666391107979
 20
-141.029125520298
 30
0.0
  0
VERTEX
  5
51
330
4F
100
AcDbEntity
  8
_U+30EC_U+30A4_U+30E4_U+30FC 1
 62
   179
420
  2234388
370
    25
100
AcDbVertex
100
AcDb2dVertex
 10
105.3472381457014
 20
-141.029125520298
 30
0.0
  0
SEQEND
  5
52
330
4F
100
AcDbEntity
  8
_U+30EC_U+30A4_U+30E4_U+30FC 1
 62
   179
420
  2234388
370
    25
  0
POLYLINE
  5
53
330
1F
100
AcDbEntity
  8
_U+30EC_U+30A4_U+30E4_U+30FC 1
 62
   179
420
  2234388
370
    25
100
AcDb2dPolyline
 66
     1
 10
0.0
 20
0.0
 30
0.0
  0
VERTEX
  5
54
330
53
100
AcDbEntity
  8
_U+30EC_U+30A4_U+30E4_U+30FC 1
 62
   179
420
  2234388
370
    25
100
AcDbVertex
100
AcDb2dVertex
 10
76.24649416590098
 20
-140.1292599649677
 30
0.0
  0
VERTEX
  5
55
330
53
100
AcDbEntity
  8
_U+30EC_U+30A4_U+30E4_U+30FC 1
 62
   179
420
  2234388
370
    25
100
AcDbVertex
100
AcDb2dVertex
 10
105.3472381457014
 20
-140.1292599649677
 30
0.0
  0
SEQEND
  5
56
330
53
100
AcDbEntity
  8
_U+30EC_U+30A4_U+30E4_U+30FC 1
 62
   179
420
  2234388
370
    25
  0
POLYLINE
  5
57
330
1F
100
AcDbEntity
  8
_U+30EC_U+30A4_U+30E4_U+30FC 1
 62
   179
420
  2234388
370
    25
100
AcDb2dPolyline
 66
     1
 10
0.0
 20
0.0
 30
0.0
  0
VERTEX
  5
58
330
57
100
AcDbEntity
  8
_U+30EC_U+30A4_U+30E4_U+30FC 1
 62
   179
420
  2234388
370
    25
100
AcDbVertex
100
AcDb2dVertex
 10
76.24649416590098
 20
-111.0288680277983
 30
0.0
  0
VERTEX
  5
59
330
57
100
AcDbEntity
  8
_U+30EC_U+30A4_U+30E4_U+30FC 1
 62
   179
420
  2234388
370
    25
100
AcDbVertex
100
AcDb2dVertex
 10
76.24649416590098
 20
-140.1292599649677
 30
0.0
  0
SEQEND
  5
5A
330
57
100
AcDbEntity
  8
_U+30EC_U+30A4_U+30E4_U+30FC 1
 62
   179
420
  2234388
370
    25
  0
POLYLINE
  5
5B
330
1F
100
AcDbEntity
  8
_U+30EC_U+30A4_U+30E4_U+30FC 1
 62
   179
420
  2234388
370
    25
100
AcDb2dPolyline
 66
     1
 10
0.0
 20
0.0
 30
0.0
  0
VERTEX
  5
5C
330
5B
100
AcDbEntity
  8
_U+30EC_U+30A4_U+30E4_U+30FC 1
 62
   179
420
  2234388
370
    25
100
AcDbVertex
100
AcDb2dVertex
 10
75.34666391107979
 20
-111.0288680277983
 30
0.0
  0
VERTEX
  5
5D
330
5B
100
AcDbEntity
  8
_U+30EC_U+30A4_U+30E4_U+30FC 1
 62
   179
420
  2234388
370
    25
100
AcDbVertex
100
AcDb2dVertex
 10
76.24649416590098
 20
-111.0288680277983
 30
0.0
  0
SEQEND
  5
5E
330
5B
100
AcDbEntity
  8
_U+30EC_U+30A4_U+30E4_U+30FC 1
 62
   179
420
  2234388
370
    25
  0
POLYLINE
  5
5F
330
1F
100
AcDbEntity
  8
_U+30EC_U+30A4_U+30E4_U+30FC 1
 62
   179
420
  2234388
370
    25
100
AcDb2dPolyline
 66
     1
 10
0.0
 20
0.0
 30
0.0
  0
VERTEX
  5
60
330
5F
100
AcDbEntity
  8
_U+30EC_U+30A4_U+30E4_U+30FC 1
 62
   179
420
  2234388
370
    25
100
AcDbVertex
100
AcDb2dVertex
 10
105.3472381457014
 20
-140.1292599649677
 30
0.0
  0
VERTEX
  5
61
330
5F
100
AcDbEntity
  8
_U+30EC_U+30A4_U+30E4_U+30FC 1
 62
   179
420
  2234388
370
    25
100
AcDbVertex
100
AcDb2dVertex
 10
105.3472381457014
 20
-141.029125520298
 30
0.0
  0
SEQEND
  5
62
330
5F
100
AcDbEntity
  8
_U+30EC_U+30A4_U+30E4_U+30FC 1
 62
   179
420
  2234388
370
    25
  0
SPLINE
  5
63
330
1F
100
AcDbEntity
  8
_U+30EC_U+30A4_U+30E4_U+30FC 1
 62
   179
420
  2234388
370
     9
100
AcDbSpline
210
0.0
220
0.0
230
1.0
 70
    11
 71
     3
 72
    17
 73
    13
 74
     0
 42
0.0000000001
 43
0.0000000001
 12
1.0
 22
0.0
 32
0.0
 13
1.0
 23
0.0
 33
0.0
 40
0.0
 40
0.0
 40
0.0
 40
0.0
 40
1.0
 40
1.0
 40
1.0
 40
2.0
 40
2.0
 40
2.0
 40
3.0
 40
3.0
 40
3.0
 40
4.0
 40
4.0
 40
4.0
 40
4.0
 10
109.4469038744435
 20
-140.1292599649677
 30
0.0
 10
109.4469038744435
 20
-140.0738032983151
 30
0.0
 10
109.4021010978088
 20
-140.0290005205484
 30
0.0
 10
109.3469999726629
 20
-140.0290005205484
 30
0.0
 10
109.2918580450657
 20
-140.0290005205484
 30
0.0
 10
109.2470905462079
 20
-140.0738032983151
 30
0.0
 10
109.2470905462079
 20
-140.1292599649677
 30
0.0
 10
109.2470905462079
 20
-140.1843638538427
 30
0.0
 10
109.2918580450657
 20
-140.2291666316094
 30
0.0
 10
109.3469999726629
 20
-140.2291666316094
 30
0.0
 10
109.4021010978088
 20
-140.2291666316094
 30
0.0
 10
109.4469038744435
 20
-140.1843638538427
 30
0.0
 10
109.4469038744435
 20
-140.1292599649677
 30
0.0
  0
SPLINE
  5
64
330
1F
100
AcDbEntity
  8
_U+30EC_U+30A4_U+30E4_U+30FC 1
 62
   179
420
  2234388
370
     9
100
AcDbSpline
210
0.0
220
0.0
230
1.0
 70
    11
 71
     3
 72
    17
 73
    13
 74
     0
 42
0.0000000001
 43
0.0000000001
 12
1.0
 22
0.0
 32
0.0
 13
1.0
 23
0.0
 33
0.0
 40
0.0
 40
0.0
 40
0.0
 40
0.0
 40
1.0
 40
1.0
 40
1.0
 40
2.0
 40
2.0
 40
2.0
 40
3.0
 40
3.0
 40
3.0
 40
4.0
 40
4.0
 40
4.0
 40
4.0
 10
109.4469038744435
 20
-141.029125520298
 30
0.0
 10
109.4469038744435
 20
-140.9739863536456
 30
0.0
 10
109.4021010978088
 20
-140.9292188536564
 30
0.0
 10
109.3469999726629
 20
-140.9292188536564
 30
0.0
 10
109.2918580450657
 20
-140.9292188536564
 30
0.0
 10
109.2470905462079
 20
-140.9739863536456
 30
0.0
 10
109.2470905462079
 20
-141.029125520298
 30
0.0
 10
109.2470905462079
 20
-141.0842294091736
 30
0.0
 10
109.2918580450657
 20
-141.1290321869403
 30
0.0
 10
109.3469999726629
 20
-141.1290321869403
 30
0.0
 10
109.4021010978088
 20
-141.1290321869403
 30
0.0
 10
109.4469038744435
 20
-141.0842294091736
 30
0.0
 10
109.4469038744435
 20
-141.029125520298
 30
0.0
  0
SPLINE
  5
65
330
1F
100
AcDbEntity
  8
_U+30EC_U+30A4_U+30E4_U+30FC 1
 62
   179
420
  2234388
370
     9
100
AcDbSpline
210
0.0
220
0.0
230
1.0
 70
    11
 71
     3
 72
    17
 73
    13
 74
     0
 42
0.0000000001
 43
0.0000000001
 12
1.0
 22
0.0
 32
0.0
 13
1.0
 23
0.0
 33
0.0
 40
0.0
 40
0.0
 40
0.0
 40
0.0
 40
1.0
 40
1.0
 40
1.0
 40
2.0
 40
2.0
 40
2.0
 40
3.0
 40
3.0
 40
3.0
 40
4.0
 40
4.0
 40
4.0
 40
4.0
 10
105.4471448098192
 20
-145.0292021859651
 30
0.0
 10
105.4471448098192
 20
-144.9737455193118
 30
0.0
 10
105.4023420331845
 20
-144.9289780193232
 30
0.0
 10
105.3472381457014
 20
-144.9289780193232
 30
0.0
 10
105.2914287026807
 20
-144.9289780193232
 30
0.0
 10
105.246625926046
 20
-144.9737455193118
 30
0.0
 10
105.246625926046
 20
-145.0292021859651
 30
0.0
 10
105.246625926046
 20
-145.0843413526176
 30
0.0
 10
105.2914287026807
 20
-145.1291088526068
 30
0.0
 10
105.3472381457014
 20
-145.1291088526068
 30
0.0
 10
105.4023420331845
 20
-145.1291088526068
 30
0.0
 10
105.4471448098192
 20
-145.0843413526176
 30
0.0
 10
105.4471448098192
 20
-145.0292021859651
 30
0.0
  0
SPLINE
  5
66
330
1F
100
AcDbEntity
  8
_U+30EC_U+30A4_U+30E4_U+30FC 1
 62
   179
420
  2234388
370
     9
100
AcDbSpline
210
0.0
220
0.0
230
1.0
 70
    11
 71
     3
 72
    17
 73
    13
 74
     0
 42
0.0000000001
 43
0.0000000001
 12
1.0
 22
0.0
 32
0.0
 13
1.0
 23
0.0
 33
0.0
 40
0.0
 40
0.0
 40
0.0
 40
0.0
 40
1.0
 40
1.0
 40
1.0
 40
2.0
 40
2.0
 40
2.0
 40
3.0
 40
3.0
 40
3.0
 40
4.0
 40
4.0
 40
4.0
 40
4.0
 10
75.44657057519763
 20
-145.0292021859651
 30
0.0
 10
75.44657057519763
 20
-144.9737455193118
 30
0.0
 10
75.40176779856286
 20
-144.9289780193232
 30
0.0
 10
75.34666391107979
 20
-144.9289780193232
 30
0.0
 10
75.29152474581984
 20
-144.9289780193232
 30
0.0
 10
75.24675724696196
 20
-144.9737455193118
 30
0.0
 10
75.24675724696196
 20
-145.0292021859651
 30
0.0
 10
75.24675724696196
 20
-145.0843413526176
 30
0.0
 10
75.29152474581984
 20
-145.1291088526068
 30
0.0
 10
75.34666391107979
 20
-145.1291088526068
 30
0.0
 10
75.40176779856286
 20
-145.1291088526068
 30
0.0
 10
75.44657057519763
 20
-145.0843413526176
 30
0.0
 10
75.44657057519763
 20
-145.0292021859651
 30
0.0
  0
SPLINE
  5
67
330
1F
100
AcDbEntity
  8
_U+30EC_U+30A4_U+30E4_U+30FC 1
 62
   179
420
  2234388
370
     9
100
AcDbSpline
210
0.0
220
0.0
230
1.0
 70
    11
 71
     3
 72
    17
 73
    13
 74
     0
 42
0.0000000001
 43
0.0000000001
 12
1.0
 22
0.0
 32
0.0
 13
1.0
 23
0.0
 33
0.0
 40
0.0
 40
0.0
 40
0.0
 40
0.0
 40
1.0
 40
1.0
 40
1.0
 40
2.0
 40
2.0
 40
2.0
 40
3.0
 40
3.0
 40
3.0
 40
4.0
 40
4.0
 40
4.0
 40
4.0
 10
71.44681151057331
 20
-141.029125520298
 30
0.0
 10
71.44681151057331
 20
-140.9739863536456
 30
0.0
 10
71.40200873393856
 20
-140.9292188536564
 30
0.0
 10
71.34690484645549
 20
-140.9292188536564
 30
0.0
 10
71.29176568119553
 20
-140.9292188536564
 30
0.0
 10
71.24699998218827
 20
-140.9739863536456
 30
0.0
 10
71.24699998218827
 20
-141.029125520298
 30
0.0
 10
71.24699998218827
 20
-141.0842294091736
 30
0.0
 10
71.29176568119553
 20
-141.1290321869403
 30
0.0
 10
71.34690484645549
 20
-141.1290321869403
 30
0.0
 10
71.40200873393856
 20
-141.1290321869403
 30
0.0
 10
71.44681151057331
 20
-141.0842294091736
 30
0.0
 10
71.44681151057331
 20
-141.029125520298
 30
0.0
  0
SPLINE
  5
68
330
1F
100
AcDbEntity
  8
_U+30EC_U+30A4_U+30E4_U+30FC 1
 62
   179
420
  2234388
370
     9
100
AcDbSpline
210
0.0
220
0.0
230
1.0
 70
    11
 71
     3
 72
    17
 73
    13
 74
     0
 42
0.0000000001
 43
0.0000000001
 12
1.0
 22
0.0
 32
0.0
 13
1.0
 23
0.0
 33
0.0
 40
0.0
 40
0.0
 40
0.0
 40
0.0
 40
1.0
 40
1.0
 40
1.0
 40
2.0
 40
2.0
 40
2.0
 40
3.0
 40
3.0
 40
3.0
 40
4.0
 40
4.0
 40
4.0
 40
4.0
 10
71.44681151057331
 20
-111.0288680277983
 30
0.0
 10
71.44681151057331
 20
-110.9737641389231
 30
0.0
 10
71.40200873393856
 20
-110.9289613611567
 30
0.0
 10
71.34690484645549
 20
-110.9289613611567
 30
0.0
 10
71.29176568119553
 20
-110.9289613611567
 30
0.0
 10
71.24699998218827
 20
-110.9737641389231
 30
0.0
 10
71.24699998218827
 20
-111.0288680277983
 30
0.0
 10
71.24699998218827
 20
-111.0843599722289
 30
0.0
 10
71.29176568119553
 20
-111.1291274722177
 30
0.0
 10
71.34690484645549
 20
-111.1291274722177
 30
0.0
 10
71.40200873393856
 20
-111.1291274722177
 30
0.0
 10
71.44681151057331
 20
-111.0843599722289
 30
0.0
 10
71.44681151057331
 20
-111.0288680277983
 30
0.0
  0
POLYLINE
  5
69
330
1F
100
AcDbEntity
  8
_U+30EC_U+30A4_U+30E4_U+30FC 1
 62
   179
420
  2234388
370
     9
100
AcDb2dPolyline
 66
     1
 10
0.0
 20
0.0
 30
0.0
  0
VERTEX
  5
6A
330
69
100
AcDbEntity
  8
_U+30EC_U+30A4_U+30E4_U+30FC 1
 62
   179
420
  2234388
370
     9
100
AcDbVertex
100
AcDb2dVertex
 10
109.3469999726629
 20
-140.1292599649677
 30
0.0
  0
VERTEX
  5
6B
330
69
100
AcDbEntity
  8
_U+30EC_U+30A4_U+30E4_U+30FC 1
 62
   179
420
  2234388
370
     9
100
AcDbVertex
100
AcDb2dVertex
 10
109.3469999726629
 20
-142.0288977422705
 30
0.0
  0
SEQEND
  5
6C
330
69
100
AcDbEntity
  8
_U+30EC_U+30A4_U+30E4_U+30FC 1
 62
   179
420
  2234388
370
     9
  0
POLYLINE
  5
6D
330
1F
100
AcDbEntity
  8
_U+30EC_U+30A4_U+30E4_U+30FC 1
 62
   179
420
  2234388
370
     9
100
AcDb2dPolyline
 66
     1
 10
0.0
 20
0.0
 30
0.0
  0
VERTEX
  5
6E
330
6D
100
AcDbEntity
  8
_U+30EC_U+30A4_U+30E4_U+30FC 1
 62
   179
420
  2234388
370
     9
100
AcDbVertex
100
AcDb2dVertex
 10
107.8869558586856
 20
-140.1292599649677
 30
0.0
  0
VERTEX
  5
6F
330
6D
100
AcDbEntity
  8
_U+30EC_U+30A4_U+30E4_U+30FC 1
 62
   179
420
  2234388
370
     9
100
AcDbVertex
100
AcDb2dVertex
 10
110.3467341292647
 20
-140.1292599649677
 30
0.0
  0
SEQEND
  5
70
330
6D
100
AcDbEntity
  8
_U+30EC_U+30A4_U+30E4_U+30FC 1
 62
   179
420
  2234388
370
     9
  0
POLYLINE
  5
71
330
1F
100
AcDbEntity
  8
_U+30EC_U+30A4_U+30E4_U+30FC 1
 62
   179
420
  2234388
370
     9
100
AcDb2dPolyline
 66
     1
 10
0.0
 20
0.0
 30
0.0
  0
VERTEX
  5
72
330
71
100
AcDbEntity
  8
_U+30EC_U+30A4_U+30E4_U+30FC 1
 62
   179
420
  2234388
370
     9
100
AcDbVertex
100
AcDb2dVertex
 10
107.8869558586856
 20
-141.029125520298
 30
0.0
  0
VERTEX
  5
73
330
71
100
AcDbEntity
  8
_U+30EC_U+30A4_U+30E4_U+30FC 1
 62
   179
420
  2234388
370
     9
100
AcDbVertex
100
AcDb2dVertex
 10
110.3467341292647
 20
-141.029125520298
 30
0.0
  0
SEQEND
  5
74
330
71
100
AcDbEntity
  8
_U+30EC_U+30A4_U+30E4_U+30FC 1
 62
   179
420
  2234388
370
     9
  0
INSERT
  5
76
330
1F
100
AcDbEntity
  8
_U+30EC_U+30A4_U+30E4_U+30FC 1
100
AcDbBlockReference
  2
block 2
 10
0.0
 20
0.0
 30
0.0
  0
POLYLINE
  5
88
330
1F
100
AcDbEntity
  8
_U+30EC_U+30A4_U+30E4_U+30FC 1
 62
   179
420
  2234388
370
     9
100
AcDb2dPolyline
 66
     1
 10
0.0
 20
0.0
 30
0.0
  0
VERTEX
  5
89
330
88
100
AcDbEntity
  8
_U+30EC_U+30A4_U+30E4_U+30FC 1
 62
   179
420
  2234388
370
     9
100
AcDbVertex
100
AcDb2dVertex
 10
75.34666391107979
 20
-145.0292021859651
 30
0.0
  0
VERTEX
  5
8A
330
88
100
AcDbEntity
  8
_U+30EC_U+30A4_U+30E4_U+30FC 1
 62
   179
420
  2234388
370
     9
100
AcDbVertex
100
AcDb2dVertex
 10
105.3472381457014
 20
-145.0292021859651
 30
0.0
  0
SEQEND
  5
8B
330
88
100
AcDbEntity
  8
_U+30EC_U+30A4_U+30E4_U+30FC 1
 62
   179
420
  2234388
370
     9
  0
POLYLINE
  5
8C
330
1F
100
AcDbEntity
  8
_U+30EC_U+30A4_U+30E4_U+30FC 1
 62
   179
420
  2234388
370
     9
100
AcDb2dPolyline
 66
     1
 10
0.0
 20
0.0
 30
0.0
  0
VERTEX
  5
8D
330
8C
100
AcDbEntity
  8
_U+30EC_U+30A4_U+30E4_U+30FC 1
 62
   179
420
  2234388
370
     9
100
AcDbVertex
100
AcDb2dVertex
 10
75.34666391107979
 20
-143.5691960752189
 30
0.0
  0
VERTEX
  5
8E
330
8C
100
AcDbEntity
  8
_U+30EC_U+30A4_U+30E4_U+30FC 1
 62
   179
420
  2234388
370
     9
100
AcDbVertex
100
AcDb2dVertex
 10
75.34666391107979
 20
-146.028974407937
 30
0.0
  0
SEQEND
  5
8F
330
8C
100
AcDbEntity
  8
_U+30EC_U+30A4_U+30E4_U+30FC 1
 62
   179
420
  2234388
370
     9
  0
POLYLINE
  5
90
330
1F
100
AcDbEntity
  8
_U+30EC_U+30A4_U+30E4_U+30FC 1
 62
   179
420
  2234388
370
     9
100
AcDb2dPolyline
 66
     1
 10
0.0
 20
0.0
 30
0.0
  0
VERTEX
  5
91
330
90
100
AcDbEntity
  8
_U+30EC_U+30A4_U+30E4_U+30FC 1
 62
   179
420
  2234388
370
     9
100
AcDbVertex
100
AcDb2dVertex
 10
105.3472381457014
 20
-143.5691960752189
 30
0.0
  0
VERTEX
  5
92
330
90
100
AcDbEntity
  8
_U+30EC_U+30A4_U+30E4_U+30FC 1
 62
   179
420
  2234388
370
     9
100
AcDbVertex
100
AcDb2dVertex
 10
105.3472381457014
 20
-146.028974407937
 30
0.0
  0
SEQEND
  5
93
330
90
100
AcDbEntity
  8
_U+30EC_U+30A4_U+30E4_U+30FC 1
 62
   179
420
  2234388
370
     9
  0
INSERT
  5
95
330
1F
100
AcDbEntity
  8
_U+30EC_U+30A4_U+30E4_U+30FC 1
100
AcDbBlockReference
  2
block 3
 10
0.0
 20
0.0
 30
0.0
  0
POLYLINE
  5
9D
330
1F
100
AcDbEntity
  8
_U+30EC_U+30A4_U+30E4_U+30FC 1
 62
   179
420
  2234388
370
     9
100
AcDb2dPolyline
 66
     1
 10
0.0
 20
0.0
 30
0.0
  0
VERTEX
  5
9E
330
9D
100
AcDbEntity
  8
_U+30EC_U+30A4_U+30E4_U+30FC 1
 62
   179
420
  2234388
370
     9
100
AcDbVertex
100
AcDb2dVertex
 10
71.34690484645549
 20
-111.0288680277983
 30
0.0
  0
VERTEX
  5
9F
330
9D
100
AcDbEntity
  8
_U+30EC_U+30A4_U+30E4_U+30FC 1
 62
   179
420
  2234388
370
     9
100
AcDbVertex
100
AcDb2dVertex
 10
71.34690484645549
 20
-141.029125520298
 30
0.0
  0
SEQEND
  5
A0
330
9D
100
AcDbEntity
  8
_U+30EC_U+30A4_U+30E4_U+30FC 1
 62
   179
420
  2234388
370
     9
  0
POLYLINE
  5
A1
330
1F
100
AcDbEntity
  8
_U+30EC_U+30A4_U+30E4_U+30FC 1
 62
   179
420
  2234388
370
     9
100
AcDb2dPolyline
 66
     1
 10
0.0
 20
0.0
 30
0.0
  0
VERTEX
  5
A2
330
A1
100
AcDbEntity
  8
_U+30EC_U+30A4_U+30E4_U+30FC 1
 62
   179
420
  2234388
370
     9
100
AcDbVertex
100
AcDb2dVertex
 10
72.80691092031873
 20
-111.0288680277983
 30
0.0
  0
VERTEX
  5
A3
330
A1
100
AcDbEntity
  8
_U+30EC_U+30A4_U+30E4_U+30FC 1
 62
   179
420
  2234388
370
     9
100
AcDbVertex
100
AcDb2dVertex
 10
70.34713264973958
 20
-111.0288680277983
 30
0.0
  0
SEQEND
  5
A4
330
A1
100
AcDbEntity
  8
_U+30EC_U+30A4_U+30E4_U+30FC 1
 62
   179
420
  2234388
370
     9
  0
POLYLINE
  5
A5
330
1F
100
AcDbEntity
  8
_U+30EC_U+30A4_U+30E4_U+30FC 1
 62
   179
420
  2234388
370
     9
100
AcDb2dPolyline
 66
     1
 10
0.0
 20
0.0
 30
0.0
  0
VERTEX
  5
A6
330
A5
100
AcDbEntity
  8
_U+30EC_U+30A4_U+30E4_U+30FC 1
 62
   179
420
  2234388
370
     9
100
AcDbVertex
100
AcDb2dVertex
 10
72.80691092031873
 20
-141.029125520298
 30
0.0
  0
VERTEX
  5
A7
330
A5
100
AcDbEntity
  8
_U+30EC_U+30A4_U+30E4_U+30FC 1
 62
   179
420
  2234388
370
     9
100
AcDbVertex
100
AcDb2dVertex
 10
70.34713264973958
 20
-141.029125520298
 30
0.0
  0
SEQEND
  5
A8
330
A5
100
AcDbEntity
  8
_U+30EC_U+30A4_U+30E4_U+30FC 1
 62
   179
420
  2234388
370
     9
  0
INSERT
  5
AA
330
1F
100
AcDbEntity
  8
_U+30EC_U+30A4_U+30E4_U+30FC 1
100
AcDbBlockReference
  2
block 4
 10
0.0
 20
0.0
 30
0.0
  0
ENDSEC
  0
SECTION
  2
OBJECTS
  0
DICTIONARY
  5
C
330
0
100
AcDbDictionary
281
     1
  3
ACAD_GROUP
350
D
  3
ACAD_LAYOUT
350
1A
  3
ACAD_MATERIAL
350
3B
  3
ACAD_MLEADERSTYLE
350
B3
  3
ACAD_MLINESTYLE
350
17
  3
ACAD_PLOTSETTINGS
350
19
  3
ACAD_PLOTSTYLENAME
350
E
  3
ACAD_TABLESTYLE
350
B2
  3
ACAD_VISUALSTYLE
350
2A
  0
SUN
  5
3F
330
29
100
AcDbSun
 90
        1
290
     0
 63
     7
421
 16777215
 40
1.0
291
     1
 91
  2455826
 92
 54000000
292
     0
 70
     2
 71
   256
280
     1
  0
DICTIONARY
  5
D
102
{ACAD_REACTORS
330
C
102
}
330
C
100
AcDbDictionary
281
     1
  0
DICTIONARY
  5
1A
102
{ACAD_REACTORS
330
C
102
}
330
C
100
AcDbDictionary
281
     1
  3
Layout1
350
1E
  3
Layout2
350
26
  3
Model
350
22
  0
DICTIONARY
  5
3B
102
{ACAD_REACTORS
330
C
102
}
330
C
100
AcDbDictionary
281
     1
  3
ByBlock
350
3D
  3
ByLayer
350
3C
  3
Global
350
3E
  0
DICTIONARY
  5
B3
102
{ACAD_REACTORS
330
C
102
}
330
C
100
AcDbDictionary
281
     1
  0
DICTIONARY
  5
17
102
{ACAD_REACTORS
330
C
102
}
330
C
100
AcDbDictionary
281
     1
  3
Standard
350
18
  0
DICTIONARY
  5
19
102
{ACAD_REACTORS
330
C
102
}
330
C
100
AcDbDictionary
281
     1
  0
ACDBDICTIONARYWDFLT
  5
E
102
{ACAD_REACTORS
330
C
102
}
330
C
100
AcDbDictionary
281
     1
  3
Normal
350
F
100
AcDbDictionaryWithDefault
340
F
  0
DICTIONARY
  5
B2
102
{ACAD_REACTORS
330
C
102
}
330
C
100
AcDbDictionary
281
     1
  0
DICTIONARY
  5
2A
102
{ACAD_REACTORS
330
C
102
}
330
C
100
AcDbDictionary
281
     1
  3
2dWireframe
350
2F
  3
3D Hidden
350
31
  3
3dWireframe
350
30
  3
Basic
350
32
  3
Brighten
350
36
  3
ColorChange
350
3A
  3
Conceptual
350
34
  3
Dim
350
35
  3
Facepattern
350
39
  3
Flat
350
2B
  3
FlatWithEdges
350
2C
  3
Gouraud
350
2D
  3
GouraudWithEdges
350
2E
  3
Linepattern
350
38
  3
Realistic
350
33
  3
Thicken
350
37
  0
LAYOUT
  5
1E
102
{ACAD_REACTORS
330
1A
102
}
330
1A
100
AcDbPlotSettings
  1

  2
none_device
  4

  6

 40
0.0
 41
0.0
 42
0.0
 43
0.0
 44
0.0
 45
0.0
 46
0.0
 47
0.0
 48
0.0
 49
0.0
140
0.0
141
0.0
142
1.0
143
1.0
 70
   688
 72
     0
 73
     0
 74
     5
  7

 75
    16
 76
     0
 77
     2
 78
   300
147
1.0
148
0.0
149
0.0
100
AcDbLayout
  1
Layout1
 70
     1
 71
     1
 10
0.0
 20
0.0
 11
12.0
 21
9.0
 12
0.0
 22
0.0
 32
0.0
 14
1.000000000000000E+20
 24
1.000000000000000E+20
 34
1.000000000000000E+20
 15
-1.000000000000000E+20
 25
-1.000000000000000E+20
 35
-1.000000000000000E+20
146
0.0
 13
0.0
 23
0.0
 33
0.0
 16
1.0
 26
0.0
 36
0.0
 17
0.0
 27
1.0
 37
0.0
 76
     0
330
1B
  0
LAYOUT
  5
26
102
{ACAD_REACTORS
330
1A
102
}
330
1A
100
AcDbPlotSettings
  1

  2
none_device
  4

  6

 40
0.0
 41
0.0
 42
0.0
 43
0.0
 44
0.0
 45
0.0
 46
0.0
 47
0.0
 48
0.0
 49
0.0
140
0.0
141
0.0
142
1.0
143
1.0
 70
   688
 72
     0
 73
     0
 74
     5
  7

 75
    16
 76
     0
 77
     2
 78
   300
147
1.0
148
0.0
149
0.0
100
AcDbLayout
  1
Layout2
 70
     1
 71
     2
 10
0.0
 20
0.0
 11
0.0
 21
0.0
 12
0.0
 22
0.0
 32
0.0
 14
0.0
 24
0.0
 34
0.0
 15
0.0
 25
0.0
 35
0.0
146
0.0
 13
0.0
 23
0.0
 33
0.0
 16
1.0
 26
0.0
 36
0.0
 17
0.0
 27
1.0
 37
0.0
 76
     0
330
23
  0
LAYOUT
  5
22
102
{ACAD_REACTORS
330
1A
102
}
330
1A
100
AcDbPlotSettings
  1

  2
none_device
  4

  6

 40
0.0
 41
0.0
 42
0.0
 43
0.0
 44
0.0
 45
0.0
 46
0.0
 47
0.0
 48
0.0
 49
0.0
140
0.0
141
0.0
142
1.0
143
1.0
 70
  1712
 72
     0
 73
     0
 74
     0
  7

 75
     0
 76
     0
 77
     2
 78
   300
147
1.0
148
0.0
149
0.0
100
AcDbLayout
  1
Model
 70
     1
 71
     0
 10
0.0
 20
0.0
 11
12.0
 21
9.0
 12
0.0
 22
0.0
 32
0.0
 14
1.000000000000000E+20
 24
1.000000000000000E+20
 34
1.000000000000000E+20
 15
-1.000000000000000E+20
 25
-1.000000000000000E+20
 35
-1.000000000000000E+20
146
0.0
 13
0.0
 23
0.0
 33
0.0
 16
1.0
 26
0.0
 36
0.0
 17
0.0
 27
1.0
 37
0.0
 76
     0
330
1F
331
29
  0
MATERIAL
  5
3D
102
{ACAD_REACTORS
330
3B
102
}
330
3B
100
AcDbMaterial
  1
ByBlock
 72
     1
 94
      127
  0
MATERIAL
  5
3C
102
{ACAD_REACTORS
330
3B
102
}
330
3B
100
AcDbMaterial
  1
ByLayer
 72
     1
 94
      127
  0
MATERIAL
  5
3E
102
{ACAD_REACTORS
330
3B
102
}
330
3B
100
AcDbMaterial
  1
Global
 72
     1
 94
      127
  0
MLINESTYLE
  5
18
102
{ACAD_REACTORS
330
17
102
}
330
17
100
AcDbMlineStyle
  2
Standard
 70
     0
  3

 62
   256
 51
90.0
 52
90.0
 71
     2
 49
0.5
 62
   256
  6
BYLAYER
 49
-0.5
 62
   256
  6
BYLAYER
  0
ACDBPLACEHOLDER
  5
F
102
{ACAD_REACTORS
330
E
102
}
330
E
  0
VISUALSTYLE
  5
2F
102
{ACAD_REACTORS
330
2A
102
}
330
2A
100
AcDbVisualStyle
  2
2dWireframe
 70
     4
177
     2
291
     0
 71
     0
176
     1
 72
     2
176
     1
 73
     0
176
     1
 90
        0
176
     1
 40
-0.6
176
     1
 41
-30.0
176
     1
 62
     5
 63
     7
421
 16777215
176
     1
 74
     1
176
     1
 91
        4
176
     1
 64
     7
176
     1
 65
   257
176
     1
 75
     1
176
     1
175
     1
176
     1
 42
1.0
176
     1
 92
        0
176
     1
 66
   257
176
     1
 43
1.0
176
     1
 76
     1
176
     1
 77
     6
176
     1
 78
     2
176
     1
 67
     7
176
     1
 79
     5
176
     1
170
     0
176
     1
171
     0
176
     1
290
     0
176
     1
 93
        1
176
     1
 44
0.0
176
     1
173
     0
176
     1
  0
VISUALSTYLE
  5
31
102
{ACAD_REACTORS
330
2A
102
}
330
2A
100
AcDbVisualStyle
  2
3D Hidden
 70
     6
177
     2
291
     0
 71
     1
176
     1
 72
     2
176
     1
 73
     2
176
     1
 90
        0
176
     1
 40
-0.6
176
     1
 41
-30.0
176
     1
 62
     5
 63
     7
421
 16777215
176
     1
 74
     2
176
     1
 91
        2
176
     1
 64
     7
176
     1
 65
   257
176
     1
 75
     2
176
     1
175
     1
176
     1
 42
40.0
176
     1
 92
        0
176
     1
 66
   257
176
     1
 43
1.0
176
     1
 76
     1
176
     1
 77
     6
176
     1
 78
     2
176
     1
 67
     7
176
     1
 79
     3
176
     1
170
     0
176
     1
171
     0
176
     1
290
     0
176
     1
 93
        1
176
     1
 44
0.0
176
     1
173
     0
176
     1
  0
VISUALSTYLE
  5
30
102
{ACAD_REACTORS
330
2A
102
}
330
2A
100
AcDbVisualStyle
  2
3dWireframe
 70
     5
177
     2
291
     0
 71
     0
176
     1
 72
     2
176
     1
 73
     0
176
     1
 90
        0
176
     1
 40
-0.6
176
     1
 41
-30.0
176
     1
 62
     5
 63
     7
421
 16777215
176
     1
 74
     1
176
     1
 91
        4
176
     1
 64
     7
176
     1
 65
   257
176
     1
 75
     1
176
     1
175
     1
176
     1
 42
1.0
176
     1
 92
        0
176
     1
 66
   257
176
     1
 43
1.0
176
     1
 76
     1
176
     1
 77
     6
176
     1
 78
     2
176
     1
 67
     7
176
     1
 79
     5
176
     1
170
     0
176
     1
171
     0
176
     1
290
     0
176
     1
 93
        1
176
     1
 44
0.0
176
     1
173
     0
176
     1
  0
VISUALSTYLE
  5
32
102
{ACAD_REACTORS
330
2A
102
}
330
2A
100
AcDbVisualStyle
  2
Basic
 70
     7
177
     2
291
     1
 71
     1
176
     1
 72
     0
176
     1
 73
     1
176
     1
 90
        0
176
     1
 40
-0.6
176
     1
 41
-30.0
176
     1
 62
     5
 63
     7
421
 16777215
176
     1
 74
     0
176
     1
 91
        4
176
     1
 64
     7
176
     1
 65
   257
176
     1
 75
     1
176
     1
175
     1
176
     1
 42
1.0
176
     1
 92
        8
176
     1
 66
     7
176
     1
 43
1.0
176
     1
 76
     1
176
     1
 77
     6
176
     1
 78
     2
176
     1
 67
     7
176
     1
 79
     5
176
     1
170
     0
176
     1
171
     0
176
     1
290
     0
176
     1
 93
        1
176
     1
 44
0.0
176
     1
173
     0
176
     1
  0
VISUALSTYLE
  5
36
102
{ACAD_REACTORS
330
2A
102
}
330
2A
100
AcDbVisualStyle
  2
Brighten
 70
    12
177
     2
291
     1
 71
     2
176
     1
 72
     2
176
     1
 73
     0
176
     1
 90
        0
176
     1
 40
-0.6
176
     1
 41
-30.0
176
     1
 62
     5
 63
     7
421
 16777215
176
     1
 74
     1
176
     1
 91
        4
176
     1
 64
     7
176
     1
 65
   257
176
     1
 75
     1
176
     1
175
     1
176
     1
 42
1.0
176
     1
 92
        8
176
     1
 66
     7
176
     1
 43
1.0
176
     1
 76
     1
176
     1
 77
     6
176
     1
 78
     2
176
     1
 67
     7
176
     1
 79
     5
176
     1
170
     0
176
     1
171
     0
176
     1
290
     0
176
     1
 93
        1
176
     1
 44
50.0
176
     1
173
     0
176
     1
  0
VISUALSTYLE
  5
3A
102
{ACAD_REACTORS
330
2A
102
}
330
2A
100
AcDbVisualStyle
  2
ColorChange
 70
    16
177
     2
291
     1
 71
     2
176
     1
 72
     2
176
     1
 73
     3
176
     1
 90
        0
176
     1
 40
-0.6
176
     1
 41
-30.0
176
     1
 62
     5
 63
     8
421
  8421504
176
     1
 74
     1
176
     1
 91
        4
176
     1
 64
     7
176
     1
 65
   257
176
     1
 75
     1
176
     1
175
     1
176
     1
 42
1.0
176
     1
 92
        8
176
     1
 66
     8
424
  8421504
176
     1
 43
1.0
176
     1
 76
     1
176
     1
 77
     6
176
     1
 78
     2
176
     1
 67
     7
176
     1
 79
     5
176
     1
170
     0
176
     1
171
     0
176
     1
290
     0
176
     1
 93
        1
176
     1
 44
0.0
176
     1
173
     0
176
     1
  0
VISUALSTYLE
  5
34
102
{ACAD_REACTORS
330
2A
102
}
330
2A
100
AcDbVisualStyle
  2
Conceptual
 70
     9
177
     2
291
     0
 71
     3
176
     1
 72
     2
176
     1
 73
     0
176
     1
 90
        0
176
     1
 40
-0.6
176
     1
 41
-30.0
176
     1
 62
     5
 63
     7
421
 16777215
176
     1
 74
     2
176
     1
 91
        2
176
     1
 64
     7
176
     1
 65
   257
176
     1
 75
     1
176
     1
175
     1
176
     1
 42
40.0
176
     1
 92
        8
176
     1
 66
     7
176
     1
 43
1.0
176
     1
 76
     1
176
     1
 77
     6
176
     1
 78
     2
176
     1
 67
     7
176
     1
 79
     3
176
     1
170
     0
176
     1
171
     0
176
     1
290
     0
176
     1
 93
        1
176
     1
 44
0.0
176
     1
173
     0
176
     1
  0
VISUALSTYLE
  5
35
102
{ACAD_REACTORS
330
2A
102
}
330
2A
100
AcDbVisualStyle
  2
Dim
 70
    11
177
     2
291
     1
 71
     2
176
     1
 72
     2
176
     1
 73
     0
176
     1
 90
        0
176
     1
 40
-0.6
176
     1
 41
-30.0
176
     1
 62
     5
 63
     7
421
 16777215
176
     1
 74
     1
176
     1
 91
        4
176
     1
 64
     7
176
     1
 65
   257
176
     1
 75
     1
176
     1
175
     1
176
     1
 42
1.0
176
     1
 92
        8
176
     1
 66
     7
176
     1
 43
1.0
176
     1
 76
     1
176
     1
 77
     6
176
     1
 78
     2
176
     1
 67
     7
176
     1
 79
     5
176
     1
170
     0
176
     1
171
     0
176
     1
290
     0
176
     1
 93
        1
176
     1
 44
-50.0
176
     1
173
     0
176
     1
  0
VISUALSTYLE
  5
39
102
{ACAD_REACTORS
330
2A
102
}
330
2A
100
AcDbVisualStyle
  2
Facepattern
 70
    15
177
     2
291
     1
 71
     2
176
     1
 72
     2
176
     1
 73
     0
176
     1
 90
        0
176
     1
 40
-0.6
176
     1
 41
-30.0
176
     1
 62
     5
 63
     7
421
 16777215
176
     1
 74
     1
176
     1
 91
        4
176
     1
 64
     7
176
     1
 65
   257
176
     1
 75
     1
176
     1
175
     1
176
     1
 42
1.0
176
     1
 92
        8
176
     1
 66
     7
176
     1
 43
1.0
176
     1
 76
     1
176
     1
 77
     6
176
     1
 78
     2
176
     1
 67
     7
176
     1
 79
     5
176
     1
170
     0
176
     1
171
     0
176
     1
290
     0
176
     1
 93
        1
176
     1
 44
0.0
176
     1
173
     0
176
     1
  0
VISUALSTYLE
  5
2B
102
{ACAD_REACTORS
330
2A
102
}
330
2A
100
AcDbVisualStyle
  2
Flat
 70
     0
177
     2
291
     1
 71
     2
176
     1
 72
     1
176
     1
 73
     1
176
     1
 90
        2
176
     1
 40
-0.6
176
     1
 41
30.0
176
     1
 62
     5
 63
     7
421
 16777215
176
     1
 74
     0
176
     1
 91
        4
176
     1
 64
     7
176
     1
 65
   257
176
     1
 75
     1
176
     1
175
     1
176
     1
 42
1.0
176
     1
 92
        8
176
     1
 66
     7
176
     1
 43
1.0
176
     1
 76
     1
176
     1
 77
     6
176
     1
 78
     2
176
     1
 67
     7
176
     1
 79
     5
176
     1
170
     0
176
     1
171
     0
176
     1
290
     0
176
     1
 93
       13
176
     1
 44
0.0
176
     1
173
     0
176
     1
  0
VISUALSTYLE
  5
2C
102
{ACAD_REACTORS
330
2A
102
}
330
2A
100
AcDbVisualStyle
  2
FlatWithEdges
 70
     1
177
     2
291
     1
 71
     2
176
     1
 72
     1
176
     1
 73
     1
176
     1
 90
        2
176
     1
 40
-0.6
176
     1
 41
30.0
176
     1
 62
     5
 63
     7
421
 16777215
176
     1
 74
     1
176
     1
 91
        4
176
     1
 64
     7
176
     1
 65
   257
176
     1
 75
     1
176
     1
175
     1
176
     1
 42
1.0
176
     1
 92
        0
176
     1
 66
   257
176
     1
 43
1.0
176
     1
 76
     1
176
     1
 77
     6
176
     1
 78
     2
176
     1
 67
     7
176
     1
 79
     5
176
     1
170
     0
176
     1
171
     0
176
     1
290
     0
176
     1
 93
       13
176
     1
 44
0.0
176
     1
173
     0
176
     1
  0
VISUALSTYLE
  5
2D
102
{ACAD_REACTORS
330
2A
102
}
330
2A
100
AcDbVisualStyle
  2
Gouraud
 70
     2
177
     2
291
     1
 71
     2
176
     1
 72
     2
176
     1
 73
     1
176
     1
 90
        2
176
     1
 40
-0.6
176
     1
 41
30.0
176
     1
 62
     5
 63
     7
421
 16777215
176
     1
 74
     0
176
     1
 91
        4
176
     1
 64
     7
176
     1
 65
   257
176
     1
 75
     1
176
     1
175
     1
176
     1
 42
1.0
176
     1
 92
        0
176
     1
 66
     7
176
     1
 43
1.0
176
     1
 76
     1
176
     1
 77
     6
176
     1
 78
     2
176
     1
 67
     7
176
     1
 79
     5
176
     1
170
     0
176
     1
171
     0
176
     1
290
     0
176
     1
 93
       13
176
     1
 44
0.0
176
     1
173
     0
176
     1
  0
VISUALSTYLE
  5
2E
102
{ACAD_REACTORS
330
2A
102
}
330
2A
100
AcDbVisualStyle
  2
GouraudWithEdges
 70
     3
177
     2
291
     1
 71
     2
176
     1
 72
     2
176
     1
 73
     1
176
     1
 90
        2
176
     1
 40
-0.6
176
     1
 41
30.0
176
     1
 62
     5
 63
     7
421
 16777215
176
     1
 74
     1
176
     1
 91
        4
176
     1
 64
     7
176
     1
 65
   257
176
     1
 75
     1
176
     1
175
     1
176
     1
 42
1.0
176
     1
 92
        0
176
     1
 66
   257
176
     1
 43
1.0
176
     1
 76
     1
176
     1
 77
     6
176
     1
 78
     2
176
     1
 67
     7
176
     1
 79
     5
176
     1
170
     0
176
     1
171
     0
176
     1
290
     0
176
     1
 93
       13
176
     1
 44
0.0
176
     1
173
     0
176
     1
  0
VISUALSTYLE
  5
38
102
{ACAD_REACTORS
330
2A
102
}
330
2A
100
AcDbVisualStyle
  2
Linepattern
 70
    14
177
     2
291
     1
 71
     2
176
     1
 72
     2
176
     1
 73
     0
176
     1
 90
        0
176
     1
 40
-0.6
176
     1
 41
-30.0
176
     1
 62
     5
 63
     7
421
 16777215
176
     1
 74
     1
176
     1
 91
        4
176
     1
 64
     7
176
     1
 65
   257
176
     1
 75
     7
176
     1
175
     7
176
     1
 42
1.0
176
     1
 92
        8
176
     1
 66
     7
176
     1
 43
1.0
176
     1
 76
     1
176
     1
 77
     6
176
     1
 78
     2
176
     1
 67
     7
176
     1
 79
     5
176
     1
170
     0
176
     1
171
     0
176
     1
290
     0
176
     1
 93
        1
176
     1
 44
0.0
176
     1
173
     0
176
     1
  0
VISUALSTYLE
  5
33
102
{ACAD_REACTORS
330
2A
102
}
330
2A
100
AcDbVisualStyle
  2
Realistic
 70
     8
177
     2
291
     0
 71
     2
176
     1
 72
     2
176
     1
 73
     0
176
     1
 90
        0
176
     1
 40
-0.6
176
     1
 41
-30.0
176
     1
 62
     5
 63
     7
421
 16777215
176
     1
 74
     1
176
     1
 91
        0
176
     1
 64
     7
176
     1
 65
   257
176
     1
 75
     1
176
     1
175
     1
176
     1
 42
1.0
176
     1
 92
        8
176
     1
 66
     8
424
  7895160
176
     1
 43
1.0
176
     1
 76
     1
176
     1
 77
     6
176
     1
 78
     2
176
     1
 67
     7
176
     1
 79
     5
176
     1
170
     0
176
     1
171
     0
176
     1
290
     0
176
     1
 93
       13
176
     1
 44
0.0
176
     1
173
     0
176
     1
  0
VISUALSTYLE
  5
37
102
{ACAD_REACTORS
330
2A
102
}
330
2A
100
AcDbVisualStyle
  2
Thicken
 70
    13
177
     2
291
     1
 71
     2
176
     1
 72
     2
176
     1
 73
     0
176
     1
 90
        0
176
     1
 40
-0.6
176
     1
 41
-30.0
176
     1
 62
     5
 63
     7
421
 16777215
176
     1
 74
     1
176
     1
 91
        4
176
     1
 64
     7
176
     1
 65
   257
176
     1
 75
     1
176
     1
175
     1
176
     1
 42
1.0
176
     1
 92
       12
176
     1
 66
     7
176
     1
 43
1.0
176
     1
 76
     1
176
     1
 77
     6
176
     1
 78
     2
176
     1
 67
     7
176
     1
 79
     5
176
     1
170
     0
176
     1
171
     0
176
     1
290
     0
176
     1
 93
        1
176
     1
 44
0.0
176
     1
173
     0
176
     1
  0
ENDSEC
  0
EOF
