  0
SECTION
  2
HEADER
  9
$ACADVER
  1
AC1024
  9
$ACADMAINTVER
 70
     6
  9
$DWGCODEPAGE
  3
UNDEFINED
  9
$INSBASE
 10
0.0
 20
0.0
 30
0.0
  9
$EXTMIN
 10
1.000000000000000E+20
 20
1.000000000000000E+20
 30
1.000000000000000E+20
  9
$EXTMAX
 10
-1.000000000000000E+20
 20
-1.000000000000000E+20
 30
-1.000000000000000E+20
  9
$LIMMIN
 10
0.0
 20
0.0
  9
$LIMMAX
 10
12.0
 20
9.0
  9
$ORTHOMODE
 70
     0
  9
$REGENMODE
 70
     1
  9
$FILLMODE
 70
     1
  9
$QTEXTMODE
 70
     0
  9
$MIRRTEXT
 70
     1
  9
$LTSCALE
 40
1.0
  9
$ATTMODE
 70
     1
  9
$TEXTSIZE
 40
0.2
  9
$TRACEWID
 40
0.05
  9
$TEXTSTYLE
  7
Standard
  9
$CLAYER
  8
0
  9
$CELTYPE
  6
ByLayer
  9
$CECOLOR
 62
   256
  9
$CELTSCALE
 40
1.0
  9
$DISPSILH
 70
     0
  9
$DIMSCALE
 40
1.0
  9
$DIMASZ
 40
0.18
  9
$DIMEXO
 40
0.0625
  9
$DIMDLI
 40
0.38
  9
$DIMRND
 40
0.0
  9
$DIMDLE
 40
0.0
  9
$DIMEXE
 40
0.18
  9
$DIMTP
 40
0.0
  9
$DIMTM
 40
0.0
  9
$DIMTXT
 40
0.18
  9
$DIMCEN
 40
0.09
  9
$DIMTSZ
 40
0.0
  9
$DIMTOL
 70
     0
  9
$DIMLIM
 70
     0
  9
$DIMTIH
 70
     1
  9
$DIMTOH
 70
     1
  9
$DIMSE1
 70
     0
  9
$DIMSE2
 70
     0
  9
$DIMTAD
 70
     0
  9
$DIMZIN
 70
     0
  9
$DIMBLK
  1

  9
$DIMASO
 70
     1
  9
$DIMSHO
 70
     1
  9
$DIMPOST
  1

  9
$DIMAPOST
  1

  9
$DIMALT
 70
     0
  9
$DIMALTD
 70
     2
  9
$DIMALTF
 40
25.4
  9
$DIMLFAC
 40
1.0
  9
$DIMTOFL
 70
     0
  9
$DIMTVP
 40
0.0
  9
$DIMTIX
 70
     0
  9
$DIMSOXD
 70
     0
  9
$DIMSAH
 70
     0
  9
$DIMBLK1
  1

  9
$DIMBLK2
  1

  9
$DIMSTYLE
  2
Standard
  9
$DIMCLRD
 70
     0
  9
$DIMCLRE
 70
     0
  9
$DIMCLRT
 70
     0
  9
$DIMTFAC
 40
1.0
  9
$DIMGAP
 40
0.09
  9
$DIMJUST
 70
     0
  9
$DIMSD1
 70
     0
  9
$DIMSD2
 70
     0
  9
$DIMTOLJ
 70
     1
  9
$DIMTZIN
 70
     0
  9
$DIMALTZ
 70
     0
  9
$DIMALTTZ
 70
     0
  9
$DIMUPT
 70
     0
  9
$DIMDEC
 70
     4
  9
$DIMTDEC
 70
     4
  9
$DIMALTU
 70
     2
  9
$DIMALTTD
 70
     2
  9
$DIMTXSTY
  7
Standard
  9
$DIMAUNIT
 70
     0
  9
$DIMADEC
 70
     0
  9
$DIMALTRND
 40
0.0
  9
$DIMAZIN
 70
     0
  9
$DIMDSEP
 70
    46
  9
$DIMATFIT
 70
     3
  9
$DIMFRAC
 70
     0
  9
$DIMLDRBLK
  1

  9
$DIMLUNIT
 70
     2
  9
$DIMLWD
 70
    -2
  9
$DIMLWE
 70
    -2
  9
$DIMTMOVE
 70
     0
  9
$DIMFXL
 40
1.0
  9
$DIMFXLON
 70
     0
  9
$DIMJOGANG
 40
0.7853981633974483
  9
$DIMTFILL
 70
     0
  9
$DIMTFILLCLR
 70
     0
  9
$DIMARCSYM
 70
     0
  9
$DIMLTYPE
  6

  9
$DIMLTEX1
  6

  9
$DIMLTEX2
  6

  9
$DIMTXTDIRECTION
 70
     0
  9
$LUNITS
 70
     2
  9
$LUPREC
 70
     4
  9
$SKETCHINC
 40
0.1
  9
$FILLETRAD
 40
0.5
  9
$AUNITS
 70
     0
  9
$AUPREC
 70
     0
  9
$MENU
  1
.
  9
$ELEVATION
 40
0.0
  9
$PELEVATION
 40
0.0
  9
$THICKNESS
 40
0.0
  9
$LIMCHECK
 70
     0
  9
$CHAMFERA
 40
0.5
  9
$CHAMFERB
 40
0.5
  9
$CHAMFERC
 40
1.0
  9
$CHAMFERD
 40
0.0
  9
$SKPOLY
 70
     0
  9
$TDCREATE
 40
2457917.6209375
  9
$TDUCREATE
 40
2457917.2459375
  9
$TDUPDATE
 40
2457917.6209375
  9
$TDUUPDATE
 40
2457917.2459375
  9
$TDINDWG
 40
0.0000000116
  9
$TDUSRTIMER
 40
0.0000000116
  9
$USRTIMER
 70
     1
  9
$ANGBASE
 50
0.0
  9
$ANGDIR
 70
     0
  9
$PDMODE
 70
     0
  9
$PDSIZE
 40
0.0
  9
$PLINEWID
 40
0.0
  9
$SPLFRAME
 70
     0
  9
$SPLINETYPE
 70
     6
  9
$SPLINESEGS
 70
     8
  9
$HANDSEED
  5
FC
  9
$SURFTAB1
 70
     6
  9
$SURFTAB2
 70
     6
  9
$SURFTYPE
 70
     6
  9
$SURFU
 70
     6
  9
$SURFV
 70
     6
  9
$UCSBASE
  2

  9
$UCSNAME
  2

  9
$UCSORG
 10
0.0
 20
0.0
 30
0.0
  9
$UCSXDIR
 10
1.0
 20
0.0
 30
0.0
  9
$UCSYDIR
 10
0.0
 20
1.0
 30
0.0
  9
$UCSORTHOREF
  2

  9
$UCSORTHOVIEW
 70
     0
  9
$UCSORGTOP
 10
0.0
 20
0.0
 30
0.0
  9
$UCSORGBOTTOM
 10
0.0
 20
0.0
 30
0.0
  9
$UCSORGLEFT
 10
0.0
 20
0.0
 30
0.0
  9
$UCSORGRIGHT
 10
0.0
 20
0.0
 30
0.0
  9
$UCSORGFRONT
 10
0.0
 20
0.0
 30
0.0
  9
$UCSORGBACK
 10
0.0
 20
0.0
 30
0.0
  9
$PUCSBASE
  2

  9
$PUCSNAME
  2

  9
$PUCSORG
 10
0.0
 20
0.0
 30
0.0
  9
$PUCSXDIR
 10
1.0
 20
0.0
 30
0.0
  9
$PUCSYDIR
 10
0.0
 20
1.0
 30
0.0
  9
$PUCSORTHOREF
  2

  9
$PUCSORTHOVIEW
 70
     0
  9
$PUCSORGTOP
 10
0.0
 20
0.0
 30
0.0
  9
$PUCSORGBOTTOM
 10
0.0
 20
0.0
 30
0.0
  9
$PUCSORGLEFT
 10
0.0
 20
0.0
 30
0.0
  9
$PUCSORGRIGHT
 10
0.0
 20
0.0
 30
0.0
  9
$PUCSORGFRONT
 10
0.0
 20
0.0
 30
0.0
  9
$PUCSORGBACK
 10
0.0
 20
0.0
 30
0.0
  9
$USERI1
 70
     0
  9
$USERI2
 70
     0
  9
$USERI3
 70
     0
  9
$USERI4
 70
     0
  9
$USERI5
 70
     0
  9
$USERR1
 40
0.0
  9
$USERR2
 40
0.0
  9
$USERR3
 40
0.0
  9
$USERR4
 40
0.0
  9
$USERR5
 40
0.0
  9
$WORLDVIEW
 70
     1
  9
$SHADEDGE
 70
     3
  9
$SHADEDIF
 70
    70
  9
$TILEMODE
 70
     1
  9
$MAXACTVP
 70
    64
  9
$PINSBASE
 10
0.0
 20
0.0
 30
0.0
  9
$PLIMCHECK
 70
     0
  9
$PEXTMIN
 10
1.000000000000000E+20
 20
1.000000000000000E+20
 30
1.000000000000000E+20
  9
$PEXTMAX
 10
-1.000000000000000E+20
 20
-1.000000000000000E+20
 30
-1.000000000000000E+20
  9
$PLIMMIN
 10
0.0
 20
0.0
  9
$PLIMMAX
 10
12.0
 20
9.0
  9
$UNITMODE
 70
     0
  9
$VISRETAIN
 70
     1
  9
$PLINEGEN
 70
     0
  9
$PSLTSCALE
 70
     1
  9
$TREEDEPTH
 70
  3020
  9
$CMLSTYLE
  2
Standard
  9
$CMLJUST
 70
     0
  9
$CMLSCALE
 40
1.0
  9
$PROXYGRAPHICS
 70
     1
  9
$MEASUREMENT
 70
     0
  9
$CELWEIGHT
370
    -1
  9
$ENDCAPS
280
     0
  9
$JOINSTYLE
280
     0
  9
$LWDISPLAY
290
     1
  9
$INSUNITS
 70
     1
  9
$HYPERLINKBASE
  1

  9
$STYLESHEET
  1

  9
$XEDIT
290
     1
  9
$CEPSNTYPE
380
     0
  9
$PSTYLEMODE
290
     1
  9
$FINGERPRINTGUID
  2
{16547AAD-6687-B992-F519-409C5AE7A603}
  9
$VERSIONGUID
  2
{FAEB1C32-E019-11D5-929B-00C0DF256EC4}
  9
$EXTNAMES
290
     1
  9
$PSVPSCALE
 40
0.0
  9
$OLESTARTUP
290
     0
  9
$SORTENTS
280
   127
  9
$INDEXCTL
280
     0
  9
$HIDETEXT
280
     1
  9
$XCLIPFRAME
280
     2
  9
$HALOGAP
280
     0
  9
$OBSCOLOR
 70
   257
  9
$OBSLTYPE
280
     0
  9
$INTERSECTIONDISPLAY
280
     0
  9
$INTERSECTIONCOLOR
 70
   257
  9
$DIMASSOC
280
     2
  9
$PROJECTNAME
  1

  9
$CAMERADISPLAY
290
     0
  9
$LENSLENGTH
 40
50.0
  9
$CAMERAHEIGHT
 40
0.0
  9
$STEPSPERSEC
 40
2.0
  9
$STEPSIZE
 40
6.0
  9
$3DDWFPREC
 40
2.0
  9
$PSOLWIDTH
 40
0.25
  9
$PSOLHEIGHT
 40
4.0
  9
$LOFTANG1
 40
1.570796326794897
  9
$LOFTANG2
 40
1.570796326794897
  9
$LOFTMAG1
 40
0.0
  9
$LOFTMAG2
 40
0.0
  9
$LOFTPARAM
 70
     7
  9
$LOFTNORMALS
280
     1
  9
$LATITUDE
 40
37.795
  9
$LONGITUDE
 40
-122.394
  9
$NORTHDIRECTION
 40
0.0
  9
$TIMEZONE
 70
 -8000
  9
$LIGHTGLYPHDISPLAY
280
     1
  9
$TILEMODELIGHTSYNCH
280
     1
  9
$CMATERIAL
347
3C
  9
$SOLIDHIST
280
     1
  9
$SHOWHIST
280
     1
  9
$DWFFRAME
280
     2
  9
$DGNFRAME
280
     2
  9
$REALWORLDSCALE
290
     1
  9
$INTERFERECOLOR
 62
   256
  9
$CSHADOW
280
     0
  9
$SHADOWPLANELOCATION
 40
0.0
  0
ENDSEC
  0
SECTION
  2
CLASSES
  0
CLASS
  1
ACDBDICTIONARYWDFLT
  2
AcDbDictionaryWithDefault
  3
ObjectDBX Classes
 90
        0
 91
        4
280
     0
281
     0
  0
CLASS
  1
VISUALSTYLE
  2
AcDbVisualStyle
  3
ObjectDBX Classes
 90
     4095
 91
        4
280
     0
281
     0
  0
CLASS
  1
MATERIAL
  2
AcDbMaterial
  3
ObjectDBX Classes
 90
     1153
 91
        4
280
     0
281
     0
  0
CLASS
  1
SUN
  2
AcDbSun
  3
SCENEOE
 90
     1024
 91
        4
280
     0
281
     0
  0
ENDSEC
  0
SECTION
  2
TABLES
  0
TABLE
  2
VPORT
  5
8
330
0
100
AcDbSymbolTable
 70
     1
  0
VPORT
  5
29
330
8
100
AcDbSymbolTableRecord
100
AcDbViewportTableRecord
  2
*Active
 70
     0
 10
0.0
 20
0.0
 11
1.0
 21
1.0
 12
0.0
 22
0.0
 13
0.0
 23
0.0
 14
0.5
 24
0.5
 15
0.5
 25
0.5
 16
0.0
 26
0.0
 36
1.0
 17
91.00082462281999
 27
-128.4993055234307
 37
0.0
 40
256.9986110468615
 41
0.7081814508812795
 42
50.0
 43
0.0
 44
0.0
 50
0.0
 51
0.0
 71
     0
 72
   100
 73
     1
 74
     3
 75
     0
 76
     0
 77
     0
 78
     0
281
     0
 65
     1
110
0.0
120
0.0
130
0.0
111
1.0
121
0.0
131
0.0
112
0.0
122
1.0
132
0.0
 79
     0
146
0.0
 60
     3
 61
     5
292
     1
282
     1
141
0.0
142
0.0
 63
   250
361
3F
  0
ENDTAB
  0
TABLE
  2
LTYPE
  5
5
330
0
100
AcDbSymbolTable
 70
     3
  0
LTYPE
  5
14
330
5
100
AcDbSymbolTableRecord
100
AcDbLinetypeTableRecord
  2
ByBlock
 70
     0
  3

 72
    65
 73
     0
 40
0.0
  0
LTYPE
  5
15
330
5
100
AcDbSymbolTableRecord
100
AcDbLinetypeTableRecord
  2
ByLayer
 70
     0
  3

 72
    65
 73
     0
 40
0.0
  0
LTYPE
  5
16
330
5
100
AcDbSymbolTableRecord
100
AcDbLinetypeTableRecord
  2
Continuous
 70
     0
  3
Solid line
 72
    65
 73
     0
 40
0.0
  0
LTYPE
  5
B3
330
5
100
AcDbSymbolTableRecord
100
AcDbLinetypeTableRecord
  2
AI-Linetype-1
 70
     0
  3
Adobe Illustrator Linetype No. 1
 72
    65
 73
     2
 40
1.411111110758333
 49
0.7055555553791667
 74
     0
 49
-0.7055555553791667
 74
     0
  0
LTYPE
  5
B8
330
5
100
AcDbSymbolTableRecord
100
AcDbLinetypeTableRecord
  2
AI-Linetype-2
 70
     0
  3
Adobe Illustrator Linetype No. 2
 72
    65
 73
     2
 40
1.411111110758333
 49
0.7055555553791667
 74
     0
 49
-0.7055555553791667
 74
     0
  0
ENDTAB
  0
TABLE
  2
LAYER
  5
2
330
0
100
AcDbSymbolTable
 70
     2
  0
LAYER
  5
10
330
2
100
AcDbSymbolTableRecord
100
AcDbLayerTableRecord
  2
0
 70
     0
 62
     7
  6
Continuous
370
    -3
390
F
347
3E
  0
LAYER
  5
40
330
2
100
AcDbSymbolTableRecord
100
AcDbLayerTableRecord
  2
_U+30EC_U+30A4_U+30E4_U+30FC 1
 70
     0
 62
     7
  6
Continuous
370
    -3
390
F
347
3E
  0
ENDTAB
  0
TABLE
  2
STYLE
  5
3
330
0
100
AcDbSymbolTable
 70
     1
  0
STYLE
  5
11
330
3
100
AcDbSymbolTableRecord
100
AcDbTextStyleTableRecord
  2
Standard
 70
     0
 40
0.0
 41
1.0
 50
0.0
 71
     0
 42
0.2
  3
txt
  4

  0
ENDTAB
  0
TABLE
  2
VIEW
  5
6
330
0
100
AcDbSymbolTable
 70
     0
  0
ENDTAB
  0
TABLE
  2
UCS
  5
7
330
0
100
AcDbSymbolTable
 70
     0
  0
ENDTAB
  0
TABLE
  2
APPID
  5
9
330
0
100
AcDbSymbolTable
 70
     1
  0
APPID
  5
12
330
9
100
AcDbSymbolTableRecord
100
AcDbRegAppTableRecord
  2
ACAD
 70
     0
  0
ENDTAB
  0
TABLE
  2
DIMSTYLE
  5
A
330
0
100
AcDbSymbolTable
 70
     1
100
AcDbDimStyleTable
  0
DIMSTYLE
105
27
330
A
100
AcDbSymbolTableRecord
100
AcDbDimStyleTableRecord
  2
Standard
 70
     0
178
     0
340
11
  0
ENDTAB
  0
TABLE
  2
BLOCK_RECORD
  5
1
330
0
100
AcDbSymbolTable
 70
     5
  0
BLOCK_RECORD
  5
1F
330
1
100
AcDbSymbolTableRecord
100
AcDbBlockTableRecord
  2
*Model_Space
340
22
 70
     0
280
     1
281
     0
  0
BLOCK_RECORD
  5
1B
330
1
100
AcDbSymbolTableRecord
100
AcDbBlockTableRecord
  2
*Paper_Space
340
1E
 70
     0
280
     1
281
     0
  0
BLOCK_RECORD
  5
23
330
1
100
AcDbSymbolTableRecord
100
AcDbBlockTableRecord
  2
*Paper_Space0
340
26
 70
     0
280
     1
281
     0
  0
BLOCK_RECORD
  5
75
330
1
100
AcDbSymbolTableRecord
100
AcDbBlockTableRecord
  2
block 2
340
0
102
{BLKREFS
331
76
102
}
 70
     0
280
     1
281
     0
  0
BLOCK_RECORD
  5
94
330
1
100
AcDbSymbolTableRecord
100
AcDbBlockTableRecord
  2
block 3
340
0
102
{BLKREFS
331
95
102
}
 70
     0
280
     1
281
     0
  0
BLOCK_RECORD
  5
A8
330
1
100
AcDbSymbolTableRecord
100
AcDbBlockTableRecord
  2
block 4
340
0
102
{BLKREFS
331
A9
102
}
 70
     0
280
     1
281
     0
  0
BLOCK_RECORD
  5
D2
330
1
100
AcDbSymbolTableRecord
100
AcDbBlockTableRecord
  2
block 5
340
0
102
{BLKREFS
331
D3
102
}
 70
     0
280
     1
281
     0
  0
ENDTAB
  0
ENDSEC
  0
SECTION
  2
BLOCKS
  0
BLOCK
  5
20
330
1F
100
AcDbEntity
  8
0
100
AcDbBlockBegin
  2
*Model_Space
 70
     0
 10
0.0
 20
0.0
 30
0.0
  3
*Model_Space
  1

  0
ENDBLK
  5
21
330
1F
100
AcDbEntity
  8
0
100
AcDbBlockEnd
  0
BLOCK
  5
1C
330
1B
100
AcDbEntity
 67
     1
  8
0
100
AcDbBlockBegin
  2
*Paper_Space
 70
     0
 10
0.0
 20
0.0
 30
0.0
  3
*Paper_Space
  1

  0
ENDBLK
  5
1D
330
1B
100
AcDbEntity
 67
     1
  8
0
100
AcDbBlockEnd
  0
BLOCK
  5
24
330
23
100
AcDbEntity
  8
0
100
AcDbBlockBegin
  2
*Paper_Space0
 70
     0
 10
0.0
 20
0.0
 30
0.0
  3
*Paper_Space0
  1

  0
ENDBLK
  5
25
330
23
100
AcDbEntity
  8
0
100
AcDbBlockEnd
  0
BLOCK
  5
77
330
75
100
AcDbEntity
  8
0
100
AcDbBlockBegin
  2
block 2
 70
     0
 10
0.0
 20
0.0
 30
0.0
  3
block 2
  1

  0
SPLINE
  5
79
330
75
100
AcDbEntity
  8
_U+30EC_U+30A4_U+30E4_U+30FC 1
370
     0
100
AcDbSpline
210
0.0
220
0.0
230
1.0
 70
    11
 71
     3
 72
    29
 73
    25
 74
     0
 42
0.0000000001
 43
0.0000000001
 12
1.0
 22
0.0
 32
0.0
 13
1.0
 23
0.0
 33
0.0
 40
0.0
 40
0.0
 40
0.0
 40
0.0
 40
1.0
 40
1.0
 40
1.0
 40
2.0
 40
2.0
 40
2.0
 40
3.0
 40
3.0
 40
3.0
 40
4.0
 40
4.0
 40
4.0
 40
5.0
 40
5.0
 40
5.0
 40
6.0
 40
6.0
 40
6.0
 40
7.0
 40
7.0
 40
7.0
 40
8.0
 40
8.0
 40
8.0
 40
8.0
 10
109.8795979543009
 20
-138.6137613585757
 30
0.0
 10
110.0890597598041
 20
-138.7219373568126
 30
0.0
 10
110.108007784973
 20
-138.8952256597206
 30
0.0
 10
110.108007784973
 20
-139.0116698871221
 30
0.0
 10
110.108007784973
 20
-139.1725558462832
 30
0.0
 10
110.0614989959221
 20
-139.314149270727
 30
0.0
 10
109.8795979543009
 20
-139.4092339061199
 30
0.0
 10
109.6849500593843
 20
-139.5129312802259
 30
0.0
 10
109.4479274899991
 20
-139.5322238149433
 30
0.0
 10
109.2853189830953
 20
-139.5322238149433
 30
0.0
 10
109.1413139918119
 20
-139.5322238149433
 30
0.0
 10
108.8894775118401
 20
-139.5149983375171
 30
0.0
 10
108.6906955023412
 20
-139.4092339061199
 30
0.0
 10
108.48777937826
 20
-139.3014024174316
 30
0.0
 10
108.4643527289603
 20
-139.1405164582704
 30
0.0
 10
108.4643527289603
 20
-139.0116698871221
 30
0.0
 10
108.4643527289603
 20
-138.8528509852521
 30
0.0
 10
108.50879446072
 20
-138.7091905035172
 30
0.0
 10
108.6906955023412
 20
-138.6137613585757
 30
0.0
 10
108.8832763399667
 20
-138.5145426086006
 30
0.0
 10
109.1116861706387
 20
-138.4911159593008
 30
0.0
 10
109.2853189830953
 20
-138.4911159593008
 30
0.0
 10
109.4565402287123
 20
-138.4911159593008
 30
0.0
 10
109.6870171166755
 20
-138.5124755513094
 30
0.0
 10
109.8795979543009
 20
-138.6137613585757
 30
0.0
  0
SPLINE
  5
7A
330
75
100
AcDbEntity
  8
_U+30EC_U+30A4_U+30E4_U+30FC 1
370
     0
100
AcDbSpline
210
0.0
220
0.0
230
1.0
 70
    11
 71
     3
 72
    17
 73
    13
 74
     0
 42
0.0000000001
 43
0.0000000001
 12
1.0
 22
0.0
 32
0.0
 13
1.0
 23
0.0
 33
0.0
 40
0.0
 40
0.0
 40
0.0
 40
0.0
 40
1.0
 40
1.0
 40
1.0
 40
2.0
 40
2.0
 40
2.0
 40
3.0
 40
3.0
 40
3.0
 40
4.0
 40
4.0
 40
4.0
 40
4.0
 10
108.6569335665858
 20
-139.0116698871221
 30
0.0
 10
108.6569335665858
 20
-139.2614393098027
 30
0.0
 10
108.9404649250218
 20
-139.3079480988536
 30
0.0
 10
109.2853189830953
 20
-139.3079480988536
 30
0.0
 10
109.604679334578
 20
-139.3079480988536
 30
0.0
 10
109.9133598900564
 20
-139.2717745962584
 30
0.0
 10
109.9133598900564
 20
-139.0116698871221
 30
0.0
 10
109.9133598900564
 20
-138.7639675217326
 30
0.0
 10
109.63224009846
 20
-138.7153916753906
 30
0.0
 10
109.2853189830953
 20
-138.7153916753906
 30
0.0
 10
108.9656141220642
 20
-138.7153916753906
 30
0.0
 10
108.6569335665858
 20
-138.7536322352769
 30
0.0
 10
108.6569335665858
 20
-139.0116698871221
 30
0.0
  0
HATCH
  5
7B
330
75
100
AcDbEntity
  8
_U+30EC_U+30A4_U+30E4_U+30FC 1
 62
   179
420
  2234388
100
AcDbHatch
 10
0.0
 20
0.0
 30
0.0
210
0.0
220
0.0
230
1.0
  2
SOLID
 70
     1
 71
     0
 91
        2
 92
        1
 93
        1
 72
     4
 94
        3
 73
     0
 74
     1
 95
       29
 96
       25
 40
0.0
 40
0.0
 40
0.0
 40
0.0
 40
1.0
 40
1.0
 40
1.0
 40
2.0
 40
2.0
 40
2.0
 40
3.0
 40
3.0
 40
3.0
 40
4.0
 40
4.0
 40
4.0
 40
5.0
 40
5.0
 40
5.0
 40
6.0
 40
6.0
 40
6.0
 40
7.0
 40
7.0
 40
7.0
 40
8.0
 40
8.0
 40
8.0
 40
8.0
 10
109.8795979543009
 20
-138.6137613585757
 10
110.0890597598041
 20
-138.7219373568126
 10
110.108007784973
 20
-138.8952256597206
 10
110.108007784973
 20
-139.0116698871221
 10
110.108007784973
 20
-139.1725558462832
 10
110.0614989959221
 20
-139.314149270727
 10
109.8795979543009
 20
-139.4092339061199
 10
109.6849500593843
 20
-139.5129312802259
 10
109.4479274899991
 20
-139.5322238149433
 10
109.2853189830953
 20
-139.5322238149433
 10
109.1413139918119
 20
-139.5322238149433
 10
108.8894775118401
 20
-139.5149983375171
 10
108.6906955023412
 20
-139.4092339061199
 10
108.48777937826
 20
-139.3014024174316
 10
108.4643527289603
 20
-139.1405164582704
 10
108.4643527289603
 20
-139.0116698871221
 10
108.4643527289603
 20
-138.8528509852521
 10
108.50879446072
 20
-138.7091905035172
 10
108.6906955023412
 20
-138.6137613585757
 10
108.8832763399667
 20
-138.5145426086006
 10
109.1116861706387
 20
-138.4911159593008
 10
109.2853189830953
 20
-138.4911159593008
 10
109.4565402287123
 20
-138.4911159593008
 10
109.6870171166755
 20
-138.5124755513094
 10
109.8795979543009
 20
-138.6137613585757
 97
        0
 97
        0
 92
        1
 93
        1
 72
     4
 94
        3
 73
     0
 74
     1
 95
       17
 96
       13
 40
0.0
 40
0.0
 40
0.0
 40
0.0
 40
1.0
 40
1.0
 40
1.0
 40
2.0
 40
2.0
 40
2.0
 40
3.0
 40
3.0
 40
3.0
 40
4.0
 40
4.0
 40
4.0
 40
4.0
 10
108.6569335665858
 20
-139.0116698871221
 10
108.6569335665858
 20
-139.2614393098027
 10
108.9404649250218
 20
-139.3079480988536
 10
109.2853189830953
 20
-139.3079480988536
 10
109.604679334578
 20
-139.3079480988536
 10
109.9133598900564
 20
-139.2717745962584
 10
109.9133598900564
 20
-139.0116698871221
 10
109.9133598900564
 20
-138.7639675217326
 10
109.63224009846
 20
-138.7153916753906
 10
109.2853189830953
 20
-138.7153916753906
 10
108.9656141220642
 20
-138.7153916753906
 10
108.6569335665858
 20
-138.7536322352769
 10
108.6569335665858
 20
-139.0116698871221
 97
        0
 97
        0
 75
     2
 76
     1
 98
        0
  0
POLYLINE
  5
7C
330
75
100
AcDbEntity
  8
_U+30EC_U+30A4_U+30E4_U+30FC 1
370
     0
100
AcDb2dPolyline
 66
     1
 10
0.0
 20
0.0
 30
0.0
  0
VERTEX
  5
7D
330
7C
100
AcDbEntity
  8
_U+30EC_U+30A4_U+30E4_U+30FC 1
370
     0
100
AcDbVertex
100
AcDb2dVertex
 10
110.0573648813398
 20
-138.2747639628271
 30
0.0
  0
VERTEX
  5
7E
330
7C
100
AcDbEntity
  8
_U+30EC_U+30A4_U+30E4_U+30FC 1
370
     0
100
AcDbVertex
100
AcDb2dVertex
 10
109.8055284013681
 20
-138.2747639628271
 30
0.0
  0
VERTEX
  5
7F
330
7C
100
AcDbEntity
  8
_U+30EC_U+30A4_U+30E4_U+30FC 1
370
     0
100
AcDbVertex
100
AcDb2dVertex
 10
109.8055284013681
 20
-138.0229274828554
 30
0.0
  0
VERTEX
  5
80
330
7C
100
AcDbEntity
  8
_U+30EC_U+30A4_U+30E4_U+30FC 1
370
     0
100
AcDbVertex
100
AcDb2dVertex
 10
110.0573648813398
 20
-138.0229274828554
 30
0.0
  0
VERTEX
  5
81
330
7C
100
AcDbEntity
  8
_U+30EC_U+30A4_U+30E4_U+30FC 1
370
     0
100
AcDbVertex
100
AcDb2dVertex
 10
110.0573648813398
 20
-138.2747639628271
 30
0.0
  0
SEQEND
  5
82
330
7C
100
AcDbEntity
  8
_U+30EC_U+30A4_U+30E4_U+30FC 1
370
     0
  0
HATCH
  5
83
330
75
100
AcDbEntity
  8
_U+30EC_U+30A4_U+30E4_U+30FC 1
 62
   179
420
  2234388
100
AcDbHatch
 10
0.0
 20
0.0
 30
0.0
210
0.0
220
0.0
230
1.0
  2
SOLID
 70
     1
 71
     0
 91
        1
 92
        1
 93
        4
 72
     1
 10
110.0573648813398
 20
-138.2747639628271
 11
109.8055284013681
 21
-138.2747639628271
 72
     1
 10
109.8055284013681
 20
-138.2747639628271
 11
109.8055284013681
 21
-138.0229274828554
 72
     1
 10
109.8055284013681
 20
-138.0229274828554
 11
110.0573648813398
 21
-138.0229274828554
 72
     1
 10
110.0573648813398
 20
-138.0229274828554
 11
110.0573648813398
 21
-138.2747639628271
 97
        0
 75
     2
 76
     1
 98
        0
  0
SPLINE
  5
84
330
75
100
AcDbEntity
  8
_U+30EC_U+30A4_U+30E4_U+30FC 1
370
     0
100
AcDbSpline
210
0.0
220
0.0
230
1.0
 70
    11
 71
     3
 72
    29
 73
    25
 74
     0
 42
0.0000000001
 43
0.0000000001
 12
1.0
 22
0.0
 32
0.0
 13
1.0
 23
0.0
 33
0.0
 40
0.0
 40
0.0
 40
0.0
 40
0.0
 40
1.0
 40
1.0
 40
1.0
 40
2.0
 40
2.0
 40
2.0
 40
3.0
 40
3.0
 40
3.0
 40
4.0
 40
4.0
 40
4.0
 40
5.0
 40
5.0
 40
5.0
 40
6.0
 40
6.0
 40
6.0
 40
7.0
 40
7.0
 40
7.0
 40
8.0
 40
8.0
 40
8.0
 40
8.0
 10
110.108007784973
 20
-137.2867105776575
 30
0.0
 10
110.108007784973
 20
-137.5533609682158
 30
0.0
 10
109.9705484751115
 20
-137.8069199959302
 30
0.0
 10
109.6215603024557
 20
-137.8069199959302
 30
0.0
 10
109.3655897079017
 20
-137.8069199959302
 30
0.0
 10
109.2705050725088
 20
-137.6653265714864
 30
0.0
 10
109.2091823728713
 20
-137.5595621400893
 30
0.0
 10
109.149926730525
 20
-137.6842745966553
 30
0.0
 10
109.0355495604147
 20
-137.7604112068794
 30
0.0
 10
108.8746636012536
 20
-137.7604112068794
 30
0.0
 10
108.5997449815306
 20
-137.7604112068794
 30
0.0
 10
108.4643527289603
 20
-137.5616291973804
 30
0.0
 10
108.4643527289603
 20
-137.2867105776575
 30
0.0
 10
108.4643527289603
 20
-137.0031792192214
 30
0.0
 10
108.6083577202437
 20
-136.8126654388871
 30
0.0
 10
108.8746636012536
 20
-136.8126654388871
 30
0.0
 10
109.0355495604147
 20
-136.8126654388871
 30
0.0
 10
109.149926730525
 20
-136.8912136159508
 30
0.0
 10
109.2091823728713
 20
-137.0159260725169
 30
0.0
 10
109.2598252765045
 20
-136.9270426089974
 30
0.0
 10
109.3549099118974
 20
-136.7682237071274
 30
0.0
 10
109.6174261878734
 20
-136.7682237071274
 30
0.0
 10
109.9919080671201
 20
-136.7682237071274
 30
0.0
 10
110.108007784973
 20
-137.0476209509812
 30
0.0
 10
110.108007784973
 20
-137.2867105776575
 30
0.0
  0
SPLINE
  5
85
330
75
100
AcDbEntity
  8
_U+30EC_U+30A4_U+30E4_U+30FC 1
370
     0
100
AcDbSpline
210
0.0
220
0.0
230
1.0
 70
    11
 71
     3
 72
    17
 73
    13
 74
     0
 42
0.0000000001
 43
0.0000000001
 12
1.0
 22
0.0
 32
0.0
 13
1.0
 23
0.0
 33
0.0
 40
0.0
 40
0.0
 40
0.0
 40
0.0
 40
1.0
 40
1.0
 40
1.0
 40
2.0
 40
2.0
 40
2.0
 40
3.0
 40
3.0
 40
3.0
 40
4.0
 40
4.0
 40
4.0
 40
4.0
 10
108.6569335665858
 20
-137.2867105776575
 30
0.0
 10
108.6569335665858
 20
-137.451730651401
 30
0.0
 10
108.7520182019787
 20
-137.5361354907896
 30
0.0
 10
108.887410454549
 20
-137.5361354907896
 30
0.0
 10
109.0100558538239
 20
-137.5361354907896
 30
0.0
 10
109.1285671385165
 20
-137.4644775046964
 30
0.0
 10
109.1285671385165
 20
-137.2867105776575
 30
0.0
 10
109.1285671385165
 20
-137.1089436506186
 30
0.0
 10
109.0100558538239
 20
-137.0369411549769
 30
0.0
 10
108.887410454549
 20
-137.0369411549769
 30
0.0
 10
108.7520182019787
 20
-137.0369411549769
 30
0.0
 10
108.6569335665858
 20
-137.1237575612052
 30
0.0
 10
108.6569335665858
 20
-137.2867105776575
 30
0.0
  0
SPLINE
  5
86
330
75
100
AcDbEntity
  8
_U+30EC_U+30A4_U+30E4_U+30FC 1
370
     0
100
AcDbSpline
210
0.0
220
0.0
230
1.0
 70
    11
 71
     3
 72
    17
 73
    13
 74
     0
 42
0.0000000001
 43
0.0000000001
 12
1.0
 22
0.0
 32
0.0
 13
1.0
 23
0.0
 33
0.0
 40
0.0
 40
0.0
 40
0.0
 40
0.0
 40
1.0
 40
1.0
 40
1.0
 40
2.0
 40
2.0
 40
2.0
 40
3.0
 40
3.0
 40
3.0
 40
4.0
 40
4.0
 40
4.0
 40
4.0
 10
109.3170138615596
 20
-137.2867105776575
 30
0.0
 10
109.3170138615596
 20
-137.4303710593924
 30
0.0
 10
109.4038302677879
 20
-137.582988789389
 30
0.0
 10
109.6067463918692
 20
-137.582988789389
 30
0.0
 10
109.81207408279
 20
-137.582988789389
 30
0.0
 10
109.9133598900564
 20
-137.4558647659833
 30
0.0
 10
109.9133598900564
 20
-137.2867105776575
 30
0.0
 10
109.9133598900564
 20
-137.100675421454
 30
0.0
 10
109.7907144907815
 20
-136.990432365926
 30
0.0
 10
109.6129475637426
 20
-136.990432365926
 30
0.0
 10
109.3910834144925
 20
-136.990432365926
 30
0.0
 10
109.3170138615596
 20
-137.1533853823783
 30
0.0
 10
109.3170138615596
 20
-137.2867105776575
 30
0.0
  0
HATCH
  5
87
330
75
100
AcDbEntity
  8
_U+30EC_U+30A4_U+30E4_U+30FC 1
 62
   179
420
  2234388
100
AcDbHatch
 10
0.0
 20
0.0
 30
0.0
210
0.0
220
0.0
230
1.0
  2
SOLID
 70
     1
 71
     0
 91
        3
 92
        1
 93
        1
 72
     4
 94
        3
 73
     0
 74
     1
 95
       29
 96
       25
 40
0.0
 40
0.0
 40
0.0
 40
0.0
 40
1.0
 40
1.0
 40
1.0
 40
2.0
 40
2.0
 40
2.0
 40
3.0
 40
3.0
 40
3.0
 40
4.0
 40
4.0
 40
4.0
 40
5.0
 40
5.0
 40
5.0
 40
6.0
 40
6.0
 40
6.0
 40
7.0
 40
7.0
 40
7.0
 40
8.0
 40
8.0
 40
8.0
 40
8.0
 10
110.108007784973
 20
-137.2867105776575
 10
110.108007784973
 20
-137.5533609682158
 10
109.9705484751115
 20
-137.8069199959302
 10
109.6215603024557
 20
-137.8069199959302
 10
109.3655897079017
 20
-137.8069199959302
 10
109.2705050725088
 20
-137.6653265714864
 10
109.2091823728713
 20
-137.5595621400893
 10
109.149926730525
 20
-137.6842745966553
 10
109.0355495604147
 20
-137.7604112068794
 10
108.8746636012536
 20
-137.7604112068794
 10
108.5997449815306
 20
-137.7604112068794
 10
108.4643527289603
 20
-137.5616291973804
 10
108.4643527289603
 20
-137.2867105776575
 10
108.4643527289603
 20
-137.0031792192214
 10
108.6083577202437
 20
-136.8126654388871
 10
108.8746636012536
 20
-136.8126654388871
 10
109.0355495604147
 20
-136.8126654388871
 10
109.149926730525
 20
-136.8912136159508
 10
109.2091823728713
 20
-137.0159260725169
 10
109.2598252765045
 20
-136.9270426089974
 10
109.3549099118974
 20
-136.7682237071274
 10
109.6174261878734
 20
-136.7682237071274
 10
109.9919080671201
 20
-136.7682237071274
 10
110.108007784973
 20
-137.0476209509812
 10
110.108007784973
 20
-137.2867105776575
 97
        0
 97
        0
 92
        1
 93
        1
 72
     4
 94
        3
 73
     0
 74
     1
 95
       17
 96
       13
 40
0.0
 40
0.0
 40
0.0
 40
0.0
 40
1.0
 40
1.0
 40
1.0
 40
2.0
 40
2.0
 40
2.0
 40
3.0
 40
3.0
 40
3.0
 40
4.0
 40
4.0
 40
4.0
 40
4.0
 10
108.6569335665858
 20
-137.2867105776575
 10
108.6569335665858
 20
-137.451730651401
 10
108.7520182019787
 20
-137.5361354907896
 10
108.887410454549
 20
-137.5361354907896
 10
109.0100558538239
 20
-137.5361354907896
 10
109.1285671385165
 20
-137.4644775046964
 10
109.1285671385165
 20
-137.2867105776575
 10
109.1285671385165
 20
-137.1089436506186
 10
109.0100558538239
 20
-137.0369411549769
 10
108.887410454549
 20
-137.0369411549769
 10
108.7520182019787
 20
-137.0369411549769
 10
108.6569335665858
 20
-137.1237575612052
 10
108.6569335665858
 20
-137.2867105776575
 97
        0
 97
        0
 92
        1
 93
        1
 72
     4
 94
        3
 73
     0
 74
     1
 95
       17
 96
       13
 40
0.0
 40
0.0
 40
0.0
 40
0.0
 40
1.0
 40
1.0
 40
1.0
 40
2.0
 40
2.0
 40
2.0
 40
3.0
 40
3.0
 40
3.0
 40
4.0
 40
4.0
 40
4.0
 40
4.0
 10
109.3170138615596
 20
-137.2867105776575
 10
109.3170138615596
 20
-137.4303710593924
 10
109.4038302677879
 20
-137.582988789389
 10
109.6067463918692
 20
-137.582988789389
 10
109.81207408279
 20
-137.582988789389
 10
109.9133598900564
 20
-137.4558647659833
 10
109.9133598900564
 20
-137.2867105776575
 10
109.9133598900564
 20
-137.100675421454
 10
109.7907144907815
 20
-136.990432365926
 10
109.6129475637426
 20
-136.990432365926
 10
109.3910834144925
 20
-136.990432365926
 10
109.3170138615596
 20
-137.1533853823783
 10
109.3170138615596
 20
-137.2867105776575
 97
        0
 97
        0
 75
     2
 76
     1
 98
        0
  0
ENDBLK
  5
78
330
75
100
AcDbEntity
  8
0
100
AcDbBlockEnd
  0
BLOCK
  5
96
330
94
100
AcDbEntity
  8
0
100
AcDbBlockBegin
  2
block 3
 70
     0
 10
0.0
 20
0.0
 30
0.0
  3
block 3
  1

  0
SPLINE
  5
98
330
94
100
AcDbEntity
  8
_U+30EC_U+30A4_U+30E4_U+30FC 1
370
     0
100
AcDbSpline
210
0.0
220
0.0
230
1.0
 70
    11
 71
     3
 72
    44
 73
    40
 74
     0
 42
0.0000000001
 43
0.0000000001
 12
1.0
 22
0.0
 32
0.0
 13
1.0
 23
0.0
 33
0.0
 40
0.0
 40
0.0
 40
0.0
 40
0.0
 40
1.0
 40
1.0
 40
1.0
 40
2.0
 40
2.0
 40
2.0
 40
3.0
 40
3.0
 40
3.0
 40
4.0
 40
4.0
 40
4.0
 40
5.0
 40
5.0
 40
5.0
 40
6.0
 40
6.0
 40
6.0
 40
7.0
 40
7.0
 40
7.0
 40
8.0
 40
8.0
 40
8.0
 40
9.0
 40
9.0
 40
9.0
 40
10.0
 40
10.0
 40
10.0
 40
11.0
 40
11.0
 40
11.0
 40
12.0
 40
12.0
 40
12.0
 40
13.0
 40
13.0
 40
13.0
 40
13.0
 10
72.94731307855137
 20
-126.5228542435429
 30
0.0
 10
73.10595972564712
 20
-126.7405842782107
 30
0.0
 10
73.18002927858
 20
-126.8336018563124
 30
0.0
 10
73.32386201508918
 20
-126.882522212203
 30
0.0
 10
73.32386201508918
 20
-126.882522212203
 30
0.0
 10
73.32386201508918
 20
-126.1039306325365
 30
0.0
 10
73.32386201508918
 20
-126.1039306325365
 30
0.0
 10
73.32386201508918
 20
-126.1039306325365
 30
0.0
 10
73.5290174512358
 20
-126.1039306325365
 30
0.0
 10
73.5290174512358
 20
-126.1039306325365
 30
0.0
 10
73.5290174512358
 20
-126.1039306325365
 30
0.0
 10
73.5290174512358
 20
-127.1319471253351
 30
0.0
 10
73.5290174512358
 20
-127.1319471253351
 30
0.0
 10
73.17141653986687
 20
-127.1002522468708
 30
0.0
 10
73.0932128723517
 20
-127.034795432651
 30
0.0
 10
72.79486760332907
 20
-126.6496337574001
 30
0.0
 10
72.59608559383015
 20
-126.393663162846
 30
0.0
 10
72.52838946754498
 20
-126.3282063486263
 30
0.0
 10
72.39093015768353
 20
-126.3282063486263
 30
0.0
 10
72.27241887299093
 20
-126.3282063486263
 30
0.0
 10
72.14133298977717
 20
-126.400208844268
 30
0.0
 10
72.14133298977717
 20
-126.5969237964758
 30
0.0
 10
72.14133298977717
 20
-126.8570285056121
 30
0.0
 10
72.37180987774039
 20
-126.8656412443253
 30
0.0
 10
72.48825410514183
 20
-126.8697753589076
 30
0.0
 10
72.48825410514183
 20
-126.8697753589076
 30
0.0
 10
72.48825410514183
 20
-127.0940510749973
 30
0.0
 10
72.48825410514183
 20
-127.0940510749973
 30
0.0
 10
72.36130233651038
 20
-127.0854383362842
 30
0.0
 10
72.24916447846549
 20
-127.0747585402799
 30
0.0
 10
72.1306531937729
 20
-126.9944878154736
 30
0.0
 10
71.969939489386
 20
-126.8845892694941
 30
0.0
 10
71.93600529885627
 20
-126.6982096037421
 30
0.0
 10
71.93600529885627
 20
-126.5821098858892
 30
0.0
 10
71.93600529885627
 20
-126.3047796993266
 30
0.0
 10
72.12014565254289
 20
-126.0973849511145
 30
0.0
 10
72.39299721497467
 20
-126.0973849511145
 30
0.0
 10
72.62140704564673
 20
-126.0973849511145
 30
0.0
 10
72.72097030517045
 20
-126.213829178516
 30
0.0
 10
72.94731307855137
 20
-126.5228542435429
 30
0.0
  0
HATCH
  5
99
330
94
100
AcDbEntity
  8
_U+30EC_U+30A4_U+30E4_U+30FC 1
 62
   179
420
  2234388
100
AcDbHatch
 10
0.0
 20
0.0
 30
0.0
210
0.0
220
0.0
230
1.0
  2
SOLID
 70
     1
 71
     0
 91
        1
 92
        1
 93
        1
 72
     4
 94
        3
 73
     0
 74
     1
 95
       44
 96
       40
 40
0.0
 40
0.0
 40
0.0
 40
0.0
 40
1.0
 40
1.0
 40
1.0
 40
2.0
 40
2.0
 40
2.0
 40
3.0
 40
3.0
 40
3.0
 40
4.0
 40
4.0
 40
4.0
 40
5.0
 40
5.0
 40
5.0
 40
6.0
 40
6.0
 40
6.0
 40
7.0
 40
7.0
 40
7.0
 40
8.0
 40
8.0
 40
8.0
 40
9.0
 40
9.0
 40
9.0
 40
10.0
 40
10.0
 40
10.0
 40
11.0
 40
11.0
 40
11.0
 40
12.0
 40
12.0
 40
12.0
 40
13.0
 40
13.0
 40
13.0
 40
13.0
 10
72.94731307855137
 20
-126.5228542435429
 10
73.10595972564712
 20
-126.7405842782107
 10
73.18002927858
 20
-126.8336018563124
 10
73.32386201508918
 20
-126.882522212203
 10
73.32386201508918
 20
-126.882522212203
 10
73.32386201508918
 20
-126.1039306325365
 10
73.32386201508918
 20
-126.1039306325365
 10
73.32386201508918
 20
-126.1039306325365
 10
73.5290174512358
 20
-126.1039306325365
 10
73.5290174512358
 20
-126.1039306325365
 10
73.5290174512358
 20
-126.1039306325365
 10
73.5290174512358
 20
-127.1319471253351
 10
73.5290174512358
 20
-127.1319471253351
 10
73.17141653986687
 20
-127.1002522468708
 10
73.0932128723517
 20
-127.034795432651
 10
72.79486760332907
 20
-126.6496337574001
 10
72.59608559383015
 20
-126.393663162846
 10
72.52838946754498
 20
-126.3282063486263
 10
72.39093015768353
 20
-126.3282063486263
 10
72.27241887299093
 20
-126.3282063486263
 10
72.14133298977717
 20
-126.400208844268
 10
72.14133298977717
 20
-126.5969237964758
 10
72.14133298977717
 20
-126.8570285056121
 10
72.37180987774039
 20
-126.8656412443253
 10
72.48825410514183
 20
-126.8697753589076
 10
72.48825410514183
 20
-126.8697753589076
 10
72.48825410514183
 20
-127.0940510749973
 10
72.48825410514183
 20
-127.0940510749973
 10
72.36130233651038
 20
-127.0854383362842
 10
72.24916447846549
 20
-127.0747585402799
 10
72.1306531937729
 20
-126.9944878154736
 10
71.969939489386
 20
-126.8845892694941
 10
71.93600529885627
 20
-126.6982096037421
 10
71.93600529885627
 20
-126.5821098858892
 10
71.93600529885627
 20
-126.3047796993266
 10
72.12014565254289
 20
-126.0973849511145
 10
72.39299721497467
 20
-126.0973849511145
 10
72.62140704564673
 20
-126.0973849511145
 10
72.72097030517045
 20
-126.213829178516
 10
72.94731307855137
 20
-126.5228542435429
 97
        0
 97
        0
 75
     2
 76
     1
 98
        0
  0
SPLINE
  5
9A
330
94
100
AcDbEntity
  8
_U+30EC_U+30A4_U+30E4_U+30FC 1
370
     0
100
AcDbSpline
210
0.0
220
0.0
230
1.0
 70
    11
 71
     3
 72
    53
 73
    49
 74
     0
 42
0.0000000001
 43
0.0000000001
 12
1.0
 22
0.0
 32
0.0
 13
1.0
 23
0.0
 33
0.0
 40
0.0
 40
0.0
 40
0.0
 40
0.0
 40
1.0
 40
1.0
 40
1.0
 40
2.0
 40
2.0
 40
2.0
 40
3.0
 40
3.0
 40
3.0
 40
4.0
 40
4.0
 40
4.0
 40
5.0
 40
5.0
 40
5.0
 40
6.0
 40
6.0
 40
6.0
 40
7.0
 40
7.0
 40
7.0
 40
8.0
 40
8.0
 40
8.0
 40
9.0
 40
9.0
 40
9.0
 40
10.0
 40
10.0
 40
10.0
 40
11.0
 40
11.0
 40
11.0
 40
12.0
 40
12.0
 40
12.0
 40
13.0
 40
13.0
 40
13.0
 40
14.0
 40
14.0
 40
14.0
 40
15.0
 40
15.0
 40
15.0
 40
16.0
 40
16.0
 40
16.0
 40
16.0
 10
73.57983260964323
 20
-125.4579752290522
 30
0.0
 10
73.57983260964323
 20
-125.5361788965673
 30
0.0
 10
73.56277938699125
 20
-125.6378092133822
 30
0.0
 10
73.49938963006265
 20
-125.7394395301971
 30
0.0
 10
73.38931882930892
 20
-125.9127278331052
 30
0.0
 10
73.25823294609516
 20
-125.9340874251137
 30
0.0
 10
73.15040145740684
 20
-125.9530354502826
 30
0.0
 10
73.15040145740684
 20
-125.9530354502826
 30
0.0
 10
73.15040145740684
 20
-125.730826791484
 30
0.0
 10
73.15040145740684
 20
-125.730826791484
 30
0.0
 10
73.34918346690576
 20
-125.6760497732685
 30
0.0
 10
73.37881128807891
 20
-125.5489257498628
 30
0.0
 10
73.37881128807891
 20
-125.455908171761
 30
0.0
 10
73.37881128807891
 20
-125.3163818046084
 30
0.0
 10
73.27942028332946
 20
-125.1641085841604
 30
0.0
 10
73.04670408330082
 20
-125.1641085841604
 30
0.0
 10
72.79073348874677
 20
-125.1641085841604
 30
0.0
 10
72.72097030517045
 20
-125.3439425684904
 30
0.0
 10
72.72097030517045
 20
-125.4645209104741
 30
0.0
 10
72.72097030517045
 20
-125.4962157889385
 30
0.0
 10
72.72097030517045
 20
-125.6378092133822
 30
0.0
 10
72.84998913109307
 20
-125.7266926769017
 30
0.0
 10
72.84998913109307
 20
-125.7266926769017
 30
0.0
 10
72.83086885114993
 20
-125.9023925466494
 30
0.0
 10
72.83086885114993
 20
-125.9023925466494
 30
0.0
 10
72.83086885114993
 20
-125.9023925466494
 30
0.0
 10
71.98475339997256
 20
-125.7818142046657
 30
0.0
 10
71.98475339997256
 20
-125.7818142046657
 30
0.0
 10
71.98475339997256
 20
-125.7818142046657
 30
0.0
 10
71.98475339997256
 20
-125.0032226249992
 30
0.0
 10
71.98475339997256
 20
-125.0032226249992
 30
0.0
 10
71.98475339997256
 20
-125.0032226249992
 30
0.0
 10
72.17940129488917
 20
-125.0032226249992
 30
0.0
 10
72.17940129488917
 20
-125.0032226249992
 30
0.0
 10
72.17940129488917
 20
-125.0032226249992
 30
0.0
 10
72.17940129488917
 20
-125.6188611882133
 30
0.0
 10
72.17940129488917
 20
-125.6188611882133
 30
0.0
 10
72.17940129488917
 20
-125.6188611882133
 30
0.0
 10
72.60245902047787
 20
-125.6843180024331
 30
0.0
 10
72.60245902047787
 20
-125.6843180024331
 30
0.0
 10
72.56852482994815
 20
-125.6229953027956
 30
0.0
 10
72.52838946754498
 20
-125.5406575206982
 30
0.0
 10
72.52838946754498
 20
-125.4221462360056
 30
0.0
 10
72.52838946754498
 20
-125.1682426987427
 30
0.0
 10
72.71459687852274
 20
-124.9312201293575
 30
0.0
 10
73.02758380335769
 20
-124.9312201293575
 30
0.0
 10
73.34504935232346
 20
-124.9312201293575
 30
0.0
 10
73.57983260964323
 20
-125.1554958454472
 30
0.0
 10
73.57983260964323
 20
-125.4579752290522
 30
0.0
  0
HATCH
  5
9B
330
94
100
AcDbEntity
  8
_U+30EC_U+30A4_U+30E4_U+30FC 1
 62
   179
420
  2234388
100
AcDbHatch
 10
0.0
 20
0.0
 30
0.0
210
0.0
220
0.0
230
1.0
  2
SOLID
 70
     1
 71
     0
 91
        1
 92
        1
 93
        1
 72
     4
 94
        3
 73
     0
 74
     1
 95
       53
 96
       49
 40
0.0
 40
0.0
 40
0.0
 40
0.0
 40
1.0
 40
1.0
 40
1.0
 40
2.0
 40
2.0
 40
2.0
 40
3.0
 40
3.0
 40
3.0
 40
4.0
 40
4.0
 40
4.0
 40
5.0
 40
5.0
 40
5.0
 40
6.0
 40
6.0
 40
6.0
 40
7.0
 40
7.0
 40
7.0
 40
8.0
 40
8.0
 40
8.0
 40
9.0
 40
9.0
 40
9.0
 40
10.0
 40
10.0
 40
10.0
 40
11.0
 40
11.0
 40
11.0
 40
12.0
 40
12.0
 40
12.0
 40
13.0
 40
13.0
 40
13.0
 40
14.0
 40
14.0
 40
14.0
 40
15.0
 40
15.0
 40
15.0
 40
16.0
 40
16.0
 40
16.0
 40
16.0
 10
73.57983260964323
 20
-125.4579752290522
 10
73.57983260964323
 20
-125.5361788965673
 10
73.56277938699125
 20
-125.6378092133822
 10
73.49938963006265
 20
-125.7394395301971
 10
73.38931882930892
 20
-125.9127278331052
 10
73.25823294609516
 20
-125.9340874251137
 10
73.15040145740684
 20
-125.9530354502826
 10
73.15040145740684
 20
-125.9530354502826
 10
73.15040145740684
 20
-125.730826791484
 10
73.15040145740684
 20
-125.730826791484
 10
73.34918346690576
 20
-125.6760497732685
 10
73.37881128807891
 20
-125.5489257498628
 10
73.37881128807891
 20
-125.455908171761
 10
73.37881128807891
 20
-125.3163818046084
 10
73.27942028332946
 20
-125.1641085841604
 10
73.04670408330082
 20
-125.1641085841604
 10
72.79073348874677
 20
-125.1641085841604
 10
72.72097030517045
 20
-125.3439425684904
 10
72.72097030517045
 20
-125.4645209104741
 10
72.72097030517045
 20
-125.4962157889385
 10
72.72097030517045
 20
-125.6378092133822
 10
72.84998913109307
 20
-125.7266926769017
 10
72.84998913109307
 20
-125.7266926769017
 10
72.83086885114993
 20
-125.9023925466494
 10
72.83086885114993
 20
-125.9023925466494
 10
72.83086885114993
 20
-125.9023925466494
 10
71.98475339997256
 20
-125.7818142046657
 10
71.98475339997256
 20
-125.7818142046657
 10
71.98475339997256
 20
-125.7818142046657
 10
71.98475339997256
 20
-125.0032226249992
 10
71.98475339997256
 20
-125.0032226249992
 10
71.98475339997256
 20
-125.0032226249992
 10
72.17940129488917
 20
-125.0032226249992
 10
72.17940129488917
 20
-125.0032226249992
 10
72.17940129488917
 20
-125.0032226249992
 10
72.17940129488917
 20
-125.6188611882133
 10
72.17940129488917
 20
-125.6188611882133
 10
72.17940129488917
 20
-125.6188611882133
 10
72.60245902047787
 20
-125.6843180024331
 10
72.60245902047787
 20
-125.6843180024331
 10
72.56852482994815
 20
-125.6229953027956
 10
72.52838946754498
 20
-125.5406575206982
 10
72.52838946754498
 20
-125.4221462360056
 10
72.52838946754498
 20
-125.1682426987427
 10
72.71459687852274
 20
-124.9312201293575
 10
73.02758380335769
 20
-124.9312201293575
 10
73.34504935232346
 20
-124.9312201293575
 10
73.57983260964323
 20
-125.1554958454472
 10
73.57983260964323
 20
-125.4579752290522
 97
        0
 97
        0
 75
     2
 76
     1
 98
        0
  0
ENDBLK
  5
97
330
94
100
AcDbEntity
  8
0
100
AcDbBlockEnd
  0
BLOCK
  5
AA
330
A8
100
AcDbEntity
  8
0
100
AcDbBlockBegin
  2
block 4
 70
     0
 10
0.0
 20
0.0
 30
0.0
  3
block 4
  1

  0
SPLINE
  5
AC
330
A8
100
AcDbEntity
  8
_U+30EC_U+30A4_U+30E4_U+30FC 1
370
     0
100
AcDbSpline
210
0.0
220
0.0
230
1.0
 70
    11
 71
     3
 72
    44
 73
    40
 74
     0
 42
0.0000000001
 43
0.0000000001
 12
1.0
 22
0.0
 32
0.0
 13
1.0
 23
0.0
 33
0.0
 40
0.0
 40
0.0
 40
0.0
 40
0.0
 40
1.0
 40
1.0
 40
1.0
 40
2.0
 40
2.0
 40
2.0
 40
3.0
 40
3.0
 40
3.0
 40
4.0
 40
4.0
 40
4.0
 40
5.0
 40
5.0
 40
5.0
 40
6.0
 40
6.0
 40
6.0
 40
7.0
 40
7.0
 40
7.0
 40
8.0
 40
8.0
 40
8.0
 40
9.0
 40
9.0
 40
9.0
 40
10.0
 40
10.0
 40
10.0
 40
11.0
 40
11.0
 40
11.0
 40
12.0
 40
12.0
 40
12.0
 40
13.0
 40
13.0
 40
13.0
 40
13.0
 10
90.0541069653337
 20
-141.2757866400283
 30
0.0
 10
89.8363769306659
 20
-141.4346055418983
 30
0.0
 10
89.74335935256417
 20
-141.5086750948312
 30
0.0
 10
89.69443899667361
 20
-141.6523355765661
 30
0.0
 10
89.69443899667361
 20
-141.6523355765661
 30
0.0
 10
90.47303057634008
 20
-141.6523355765661
 30
0.0
 10
90.47303057634008
 20
-141.6523355765661
 30
0.0
 10
90.47303057634008
 20
-141.6523355765661
 30
0.0
 10
90.47303057634008
 20
-141.857663267487
 30
0.0
 10
90.47303057634008
 20
-141.857663267487
 30
0.0
 10
90.47303057634008
 20
-141.857663267487
 30
0.0
 10
89.44501408354152
 20
-141.857663267487
 30
0.0
 10
89.44501408354152
 20
-141.857663267487
 30
0.0
 10
89.47670896200583
 20
-141.500062356118
 30
0.0
 10
89.54216577622557
 20
-141.4218586886029
 30
0.0
 10
89.9273274514765
 20
-141.1235134195802
 30
0.0
 10
90.18329804603057
 20
-140.9247314100813
 30
0.0
 10
90.24875486025032
 20
-140.8568630290219
 30
0.0
 10
90.24875486025032
 20
-140.7194037191604
 30
0.0
 10
90.24875486025032
 20
-140.6008924344679
 30
0.0
 10
90.17675236460859
 20
-140.4699788060283
 30
0.0
 10
89.98003741240083
 20
-140.4699788060283
 30
0.0
 10
89.71993270326446
 20
-140.4699788060283
 30
0.0
 10
89.71131996455134
 20
-140.7004556939916
 30
0.0
 10
89.70718584996904
 20
-140.816899921393
 30
0.0
 10
89.70718584996904
 20
-140.816899921393
 30
0.0
 10
89.48291013387927
 20
-140.816899921393
 30
0.0
 10
89.48291013387927
 20
-140.816899921393
 30
0.0
 10
89.4915228725924
 20
-140.6897758979873
 30
0.0
 10
89.50220266859668
 20
-140.5778102947167
 30
0.0
 10
89.58247339340299
 20
-140.4592990100241
 30
0.0
 10
89.69237193938247
 20
-140.2984130508629
 30
0.0
 10
89.87875160513448
 20
-140.2646511151075
 30
0.0
 10
89.9948513229874
 20
-140.2646511151075
 30
0.0
 10
90.27218150955001
 20
-140.2646511151075
 30
0.0
 10
90.47957625776205
 20
-140.4486192140198
 30
0.0
 10
90.47957625776205
 20
-140.7214707764516
 30
0.0
 10
90.47957625776205
 20
-140.9502251166722
 30
0.0
 10
90.3631320303606
 20
-141.0494438666474
 30
0.0
 10
90.0541069653337
 20
-141.2757866400283
 30
0.0
  0
HATCH
  5
AD
330
A8
100
AcDbEntity
  8
_U+30EC_U+30A4_U+30E4_U+30FC 1
 62
   179
420
  2234388
100
AcDbHatch
 10
0.0
 20
0.0
 30
0.0
210
0.0
220
0.0
230
1.0
  2
SOLID
 70
     1
 71
     0
 91
        1
 92
        1
 93
        1
 72
     4
 94
        3
 73
     0
 74
     1
 95
       44
 96
       40
 40
0.0
 40
0.0
 40
0.0
 40
0.0
 40
1.0
 40
1.0
 40
1.0
 40
2.0
 40
2.0
 40
2.0
 40
3.0
 40
3.0
 40
3.0
 40
4.0
 40
4.0
 40
4.0
 40
5.0
 40
5.0
 40
5.0
 40
6.0
 40
6.0
 40
6.0
 40
7.0
 40
7.0
 40
7.0
 40
8.0
 40
8.0
 40
8.0
 40
9.0
 40
9.0
 40
9.0
 40
10.0
 40
10.0
 40
10.0
 40
11.0
 40
11.0
 40
11.0
 40
12.0
 40
12.0
 40
12.0
 40
13.0
 40
13.0
 40
13.0
 40
13.0
 10
90.0541069653337
 20
-141.2757866400283
 10
89.8363769306659
 20
-141.4346055418983
 10
89.74335935256417
 20
-141.5086750948312
 10
89.69443899667361
 20
-141.6523355765661
 10
89.69443899667361
 20
-141.6523355765661
 10
90.47303057634008
 20
-141.6523355765661
 10
90.47303057634008
 20
-141.6523355765661
 10
90.47303057634008
 20
-141.6523355765661
 10
90.47303057634008
 20
-141.857663267487
 10
90.47303057634008
 20
-141.857663267487
 10
90.47303057634008
 20
-141.857663267487
 10
89.44501408354152
 20
-141.857663267487
 10
89.44501408354152
 20
-141.857663267487
 10
89.47670896200583
 20
-141.500062356118
 10
89.54216577622557
 20
-141.4218586886029
 10
89.9273274514765
 20
-141.1235134195802
 10
90.18329804603057
 20
-140.9247314100813
 10
90.24875486025032
 20
-140.8568630290219
 10
90.24875486025032
 20
-140.7194037191604
 10
90.24875486025032
 20
-140.6008924344679
 10
90.17675236460859
 20
-140.4699788060283
 10
89.98003741240083
 20
-140.4699788060283
 10
89.71993270326446
 20
-140.4699788060283
 10
89.71131996455134
 20
-140.7004556939916
 10
89.70718584996904
 20
-140.816899921393
 10
89.70718584996904
 20
-140.816899921393
 10
89.48291013387927
 20
-140.816899921393
 10
89.48291013387927
 20
-140.816899921393
 10
89.4915228725924
 20
-140.6897758979873
 10
89.50220266859668
 20
-140.5778102947167
 10
89.58247339340299
 20
-140.4592990100241
 10
89.69237193938247
 20
-140.2984130508629
 10
89.87875160513448
 20
-140.2646511151075
 10
89.9948513229874
 20
-140.2646511151075
 10
90.27218150955001
 20
-140.2646511151075
 10
90.47957625776205
 20
-140.4486192140198
 10
90.47957625776205
 20
-140.7214707764516
 10
90.47957625776205
 20
-140.9502251166722
 10
90.3631320303606
 20
-141.0494438666474
 10
90.0541069653337
 20
-141.2757866400283
 97
        0
 97
        0
 75
     2
 76
     1
 98
        0
  0
SPLINE
  5
AE
330
A8
100
AcDbEntity
  8
_U+30EC_U+30A4_U+30E4_U+30FC 1
370
     0
100
AcDbSpline
210
0.0
220
0.0
230
1.0
 70
    11
 71
     3
 72
    53
 73
    49
 74
     0
 42
0.0000000001
 43
0.0000000001
 12
1.0
 22
0.0
 32
0.0
 13
1.0
 23
0.0
 33
0.0
 40
0.0
 40
0.0
 40
0.0
 40
0.0
 40
1.0
 40
1.0
 40
1.0
 40
2.0
 40
2.0
 40
2.0
 40
3.0
 40
3.0
 40
3.0
 40
4.0
 40
4.0
 40
4.0
 40
5.0
 40
5.0
 40
5.0
 40
6.0
 40
6.0
 40
6.0
 40
7.0
 40
7.0
 40
7.0
 40
8.0
 40
8.0
 40
8.0
 40
9.0
 40
9.0
 40
9.0
 40
10.0
 40
10.0
 40
10.0
 40
11.0
 40
11.0
 40
11.0
 40
12.0
 40
12.0
 40
12.0
 40
13.0
 40
13.0
 40
13.0
 40
14.0
 40
14.0
 40
14.0
 40
15.0
 40
15.0
 40
15.0
 40
16.0
 40
16.0
 40
16.0
 40
16.0
 10
91.11898597982443
 20
-141.9083061711202
 30
0.0
 10
91.04078231230925
 20
-141.9083061711202
 30
0.0
 10
90.93915199549438
 20
-141.8914252032424
 30
0.0
 10
90.83752167867951
 20
-141.8280354463138
 30
0.0
 10
90.66423337577145
 20
-141.7181369003344
 30
0.0
 10
90.6428737837629
 20
-141.5868787623463
 30
0.0
 10
90.62392575859403
 20
-141.479047273658
 30
0.0
 10
90.62392575859403
 20
-141.479047273658
 30
0.0
 10
90.84613441739263
 20
-141.479047273658
 30
0.0
 10
90.84613441739263
 20
-141.479047273658
 30
0.0
 10
90.90091143560811
 20
-141.6778292831569
 30
0.0
 10
91.02803545901382
 20
-141.7074571043301
 30
0.0
 10
91.12105303711557
 20
-141.7074571043301
 30
0.0
 10
91.2605794042682
 20
-141.7074571043301
 30
0.0
 10
91.41285262471624
 20
-141.6078938448064
 30
0.0
 10
91.41285262471624
 20
-141.375349899552
 30
0.0
 10
91.41285262471624
 20
-141.1193793049979
 30
0.0
 10
91.23301864038619
 20
-141.0494438666474
 30
0.0
 10
91.11244029840245
 20
-141.0494438666474
 30
0.0
 10
91.08074541993815
 20
-141.0494438666474
 30
0.0
 10
90.93915199549438
 20
-141.0494438666474
 30
0.0
 10
90.85026853197493
 20
-141.1786349473442
 30
0.0
 10
90.85026853197493
 20
-141.1786349473442
 30
0.0
 10
90.6745686622272
 20
-141.1596869221754
 30
0.0
 10
90.6745686622272
 20
-141.1596869221754
 30
0.0
 10
90.6745686622272
 20
-141.1596869221754
 30
0.0
 10
90.79514700421095
 20
-140.3132269614495
 30
0.0
 10
90.79514700421095
 20
-140.3132269614495
 30
0.0
 10
90.79514700421095
 20
-140.3132269614495
 30
0.0
 10
91.5737385838774
 20
-140.3132269614495
 30
0.0
 10
91.5737385838774
 20
-140.3132269614495
 30
0.0
 10
91.5737385838774
 20
-140.3132269614495
 30
0.0
 10
91.5737385838774
 20
-140.5078748563661
 30
0.0
 10
91.5737385838774
 20
-140.5078748563661
 30
0.0
 10
91.5737385838774
 20
-140.5078748563661
 30
0.0
 10
90.95810002066325
 20
-140.5078748563661
 30
0.0
 10
90.95810002066325
 20
-140.5078748563661
 30
0.0
 10
90.95810002066325
 20
-140.5078748563661
 30
0.0
 10
90.89264320644351
 20
-140.9309325819548
 30
0.0
 10
90.89264320644351
 20
-140.9309325819548
 30
0.0
 10
90.95396590608095
 20
-140.8971706461993
 30
0.0
 10
91.03630368817844
 20
-140.8568630290219
 30
0.0
 10
91.15481497287102
 20
-140.8568630290219
 30
0.0
 10
91.40871851013394
 20
-140.8568630290219
 30
0.0
 10
91.64574107951913
 20
-141.0432426947739
 30
0.0
 10
91.64574107951913
 20
-141.3564018743831
 30
0.0
 10
91.64574107951913
 20
-141.6736951685746
 30
0.0
 10
91.42146536342936
 20
-141.9083061711202
 30
0.0
 10
91.11898597982443
 20
-141.9083061711202
 30
0.0
  0
HATCH
  5
AF
330
A8
100
AcDbEntity
  8
_U+30EC_U+30A4_U+30E4_U+30FC 1
 62
   179
420
  2234388
100
AcDbHatch
 10
0.0
 20
0.0
 30
0.0
210
0.0
220
0.0
230
1.0
  2
SOLID
 70
     1
 71
     0
 91
        1
 92
        1
 93
        1
 72
     4
 94
        3
 73
     0
 74
     1
 95
       53
 96
       49
 40
0.0
 40
0.0
 40
0.0
 40
0.0
 40
1.0
 40
1.0
 40
1.0
 40
2.0
 40
2.0
 40
2.0
 40
3.0
 40
3.0
 40
3.0
 40
4.0
 40
4.0
 40
4.0
 40
5.0
 40
5.0
 40
5.0
 40
6.0
 40
6.0
 40
6.0
 40
7.0
 40
7.0
 40
7.0
 40
8.0
 40
8.0
 40
8.0
 40
9.0
 40
9.0
 40
9.0
 40
10.0
 40
10.0
 40
10.0
 40
11.0
 40
11.0
 40
11.0
 40
12.0
 40
12.0
 40
12.0
 40
13.0
 40
13.0
 40
13.0
 40
14.0
 40
14.0
 40
14.0
 40
15.0
 40
15.0
 40
15.0
 40
16.0
 40
16.0
 40
16.0
 40
16.0
 10
91.11898597982443
 20
-141.9083061711202
 10
91.04078231230925
 20
-141.9083061711202
 10
90.93915199549438
 20
-141.8914252032424
 10
90.83752167867951
 20
-141.8280354463138
 10
90.66423337577145
 20
-141.7181369003344
 10
90.6428737837629
 20
-141.5868787623463
 10
90.62392575859403
 20
-141.479047273658
 10
90.62392575859403
 20
-141.479047273658
 10
90.84613441739263
 20
-141.479047273658
 10
90.84613441739263
 20
-141.479047273658
 10
90.90091143560811
 20
-141.6778292831569
 10
91.02803545901382
 20
-141.7074571043301
 10
91.12105303711557
 20
-141.7074571043301
 10
91.2605794042682
 20
-141.7074571043301
 10
91.41285262471624
 20
-141.6078938448064
 10
91.41285262471624
 20
-141.375349899552
 10
91.41285262471624
 20
-141.1193793049979
 10
91.23301864038619
 20
-141.0494438666474
 10
91.11244029840245
 20
-141.0494438666474
 10
91.08074541993815
 20
-141.0494438666474
 10
90.93915199549438
 20
-141.0494438666474
 10
90.85026853197493
 20
-141.1786349473442
 10
90.85026853197493
 20
-141.1786349473442
 10
90.6745686622272
 20
-141.1596869221754
 10
90.6745686622272
 20
-141.1596869221754
 10
90.6745686622272
 20
-141.1596869221754
 10
90.79514700421095
 20
-140.3132269614495
 10
90.79514700421095
 20
-140.3132269614495
 10
90.79514700421095
 20
-140.3132269614495
 10
91.5737385838774
 20
-140.3132269614495
 10
91.5737385838774
 20
-140.3132269614495
 10
91.5737385838774
 20
-140.3132269614495
 10
91.5737385838774
 20
-140.5078748563661
 10
91.5737385838774
 20
-140.5078748563661
 10
91.5737385838774
 20
-140.5078748563661
 10
90.95810002066325
 20
-140.5078748563661
 10
90.95810002066325
 20
-140.5078748563661
 10
90.95810002066325
 20
-140.5078748563661
 10
90.89264320644351
 20
-140.9309325819548
 10
90.89264320644351
 20
-140.9309325819548
 10
90.95396590608095
 20
-140.8971706461993
 10
91.03630368817844
 20
-140.8568630290219
 10
91.15481497287102
 20
-140.8568630290219
 10
91.40871851013394
 20
-140.8568630290219
 10
91.64574107951913
 20
-141.0432426947739
 10
91.64574107951913
 20
-141.3564018743831
 10
91.64574107951913
 20
-141.6736951685746
 10
91.42146536342936
 20
-141.9083061711202
 10
91.11898597982443
 20
-141.9083061711202
 97
        0
 97
        0
 75
     2
 76
     1
 98
        0
  0
ENDBLK
  5
AB
330
A8
100
AcDbEntity
  8
0
100
AcDbBlockEnd
  0
BLOCK
  5
D4
330
D2
100
AcDbEntity
  8
0
100
AcDbBlockBegin
  2
block 5
 70
     0
 10
0.0
 20
0.0
 30
0.0
  3
block 5
  1

  0
SPLINE
  5
D6
330
D2
100
AcDbEntity
  8
_U+30EC_U+30A4_U+30E4_U+30FC 1
370
     0
100
AcDbSpline
210
0.0
220
0.0
230
1.0
 70
    11
 71
     3
 72
   242
 73
   238
 74
     0
 42
0.0000000001
 43
0.0000000001
 12
1.0
 22
0.0
 32
0.0
 13
1.0
 23
0.0
 33
0.0
 40
0.0
 40
0.0
 40
0.0
 40
0.0
 40
1.0
 40
1.0
 40
1.0
 40
2.0
 40
2.0
 40
2.0
 40
3.0
 40
3.0
 40
3.0
 40
4.0
 40
4.0
 40
4.0
 40
5.0
 40
5.0
 40
5.0
 40
6.0
 40
6.0
 40
6.0
 40
7.0
 40
7.0
 40
7.0
 40
8.0
 40
8.0
 40
8.0
 40
9.0
 40
9.0
 40
9.0
 40
10.0
 40
10.0
 40
10.0
 40
11.0
 40
11.0
 40
11.0
 40
12.0
 40
12.0
 40
12.0
 40
13.0
 40
13.0
 40
13.0
 40
14.0
 40
14.0
 40
14.0
 40
15.0
 40
15.0
 40
15.0
 40
16.0
 40
16.0
 40
16.0
 40
17.0
 40
17.0
 40
17.0
 40
18.0
 40
18.0
 40
18.0
 40
19.0
 40
19.0
 40
19.0
 40
20.0
 40
20.0
 40
20.0
 40
21.0
 40
21.0
 40
21.0
 40
22.0
 40
22.0
 40
22.0
 40
23.0
 40
23.0
 40
23.0
 40
24.0
 40
24.0
 40
24.0
 40
25.0
 40
25.0
 40
25.0
 40
26.0
 40
26.0
 40
26.0
 40
27.0
 40
27.0
 40
27.0
 40
28.0
 40
28.0
 40
28.0
 40
29.0
 40
29.0
 40
29.0
 40
30.0
 40
30.0
 40
30.0
 40
31.0
 40
31.0
 40
31.0
 40
32.0
 40
32.0
 40
32.0
 40
33.0
 40
33.0
 40
33.0
 40
34.0
 40
34.0
 40
34.0
 40
35.0
 40
35.0
 40
35.0
 40
36.0
 40
36.0
 40
36.0
 40
37.0
 40
37.0
 40
37.0
 40
38.0
 40
38.0
 40
38.0
 40
39.0
 40
39.0
 40
39.0
 40
40.0
 40
40.0
 40
40.0
 40
41.0
 40
41.0
 40
41.0
 40
42.0
 40
42.0
 40
42.0
 40
43.0
 40
43.0
 40
43.0
 40
44.0
 40
44.0
 40
44.0
 40
45.0
 40
45.0
 40
45.0
 40
46.0
 40
46.0
 40
46.0
 40
47.0
 40
47.0
 40
47.0
 40
48.0
 40
48.0
 40
48.0
 40
49.0
 40
49.0
 40
49.0
 40
50.0
 40
50.0
 40
50.0
 40
51.0
 40
51.0
 40
51.0
 40
52.0
 40
52.0
 40
52.0
 40
53.0
 40
53.0
 40
53.0
 40
54.0
 40
54.0
 40
54.0
 40
55.0
 40
55.0
 40
55.0
 40
56.0
 40
56.0
 40
56.0
 40
57.0
 40
57.0
 40
57.0
 40
58.0
 40
58.0
 40
58.0
 40
59.0
 40
59.0
 40
59.0
 40
60.0
 40
60.0
 40
60.0
 40
61.0
 40
61.0
 40
61.0
 40
62.0
 40
62.0
 40
62.0
 40
63.0
 40
63.0
 40
63.0
 40
64.0
 40
64.0
 40
64.0
 40
65.0
 40
65.0
 40
65.0
 40
66.0
 40
66.0
 40
66.0
 40
67.0
 40
67.0
 40
67.0
 40
68.0
 40
68.0
 40
68.0
 40
69.0
 40
69.0
 40
69.0
 40
70.0
 40
70.0
 40
70.0
 40
71.0
 40
71.0
 40
71.0
 40
72.0
 40
72.0
 40
72.0
 40
73.0
 40
73.0
 40
73.0
 40
74.0
 40
74.0
 40
74.0
 40
75.0
 40
75.0
 40
75.0
 40
76.0
 40
76.0
 40
76.0
 40
77.0
 40
77.0
 40
77.0
 40
78.0
 40
78.0
 40
78.0
 40
79.0
 40
79.0
 40
79.0
 40
79.0
 10
93.64320744186698
 20
-119.1629245036294
 30
0.0
 10
93.64320744186698
 20
-119.1629245036294
 30
0.0
 10
93.42065427351984
 20
-119.1629245036294
 30
0.0
 10
93.42065427351984
 20
-119.1629245036294
 30
0.0
 10
93.42065427351984
 20
-119.1629245036294
 30
0.0
 10
93.17811955135825
 20
-119.1629245036294
 30
0.0
 10
93.17811955135825
 20
-119.1629245036294
 30
0.0
 10
93.17811955135825
 20
-119.1629245036294
 30
0.0
 10
93.28939613553182
 20
-119.205299178098
 30
0.0
 10
93.28939613553182
 20
-119.205299178098
 30
0.0
 10
93.298697893342
 20
-119.2096055474545
 30
0.0
 10
93.30972219889479
 20
-119.215806719328
 30
0.0
 10
93.30972219889479
 20
-119.2285535726234
 30
0.0
 10
93.30972219889479
 20
-119.2497409098577
 30
0.0
 10
93.28181692546427
 20
-119.2561143365054
 30
0.0
 10
93.26355791939245
 20
-119.2602484510877
 30
0.0
 10
93.25425616158228
 20
-119.2835028456132
 30
0.0
 10
93.2284179454429
 20
-119.3491319146072
 30
0.0
 10
93.21153697756517
 20
-119.3935736463669
 30
0.0
 10
93.21153697756517
 20
-119.3935736463669
 30
0.0
 10
93.44855954695036
 20
-119.3935736463669
 30
0.0
 10
93.44855954695036
 20
-119.3935736463669
 30
0.0
 10
93.52814125265964
 20
-119.3935736463669
 30
0.0
 10
93.70039602692212
 20
-119.3892672770103
 30
0.0
 10
93.82441946439113
 20
-119.3808267930715
 30
0.0
 10
93.82441946439113
 20
-119.3808267930715
 30
0.0
 10
93.82441946439113
 20
-119.5585937201104
 30
0.0
 10
93.82441946439113
 20
-119.5585937201104
 30
0.0
 10
93.7524169687494
 20
-119.5542873507538
 30
0.0
 10
93.73381345312905
 20
-119.5542873507538
 30
0.0
 10
93.57637258945313
 20
-119.5501532361715
 30
0.0
 10
93.54846731602261
 20
-119.7044935139107
 30
0.0
 10
93.50953773703928
 20
-119.7849364934913
 30
0.0
 10
93.4709526676045
 20
-119.8546996770676
 30
0.0
 10
93.57637258945313
 20
-119.9139553194139
 30
0.0
 10
93.66904565800635
 20
-119.981651445699
 30
0.0
 10
93.75965166926842
 20
-120.0641614825708
 30
0.0
 10
93.75965166926842
 20
-120.0641614825708
 30
0.0
 10
93.6559542951624
 20
-120.2312486136054
 30
0.0
 10
93.6559542951624
 20
-120.2312486136054
 30
0.0
 10
93.63562823179943
 20
-120.2123005884365
 30
0.0
 10
93.62460392624664
 20
-120.2038601044977
 30
0.0
 10
93.526418704917
 20
-120.1191107555605
 30
0.0
 10
93.48369952089992
 20
-120.0810424504485
 30
0.0
 10
93.43202308862116
 20
-120.0452134574019
 30
0.0
 10
93.36139863117354
 20
-120.0007717256422
 30
0.0
 10
93.17639700361563
 20
-120.1869791366199
 30
0.0
 10
92.99690752883411
 20
-120.2102335311454
 30
0.0
 10
92.7430039915712
 20
-120.2398613523185
 30
0.0
 10
92.7430039915712
 20
-120.2398613523185
 30
0.0
 10
92.65239798030913
 20
-120.0600273679885
 30
0.0
 10
92.65239798030913
 20
-120.0600273679885
 30
0.0
 10
92.93007267642027
 20
-120.0557209986319
 30
0.0
 10
93.08372393506241
 20
-120.0303995468153
 30
0.0
 10
93.21704913034158
 20
-119.9203287460616
 30
0.0
 10
93.11335175623556
 20
-119.8695135876542
 30
0.0
 10
93.0354925982689
 20
-119.8421250785464
 30
0.0
 10
93.00414222935314
 20
-119.829378225251
 30
0.0
 10
92.98760577102394
 20
-119.856938989133
 30
0.0
 10
92.97451440817999
 20
-119.8758870143019
 30
0.0
 10
92.95039873978324
 20
-119.9098212048316
 30
0.0
 10
92.95039873978324
 20
-119.9098212048316
 30
0.0
 10
92.77814396552074
 20
-119.8273111679598
 30
0.0
 10
92.77814396552074
 20
-119.8273111679598
 30
0.0
 10
92.850490970711
 20
-119.7468681883793
 30
0.0
 10
92.90423446028089
 20
-119.6516112982121
 30
0.0
 10
92.95418834481701
 20
-119.5501532361715
 30
0.0
 10
92.78744572333092
 20
-119.5542873507538
 30
0.0
 10
92.76884220771058
 20
-119.5542873507538
 30
0.0
 10
92.69683971206885
 20
-119.5585937201104
 30
0.0
 10
92.69683971206885
 20
-119.5585937201104
 30
0.0
 10
92.69683971206885
 20
-119.3808267930715
 30
0.0
 10
92.69683971206885
 20
-119.3808267930715
 30
0.0
 10
92.81914060179523
 20
-119.3872002197192
 30
0.0
 10
93.0024196816105
 20
-119.3915065890757
 30
0.0
 10
93.02446829271611
 20
-119.3915065890757
 30
0.0
 10
93.03928220330269
 20
-119.357572398546
 30
0.0
 10
93.08751354009618
 20
-119.2369940565623
 30
0.0
 10
93.10404999842538
 20
-119.1629245036294
 30
0.0
 10
93.08751354009618
 20
-119.1629245036294
 30
0.0
 10
92.93213973371141
 20
-119.1692979302771
 30
0.0
 10
92.76160750719154
 20
-119.1820447835726
 30
0.0
 10
92.76160750719154
 20
-119.1820447835726
 30
0.0
 10
92.76160750719154
 20
-119.3153699788517
 30
0.0
 10
92.76160750719154
 20
-119.3153699788517
 30
0.0
 10
92.71888832317445
 20
-119.3406914306683
 30
0.0
 10
92.6672118908957
 20
-119.3723863091326
 30
0.0
 10
92.55042315394573
 20
-119.4380153781266
 30
0.0
 10
92.55042315394573
 20
-119.4380153781266
 30
0.0
 10
92.55042315394573
 20
-119.5839151719269
 30
0.0
 10
92.55042315394573
 20
-119.5839151719269
 30
0.0
 10
92.55042315394573
 20
-119.5839151719269
 30
0.0
 10
92.55042315394573
 20
-120.0515868840496
 30
0.0
 10
92.55042315394573
 20
-120.0515868840496
 30
0.0
 10
92.55042315394573
 20
-120.1783663979068
 30
0.0
 10
92.51907278502996
 20
-120.2376220402531
 30
0.0
 10
92.27102591009196
 20
-120.2291815563142
 30
0.0
 10
92.27102591009196
 20
-120.2291815563142
 30
0.0
 10
92.18007538928137
 20
-120.0219590628765
 30
0.0
 10
92.18007538928137
 20
-120.0219590628765
 30
0.0
 10
92.2355414265939
 20
-120.0345336613976
 30
0.0
 10
92.278260610611
 20
-120.0388400307542
 30
0.0
 10
92.31340058456054
 20
-120.0388400307542
 30
0.0
 10
92.38023543697439
 20
-120.0388400307542
 30
0.0
 10
92.38953719478457
 20
-120.0155856362287
 30
0.0
 10
92.38953719478457
 20
-119.9499565672347
 30
0.0
 10
92.38953719478457
 20
-119.9499565672347
 30
0.0
 10
92.38953719478457
 20
-119.5205254149983
 30
0.0
 10
92.38953719478457
 20
-119.5205254149983
 30
0.0
 10
92.30409882675036
 20
-119.5606607774015
 30
0.0
 10
92.2892849161638
 20
-119.5670342040492
 30
0.0
 10
92.24863278943785
 20
-119.5861544839924
 30
0.0
 10
92.24484318440408
 20
-119.6071695664524
 30
0.0
 10
92.24139808891883
 20
-119.6367973876255
 30
0.0
 10
92.2245171210411
 20
-119.6367973876255
 30
0.0
 10
92.21728242052207
 20
-119.6367973876255
 30
0.0
 10
92.2079806627119
 20
-119.6326632730432
 30
0.0
 10
92.2024685099355
 20
-119.6094088785178
 30
0.0
 10
92.2024685099355
 20
-119.6094088785178
 30
0.0
 10
92.15595972088462
 20
-119.4168280408923
 30
0.0
 10
92.15595972088462
 20
-119.4168280408923
 30
0.0
 10
92.28377276338739
 20
-119.3703192518415
 30
0.0
 10
92.34130585799106
 20
-119.347064857316
 30
0.0
 10
92.38953719478457
 20
-119.3258775200817
 30
0.0
 10
92.38953719478457
 20
-119.3258775200817
 30
0.0
 10
92.38953719478457
 20
-118.9133273357231
 30
0.0
 10
92.38953719478457
 20
-118.9133273357231
 30
0.0
 10
92.38953719478457
 20
-118.9133273357231
 30
0.0
 10
92.34302840573369
 20
-118.9133273357231
 30
0.0
 10
92.34302840573369
 20
-118.9133273357231
 30
0.0
 10
92.34302840573369
 20
-118.9133273357231
 30
0.0
 10
92.27447100557723
 20
-118.9133273357231
 30
0.0
 10
92.27447100557723
 20
-118.9133273357231
 30
0.0
 10
92.21521536323093
 20
-118.9133273357231
 30
0.0
 10
92.2079806627119
 20
-118.9133273357231
 30
0.0
 10
92.1762857842476
 20
-118.9197007623708
 30
0.0
 10
92.1762857842476
 20
-118.9197007623708
 30
0.0
 10
92.1762857842476
 20
-118.7250528674542
 30
0.0
 10
92.1762857842476
 20
-118.7250528674542
 30
0.0
 10
92.20040145264434
 20
-118.7314262941019
 30
0.0
 10
92.2079806627119
 20
-118.7314262941019
 30
0.0
 10
92.26895885280082
 20
-118.7314262941019
 30
0.0
 10
92.26895885280082
 20
-118.7314262941019
 30
0.0
 10
92.38574758975079
 20
-118.7314262941019
 30
0.0
 10
92.38574758975079
 20
-118.7314262941019
 30
0.0
 10
92.38574758975079
 20
-118.6616631105256
 30
0.0
 10
92.38574758975079
 20
-118.5791530736538
 30
0.0
 10
92.38368053245964
 20
-118.5748467042973
 30
0.0
 10
92.37644583194061
 20
-118.3950127199672
 30
0.0
 10
92.37644583194061
 20
-118.3760646947983
 30
0.0
 10
92.37472328419798
 20
-118.3295559057475
 30
0.0
 10
92.37472328419798
 20
-118.3295559057475
 30
0.0
 10
92.56351451678968
 20
-118.3379963896863
 30
0.0
 10
92.56351451678968
 20
-118.3379963896863
 30
0.0
 10
92.57281627459986
 20
-118.3379963896863
 30
0.0
 10
92.59107528067167
 20
-118.3400634469775
 30
0.0
 10
92.59107528067167
 20
-118.3569444148552
 30
0.0
 10
92.59107528067167
 20
-118.3760646947983
 30
0.0
 10
92.57832842737625
 20
-118.3865722360284
 30
0.0
 10
92.55593530672213
 20
-118.4056925159715
 30
0.0
 10
92.55593530672213
 20
-118.4563354196047
 30
0.0
 10
92.55042315394573
 20
-118.684917505051
 30
0.0
 10
92.55249021123689
 20
-118.7314262941019
 30
0.0
 10
92.66548934315307
 20
-118.7314262941019
 30
0.0
 10
92.67651364870588
 20
-118.7314262941019
 30
0.0
 10
92.76160750719154
 20
-118.722985810163
 30
0.0
 10
92.76160750719154
 20
-118.722985810163
 30
0.0
 10
92.76160750719154
 20
-118.9176337050796
 30
0.0
 10
92.76160750719154
 20
-118.9176337050796
 30
0.0
 10
92.72819008098462
 20
-118.9153943930142
 30
0.0
 10
92.66893443863833
 20
-118.9112602784319
 30
0.0
 10
92.55042315394573
 20
-118.9133273357231
 30
0.0
 10
92.55042315394573
 20
-118.9133273357231
 30
0.0
 10
92.55042315394573
 20
-119.2518079671489
 30
0.0
 10
92.55042315394573
 20
-119.2518079671489
 30
0.0
 10
92.59865449073924
 20
-119.2285535726234
 30
0.0
 10
92.6561875853429
 20
-119.2009928087414
 30
0.0
 10
92.69856225981148
 20
-119.177738414216
 30
0.0
 10
92.69856225981148
 20
-119.177738414216
 30
0.0
 10
92.69856225981148
 20
-119.0001437419514
 30
0.0
 10
92.69856225981148
 20
-119.0001437419514
 30
0.0
 10
92.79847002888371
 20
-119.0127183404725
 30
0.0
 10
92.90251191253826
 20
-119.0127183404725
 30
0.0
 10
93.00414222935314
 20
-119.0127183404725
 30
0.0
 10
92.98381616599016
 20
-118.9176337050796
 30
0.0
 10
92.95970049759342
 20
-118.8351236682079
 30
0.0
 10
92.90423446028089
 20
-118.7017984729287
 30
0.0
 10
92.86530488129756
 20
-118.7038655302199
 30
0.0
 10
92.79295787610732
 20
-118.7081718995764
 30
0.0
 10
92.75988495944893
 20
-118.7102389568676
 30
0.0
 10
92.75988495944893
 20
-118.7102389568676
 30
0.0
 10
92.75988495944893
 20
-118.5304049725375
 30
0.0
 10
92.75988495944893
 20
-118.5304049725375
 30
0.0
 10
92.86909448633133
 20
-118.5388454564764
 30
0.0
 10
93.02102319723086
 20
-118.543151825833
 30
0.0
 10
93.09302569287259
 20
-118.543151825833
 30
0.0
 10
93.09302569287259
 20
-118.543151825833
 30
0.0
 10
93.16537269806282
 20
-118.543151825833
 30
0.0
 10
93.16537269806282
 20
-118.543151825833
 30
0.0
 10
93.16537269806282
 20
-118.3801988093806
 30
0.0
 10
93.16537269806282
 20
-118.3696912681506
 30
0.0
 10
93.16330564077168
 20
-118.3147419951609
 30
0.0
 10
93.16330564077168
 20
-118.3147419951609
 30
0.0
 10
93.35967608343091
 20
-118.3400634469775
 30
0.0
 10
93.35967608343091
 20
-118.3400634469775
 30
0.0
 10
93.3634656884647
 20
-118.3400634469775
 30
0.0
 10
93.38206920408504
 20
-118.3421305042686
 30
0.0
 10
93.38206920408504
 20
-118.3590114721464
 30
0.0
 10
93.38206920408504
 20
-118.3738253827329
 30
0.0
 10
93.37276744627486
 20
-118.3824381214461
 30
0.0
 10
93.34865177787812
 20
-118.3972520320326
 30
0.0
 10
93.34313962510171
 20
-118.4627088462524
 30
0.0
 10
93.34107256781057
 20
-118.4838961834867
 30
0.0
 10
93.34107256781057
 20
-118.543151825833
 30
0.0
 10
93.34107256781057
 20
-118.543151825833
 30
0.0
 10
93.42444387855362
 20
-118.543151825833
 30
0.0
 10
93.42444387855362
 20
-118.543151825833
 30
0.0
 10
93.49679088374386
 20
-118.543151825833
 30
0.0
 10
93.64871959464338
 20
-118.5388454564764
 30
0.0
 10
93.7579291215258
 20
-118.5304049725375
 30
0.0
 10
93.7579291215258
 20
-118.5304049725375
 30
0.0
 10
93.7579291215258
 20
-118.7102389568676
 30
0.0
 10
93.7579291215258
 20
-118.7102389568676
 30
0.0
 10
93.73209090538643
 20
-118.7081718995764
 30
0.0
 10
93.62804902173188
 20
-118.7038655302199
 30
0.0
 10
93.59290904778233
 20
-118.7017984729287
 30
0.0
 10
93.5801621944869
 20
-118.7526136313362
 30
0.0
 10
93.55053437331377
 20
-118.864751489381
 30
0.0
 10
93.49300127871008
 20
-119.0042778565337
 30
0.0
 10
93.53020830995078
 20
-119.0042778565337
 30
0.0
 10
93.77274303211237
 20
-118.9853298313648
 30
0.0
 10
93.82648652168227
 20
-118.9830905192994
 30
0.0
 10
93.82648652168227
 20
-118.9830905192994
 30
0.0
 10
93.82648652168227
 20
-119.167230872986
 30
0.0
 10
93.82648652168227
 20
-119.167230872986
 30
0.0
 10
93.80030379599437
 20
-119.167230872986
 30
0.0
 10
93.7854898854078
 20
-119.1629245036294
 30
0.0
 10
93.64320744186698
 20
-119.1629245036294
 30
0.0
  0
SPLINE
  5
D7
330
D2
100
AcDbEntity
  8
_U+30EC_U+30A4_U+30E4_U+30FC 1
370
     0
100
AcDbSpline
210
0.0
220
0.0
230
1.0
 70
    11
 71
     3
 72
    20
 73
    16
 74
     0
 42
0.0000000001
 43
0.0000000001
 12
1.0
 22
0.0
 32
0.0
 13
1.0
 23
0.0
 33
0.0
 40
0.0
 40
0.0
 40
0.0
 40
0.0
 40
1.0
 40
1.0
 40
1.0
 40
2.0
 40
2.0
 40
2.0
 40
3.0
 40
3.0
 40
3.0
 40
4.0
 40
4.0
 40
4.0
 40
5.0
 40
5.0
 40
5.0
 40
5.0
 10
93.09302569287259
 20
-118.6976643583464
 30
0.0
 10
93.09302569287259
 20
-118.6976643583464
 30
0.0
 10
93.06512041944205
 20
-118.6976643583464
 30
0.0
 10
93.06512041944205
 20
-118.6976643583464
 30
0.0
 10
93.10611705571652
 20
-118.7970553630959
 30
0.0
 10
93.13367781959853
 20
-118.8773260879022
 30
0.0
 10
93.16330564077168
 20
-119.0042778565337
 30
0.0
 10
93.16330564077168
 20
-119.0042778565337
 30
0.0
 10
93.34486217284434
 20
-119.0042778565337
 30
0.0
 10
93.34486217284434
 20
-119.0042778565337
 30
0.0
 10
93.37276744627486
 20
-118.9112602784319
 30
0.0
 10
93.39309350963784
 20
-118.826683184269
 30
0.0
 10
93.41341957300082
 20
-118.6976643583464
 30
0.0
 10
93.41341957300082
 20
-118.6976643583464
 30
0.0
 10
93.09302569287259
 20
-118.6976643583464
 30
0.0
 10
93.09302569287259
 20
-118.6976643583464
 30
0.0
  0
SPLINE
  5
D8
330
D2
100
AcDbEntity
  8
_U+30EC_U+30A4_U+30E4_U+30FC 1
370
     0
100
AcDbSpline
210
0.0
220
0.0
230
1.0
 70
    11
 71
     3
 72
    17
 73
    13
 74
     0
 42
0.0000000001
 43
0.0000000001
 12
1.0
 22
0.0
 32
0.0
 13
1.0
 23
0.0
 33
0.0
 40
0.0
 40
0.0
 40
0.0
 40
0.0
 40
1.0
 40
1.0
 40
1.0
 40
2.0
 40
2.0
 40
2.0
 40
3.0
 40
3.0
 40
3.0
 40
4.0
 40
4.0
 40
4.0
 40
4.0
 10
93.1484917301851
 20
-119.5480861788803
 30
0.0
 10
93.13367781959853
 20
-119.5775417452792
 30
0.0
 10
93.08923608783881
 20
-119.6707315781552
 30
0.0
 10
93.08027883957716
 20
-119.6896796033241
 30
0.0
 10
93.24667695151473
 20
-119.7489352456704
 30
0.0
 10
93.26528046713507
 20
-119.7553086723181
 30
0.0
 10
93.32832571451515
 20
-119.7828694362001
 30
0.0
 10
93.37655705130864
 20
-119.6960530299718
 30
0.0
 10
93.39688311467161
 20
-119.621983477039
 30
0.0
 10
93.40962996796704
 20
-119.5480861788803
 30
0.0
 10
93.40962996796704
 20
-119.5480861788803
 30
0.0
 10
93.1484917301851
 20
-119.5480861788803
 30
0.0
 10
93.1484917301851
 20
-119.5480861788803
 30
0.0
  0
HATCH
  5
D9
330
D2
100
AcDbEntity
  8
_U+30EC_U+30A4_U+30E4_U+30FC 1
 62
   179
420
  2234388
100
AcDbHatch
 10
0.0
 20
0.0
 30
0.0
210
0.0
220
0.0
230
1.0
  2
SOLID
 70
     1
 71
     0
 91
        3
 92
        1
 93
        1
 72
     4
 94
        3
 73
     0
 74
     1
 95
      242
 96
      238
 40
0.0
 40
0.0
 40
0.0
 40
0.0
 40
1.0
 40
1.0
 40
1.0
 40
2.0
 40
2.0
 40
2.0
 40
3.0
 40
3.0
 40
3.0
 40
4.0
 40
4.0
 40
4.0
 40
5.0
 40
5.0
 40
5.0
 40
6.0
 40
6.0
 40
6.0
 40
7.0
 40
7.0
 40
7.0
 40
8.0
 40
8.0
 40
8.0
 40
9.0
 40
9.0
 40
9.0
 40
10.0
 40
10.0
 40
10.0
 40
11.0
 40
11.0
 40
11.0
 40
12.0
 40
12.0
 40
12.0
 40
13.0
 40
13.0
 40
13.0
 40
14.0
 40
14.0
 40
14.0
 40
15.0
 40
15.0
 40
15.0
 40
16.0
 40
16.0
 40
16.0
 40
17.0
 40
17.0
 40
17.0
 40
18.0
 40
18.0
 40
18.0
 40
19.0
 40
19.0
 40
19.0
 40
20.0
 40
20.0
 40
20.0
 40
21.0
 40
21.0
 40
21.0
 40
22.0
 40
22.0
 40
22.0
 40
23.0
 40
23.0
 40
23.0
 40
24.0
 40
24.0
 40
24.0
 40
25.0
 40
25.0
 40
25.0
 40
26.0
 40
26.0
 40
26.0
 40
27.0
 40
27.0
 40
27.0
 40
28.0
 40
28.0
 40
28.0
 40
29.0
 40
29.0
 40
29.0
 40
30.0
 40
30.0
 40
30.0
 40
31.0
 40
31.0
 40
31.0
 40
32.0
 40
32.0
 40
32.0
 40
33.0
 40
33.0
 40
33.0
 40
34.0
 40
34.0
 40
34.0
 40
35.0
 40
35.0
 40
35.0
 40
36.0
 40
36.0
 40
36.0
 40
37.0
 40
37.0
 40
37.0
 40
38.0
 40
38.0
 40
38.0
 40
39.0
 40
39.0
 40
39.0
 40
40.0
 40
40.0
 40
40.0
 40
41.0
 40
41.0
 40
41.0
 40
42.0
 40
42.0
 40
42.0
 40
43.0
 40
43.0
 40
43.0
 40
44.0
 40
44.0
 40
44.0
 40
45.0
 40
45.0
 40
45.0
 40
46.0
 40
46.0
 40
46.0
 40
47.0
 40
47.0
 40
47.0
 40
48.0
 40
48.0
 40
48.0
 40
49.0
 40
49.0
 40
49.0
 40
50.0
 40
50.0
 40
50.0
 40
51.0
 40
51.0
 40
51.0
 40
52.0
 40
52.0
 40
52.0
 40
53.0
 40
53.0
 40
53.0
 40
54.0
 40
54.0
 40
54.0
 40
55.0
 40
55.0
 40
55.0
 40
56.0
 40
56.0
 40
56.0
 40
57.0
 40
57.0
 40
57.0
 40
58.0
 40
58.0
 40
58.0
 40
59.0
 40
59.0
 40
59.0
 40
60.0
 40
60.0
 40
60.0
 40
61.0
 40
61.0
 40
61.0
 40
62.0
 40
62.0
 40
62.0
 40
63.0
 40
63.0
 40
63.0
 40
64.0
 40
64.0
 40
64.0
 40
65.0
 40
65.0
 40
65.0
 40
66.0
 40
66.0
 40
66.0
 40
67.0
 40
67.0
 40
67.0
 40
68.0
 40
68.0
 40
68.0
 40
69.0
 40
69.0
 40
69.0
 40
70.0
 40
70.0
 40
70.0
 40
71.0
 40
71.0
 40
71.0
 40
72.0
 40
72.0
 40
72.0
 40
73.0
 40
73.0
 40
73.0
 40
74.0
 40
74.0
 40
74.0
 40
75.0
 40
75.0
 40
75.0
 40
76.0
 40
76.0
 40
76.0
 40
77.0
 40
77.0
 40
77.0
 40
78.0
 40
78.0
 40
78.0
 40
79.0
 40
79.0
 40
79.0
 40
79.0
 10
93.64320744186698
 20
-119.1629245036294
 10
93.64320744186698
 20
-119.1629245036294
 10
93.42065427351984
 20
-119.1629245036294
 10
93.42065427351984
 20
-119.1629245036294
 10
93.42065427351984
 20
-119.1629245036294
 10
93.17811955135825
 20
-119.1629245036294
 10
93.17811955135825
 20
-119.1629245036294
 10
93.17811955135825
 20
-119.1629245036294
 10
93.28939613553182
 20
-119.205299178098
 10
93.28939613553182
 20
-119.205299178098
 10
93.298697893342
 20
-119.2096055474545
 10
93.30972219889479
 20
-119.215806719328
 10
93.30972219889479
 20
-119.2285535726234
 10
93.30972219889479
 20
-119.2497409098577
 10
93.28181692546427
 20
-119.2561143365054
 10
93.26355791939245
 20
-119.2602484510877
 10
93.25425616158228
 20
-119.2835028456132
 10
93.2284179454429
 20
-119.3491319146072
 10
93.21153697756517
 20
-119.3935736463669
 10
93.21153697756517
 20
-119.3935736463669
 10
93.44855954695036
 20
-119.3935736463669
 10
93.44855954695036
 20
-119.3935736463669
 10
93.52814125265964
 20
-119.3935736463669
 10
93.70039602692212
 20
-119.3892672770103
 10
93.82441946439113
 20
-119.3808267930715
 10
93.82441946439113
 20
-119.3808267930715
 10
93.82441946439113
 20
-119.5585937201104
 10
93.82441946439113
 20
-119.5585937201104
 10
93.7524169687494
 20
-119.5542873507538
 10
93.73381345312905
 20
-119.5542873507538
 10
93.57637258945313
 20
-119.5501532361715
 10
93.54846731602261
 20
-119.7044935139107
 10
93.50953773703928
 20
-119.7849364934913
 10
93.4709526676045
 20
-119.8546996770676
 10
93.57637258945313
 20
-119.9139553194139
 10
93.66904565800635
 20
-119.981651445699
 10
93.75965166926842
 20
-120.0641614825708
 10
93.75965166926842
 20
-120.0641614825708
 10
93.6559542951624
 20
-120.2312486136054
 10
93.6559542951624
 20
-120.2312486136054
 10
93.63562823179943
 20
-120.2123005884365
 10
93.62460392624664
 20
-120.2038601044977
 10
93.526418704917
 20
-120.1191107555605
 10
93.48369952089992
 20
-120.0810424504485
 10
93.43202308862116
 20
-120.0452134574019
 10
93.36139863117354
 20
-120.0007717256422
 10
93.17639700361563
 20
-120.1869791366199
 10
92.99690752883411
 20
-120.2102335311454
 10
92.7430039915712
 20
-120.2398613523185
 10
92.7430039915712
 20
-120.2398613523185
 10
92.65239798030913
 20
-120.0600273679885
 10
92.65239798030913
 20
-120.0600273679885
 10
92.93007267642027
 20
-120.0557209986319
 10
93.08372393506241
 20
-120.0303995468153
 10
93.21704913034158
 20
-119.9203287460616
 10
93.11335175623556
 20
-119.8695135876542
 10
93.0354925982689
 20
-119.8421250785464
 10
93.00414222935314
 20
-119.829378225251
 10
92.98760577102394
 20
-119.856938989133
 10
92.97451440817999
 20
-119.8758870143019
 10
92.95039873978324
 20
-119.9098212048316
 10
92.95039873978324
 20
-119.9098212048316
 10
92.77814396552074
 20
-119.8273111679598
 10
92.77814396552074
 20
-119.8273111679598
 10
92.850490970711
 20
-119.7468681883793
 10
92.90423446028089
 20
-119.6516112982121
 10
92.95418834481701
 20
-119.5501532361715
 10
92.78744572333092
 20
-119.5542873507538
 10
92.76884220771058
 20
-119.5542873507538
 10
92.69683971206885
 20
-119.5585937201104
 10
92.69683971206885
 20
-119.5585937201104
 10
92.69683971206885
 20
-119.3808267930715
 10
92.69683971206885
 20
-119.3808267930715
 10
92.81914060179523
 20
-119.3872002197192
 10
93.0024196816105
 20
-119.3915065890757
 10
93.02446829271611
 20
-119.3915065890757
 10
93.03928220330269
 20
-119.357572398546
 10
93.08751354009618
 20
-119.2369940565623
 10
93.10404999842538
 20
-119.1629245036294
 10
93.08751354009618
 20
-119.1629245036294
 10
92.93213973371141
 20
-119.1692979302771
 10
92.76160750719154
 20
-119.1820447835726
 10
92.76160750719154
 20
-119.1820447835726
 10
92.76160750719154
 20
-119.3153699788517
 10
92.76160750719154
 20
-119.3153699788517
 10
92.71888832317445
 20
-119.3406914306683
 10
92.6672118908957
 20
-119.3723863091326
 10
92.55042315394573
 20
-119.4380153781266
 10
92.55042315394573
 20
-119.4380153781266
 10
92.55042315394573
 20
-119.5839151719269
 10
92.55042315394573
 20
-119.5839151719269
 10
92.55042315394573
 20
-119.5839151719269
 10
92.55042315394573
 20
-120.0515868840496
 10
92.55042315394573
 20
-120.0515868840496
 10
92.55042315394573
 20
-120.1783663979068
 10
92.51907278502996
 20
-120.2376220402531
 10
92.27102591009196
 20
-120.2291815563142
 10
92.27102591009196
 20
-120.2291815563142
 10
92.18007538928137
 20
-120.0219590628765
 10
92.18007538928137
 20
-120.0219590628765
 10
92.2355414265939
 20
-120.0345336613976
 10
92.278260610611
 20
-120.0388400307542
 10
92.31340058456054
 20
-120.0388400307542
 10
92.38023543697439
 20
-120.0388400307542
 10
92.38953719478457
 20
-120.0155856362287
 10
92.38953719478457
 20
-119.9499565672347
 10
92.38953719478457
 20
-119.9499565672347
 10
92.38953719478457
 20
-119.5205254149983
 10
92.38953719478457
 20
-119.5205254149983
 10
92.30409882675036
 20
-119.5606607774015
 10
92.2892849161638
 20
-119.5670342040492
 10
92.24863278943785
 20
-119.5861544839924
 10
92.24484318440408
 20
-119.6071695664524
 10
92.24139808891883
 20
-119.6367973876255
 10
92.2245171210411
 20
-119.6367973876255
 10
92.21728242052207
 20
-119.6367973876255
 10
92.2079806627119
 20
-119.6326632730432
 10
92.2024685099355
 20
-119.6094088785178
 10
92.2024685099355
 20
-119.6094088785178
 10
92.15595972088462
 20
-119.4168280408923
 10
92.15595972088462
 20
-119.4168280408923
 10
92.28377276338739
 20
-119.3703192518415
 10
92.34130585799106
 20
-119.347064857316
 10
92.38953719478457
 20
-119.3258775200817
 10
92.38953719478457
 20
-119.3258775200817
 10
92.38953719478457
 20
-118.9133273357231
 10
92.38953719478457
 20
-118.9133273357231
 10
92.38953719478457
 20
-118.9133273357231
 10
92.34302840573369
 20
-118.9133273357231
 10
92.34302840573369
 20
-118.9133273357231
 10
92.34302840573369
 20
-118.9133273357231
 10
92.27447100557723
 20
-118.9133273357231
 10
92.27447100557723
 20
-118.9133273357231
 10
92.21521536323093
 20
-118.9133273357231
 10
92.2079806627119
 20
-118.9133273357231
 10
92.1762857842476
 20
-118.9197007623708
 10
92.1762857842476
 20
-118.9197007623708
 10
92.1762857842476
 20
-118.7250528674542
 10
92.1762857842476
 20
-118.7250528674542
 10
92.20040145264434
 20
-118.7314262941019
 10
92.2079806627119
 20
-118.7314262941019
 10
92.26895885280082
 20
-118.7314262941019
 10
92.26895885280082
 20
-118.7314262941019
 10
92.38574758975079
 20
-118.7314262941019
 10
92.38574758975079
 20
-118.7314262941019
 10
92.38574758975079
 20
-118.6616631105256
 10
92.38574758975079
 20
-118.5791530736538
 10
92.38368053245964
 20
-118.5748467042973
 10
92.37644583194061
 20
-118.3950127199672
 10
92.37644583194061
 20
-118.3760646947983
 10
92.37472328419798
 20
-118.3295559057475
 10
92.37472328419798
 20
-118.3295559057475
 10
92.56351451678968
 20
-118.3379963896863
 10
92.56351451678968
 20
-118.3379963896863
 10
92.57281627459986
 20
-118.3379963896863
 10
92.59107528067167
 20
-118.3400634469775
 10
92.59107528067167
 20
-118.3569444148552
 10
92.59107528067167
 20
-118.3760646947983
 10
92.57832842737625
 20
-118.3865722360284
 10
92.55593530672213
 20
-118.4056925159715
 10
92.55593530672213
 20
-118.4563354196047
 10
92.55042315394573
 20
-118.684917505051
 10
92.55249021123689
 20
-118.7314262941019
 10
92.66548934315307
 20
-118.7314262941019
 10
92.67651364870588
 20
-118.7314262941019
 10
92.76160750719154
 20
-118.722985810163
 10
92.76160750719154
 20
-118.722985810163
 10
92.76160750719154
 20
-118.9176337050796
 10
92.76160750719154
 20
-118.9176337050796
 10
92.72819008098462
 20
-118.9153943930142
 10
92.66893443863833
 20
-118.9112602784319
 10
92.55042315394573
 20
-118.9133273357231
 10
92.55042315394573
 20
-118.9133273357231
 10
92.55042315394573
 20
-119.2518079671489
 10
92.55042315394573
 20
-119.2518079671489
 10
92.59865449073924
 20
-119.2285535726234
 10
92.6561875853429
 20
-119.2009928087414
 10
92.69856225981148
 20
-119.177738414216
 10
92.69856225981148
 20
-119.177738414216
 10
92.69856225981148
 20
-119.0001437419514
 10
92.69856225981148
 20
-119.0001437419514
 10
92.79847002888371
 20
-119.0127183404725
 10
92.90251191253826
 20
-119.0127183404725
 10
93.00414222935314
 20
-119.0127183404725
 10
92.98381616599016
 20
-118.9176337050796
 10
92.95970049759342
 20
-118.8351236682079
 10
92.90423446028089
 20
-118.7017984729287
 10
92.86530488129756
 20
-118.7038655302199
 10
92.79295787610732
 20
-118.7081718995764
 10
92.75988495944893
 20
-118.7102389568676
 10
92.75988495944893
 20
-118.7102389568676
 10
92.75988495944893
 20
-118.5304049725375
 10
92.75988495944893
 20
-118.5304049725375
 10
92.86909448633133
 20
-118.5388454564764
 10
93.02102319723086
 20
-118.543151825833
 10
93.09302569287259
 20
-118.543151825833
 10
93.09302569287259
 20
-118.543151825833
 10
93.16537269806282
 20
-118.543151825833
 10
93.16537269806282
 20
-118.543151825833
 10
93.16537269806282
 20
-118.3801988093806
 10
93.16537269806282
 20
-118.3696912681506
 10
93.16330564077168
 20
-118.3147419951609
 10
93.16330564077168
 20
-118.3147419951609
 10
93.35967608343091
 20
-118.3400634469775
 10
93.35967608343091
 20
-118.3400634469775
 10
93.3634656884647
 20
-118.3400634469775
 10
93.38206920408504
 20
-118.3421305042686
 10
93.38206920408504
 20
-118.3590114721464
 10
93.38206920408504
 20
-118.3738253827329
 10
93.37276744627486
 20
-118.3824381214461
 10
93.34865177787812
 20
-118.3972520320326
 10
93.34313962510171
 20
-118.4627088462524
 10
93.34107256781057
 20
-118.4838961834867
 10
93.34107256781057
 20
-118.543151825833
 10
93.34107256781057
 20
-118.543151825833
 10
93.42444387855362
 20
-118.543151825833
 10
93.42444387855362
 20
-118.543151825833
 10
93.49679088374386
 20
-118.543151825833
 10
93.64871959464338
 20
-118.5388454564764
 10
93.7579291215258
 20
-118.5304049725375
 10
93.7579291215258
 20
-118.5304049725375
 10
93.7579291215258
 20
-118.7102389568676
 10
93.7579291215258
 20
-118.7102389568676
 10
93.73209090538643
 20
-118.7081718995764
 10
93.62804902173188
 20
-118.7038655302199
 10
93.59290904778233
 20
-118.7017984729287
 10
93.5801621944869
 20
-118.7526136313362
 10
93.55053437331377
 20
-118.864751489381
 10
93.49300127871008
 20
-119.0042778565337
 10
93.53020830995078
 20
-119.0042778565337
 10
93.77274303211237
 20
-118.9853298313648
 10
93.82648652168227
 20
-118.9830905192994
 10
93.82648652168227
 20
-118.9830905192994
 10
93.82648652168227
 20
-119.167230872986
 10
93.82648652168227
 20
-119.167230872986
 10
93.80030379599437
 20
-119.167230872986
 10
93.7854898854078
 20
-119.1629245036294
 10
93.64320744186698
 20
-119.1629245036294
 97
        0
 97
        0
 92
        1
 93
        1
 72
     4
 94
        3
 73
     0
 74
     1
 95
       20
 96
       16
 40
0.0
 40
0.0
 40
0.0
 40
0.0
 40
1.0
 40
1.0
 40
1.0
 40
2.0
 40
2.0
 40
2.0
 40
3.0
 40
3.0
 40
3.0
 40
4.0
 40
4.0
 40
4.0
 40
5.0
 40
5.0
 40
5.0
 40
5.0
 10
93.09302569287259
 20
-118.6976643583464
 10
93.09302569287259
 20
-118.6976643583464
 10
93.06512041944205
 20
-118.6976643583464
 10
93.06512041944205
 20
-118.6976643583464
 10
93.10611705571652
 20
-118.7970553630959
 10
93.13367781959853
 20
-118.8773260879022
 10
93.16330564077168
 20
-119.0042778565337
 10
93.16330564077168
 20
-119.0042778565337
 10
93.34486217284434
 20
-119.0042778565337
 10
93.34486217284434
 20
-119.0042778565337
 10
93.37276744627486
 20
-118.9112602784319
 10
93.39309350963784
 20
-118.826683184269
 10
93.41341957300082
 20
-118.6976643583464
 10
93.41341957300082
 20
-118.6976643583464
 10
93.09302569287259
 20
-118.6976643583464
 10
93.09302569287259
 20
-118.6976643583464
 97
        0
 97
        0
 92
        1
 93
        1
 72
     4
 94
        3
 73
     0
 74
     1
 95
       17
 96
       13
 40
0.0
 40
0.0
 40
0.0
 40
0.0
 40
1.0
 40
1.0
 40
1.0
 40
2.0
 40
2.0
 40
2.0
 40
3.0
 40
3.0
 40
3.0
 40
4.0
 40
4.0
 40
4.0
 40
4.0
 10
93.1484917301851
 20
-119.5480861788803
 10
93.13367781959853
 20
-119.5775417452792
 10
93.08923608783881
 20
-119.6707315781552
 10
93.08027883957716
 20
-119.6896796033241
 10
93.24667695151473
 20
-119.7489352456704
 10
93.26528046713507
 20
-119.7553086723181
 10
93.32832571451515
 20
-119.7828694362001
 10
93.37655705130864
 20
-119.6960530299718
 10
93.39688311467161
 20
-119.621983477039
 10
93.40962996796704
 20
-119.5480861788803
 10
93.40962996796704
 20
-119.5480861788803
 10
93.1484917301851
 20
-119.5480861788803
 10
93.1484917301851
 20
-119.5480861788803
 97
        0
 97
        0
 75
     2
 76
     1
 98
        0
  0
SPLINE
  5
DA
330
D2
100
AcDbEntity
  8
_U+30EC_U+30A4_U+30E4_U+30FC 1
370
     0
100
AcDbSpline
210
0.0
220
0.0
230
1.0
 70
    11
 71
     3
 72
   203
 73
   199
 74
     0
 42
0.0000000001
 43
0.0000000001
 12
1.0
 22
0.0
 32
0.0
 13
1.0
 23
0.0
 33
0.0
 40
0.0
 40
0.0
 40
0.0
 40
0.0
 40
1.0
 40
1.0
 40
1.0
 40
2.0
 40
2.0
 40
2.0
 40
3.0
 40
3.0
 40
3.0
 40
4.0
 40
4.0
 40
4.0
 40
5.0
 40
5.0
 40
5.0
 40
6.0
 40
6.0
 40
6.0
 40
7.0
 40
7.0
 40
7.0
 40
8.0
 40
8.0
 40
8.0
 40
9.0
 40
9.0
 40
9.0
 40
10.0
 40
10.0
 40
10.0
 40
11.0
 40
11.0
 40
11.0
 40
12.0
 40
12.0
 40
12.0
 40
13.0
 40
13.0
 40
13.0
 40
14.0
 40
14.0
 40
14.0
 40
15.0
 40
15.0
 40
15.0
 40
16.0
 40
16.0
 40
16.0
 40
17.0
 40
17.0
 40
17.0
 40
18.0
 40
18.0
 40
18.0
 40
19.0
 40
19.0
 40
19.0
 40
20.0
 40
20.0
 40
20.0
 40
21.0
 40
21.0
 40
21.0
 40
22.0
 40
22.0
 40
22.0
 40
23.0
 40
23.0
 40
23.0
 40
24.0
 40
24.0
 40
24.0
 40
25.0
 40
25.0
 40
25.0
 40
26.0
 40
26.0
 40
26.0
 40
27.0
 40
27.0
 40
27.0
 40
28.0
 40
28.0
 40
28.0
 40
29.0
 40
29.0
 40
29.0
 40
30.0
 40
30.0
 40
30.0
 40
31.0
 40
31.0
 40
31.0
 40
32.0
 40
32.0
 40
32.0
 40
33.0
 40
33.0
 40
33.0
 40
34.0
 40
34.0
 40
34.0
 40
35.0
 40
35.0
 40
35.0
 40
36.0
 40
36.0
 40
36.0
 40
37.0
 40
37.0
 40
37.0
 40
38.0
 40
38.0
 40
38.0
 40
39.0
 40
39.0
 40
39.0
 40
40.0
 40
40.0
 40
40.0
 40
41.0
 40
41.0
 40
41.0
 40
42.0
 40
42.0
 40
42.0
 40
43.0
 40
43.0
 40
43.0
 40
44.0
 40
44.0
 40
44.0
 40
45.0
 40
45.0
 40
45.0
 40
46.0
 40
46.0
 40
46.0
 40
47.0
 40
47.0
 40
47.0
 40
48.0
 40
48.0
 40
48.0
 40
49.0
 40
49.0
 40
49.0
 40
50.0
 40
50.0
 40
50.0
 40
51.0
 40
51.0
 40
51.0
 40
52.0
 40
52.0
 40
52.0
 40
53.0
 40
53.0
 40
53.0
 40
54.0
 40
54.0
 40
54.0
 40
55.0
 40
55.0
 40
55.0
 40
56.0
 40
56.0
 40
56.0
 40
57.0
 40
57.0
 40
57.0
 40
58.0
 40
58.0
 40
58.0
 40
59.0
 40
59.0
 40
59.0
 40
60.0
 40
60.0
 40
60.0
 40
61.0
 40
61.0
 40
61.0
 40
62.0
 40
62.0
 40
62.0
 40
63.0
 40
63.0
 40
63.0
 40
64.0
 40
64.0
 40
64.0
 40
65.0
 40
65.0
 40
65.0
 40
66.0
 40
66.0
 40
66.0
 40
66.0
 10
95.12494301007294
 20
-119.2306206299146
 30
0.0
 10
95.12494301007294
 20
-119.2306206299146
 30
0.0
 10
94.63608396071598
 20
-119.2306206299146
 30
0.0
 10
94.63608396071598
 20
-119.2306206299146
 30
0.0
 10
94.62678220290582
 20
-119.2750623616743
 30
0.0
 10
94.61954750238678
 20
-119.3067572401386
 30
0.0
 10
94.60852319683399
 20
-119.3449978000249
 30
0.0
 10
94.63057180793959
 20
-119.3449978000249
 30
0.0
 10
94.64366317078353
 20
-119.347064857316
 30
0.0
 10
94.64917532355993
 20
-119.347064857316
 30
0.0
 10
94.64917532355993
 20
-119.347064857316
 30
0.0
 10
94.81385088775488
 20
-119.347064857316
 30
0.0
 10
94.81385088775488
 20
-119.347064857316
 30
0.0
 10
94.81385088775488
 20
-119.347064857316
 30
0.0
 10
95.14182397795066
 20
-119.347064857316
 30
0.0
 10
95.14182397795066
 20
-119.347064857316
 30
0.0
 10
95.18592120016186
 20
-119.347064857316
 30
0.0
 10
95.43431258464837
 20
-119.3343180040206
 30
0.0
 10
95.46187334853037
 20
-119.3343180040206
 30
0.0
 10
95.46015080078774
 20
-119.3618787679026
 30
0.0
 10
95.45842825304511
 20
-119.3808267930715
 30
0.0
 10
95.45842825304511
 20
-119.4104546142446
 30
0.0
 10
95.45636119575397
 20
-119.4421494927089
 30
0.0
 10
95.45636119575397
 20
-119.5775417452792
 30
0.0
 10
95.45636119575397
 20
-119.6051025091612
 30
0.0
 10
95.45636119575397
 20
-119.6051025091612
 30
0.0
 10
95.45636119575397
 20
-119.8505655624853
 30
0.0
 10
95.45636119575397
 20
-119.8505655624853
 30
0.0
 10
95.45636119575397
 20
-119.895007294245
 30
0.0
 10
95.46015080078774
 20
-120.0917222464528
 30
0.0
 10
95.46394040582152
 20
-120.2439954669008
 30
0.0
 10
95.46394040582152
 20
-120.2439954669008
 30
0.0
 10
95.26584741541966
 20
-120.2439954669008
 30
0.0
 10
95.26584741541966
 20
-120.2439954669008
 30
0.0
 10
95.26584741541966
 20
-120.2439954669008
 30
0.0
 10
95.26756996316227
 20
-120.2102335311454
 30
0.0
 10
95.26756996316227
 20
-120.2102335311454
 30
0.0
 10
95.26756996316227
 20
-120.2102335311454
 30
0.0
 10
94.65262041904518
 20
-120.2102335311454
 30
0.0
 10
94.65262041904518
 20
-120.2102335311454
 30
0.0
 10
94.65262041904518
 20
-120.2102335311454
 30
0.0
 10
94.65468747633633
 20
-120.2439954669008
 30
0.0
 10
94.65468747633633
 20
-120.2439954669008
 30
0.0
 10
94.65468747633633
 20
-120.2439954669008
 30
0.0
 10
94.4638291864535
 20
-120.2439954669008
 30
0.0
 10
94.4638291864535
 20
-120.2439954669008
 30
0.0
 10
94.46761879148727
 20
-120.1890461939111
 30
0.0
 10
94.46761879148727
 20
-120.1762993406157
 30
0.0
 10
94.47313094426367
 20
-120.0620944252796
 30
0.0
 10
94.47485349200629
 20
-120.0345336613976
 30
0.0
 10
94.47692054929745
 20
-119.9013807208927
 30
0.0
 10
94.47692054929745
 20
-119.8822604409496
 30
0.0
 10
94.47692054929745
 20
-119.8822604409496
 30
0.0
 10
94.47692054929745
 20
-119.6791720620941
 30
0.0
 10
94.47692054929745
 20
-119.6791720620941
 30
0.0
 10
94.35461965957107
 20
-119.9287692300005
 30
0.0
 10
94.20648055370533
 20
-120.0600273679885
 30
0.0
 10
94.11380748515211
 20
-120.1254841822082
 30
0.0
 10
94.11380748515211
 20
-120.1254841822082
 30
0.0
 10
93.96222328380111
 20
-119.9859578150556
 30
0.0
 10
93.96222328380111
 20
-119.9859578150556
 30
0.0
 10
94.03973793221924
 20
-119.9351426566482
 30
0.0
 10
94.16582842697937
 20
-119.8483262504199
 30
0.0
 10
94.2860622594146
 20
-119.6538506102775
 30
0.0
 10
94.36564396512387
 20
-119.5268988416461
 30
0.0
 10
94.42317705972755
 20
-119.3830661051369
 30
0.0
 10
94.45280488090069
 20
-119.2306206299146
 30
0.0
 10
94.2529893427562
 20
-119.23285994198
 30
0.0
 10
94.09554847908028
 20
-119.2392333686277
 30
0.0
 10
94.01217716833723
 20
-119.2413004259189
 30
0.0
 10
94.01217716833723
 20
-119.2413004259189
 30
0.0
 10
94.01217716833723
 20
-119.0635334988799
 30
0.0
 10
94.01217716833723
 20
-119.0635334988799
 30
0.0
 10
94.18443194259973
 20
-119.0699069255277
 30
0.0
 10
94.43247881753771
 20
-119.0742132948842
 30
0.0
 10
94.56373695552574
 20
-119.0742132948842
 30
0.0
 10
94.56373695552574
 20
-119.0742132948842
 30
0.0
 10
94.75080564037481
 20
-119.0742132948842
 30
0.0
 10
94.75080564037481
 20
-119.0742132948842
 30
0.0
 10
94.75080564037481
 20
-119.0742132948842
 30
0.0
 10
94.75080564037481
 20
-118.9662095514216
 30
0.0
 10
94.75080564037481
 20
-118.9662095514216
 30
0.0
 10
94.75080564037481
 20
-118.9662095514216
 30
0.0
 10
94.62299259787203
 20
-118.9662095514216
 30
0.0
 10
94.62299259787203
 20
-118.9662095514216
 30
0.0
 10
94.47485349200629
 20
-118.9662095514216
 30
0.0
 10
94.32671438614055
 20
-118.9705159207782
 30
0.0
 10
94.18064233756596
 20
-118.9768893474259
 30
0.0
 10
94.18064233756596
 20
-118.9768893474259
 30
0.0
 10
94.18064233756596
 20
-118.8054958470347
 30
0.0
 10
94.18064233756596
 20
-118.8054958470347
 30
0.0
 10
94.31569008058774
 20
-118.8160033882648
 30
0.0
 10
94.47864309704006
 20
-118.8160033882648
 30
0.0
 10
94.62299259787203
 20
-118.8160033882648
 30
0.0
 10
94.62299259787203
 20
-118.8160033882648
 30
0.0
 10
94.75080564037481
 20
-118.8160033882648
 30
0.0
 10
94.75080564037481
 20
-118.8160033882648
 30
0.0
 10
94.75080564037481
 20
-118.8160033882648
 30
0.0
 10
94.75080564037481
 20
-118.6976643583464
 30
0.0
 10
94.75080564037481
 20
-118.6976643583464
 30
0.0
 10
94.75080564037481
 20
-118.6976643583464
 30
0.0
 10
94.63608396071598
 20
-118.6976643583464
 30
0.0
 10
94.63608396071598
 20
-118.6976643583464
 30
0.0
 10
94.59543183399003
 20
-118.6976643583464
 30
0.0
 10
94.41766490695115
 20
-118.7061048422853
 30
0.0
 10
94.38045787571045
 20
-118.7061048422853
 30
0.0
 10
94.20269094867156
 20
-118.7102389568676
 30
0.0
 10
94.13620060580624
 20
-118.7123060141587
 30
0.0
 10
94.06764320564976
 20
-118.7145453262241
 30
0.0
 10
94.06764320564976
 20
-118.7145453262241
 30
0.0
 10
94.06764320564976
 20
-118.5304049725375
 30
0.0
 10
94.06764320564976
 20
-118.5304049725375
 30
0.0
 10
94.167550974722
 20
-118.5388454564764
 30
0.0
 10
94.20648055370533
 20
-118.5388454564764
 30
0.0
 10
94.54168834442014
 20
-118.5474581951895
 30
0.0
 10
94.48622230710761
 20
-118.4522013050224
 30
0.0
 10
94.46210663871086
 20
-118.4246405411404
 30
0.0
 10
94.4307562697951
 20
-118.3886392933195
 30
0.0
 10
94.4307562697951
 20
-118.3886392933195
 30
0.0
 10
94.58440752843724
 20
-118.3061292564478
 30
0.0
 10
94.58440752843724
 20
-118.3061292564478
 30
0.0
 10
94.61954750238678
 20
-118.3421305042686
 30
0.0
 10
94.65847708137011
 20
-118.3845051787372
 30
0.0
 10
94.7232448764928
 20
-118.4944037247167
 30
0.0
 10
94.7232448764928
 20
-118.4944037247167
 30
0.0
 10
94.62299259787203
 20
-118.5495252524807
 30
0.0
 10
94.62299259787203
 20
-118.5495252524807
 30
0.0
 10
94.62299259787203
 20
-118.5495252524807
 30
0.0
 10
94.6322943556822
 20
-118.5495252524807
 30
0.0
 10
94.6322943556822
 20
-118.5495252524807
 30
0.0
 10
94.6322943556822
 20
-118.5495252524807
 30
0.0
 10
95.08980303612339
 20
-118.5495252524807
 30
0.0
 10
95.08980303612339
 20
-118.5495252524807
 30
0.0
 10
95.08980303612339
 20
-118.5495252524807
 30
0.0
 10
95.00643172538034
 20
-118.505083520721
 30
0.0
 10
95.00643172538034
 20
-118.505083520721
 30
0.0
 10
95.03054739377708
 20
-118.467015215609
 30
0.0
 10
95.0805012783132
 20
-118.3865722360284
 30
0.0
 10
95.09359264115716
 20
-118.3125026830955
 30
0.0
 10
95.09359264115716
 20
-118.3125026830955
 30
0.0
 10
95.28066132600622
 20
-118.3760646947983
 30
0.0
 10
95.28066132600622
 20
-118.3760646947983
 30
0.0
 10
95.28789602652525
 20
-118.3781317520895
 30
0.0
 10
95.3064995421456
 20
-118.3886392933195
 30
0.0
 10
95.3064995421456
 20
-118.4098266305538
 30
0.0
 10
95.3064995421456
 20
-118.4478949356658
 30
0.0
 10
95.24896644754193
 20
-118.4478949356658
 30
0.0
 10
95.23242998921273
 20
-118.4478949356658
 30
0.0
 10
95.22312823140255
 20
-118.467015215609
 30
0.0
 10
95.20280216803958
 20
-118.5071505780121
 30
0.0
 10
95.1769639519002
 20
-118.5474581951895
 30
0.0
 10
95.52698565320159
 20
-118.5410847685418
 30
0.0
 10
95.55282386934097
 20
-118.5388454564764
 30
0.0
 10
95.61931421220629
 20
-118.532644284603
 30
0.0
 10
95.61931421220629
 20
-118.532644284603
 30
0.0
 10
95.61931421220629
 20
-118.7145453262241
 30
0.0
 10
95.61931421220629
 20
-118.7145453262241
 30
0.0
 10
95.60277775387709
 20
-118.7145453262241
 30
0.0
 10
95.58038463322296
 20
-118.7123060141587
 30
0.0
 10
95.38780379559749
 20
-118.7038655302199
 30
0.0
 10
95.34336206383777
 20
-118.7017984729287
 30
0.0
 10
95.1507812262123
 20
-118.6976643583464
 30
0.0
 10
95.11219615677751
 20
-118.6976643583464
 30
0.0
 10
95.11219615677751
 20
-118.6976643583464
 30
0.0
 10
94.92306041463729
 20
-118.6976643583464
 30
0.0
 10
94.92306041463729
 20
-118.6976643583464
 30
0.0
 10
94.92306041463729
 20
-118.6976643583464
 30
0.0
 10
94.92306041463729
 20
-118.8160033882648
 30
0.0
 10
94.92306041463729
 20
-118.8160033882648
 30
0.0
 10
94.92306041463729
 20
-118.8160033882648
 30
0.0
 10
95.07498912553682
 20
-118.8160033882648
 30
0.0
 10
95.07498912553682
 20
-118.8160033882648
 30
0.0
 10
95.21761607862615
 20
-118.8160033882648
 30
0.0
 10
95.38435870011224
 20
-118.8160033882648
 30
0.0
 10
95.52112899087666
 20
-118.8054958470347
 30
0.0
 10
95.52112899087666
 20
-118.8054958470347
 30
0.0
 10
95.52112899087666
 20
-118.9768893474259
 30
0.0
 10
95.52112899087666
 20
-118.9768893474259
 30
0.0
 10
95.33784991106137
 20
-118.9684488634871
 30
0.0
 10
95.16559513679888
 20
-118.9662095514216
 30
0.0
 10
95.07498912553682
 20
-118.9662095514216
 30
0.0
 10
95.07498912553682
 20
-118.9662095514216
 30
0.0
 10
94.92306041463729
 20
-118.9662095514216
 30
0.0
 10
94.92306041463729
 20
-118.9662095514216
 30
0.0
 10
94.92306041463729
 20
-118.9662095514216
 30
0.0
 10
94.92306041463729
 20
-119.0742132948842
 30
0.0
 10
94.92306041463729
 20
-119.0742132948842
 30
0.0
 10
94.92306041463729
 20
-119.0742132948842
 30
0.0
 10
95.12494301007294
 20
-119.0742132948842
 30
0.0
 10
95.12494301007294
 20
-119.0742132948842
 30
0.0
 10
95.24173174702291
 20
-119.0742132948842
 30
0.0
 10
95.49356822699467
 20
-119.0699069255277
 30
0.0
 10
95.67684730680996
 20
-119.0635334988799
 30
0.0
 10
95.67684730680996
 20
-119.0635334988799
 30
0.0
 10
95.67684730680996
 20
-119.2413004259189
 30
0.0
 10
95.67684730680996
 20
-119.2413004259189
 30
0.0
 10
95.50838213758124
 20
-119.2349269992711
 30
0.0
 10
95.23415253695535
 20
-119.2306206299146
 30
0.0
 10
95.12494301007294
 20
-119.2306206299146
 30
0.0
  0
POLYLINE
  5
DB
330
D2
100
AcDbEntity
  8
_U+30EC_U+30A4_U+30E4_U+30FC 1
370
     0
100
AcDb2dPolyline
 66
     1
 10
0.0
 20
0.0
 30
0.0
  0
VERTEX
  5
DC
330
DB
100
AcDbEntity
  8
_U+30EC_U+30A4_U+30E4_U+30FC 1
370
     0
100
AcDbVertex
100
AcDb2dVertex
 10
95.2692925109049
 20
-119.4865912244686
 30
0.0
  0
VERTEX
  5
DD
330
DB
100
AcDbEntity
  8
_U+30EC_U+30A4_U+30E4_U+30FC 1
370
     0
100
AcDbVertex
100
AcDb2dVertex
 10
94.65089787130256
 20
-119.4865912244686
 30
0.0
  0
VERTEX
  5
DE
330
DB
100
AcDbEntity
  8
_U+30EC_U+30A4_U+30E4_U+30FC 1
370
     0
100
AcDbVertex
100
AcDb2dVertex
 10
94.65089787130256
 20
-119.5945949679312
 30
0.0
  0
VERTEX
  5
DF
330
DB
100
AcDbEntity
  8
_U+30EC_U+30A4_U+30E4_U+30FC 1
370
     0
100
AcDbVertex
100
AcDb2dVertex
 10
95.2692925109049
 20
-119.5945949679312
 30
0.0
  0
VERTEX
  5
E0
330
DB
100
AcDbEntity
  8
_U+30EC_U+30A4_U+30E4_U+30FC 1
370
     0
100
AcDbVertex
100
AcDb2dVertex
 10
95.2692925109049
 20
-119.4865912244686
 30
0.0
  0
SEQEND
  5
E1
330
DB
100
AcDbEntity
  8
_U+30EC_U+30A4_U+30E4_U+30FC 1
370
     0
  0
POLYLINE
  5
E2
330
D2
100
AcDbEntity
  8
_U+30EC_U+30A4_U+30E4_U+30FC 1
370
     0
100
AcDb2dPolyline
 66
     1
 10
0.0
 20
0.0
 30
0.0
  0
VERTEX
  5
E3
330
E2
100
AcDbEntity
  8
_U+30EC_U+30A4_U+30E4_U+30FC 1
370
     0
100
AcDbVertex
100
AcDb2dVertex
 10
95.2692925109049
 20
-119.7193074244973
 30
0.0
  0
VERTEX
  5
E4
330
E2
100
AcDbEntity
  8
_U+30EC_U+30A4_U+30E4_U+30FC 1
370
     0
100
AcDbVertex
100
AcDb2dVertex
 10
94.65089787130256
 20
-119.7193074244973
 30
0.0
  0
VERTEX
  5
E5
330
E2
100
AcDbEntity
  8
_U+30EC_U+30A4_U+30E4_U+30FC 1
370
     0
100
AcDbVertex
100
AcDb2dVertex
 10
94.65089787130256
 20
-119.8336845946076
 30
0.0
  0
VERTEX
  5
E6
330
E2
100
AcDbEntity
  8
_U+30EC_U+30A4_U+30E4_U+30FC 1
370
     0
100
AcDbVertex
100
AcDb2dVertex
 10
95.2692925109049
 20
-119.8336845946076
 30
0.0
  0
VERTEX
  5
E7
330
E2
100
AcDbEntity
  8
_U+30EC_U+30A4_U+30E4_U+30FC 1
370
     0
100
AcDbVertex
100
AcDb2dVertex
 10
95.2692925109049
 20
-119.7193074244973
 30
0.0
  0
SEQEND
  5
E8
330
E2
100
AcDbEntity
  8
_U+30EC_U+30A4_U+30E4_U+30FC 1
370
     0
  0
POLYLINE
  5
E9
330
D2
100
AcDbEntity
  8
_U+30EC_U+30A4_U+30E4_U+30FC 1
370
     0
100
AcDb2dPolyline
 66
     1
 10
0.0
 20
0.0
 30
0.0
  0
VERTEX
  5
EA
330
E9
100
AcDbEntity
  8
_U+30EC_U+30A4_U+30E4_U+30FC 1
370
     0
100
AcDbVertex
100
AcDb2dVertex
 10
95.2692925109049
 20
-119.9627034205302
 30
0.0
  0
VERTEX
  5
EB
330
E9
100
AcDbEntity
  8
_U+30EC_U+30A4_U+30E4_U+30FC 1
370
     0
100
AcDbVertex
100
AcDb2dVertex
 10
94.65089787130256
 20
-119.9627034205302
 30
0.0
  0
VERTEX
  5
EC
330
E9
100
AcDbEntity
  8
_U+30EC_U+30A4_U+30E4_U+30FC 1
370
     0
100
AcDbVertex
100
AcDb2dVertex
 10
94.65089787130256
 20
-120.0769083358662
 30
0.0
  0
VERTEX
  5
ED
330
E9
100
AcDbEntity
  8
_U+30EC_U+30A4_U+30E4_U+30FC 1
370
     0
100
AcDbVertex
100
AcDb2dVertex
 10
95.2692925109049
 20
-120.0769083358662
 30
0.0
  0
VERTEX
  5
EE
330
E9
100
AcDbEntity
  8
_U+30EC_U+30A4_U+30E4_U+30FC 1
370
     0
100
AcDbVertex
100
AcDb2dVertex
 10
95.2692925109049
 20
-119.9627034205302
 30
0.0
  0
SEQEND
  5
EF
330
E9
100
AcDbEntity
  8
_U+30EC_U+30A4_U+30E4_U+30FC 1
370
     0
  0
HATCH
  5
F0
330
D2
100
AcDbEntity
  8
_U+30EC_U+30A4_U+30E4_U+30FC 1
 62
   179
420
  2234388
100
AcDbHatch
 10
0.0
 20
0.0
 30
0.0
210
0.0
220
0.0
230
1.0
  2
SOLID
 70
     1
 71
     0
 91
        4
 92
        1
 93
        1
 72
     4
 94
        3
 73
     0
 74
     1
 95
      203
 96
      199
 40
0.0
 40
0.0
 40
0.0
 40
0.0
 40
1.0
 40
1.0
 40
1.0
 40
2.0
 40
2.0
 40
2.0
 40
3.0
 40
3.0
 40
3.0
 40
4.0
 40
4.0
 40
4.0
 40
5.0
 40
5.0
 40
5.0
 40
6.0
 40
6.0
 40
6.0
 40
7.0
 40
7.0
 40
7.0
 40
8.0
 40
8.0
 40
8.0
 40
9.0
 40
9.0
 40
9.0
 40
10.0
 40
10.0
 40
10.0
 40
11.0
 40
11.0
 40
11.0
 40
12.0
 40
12.0
 40
12.0
 40
13.0
 40
13.0
 40
13.0
 40
14.0
 40
14.0
 40
14.0
 40
15.0
 40
15.0
 40
15.0
 40
16.0
 40
16.0
 40
16.0
 40
17.0
 40
17.0
 40
17.0
 40
18.0
 40
18.0
 40
18.0
 40
19.0
 40
19.0
 40
19.0
 40
20.0
 40
20.0
 40
20.0
 40
21.0
 40
21.0
 40
21.0
 40
22.0
 40
22.0
 40
22.0
 40
23.0
 40
23.0
 40
23.0
 40
24.0
 40
24.0
 40
24.0
 40
25.0
 40
25.0
 40
25.0
 40
26.0
 40
26.0
 40
26.0
 40
27.0
 40
27.0
 40
27.0
 40
28.0
 40
28.0
 40
28.0
 40
29.0
 40
29.0
 40
29.0
 40
30.0
 40
30.0
 40
30.0
 40
31.0
 40
31.0
 40
31.0
 40
32.0
 40
32.0
 40
32.0
 40
33.0
 40
33.0
 40
33.0
 40
34.0
 40
34.0
 40
34.0
 40
35.0
 40
35.0
 40
35.0
 40
36.0
 40
36.0
 40
36.0
 40
37.0
 40
37.0
 40
37.0
 40
38.0
 40
38.0
 40
38.0
 40
39.0
 40
39.0
 40
39.0
 40
40.0
 40
40.0
 40
40.0
 40
41.0
 40
41.0
 40
41.0
 40
42.0
 40
42.0
 40
42.0
 40
43.0
 40
43.0
 40
43.0
 40
44.0
 40
44.0
 40
44.0
 40
45.0
 40
45.0
 40
45.0
 40
46.0
 40
46.0
 40
46.0
 40
47.0
 40
47.0
 40
47.0
 40
48.0
 40
48.0
 40
48.0
 40
49.0
 40
49.0
 40
49.0
 40
50.0
 40
50.0
 40
50.0
 40
51.0
 40
51.0
 40
51.0
 40
52.0
 40
52.0
 40
52.0
 40
53.0
 40
53.0
 40
53.0
 40
54.0
 40
54.0
 40
54.0
 40
55.0
 40
55.0
 40
55.0
 40
56.0
 40
56.0
 40
56.0
 40
57.0
 40
57.0
 40
57.0
 40
58.0
 40
58.0
 40
58.0
 40
59.0
 40
59.0
 40
59.0
 40
60.0
 40
60.0
 40
60.0
 40
61.0
 40
61.0
 40
61.0
 40
62.0
 40
62.0
 40
62.0
 40
63.0
 40
63.0
 40
63.0
 40
64.0
 40
64.0
 40
64.0
 40
65.0
 40
65.0
 40
65.0
 40
66.0
 40
66.0
 40
66.0
 40
66.0
 10
95.12494301007294
 20
-119.2306206299146
 10
95.12494301007294
 20
-119.2306206299146
 10
94.63608396071598
 20
-119.2306206299146
 10
94.63608396071598
 20
-119.2306206299146
 10
94.62678220290582
 20
-119.2750623616743
 10
94.61954750238678
 20
-119.3067572401386
 10
94.60852319683399
 20
-119.3449978000249
 10
94.63057180793959
 20
-119.3449978000249
 10
94.64366317078353
 20
-119.347064857316
 10
94.64917532355993
 20
-119.347064857316
 10
94.64917532355993
 20
-119.347064857316
 10
94.81385088775488
 20
-119.347064857316
 10
94.81385088775488
 20
-119.347064857316
 10
94.81385088775488
 20
-119.347064857316
 10
95.14182397795066
 20
-119.347064857316
 10
95.14182397795066
 20
-119.347064857316
 10
95.18592120016186
 20
-119.347064857316
 10
95.43431258464837
 20
-119.3343180040206
 10
95.46187334853037
 20
-119.3343180040206
 10
95.46015080078774
 20
-119.3618787679026
 10
95.45842825304511
 20
-119.3808267930715
 10
95.45842825304511
 20
-119.4104546142446
 10
95.45636119575397
 20
-119.4421494927089
 10
95.45636119575397
 20
-119.5775417452792
 10
95.45636119575397
 20
-119.6051025091612
 10
95.45636119575397
 20
-119.6051025091612
 10
95.45636119575397
 20
-119.8505655624853
 10
95.45636119575397
 20
-119.8505655624853
 10
95.45636119575397
 20
-119.895007294245
 10
95.46015080078774
 20
-120.0917222464528
 10
95.46394040582152
 20
-120.2439954669008
 10
95.46394040582152
 20
-120.2439954669008
 10
95.26584741541966
 20
-120.2439954669008
 10
95.26584741541966
 20
-120.2439954669008
 10
95.26584741541966
 20
-120.2439954669008
 10
95.26756996316227
 20
-120.2102335311454
 10
95.26756996316227
 20
-120.2102335311454
 10
95.26756996316227
 20
-120.2102335311454
 10
94.65262041904518
 20
-120.2102335311454
 10
94.65262041904518
 20
-120.2102335311454
 10
94.65262041904518
 20
-120.2102335311454
 10
94.65468747633633
 20
-120.2439954669008
 10
94.65468747633633
 20
-120.2439954669008
 10
94.65468747633633
 20
-120.2439954669008
 10
94.4638291864535
 20
-120.2439954669008
 10
94.4638291864535
 20
-120.2439954669008
 10
94.46761879148727
 20
-120.1890461939111
 10
94.46761879148727
 20
-120.1762993406157
 10
94.47313094426367
 20
-120.0620944252796
 10
94.47485349200629
 20
-120.0345336613976
 10
94.47692054929745
 20
-119.9013807208927
 10
94.47692054929745
 20
-119.8822604409496
 10
94.47692054929745
 20
-119.8822604409496
 10
94.47692054929745
 20
-119.6791720620941
 10
94.47692054929745
 20
-119.6791720620941
 10
94.35461965957107
 20
-119.9287692300005
 10
94.20648055370533
 20
-120.0600273679885
 10
94.11380748515211
 20
-120.1254841822082
 10
94.11380748515211
 20
-120.1254841822082
 10
93.96222328380111
 20
-119.9859578150556
 10
93.96222328380111
 20
-119.9859578150556
 10
94.03973793221924
 20
-119.9351426566482
 10
94.16582842697937
 20
-119.8483262504199
 10
94.2860622594146
 20
-119.6538506102775
 10
94.36564396512387
 20
-119.5268988416461
 10
94.42317705972755
 20
-119.3830661051369
 10
94.45280488090069
 20
-119.2306206299146
 10
94.2529893427562
 20
-119.23285994198
 10
94.09554847908028
 20
-119.2392333686277
 10
94.01217716833723
 20
-119.2413004259189
 10
94.01217716833723
 20
-119.2413004259189
 10
94.01217716833723
 20
-119.0635334988799
 10
94.01217716833723
 20
-119.0635334988799
 10
94.18443194259973
 20
-119.0699069255277
 10
94.43247881753771
 20
-119.0742132948842
 10
94.56373695552574
 20
-119.0742132948842
 10
94.56373695552574
 20
-119.0742132948842
 10
94.75080564037481
 20
-119.0742132948842
 10
94.75080564037481
 20
-119.0742132948842
 10
94.75080564037481
 20
-119.0742132948842
 10
94.75080564037481
 20
-118.9662095514216
 10
94.75080564037481
 20
-118.9662095514216
 10
94.75080564037481
 20
-118.9662095514216
 10
94.62299259787203
 20
-118.9662095514216
 10
94.62299259787203
 20
-118.9662095514216
 10
94.47485349200629
 20
-118.9662095514216
 10
94.32671438614055
 20
-118.9705159207782
 10
94.18064233756596
 20
-118.9768893474259
 10
94.18064233756596
 20
-118.9768893474259
 10
94.18064233756596
 20
-118.8054958470347
 10
94.18064233756596
 20
-118.8054958470347
 10
94.31569008058774
 20
-118.8160033882648
 10
94.47864309704006
 20
-118.8160033882648
 10
94.62299259787203
 20
-118.8160033882648
 10
94.62299259787203
 20
-118.8160033882648
 10
94.75080564037481
 20
-118.8160033882648
 10
94.75080564037481
 20
-118.8160033882648
 10
94.75080564037481
 20
-118.8160033882648
 10
94.75080564037481
 20
-118.6976643583464
 10
94.75080564037481
 20
-118.6976643583464
 10
94.75080564037481
 20
-118.6976643583464
 10
94.63608396071598
 20
-118.6976643583464
 10
94.63608396071598
 20
-118.6976643583464
 10
94.59543183399003
 20
-118.6976643583464
 10
94.41766490695115
 20
-118.7061048422853
 10
94.38045787571045
 20
-118.7061048422853
 10
94.20269094867156
 20
-118.7102389568676
 10
94.13620060580624
 20
-118.7123060141587
 10
94.06764320564976
 20
-118.7145453262241
 10
94.06764320564976
 20
-118.7145453262241
 10
94.06764320564976
 20
-118.5304049725375
 10
94.06764320564976
 20
-118.5304049725375
 10
94.167550974722
 20
-118.5388454564764
 10
94.20648055370533
 20
-118.5388454564764
 10
94.54168834442014
 20
-118.5474581951895
 10
94.48622230710761
 20
-118.4522013050224
 10
94.46210663871086
 20
-118.4246405411404
 10
94.4307562697951
 20
-118.3886392933195
 10
94.4307562697951
 20
-118.3886392933195
 10
94.58440752843724
 20
-118.3061292564478
 10
94.58440752843724
 20
-118.3061292564478
 10
94.61954750238678
 20
-118.3421305042686
 10
94.65847708137011
 20
-118.3845051787372
 10
94.7232448764928
 20
-118.4944037247167
 10
94.7232448764928
 20
-118.4944037247167
 10
94.62299259787203
 20
-118.5495252524807
 10
94.62299259787203
 20
-118.5495252524807
 10
94.62299259787203
 20
-118.5495252524807
 10
94.6322943556822
 20
-118.5495252524807
 10
94.6322943556822
 20
-118.5495252524807
 10
94.6322943556822
 20
-118.5495252524807
 10
95.08980303612339
 20
-118.5495252524807
 10
95.08980303612339
 20
-118.5495252524807
 10
95.08980303612339
 20
-118.5495252524807
 10
95.00643172538034
 20
-118.505083520721
 10
95.00643172538034
 20
-118.505083520721
 10
95.03054739377708
 20
-118.467015215609
 10
95.0805012783132
 20
-118.3865722360284
 10
95.09359264115716
 20
-118.3125026830955
 10
95.09359264115716
 20
-118.3125026830955
 10
95.28066132600622
 20
-118.3760646947983
 10
95.28066132600622
 20
-118.3760646947983
 10
95.28789602652525
 20
-118.3781317520895
 10
95.3064995421456
 20
-118.3886392933195
 10
95.3064995421456
 20
-118.4098266305538
 10
95.3064995421456
 20
-118.4478949356658
 10
95.24896644754193
 20
-118.4478949356658
 10
95.23242998921273
 20
-118.4478949356658
 10
95.22312823140255
 20
-118.467015215609
 10
95.20280216803958
 20
-118.5071505780121
 10
95.1769639519002
 20
-118.5474581951895
 10
95.52698565320159
 20
-118.5410847685418
 10
95.55282386934097
 20
-118.5388454564764
 10
95.61931421220629
 20
-118.532644284603
 10
95.61931421220629
 20
-118.532644284603
 10
95.61931421220629
 20
-118.7145453262241
 10
95.61931421220629
 20
-118.7145453262241
 10
95.60277775387709
 20
-118.7145453262241
 10
95.58038463322296
 20
-118.7123060141587
 10
95.38780379559749
 20
-118.7038655302199
 10
95.34336206383777
 20
-118.7017984729287
 10
95.1507812262123
 20
-118.6976643583464
 10
95.11219615677751
 20
-118.6976643583464
 10
95.11219615677751
 20
-118.6976643583464
 10
94.92306041463729
 20
-118.6976643583464
 10
94.92306041463729
 20
-118.6976643583464
 10
94.92306041463729
 20
-118.6976643583464
 10
94.92306041463729
 20
-118.8160033882648
 10
94.92306041463729
 20
-118.8160033882648
 10
94.92306041463729
 20
-118.8160033882648
 10
95.07498912553682
 20
-118.8160033882648
 10
95.07498912553682
 20
-118.8160033882648
 10
95.21761607862615
 20
-118.8160033882648
 10
95.38435870011224
 20
-118.8160033882648
 10
95.52112899087666
 20
-118.8054958470347
 10
95.52112899087666
 20
-118.8054958470347
 10
95.52112899087666
 20
-118.9768893474259
 10
95.52112899087666
 20
-118.9768893474259
 10
95.33784991106137
 20
-118.9684488634871
 10
95.16559513679888
 20
-118.9662095514216
 10
95.07498912553682
 20
-118.9662095514216
 10
95.07498912553682
 20
-118.9662095514216
 10
94.92306041463729
 20
-118.9662095514216
 10
94.92306041463729
 20
-118.9662095514216
 10
94.92306041463729
 20
-118.9662095514216
 10
94.92306041463729
 20
-119.0742132948842
 10
94.92306041463729
 20
-119.0742132948842
 10
94.92306041463729
 20
-119.0742132948842
 10
95.12494301007294
 20
-119.0742132948842
 10
95.12494301007294
 20
-119.0742132948842
 10
95.24173174702291
 20
-119.0742132948842
 10
95.49356822699467
 20
-119.0699069255277
 10
95.67684730680996
 20
-119.0635334988799
 10
95.67684730680996
 20
-119.0635334988799
 10
95.67684730680996
 20
-119.2413004259189
 10
95.67684730680996
 20
-119.2413004259189
 10
95.50838213758124
 20
-119.2349269992711
 10
95.23415253695535
 20
-119.2306206299146
 10
95.12494301007294
 20
-119.2306206299146
 97
        0
 97
        0
 92
        1
 93
        4
 72
     1
 10
95.2692925109049
 20
-119.4865912244686
 11
94.65089787130256
 21
-119.4865912244686
 72
     1
 10
94.65089787130256
 20
-119.4865912244686
 11
94.65089787130256
 21
-119.5945949679312
 72
     1
 10
94.65089787130256
 20
-119.5945949679312
 11
95.2692925109049
 21
-119.5945949679312
 72
     1
 10
95.2692925109049
 20
-119.5945949679312
 11
95.2692925109049
 21
-119.4865912244686
 97
        0
 92
        1
 93
        4
 72
     1
 10
95.2692925109049
 20
-119.7193074244973
 11
94.65089787130256
 21
-119.7193074244973
 72
     1
 10
94.65089787130256
 20
-119.7193074244973
 11
94.65089787130256
 21
-119.8336845946076
 72
     1
 10
94.65089787130256
 20
-119.8336845946076
 11
95.2692925109049
 21
-119.8336845946076
 72
     1
 10
95.2692925109049
 20
-119.8336845946076
 11
95.2692925109049
 21
-119.7193074244973
 97
        0
 92
        1
 93
        4
 72
     1
 10
95.2692925109049
 20
-119.9627034205302
 11
94.65089787130256
 21
-119.9627034205302
 72
     1
 10
94.65089787130256
 20
-119.9627034205302
 11
94.65089787130256
 21
-120.0769083358662
 72
     1
 10
94.65089787130256
 20
-120.0769083358662
 11
95.2692925109049
 21
-120.0769083358662
 72
     1
 10
95.2692925109049
 20
-120.0769083358662
 11
95.2692925109049
 21
-119.9627034205302
 97
        0
 75
     2
 76
     1
 98
        0
  0
SPLINE
  5
F1
330
D2
100
AcDbEntity
  8
_U+30EC_U+30A4_U+30E4_U+30FC 1
370
     0
100
AcDbSpline
210
0.0
220
0.0
230
1.0
 70
    11
 71
     3
 72
    47
 73
    43
 74
     0
 42
0.0000000001
 43
0.0000000001
 12
1.0
 22
0.0
 32
0.0
 13
1.0
 23
0.0
 33
0.0
 40
0.0
 40
0.0
 40
0.0
 40
0.0
 40
1.0
 40
1.0
 40
1.0
 40
2.0
 40
2.0
 40
2.0
 40
3.0
 40
3.0
 40
3.0
 40
4.0
 40
4.0
 40
4.0
 40
5.0
 40
5.0
 40
5.0
 40
6.0
 40
6.0
 40
6.0
 40
7.0
 40
7.0
 40
7.0
 40
8.0
 40
8.0
 40
8.0
 40
9.0
 40
9.0
 40
9.0
 40
10.0
 40
10.0
 40
10.0
 40
11.0
 40
11.0
 40
11.0
 40
12.0
 40
12.0
 40
12.0
 40
13.0
 40
13.0
 40
13.0
 40
14.0
 40
14.0
 40
14.0
 40
14.0
 10
96.85679251050803
 20
-119.2073662353891
 30
0.0
 10
96.85679251050803
 20
-119.2073662353891
 30
0.0
 10
96.76790904698858
 20
-119.2073662353891
 30
0.0
 10
96.76790904698858
 20
-119.2073662353891
 30
0.0
 10
96.76790904698858
 20
-119.2941826416174
 30
0.0
 10
96.74930553136824
 20
-119.6834784314507
 30
0.0
 10
96.57705075710574
 20
-119.9034477781839
 30
0.0
 10
96.44372556182657
 20
-120.0726019665096
 30
0.0
 10
96.2621690297539
 20
-120.1425374048602
 30
0.0
 10
96.18809947682104
 20
-120.1699259139679
 30
0.0
 10
96.18809947682104
 20
-120.1699259139679
 30
0.0
 10
96.0179117598497
 20
-120.0028387829333
 30
0.0
 10
96.0179117598497
 20
-120.0028387829333
 30
0.0
 10
96.10300561833536
 20
-119.9900919296379
 30
0.0
 10
96.2566568769775
 20
-119.9668375351125
 30
0.0
 10
96.42133244117245
 20
-119.7785630668436
 30
0.0
 10
96.48644474584367
 20
-119.7067328259761
 30
0.0
 10
96.57705075710574
 20
-119.5670342040492
 30
0.0
 10
96.57705075710574
 20
-119.2073662353891
 30
0.0
 10
96.57705075710574
 20
-119.2073662353891
 30
0.0
 10
96.3751681616701
 20
-119.2073662353891
 30
0.0
 10
96.3751681616701
 20
-119.2073662353891
 30
0.0
 10
96.21221514521778
 20
-119.2073662353891
 30
0.0
 10
96.04926212876546
 20
-119.2116726047457
 30
0.0
 10
95.88630911231314
 20
-119.2264865153323
 30
0.0
 10
95.88630911231314
 20
-119.2264865153323
 30
0.0
 10
95.88630911231314
 20
-119.0065171685991
 30
0.0
 10
95.88630911231314
 20
-119.0065171685991
 30
0.0
 10
96.05132918605662
 20
-119.0213310791856
 30
0.0
 10
96.30109860873723
 20
-119.0254651937679
 30
0.0
 10
96.3751681616701
 20
-119.0254651937679
 30
0.0
 10
96.3751681616701
 20
-119.0254651937679
 30
0.0
 10
96.85679251050803
 20
-119.0254651937679
 30
0.0
 10
96.85679251050803
 20
-119.0254651937679
 30
0.0
 10
96.87332896883723
 20
-119.0254651937679
 30
0.0
 10
97.15100366494836
 20
-119.0254651937679
 30
0.0
 10
97.35116371264138
 20
-119.0065171685991
 30
0.0
 10
97.35116371264138
 20
-119.0065171685991
 30
0.0
 10
97.35116371264138
 20
-119.2264865153323
 30
0.0
 10
97.35116371264138
 20
-119.2264865153323
 30
0.0
 10
97.18614363889792
 20
-119.2116726047457
 30
0.0
 10
97.02146807470297
 20
-119.2073662353891
 30
0.0
 10
96.85679251050803
 20
-119.2073662353891
 30
0.0
  0
SPLINE
  5
F2
330
D2
100
AcDbEntity
  8
_U+30EC_U+30A4_U+30E4_U+30FC 1
370
     0
100
AcDbSpline
210
0.0
220
0.0
230
1.0
 70
    11
 71
     3
 72
    29
 73
    25
 74
     0
 42
0.0000000001
 43
0.0000000001
 12
1.0
 22
0.0
 32
0.0
 13
1.0
 23
0.0
 33
0.0
 40
0.0
 40
0.0
 40
0.0
 40
0.0
 40
1.0
 40
1.0
 40
1.0
 40
2.0
 40
2.0
 40
2.0
 40
3.0
 40
3.0
 40
3.0
 40
4.0
 40
4.0
 40
4.0
 40
5.0
 40
5.0
 40
5.0
 40
6.0
 40
6.0
 40
6.0
 40
7.0
 40
7.0
 40
7.0
 40
8.0
 40
8.0
 40
8.0
 40
8.0
 10
96.76790904698858
 20
-118.6785440784033
 30
0.0
 10
96.76790904698858
 20
-118.6785440784033
 30
0.0
 10
96.45853947241315
 20
-118.6785440784033
 30
0.0
 10
96.45853947241315
 20
-118.6785440784033
 30
0.0
 10
96.36035425108352
 20
-118.6785440784033
 30
0.0
 10
96.23805336135716
 20
-118.684917505051
 30
0.0
 10
96.14365774506132
 20
-118.6976643583464
 30
0.0
 10
96.14365774506132
 20
-118.6976643583464
 30
0.0
 10
96.14365774506132
 20
-118.4627088462524
 30
0.0
 10
96.14365774506132
 20
-118.4627088462524
 30
0.0
 10
96.24735511916734
 20
-118.477522756839
 30
0.0
 10
96.40858558787703
 20
-118.4818291261955
 30
0.0
 10
96.45853947241315
 20
-118.4818291261955
 30
0.0
 10
96.45853947241315
 20
-118.4818291261955
 30
0.0
 10
96.76790904698858
 20
-118.4818291261955
 30
0.0
 10
96.76790904698858
 20
-118.4818291261955
 30
0.0
 10
96.78444550531778
 20
-118.4818291261955
 30
0.0
 10
96.96221243235668
 20
-118.4818291261955
 30
0.0
 10
97.08623586982567
 20
-118.4627088462524
 30
0.0
 10
97.08623586982567
 20
-118.4627088462524
 30
0.0
 10
97.08623586982567
 20
-118.6976643583464
 30
0.0
 10
97.08623586982567
 20
-118.6976643583464
 30
0.0
 10
96.94912106951273
 20
-118.6785440784033
 30
0.0
 10
96.78272295757516
 20
-118.6785440784033
 30
0.0
 10
96.76790904698858
 20
-118.6785440784033
 30
0.0
  0
HATCH
  5
F3
330
D2
100
AcDbEntity
  8
_U+30EC_U+30A4_U+30E4_U+30FC 1
 62
   179
420
  2234388
100
AcDbHatch
 10
0.0
 20
0.0
 30
0.0
210
0.0
220
0.0
230
1.0
  2
SOLID
 70
     1
 71
     0
 91
        2
 92
        1
 93
        1
 72
     4
 94
        3
 73
     0
 74
     1
 95
       47
 96
       43
 40
0.0
 40
0.0
 40
0.0
 40
0.0
 40
1.0
 40
1.0
 40
1.0
 40
2.0
 40
2.0
 40
2.0
 40
3.0
 40
3.0
 40
3.0
 40
4.0
 40
4.0
 40
4.0
 40
5.0
 40
5.0
 40
5.0
 40
6.0
 40
6.0
 40
6.0
 40
7.0
 40
7.0
 40
7.0
 40
8.0
 40
8.0
 40
8.0
 40
9.0
 40
9.0
 40
9.0
 40
10.0
 40
10.0
 40
10.0
 40
11.0
 40
11.0
 40
11.0
 40
12.0
 40
12.0
 40
12.0
 40
13.0
 40
13.0
 40
13.0
 40
14.0
 40
14.0
 40
14.0
 40
14.0
 10
96.85679251050803
 20
-119.2073662353891
 10
96.85679251050803
 20
-119.2073662353891
 10
96.76790904698858
 20
-119.2073662353891
 10
96.76790904698858
 20
-119.2073662353891
 10
96.76790904698858
 20
-119.2941826416174
 10
96.74930553136824
 20
-119.6834784314507
 10
96.57705075710574
 20
-119.9034477781839
 10
96.44372556182657
 20
-120.0726019665096
 10
96.2621690297539
 20
-120.1425374048602
 10
96.18809947682104
 20
-120.1699259139679
 10
96.18809947682104
 20
-120.1699259139679
 10
96.0179117598497
 20
-120.0028387829333
 10
96.0179117598497
 20
-120.0028387829333
 10
96.10300561833536
 20
-119.9900919296379
 10
96.2566568769775
 20
-119.9668375351125
 10
96.42133244117245
 20
-119.7785630668436
 10
96.48644474584367
 20
-119.7067328259761
 10
96.57705075710574
 20
-119.5670342040492
 10
96.57705075710574
 20
-119.2073662353891
 10
96.57705075710574
 20
-119.2073662353891
 10
96.3751681616701
 20
-119.2073662353891
 10
96.3751681616701
 20
-119.2073662353891
 10
96.21221514521778
 20
-119.2073662353891
 10
96.04926212876546
 20
-119.2116726047457
 10
95.88630911231314
 20
-119.2264865153323
 10
95.88630911231314
 20
-119.2264865153323
 10
95.88630911231314
 20
-119.0065171685991
 10
95.88630911231314
 20
-119.0065171685991
 10
96.05132918605662
 20
-119.0213310791856
 10
96.30109860873723
 20
-119.0254651937679
 10
96.3751681616701
 20
-119.0254651937679
 10
96.3751681616701
 20
-119.0254651937679
 10
96.85679251050803
 20
-119.0254651937679
 10
96.85679251050803
 20
-119.0254651937679
 10
96.87332896883723
 20
-119.0254651937679
 10
97.15100366494836
 20
-119.0254651937679
 10
97.35116371264138
 20
-119.0065171685991
 10
97.35116371264138
 20
-119.0065171685991
 10
97.35116371264138
 20
-119.2264865153323
 10
97.35116371264138
 20
-119.2264865153323
 10
97.18614363889792
 20
-119.2116726047457
 10
97.02146807470297
 20
-119.2073662353891
 10
96.85679251050803
 20
-119.2073662353891
 97
        0
 97
        0
 92
        1
 93
        1
 72
     4
 94
        3
 73
     0
 74
     1
 95
       29
 96
       25
 40
0.0
 40
0.0
 40
0.0
 40
0.0
 40
1.0
 40
1.0
 40
1.0
 40
2.0
 40
2.0
 40
2.0
 40
3.0
 40
3.0
 40
3.0
 40
4.0
 40
4.0
 40
4.0
 40
5.0
 40
5.0
 40
5.0
 40
6.0
 40
6.0
 40
6.0
 40
7.0
 40
7.0
 40
7.0
 40
8.0
 40
8.0
 40
8.0
 40
8.0
 10
96.76790904698858
 20
-118.6785440784033
 10
96.76790904698858
 20
-118.6785440784033
 10
96.45853947241315
 20
-118.6785440784033
 10
96.45853947241315
 20
-118.6785440784033
 10
96.36035425108352
 20
-118.6785440784033
 10
96.23805336135716
 20
-118.684917505051
 10
96.14365774506132
 20
-118.6976643583464
 10
96.14365774506132
 20
-118.6976643583464
 10
96.14365774506132
 20
-118.4627088462524
 10
96.14365774506132
 20
-118.4627088462524
 10
96.24735511916734
 20
-118.477522756839
 10
96.40858558787703
 20
-118.4818291261955
 10
96.45853947241315
 20
-118.4818291261955
 10
96.45853947241315
 20
-118.4818291261955
 10
96.76790904698858
 20
-118.4818291261955
 10
96.76790904698858
 20
-118.4818291261955
 10
96.78444550531778
 20
-118.4818291261955
 10
96.96221243235668
 20
-118.4818291261955
 10
97.08623586982567
 20
-118.4627088462524
 10
97.08623586982567
 20
-118.4627088462524
 10
97.08623586982567
 20
-118.6976643583464
 10
97.08623586982567
 20
-118.6976643583464
 10
96.94912106951273
 20
-118.6785440784033
 10
96.78272295757516
 20
-118.6785440784033
 10
96.76790904698858
 20
-118.6785440784033
 97
        0
 97
        0
 75
     2
 76
     1
 98
        0
  0
SPLINE
  5
F4
330
D2
100
AcDbEntity
  8
_U+30EC_U+30A4_U+30E4_U+30FC 1
370
     0
100
AcDbSpline
210
0.0
220
0.0
230
1.0
 70
    11
 71
     3
 72
    29
 73
    25
 74
     0
 42
0.0000000001
 43
0.0000000001
 12
1.0
 22
0.0
 32
0.0
 13
1.0
 23
0.0
 33
0.0
 40
0.0
 40
0.0
 40
0.0
 40
0.0
 40
1.0
 40
1.0
 40
1.0
 40
2.0
 40
2.0
 40
2.0
 40
3.0
 40
3.0
 40
3.0
 40
4.0
 40
4.0
 40
4.0
 40
5.0
 40
5.0
 40
5.0
 40
6.0
 40
6.0
 40
6.0
 40
7.0
 40
7.0
 40
7.0
 40
8.0
 40
8.0
 40
8.0
 40
8.0
 10
98.47323131218725
 20
-119.3703192518415
 30
0.0
 10
98.47323131218725
 20
-119.3703192518415
 30
0.0
 10
98.04948456750152
 20
-119.3703192518415
 30
0.0
 10
98.04948456750152
 20
-119.3703192518415
 30
0.0
 10
98.02536889910478
 20
-119.3703192518415
 30
0.0
 10
97.74769420299364
 20
-119.3703192518415
 30
0.0
 10
97.56234806588719
 20
-119.395640703658
 30
0.0
 10
97.56234806588719
 20
-119.395640703658
 30
0.0
 10
97.56234806588719
 20
-119.1651638156948
 30
0.0
 10
97.56234806588719
 20
-119.1651638156948
 30
0.0
 10
97.70118541394277
 20
-119.1884182102203
 30
0.0
 10
97.86792803542886
 20
-119.1904852675114
 30
0.0
 10
98.04948456750152
 20
-119.1904852675114
 30
0.0
 10
98.04948456750152
 20
-119.1904852675114
 30
0.0
 10
98.47323131218725
 20
-119.1904852675114
 30
0.0
 10
98.47323131218725
 20
-119.1904852675114
 30
0.0
 10
98.6365288381881
 20
-119.1904852675114
 30
0.0
 10
98.79913734509189
 20
-119.1884182102203
 30
0.0
 10
98.96036781380158
 20
-119.1651638156948
 30
0.0
 10
98.96036781380158
 20
-119.1651638156948
 30
0.0
 10
98.96036781380158
 20
-119.395640703658
 30
0.0
 10
98.96036781380158
 20
-119.395640703658
 30
0.0
 10
98.79913734509189
 20
-119.3723863091326
 30
0.0
 10
98.5827853486182
 20
-119.3703192518415
 30
0.0
 10
98.47323131218725
 20
-119.3703192518415
 30
0.0
  0
HATCH
  5
F5
330
D2
100
AcDbEntity
  8
_U+30EC_U+30A4_U+30E4_U+30FC 1
 62
   179
420
  2234388
100
AcDbHatch
 10
0.0
 20
0.0
 30
0.0
210
0.0
220
0.0
230
1.0
  2
SOLID
 70
     1
 71
     0
 91
        1
 92
        1
 93
        1
 72
     4
 94
        3
 73
     0
 74
     1
 95
       29
 96
       25
 40
0.0
 40
0.0
 40
0.0
 40
0.0
 40
1.0
 40
1.0
 40
1.0
 40
2.0
 40
2.0
 40
2.0
 40
3.0
 40
3.0
 40
3.0
 40
4.0
 40
4.0
 40
4.0
 40
5.0
 40
5.0
 40
5.0
 40
6.0
 40
6.0
 40
6.0
 40
7.0
 40
7.0
 40
7.0
 40
8.0
 40
8.0
 40
8.0
 40
8.0
 10
98.47323131218725
 20
-119.3703192518415
 10
98.47323131218725
 20
-119.3703192518415
 10
98.04948456750152
 20
-119.3703192518415
 10
98.04948456750152
 20
-119.3703192518415
 10
98.02536889910478
 20
-119.3703192518415
 10
97.74769420299364
 20
-119.3703192518415
 10
97.56234806588719
 20
-119.395640703658
 10
97.56234806588719
 20
-119.395640703658
 10
97.56234806588719
 20
-119.1651638156948
 10
97.56234806588719
 20
-119.1651638156948
 10
97.70118541394277
 20
-119.1884182102203
 10
97.86792803542886
 20
-119.1904852675114
 10
98.04948456750152
 20
-119.1904852675114
 10
98.04948456750152
 20
-119.1904852675114
 10
98.47323131218725
 20
-119.1904852675114
 10
98.47323131218725
 20
-119.1904852675114
 10
98.6365288381881
 20
-119.1904852675114
 10
98.79913734509189
 20
-119.1884182102203
 10
98.96036781380158
 20
-119.1651638156948
 10
98.96036781380158
 20
-119.1651638156948
 10
98.96036781380158
 20
-119.395640703658
 10
98.96036781380158
 20
-119.395640703658
 10
98.79913734509189
 20
-119.3723863091326
 10
98.5827853486182
 20
-119.3703192518415
 10
98.47323131218725
 20
-119.3703192518415
 97
        0
 97
        0
 75
     2
 76
     1
 98
        0
  0
SPLINE
  5
F6
330
D2
100
AcDbEntity
  8
_U+30EC_U+30A4_U+30E4_U+30FC 1
370
     0
100
AcDbSpline
210
0.0
220
0.0
230
1.0
 70
    11
 71
     3
 72
    44
 73
    40
 74
     0
 42
0.0000000001
 43
0.0000000001
 12
1.0
 22
0.0
 32
0.0
 13
1.0
 23
0.0
 33
0.0
 40
0.0
 40
0.0
 40
0.0
 40
0.0
 40
1.0
 40
1.0
 40
1.0
 40
2.0
 40
2.0
 40
2.0
 40
3.0
 40
3.0
 40
3.0
 40
4.0
 40
4.0
 40
4.0
 40
5.0
 40
5.0
 40
5.0
 40
6.0
 40
6.0
 40
6.0
 40
7.0
 40
7.0
 40
7.0
 40
8.0
 40
8.0
 40
8.0
 40
9.0
 40
9.0
 40
9.0
 40
10.0
 40
10.0
 40
10.0
 40
11.0
 40
11.0
 40
11.0
 40
12.0
 40
12.0
 40
12.0
 40
13.0
 40
13.0
 40
13.0
 40
13.0
 10
100.4104085035432
 20
-118.9324476156662
 30
0.0
 10
100.3122232822136
 20
-119.3005560682651
 30
0.0
 10
100.2677815504539
 20
-119.4592027153609
 30
0.0
 10
100.0955267761914
 20
-119.7087998832672
 30
0.0
 10
99.93464081703023
 20
-119.9394490260047
 30
0.0
 10
99.72724606881819
 20
-120.1254841822082
 30
0.0
 10
99.48264428936545
 20
-120.2186740150842
 30
0.0
 10
99.48264428936545
 20
-120.2186740150842
 30
0.0
 10
99.31417912013674
 20
-120.0388400307542
 30
0.0
 10
99.31417912013674
 20
-120.0388400307542
 30
0.0
 10
99.87538517468394
 20
-119.8865668103061
 30
0.0
 10
100.1640841763479
 20
-119.3301838894383
 30
0.0
 10
100.2198947232089
 20
-118.8900729411976
 30
0.0
 10
100.2198947232089
 20
-118.8900729411976
 30
0.0
 10
99.5494791417793
 20
-118.8900729411976
 30
0.0
 10
99.5494791417793
 20
-118.8900729411976
 30
0.0
 10
99.46783037877888
 20
-118.8900729411976
 30
0.0
 10
99.30694441961771
 20
-118.8943793105542
 30
0.0
 10
99.16982961930476
 20
-118.9133273357231
 30
0.0
 10
99.16982961930476
 20
-118.9133273357231
 30
0.0
 10
99.16982961930476
 20
-118.6933579889899
 30
0.0
 10
99.16982961930476
 20
-118.6933579889899
 30
0.0
 10
99.24562171998026
 20
-118.7145453262241
 30
0.0
 10
99.46610783103625
 20
-118.7145453262241
 30
0.0
 10
99.55292423726455
 20
-118.7145453262241
 30
0.0
 10
99.55292423726455
 20
-118.7145453262241
 30
0.0
 10
99.93085121199645
 20
-118.7145453262241
 30
0.0
 10
99.93085121199645
 20
-118.7145453262241
 30
0.0
 10
99.96771373368863
 20
-118.7145453262241
 30
0.0
 10
100.173385934158
 20
-118.7123060141587
 30
0.0
 10
100.206803360365
 20
-118.7061048422853
 30
0.0
 10
100.2436658820571
 20
-118.6997314156376
 30
0.0
 10
100.2457329393483
 20
-118.6976643583464
 30
0.0
 10
100.2994764289182
 20
-118.657356741169
 30
0.0
 10
100.2994764289182
 20
-118.657356741169
 30
0.0
 10
100.4641519931131
 20
-118.8118692736825
 30
0.0
 10
100.4641519931131
 20
-118.8118692736825
 30
0.0
 10
100.4383137769738
 20
-118.8414970948556
 30
0.0
 10
100.4252224141298
 20
-118.8731919733199
 30
0.0
 10
100.4104085035432
 20
-118.9324476156662
 30
0.0
  0
SPLINE
  5
F7
330
D2
100
AcDbEntity
  8
_U+30EC_U+30A4_U+30E4_U+30FC 1
370
     0
100
AcDbSpline
210
0.0
220
0.0
230
1.0
 70
    11
 71
     3
 72
    17
 73
    13
 74
     0
 42
0.0000000001
 43
0.0000000001
 12
1.0
 22
0.0
 32
0.0
 13
1.0
 23
0.0
 33
0.0
 40
0.0
 40
0.0
 40
0.0
 40
0.0
 40
1.0
 40
1.0
 40
1.0
 40
2.0
 40
2.0
 40
2.0
 40
3.0
 40
3.0
 40
3.0
 40
4.0
 40
4.0
 40
4.0
 40
4.0
 10
100.5936875833585
 20
-118.733493351393
 30
0.0
 10
100.4827555087335
 20
-118.733493351393
 30
0.0
 10
100.393872045214
 20
-118.6320352893524
 30
0.0
 10
100.393872045214
 20
-118.505083520721
 30
0.0
 10
100.393872045214
 20
-118.3781317520895
 30
0.0
 10
100.4827555087335
 20
-118.2744343779835
 30
0.0
 10
100.5936875833585
 20
-118.2744343779835
 30
0.0
 10
100.7049641675321
 20
-118.2744343779835
 30
0.0
 10
100.7955701787942
 20
-118.3781317520895
 30
0.0
 10
100.7955701787942
 20
-118.505083520721
 30
0.0
 10
100.7955701787942
 20
-118.6320352893524
 30
0.0
 10
100.7049641675321
 20
-118.733493351393
 30
0.0
 10
100.5936875833585
 20
-118.733493351393
 30
0.0
  0
SPLINE
  5
F8
330
D2
100
AcDbEntity
  8
_U+30EC_U+30A4_U+30E4_U+30FC 1
370
     0
100
AcDbSpline
210
0.0
220
0.0
230
1.0
 70
    11
 71
     3
 72
    17
 73
    13
 74
     0
 42
0.0000000001
 43
0.0000000001
 12
1.0
 22
0.0
 32
0.0
 13
1.0
 23
0.0
 33
0.0
 40
0.0
 40
0.0
 40
0.0
 40
0.0
 40
1.0
 40
1.0
 40
1.0
 40
2.0
 40
2.0
 40
2.0
 40
3.0
 40
3.0
 40
3.0
 40
4.0
 40
4.0
 40
4.0
 40
4.0
 10
100.5919650356159
 20
-118.4034532039061
 30
0.0
 10
100.5437336988224
 20
-118.4034532039061
 30
0.0
 10
100.5048041198391
 20
-118.4478949356658
 30
0.0
 10
100.5048041198391
 20
-118.5030164634298
 30
0.0
 10
100.5048041198391
 20
-118.5600327937107
 30
0.0
 10
100.5437336988224
 20
-118.608780894827
 30
0.0
 10
100.5957546406497
 20
-118.608780894827
 30
0.0
 10
100.6474310729284
 20
-118.608780894827
 30
0.0
 10
100.682571046878
 20
-118.5579657364195
 30
0.0
 10
100.682571046878
 20
-118.505083520721
 30
0.0
 10
100.682571046878
 20
-118.4478949356658
 30
0.0
 10
100.641918920152
 20
-118.4034532039061
 30
0.0
 10
100.5919650356159
 20
-118.4034532039061
 30
0.0
  0
HATCH
  5
F9
330
D2
100
AcDbEntity
  8
_U+30EC_U+30A4_U+30E4_U+30FC 1
 62
   179
420
  2234388
100
AcDbHatch
 10
0.0
 20
0.0
 30
0.0
210
0.0
220
0.0
230
1.0
  2
SOLID
 70
     1
 71
     0
 91
        3
 92
        1
 93
        1
 72
     4
 94
        3
 73
     0
 74
     1
 95
       44
 96
       40
 40
0.0
 40
0.0
 40
0.0
 40
0.0
 40
1.0
 40
1.0
 40
1.0
 40
2.0
 40
2.0
 40
2.0
 40
3.0
 40
3.0
 40
3.0
 40
4.0
 40
4.0
 40
4.0
 40
5.0
 40
5.0
 40
5.0
 40
6.0
 40
6.0
 40
6.0
 40
7.0
 40
7.0
 40
7.0
 40
8.0
 40
8.0
 40
8.0
 40
9.0
 40
9.0
 40
9.0
 40
10.0
 40
10.0
 40
10.0
 40
11.0
 40
11.0
 40
11.0
 40
12.0
 40
12.0
 40
12.0
 40
13.0
 40
13.0
 40
13.0
 40
13.0
 10
100.4104085035432
 20
-118.9324476156662
 10
100.3122232822136
 20
-119.3005560682651
 10
100.2677815504539
 20
-119.4592027153609
 10
100.0955267761914
 20
-119.7087998832672
 10
99.93464081703023
 20
-119.9394490260047
 10
99.72724606881819
 20
-120.1254841822082
 10
99.48264428936545
 20
-120.2186740150842
 10
99.48264428936545
 20
-120.2186740150842
 10
99.31417912013674
 20
-120.0388400307542
 10
99.31417912013674
 20
-120.0388400307542
 10
99.87538517468394
 20
-119.8865668103061
 10
100.1640841763479
 20
-119.3301838894383
 10
100.2198947232089
 20
-118.8900729411976
 10
100.2198947232089
 20
-118.8900729411976
 10
99.5494791417793
 20
-118.8900729411976
 10
99.5494791417793
 20
-118.8900729411976
 10
99.46783037877888
 20
-118.8900729411976
 10
99.30694441961771
 20
-118.8943793105542
 10
99.16982961930476
 20
-118.9133273357231
 10
99.16982961930476
 20
-118.9133273357231
 10
99.16982961930476
 20
-118.6933579889899
 10
99.16982961930476
 20
-118.6933579889899
 10
99.24562171998026
 20
-118.7145453262241
 10
99.46610783103625
 20
-118.7145453262241
 10
99.55292423726455
 20
-118.7145453262241
 10
99.55292423726455
 20
-118.7145453262241
 10
99.93085121199645
 20
-118.7145453262241
 10
99.93085121199645
 20
-118.7145453262241
 10
99.96771373368863
 20
-118.7145453262241
 10
100.173385934158
 20
-118.7123060141587
 10
100.206803360365
 20
-118.7061048422853
 10
100.2436658820571
 20
-118.6997314156376
 10
100.2457329393483
 20
-118.6976643583464
 10
100.2994764289182
 20
-118.657356741169
 10
100.2994764289182
 20
-118.657356741169
 10
100.4641519931131
 20
-118.8118692736825
 10
100.4641519931131
 20
-118.8118692736825
 10
100.4383137769738
 20
-118.8414970948556
 10
100.4252224141298
 20
-118.8731919733199
 10
100.4104085035432
 20
-118.9324476156662
 97
        0
 97
        0
 92
        1
 93
        1
 72
     4
 94
        3
 73
     0
 74
     1
 95
       17
 96
       13
 40
0.0
 40
0.0
 40
0.0
 40
0.0
 40
1.0
 40
1.0
 40
1.0
 40
2.0
 40
2.0
 40
2.0
 40
3.0
 40
3.0
 40
3.0
 40
4.0
 40
4.0
 40
4.0
 40
4.0
 10
100.5936875833585
 20
-118.733493351393
 10
100.4827555087335
 20
-118.733493351393
 10
100.393872045214
 20
-118.6320352893524
 10
100.393872045214
 20
-118.505083520721
 10
100.393872045214
 20
-118.3781317520895
 10
100.4827555087335
 20
-118.2744343779835
 10
100.5936875833585
 20
-118.2744343779835
 10
100.7049641675321
 20
-118.2744343779835
 10
100.7955701787942
 20
-118.3781317520895
 10
100.7955701787942
 20
-118.505083520721
 10
100.7955701787942
 20
-118.6320352893524
 10
100.7049641675321
 20
-118.733493351393
 10
100.5936875833585
 20
-118.733493351393
 97
        0
 97
        0
 92
        1
 93
        1
 72
     4
 94
        3
 73
     0
 74
     1
 95
       17
 96
       13
 40
0.0
 40
0.0
 40
0.0
 40
0.0
 40
1.0
 40
1.0
 40
1.0
 40
2.0
 40
2.0
 40
2.0
 40
3.0
 40
3.0
 40
3.0
 40
4.0
 40
4.0
 40
4.0
 40
4.0
 10
100.5919650356159
 20
-118.4034532039061
 10
100.5437336988224
 20
-118.4034532039061
 10
100.5048041198391
 20
-118.4478949356658
 10
100.5048041198391
 20
-118.5030164634298
 10
100.5048041198391
 20
-118.5600327937107
 10
100.5437336988224
 20
-118.608780894827
 10
100.5957546406497
 20
-118.608780894827
 10
100.6474310729284
 20
-118.608780894827
 10
100.682571046878
 20
-118.5579657364195
 10
100.682571046878
 20
-118.505083520721
 10
100.682571046878
 20
-118.4478949356658
 10
100.641918920152
 20
-118.4034532039061
 10
100.5919650356159
 20
-118.4034532039061
 97
        0
 97
        0
 75
     2
 76
     1
 98
        0
  0
ENDBLK
  5
D5
330
D2
100
AcDbEntity
  8
0
100
AcDbBlockEnd
  0
ENDSEC
  0
SECTION
  2
ENTITIES
  0
POLYLINE
  5
41
330
1F
100
AcDbEntity
  8
_U+30EC_U+30A4_U+30E4_U+30FC 1
370
     0
100
AcDb2dPolyline
 66
     1
 10
0.0
 20
0.0
 30
0.0
  0
VERTEX
  5
42
330
41
100
AcDbEntity
  8
_U+30EC_U+30A4_U+30E4_U+30FC 1
370
     0
100
AcDbVertex
100
AcDb2dVertex
 10
79.02532465056267
 20
-113.4506169160819
 30
0.0
  0
VERTEX
  5
43
330
41
100
AcDbEntity
  8
_U+30EC_U+30A4_U+30E4_U+30FC 1
370
     0
100
AcDbVertex
100
AcDb2dVertex
 10
78.12546109157962
 20
-113.4506169160819
 30
0.0
  0
VERTEX
  5
44
330
41
100
AcDbEntity
  8
_U+30EC_U+30A4_U+30E4_U+30FC 1
370
     0
100
AcDbVertex
100
AcDb2dVertex
 10
78.12546109157962
 20
-138.4508138542764
 30
0.0
  0
VERTEX
  5
45
330
41
100
AcDbEntity
  8
_U+30EC_U+30A4_U+30E4_U+30FC 1
370
     0
100
AcDbVertex
100
AcDb2dVertex
 10
103.1248087579558
 20
-138.4508138542764
 30
0.0
  0
VERTEX
  5
46
330
41
100
AcDbEntity
  8
_U+30EC_U+30A4_U+30E4_U+30FC 1
370
     0
100
AcDbVertex
100
AcDb2dVertex
 10
103.1248087579558
 20
-137.5509482989455
 30
0.0
  0
VERTEX
  5
47
330
41
100
AcDbEntity
  8
_U+30EC_U+30A4_U+30E4_U+30FC 1
370
     0
100
AcDbVertex
100
AcDb2dVertex
 10
79.02532465056267
 20
-137.5509482989455
 30
0.0
  0
VERTEX
  5
48
330
41
100
AcDbEntity
  8
_U+30EC_U+30A4_U+30E4_U+30FC 1
370
     0
100
AcDbVertex
100
AcDb2dVertex
 10
79.02532465056267
 20
-113.4506169160819
 30
0.0
  0
SEQEND
  5
4A
330
41
100
AcDbEntity
  8
_U+30EC_U+30A4_U+30E4_U+30FC 1
370
     0
  0
HATCH
  5
49
330
1F
100
AcDbEntity
  8
_U+30EC_U+30A4_U+30E4_U+30FC 1
 62
   253
420
 11711154
100
AcDbHatch
 10
0.0
 20
0.0
 30
0.0
210
0.0
220
0.0
230
1.0
  2
SOLID
 70
     1
 71
     0
 91
        1
 92
        1
 93
        6
 72
     1
 10
79.02532465056267
 20
-113.4506169160819
 11
78.12546109157962
 21
-113.4506169160819
 72
     1
 10
78.12546109157962
 20
-113.4506169160819
 11
78.12546109157962
 21
-138.4508138542764
 72
     1
 10
78.12546109157962
 20
-138.4508138542764
 11
103.1248087579558
 21
-138.4508138542764
 72
     1
 10
103.1248087579558
 20
-138.4508138542764
 11
103.1248087579558
 21
-137.5509482989455
 72
     1
 10
103.1248087579558
 20
-137.5509482989455
 11
79.02532465056267
 21
-137.5509482989455
 72
     1
 10
79.02532465056267
 20
-137.5509482989455
 11
79.02532465056267
 21
-113.4506169160819
 97
        0
 75
     2
 76
     1
 98
        0
  0
POLYLINE
  5
4B
330
1F
100
AcDbEntity
  8
_U+30EC_U+30A4_U+30E4_U+30FC 1
 62
   179
420
  2234388
370
    25
100
AcDb2dPolyline
 66
     1
 10
0.0
 20
0.0
 30
0.0
  0
VERTEX
  5
4C
330
4B
100
AcDbEntity
  8
_U+30EC_U+30A4_U+30E4_U+30FC 1
 62
   179
420
  2234388
370
    25
100
AcDbVertex
100
AcDb2dVertex
 10
78.12546109157962
 20
-113.4506169160819
 30
0.0
  0
VERTEX
  5
4D
330
4B
100
AcDbEntity
  8
_U+30EC_U+30A4_U+30E4_U+30FC 1
 62
   179
420
  2234388
370
    25
100
AcDbVertex
100
AcDb2dVertex
 10
78.12546109157962
 20
-138.4508138542764
 30
0.0
  0
SEQEND
  5
4E
330
4B
100
AcDbEntity
  8
_U+30EC_U+30A4_U+30E4_U+30FC 1
 62
   179
420
  2234388
370
    25
  0
POLYLINE
  5
4F
330
1F
100
AcDbEntity
  8
_U+30EC_U+30A4_U+30E4_U+30FC 1
 62
   179
420
  2234388
370
    25
100
AcDb2dPolyline
 66
     1
 10
0.0
 20
0.0
 30
0.0
  0
VERTEX
  5
50
330
4F
100
AcDbEntity
  8
_U+30EC_U+30A4_U+30E4_U+30FC 1
 62
   179
420
  2234388
370
    25
100
AcDbVertex
100
AcDb2dVertex
 10
78.12546109157962
 20
-138.4508138542764
 30
0.0
  0
VERTEX
  5
51
330
4F
100
AcDbEntity
  8
_U+30EC_U+30A4_U+30E4_U+30FC 1
 62
   179
420
  2234388
370
    25
100
AcDbVertex
100
AcDb2dVertex
 10
103.1248087579558
 20
-138.4508138542764
 30
0.0
  0
SEQEND
  5
52
330
4F
100
AcDbEntity
  8
_U+30EC_U+30A4_U+30E4_U+30FC 1
 62
   179
420
  2234388
370
    25
  0
POLYLINE
  5
53
330
1F
100
AcDbEntity
  8
_U+30EC_U+30A4_U+30E4_U+30FC 1
 62
   179
420
  2234388
370
    25
100
AcDb2dPolyline
 66
     1
 10
0.0
 20
0.0
 30
0.0
  0
VERTEX
  5
54
330
53
100
AcDbEntity
  8
_U+30EC_U+30A4_U+30E4_U+30FC 1
 62
   179
420
  2234388
370
    25
100
AcDbVertex
100
AcDb2dVertex
 10
79.02532465056267
 20
-137.5509482989455
 30
0.0
  0
VERTEX
  5
55
330
53
100
AcDbEntity
  8
_U+30EC_U+30A4_U+30E4_U+30FC 1
 62
   179
420
  2234388
370
    25
100
AcDbVertex
100
AcDb2dVertex
 10
103.1248087579558
 20
-137.5509482989455
 30
0.0
  0
SEQEND
  5
56
330
53
100
AcDbEntity
  8
_U+30EC_U+30A4_U+30E4_U+30FC 1
 62
   179
420
  2234388
370
    25
  0
POLYLINE
  5
57
330
1F
100
AcDbEntity
  8
_U+30EC_U+30A4_U+30E4_U+30FC 1
 62
   179
420
  2234388
370
    25
100
AcDb2dPolyline
 66
     1
 10
0.0
 20
0.0
 30
0.0
  0
VERTEX
  5
58
330
57
100
AcDbEntity
  8
_U+30EC_U+30A4_U+30E4_U+30FC 1
 62
   179
420
  2234388
370
    25
100
AcDbVertex
100
AcDb2dVertex
 10
79.02532465056267
 20
-113.4506169160819
 30
0.0
  0
VERTEX
  5
59
330
57
100
AcDbEntity
  8
_U+30EC_U+30A4_U+30E4_U+30FC 1
 62
   179
420
  2234388
370
    25
100
AcDbVertex
100
AcDb2dVertex
 10
79.02532465056267
 20
-137.5509482989455
 30
0.0
  0
SEQEND
  5
5A
330
57
100
AcDbEntity
  8
_U+30EC_U+30A4_U+30E4_U+30FC 1
 62
   179
420
  2234388
370
    25
  0
POLYLINE
  5
5B
330
1F
100
AcDbEntity
  8
_U+30EC_U+30A4_U+30E4_U+30FC 1
 62
   179
420
  2234388
370
    25
100
AcDb2dPolyline
 66
     1
 10
0.0
 20
0.0
 30
0.0
  0
VERTEX
  5
5C
330
5B
100
AcDbEntity
  8
_U+30EC_U+30A4_U+30E4_U+30FC 1
 62
   179
420
  2234388
370
    25
100
AcDbVertex
100
AcDb2dVertex
 10
78.12546109157962
 20
-113.4506169160819
 30
0.0
  0
VERTEX
  5
5D
330
5B
100
AcDbEntity
  8
_U+30EC_U+30A4_U+30E4_U+30FC 1
 62
   179
420
  2234388
370
    25
100
AcDbVertex
100
AcDb2dVertex
 10
79.02532465056267
 20
-113.4506169160819
 30
0.0
  0
SEQEND
  5
5E
330
5B
100
AcDbEntity
  8
_U+30EC_U+30A4_U+30E4_U+30FC 1
 62
   179
420
  2234388
370
    25
  0
POLYLINE
  5
5F
330
1F
100
AcDbEntity
  8
_U+30EC_U+30A4_U+30E4_U+30FC 1
 62
   179
420
  2234388
370
    25
100
AcDb2dPolyline
 66
     1
 10
0.0
 20
0.0
 30
0.0
  0
VERTEX
  5
60
330
5F
100
AcDbEntity
  8
_U+30EC_U+30A4_U+30E4_U+30FC 1
 62
   179
420
  2234388
370
    25
100
AcDbVertex
100
AcDb2dVertex
 10
103.1248087579558
 20
-137.5509482989455
 30
0.0
  0
VERTEX
  5
61
330
5F
100
AcDbEntity
  8
_U+30EC_U+30A4_U+30E4_U+30FC 1
 62
   179
420
  2234388
370
    25
100
AcDbVertex
100
AcDb2dVertex
 10
103.1248087579558
 20
-138.4508138542764
 30
0.0
  0
SEQEND
  5
62
330
5F
100
AcDbEntity
  8
_U+30EC_U+30A4_U+30E4_U+30FC 1
 62
   179
420
  2234388
370
    25
  0
SPLINE
  5
63
330
1F
100
AcDbEntity
  8
_U+30EC_U+30A4_U+30E4_U+30FC 1
 62
   179
420
  2234388
370
     9
100
AcDbSpline
210
0.0
220
0.0
230
1.0
 70
    11
 71
     3
 72
    17
 73
    13
 74
     0
 42
0.0000000001
 43
0.0000000001
 12
1.0
 22
0.0
 32
0.0
 13
1.0
 23
0.0
 33
0.0
 40
0.0
 40
0.0
 40
0.0
 40
0.0
 40
1.0
 40
1.0
 40
1.0
 40
2.0
 40
2.0
 40
2.0
 40
3.0
 40
3.0
 40
3.0
 40
4.0
 40
4.0
 40
4.0
 40
4.0
 10
107.2251447644587
 20
-137.5509482989455
 30
0.0
 10
107.2251447644587
 20
-137.4951388545151
 30
0.0
 10
107.1803772656008
 20
-137.4503360767484
 30
0.0
 10
107.1252381003408
 20
-137.4503360767484
 30
0.0
 10
107.0701342128578
 20
-137.4503360767484
 30
0.0
 10
107.025331436223
 20
-137.4951388545151
 30
0.0
 10
107.025331436223
 20
-137.5509482989455
 30
0.0
 10
107.025331436223
 20
-137.6060874655986
 30
0.0
 10
107.0701342128578
 20
-137.6508549655872
 30
0.0
 10
107.1252381003408
 20
-137.6508549655872
 30
0.0
 10
107.1803772656008
 20
-137.6508549655872
 30
0.0
 10
107.2251447644587
 20
-137.6060874655986
 30
0.0
 10
107.2251447644587
 20
-137.5509482989455
 30
0.0
  0
SPLINE
  5
64
330
1F
100
AcDbEntity
  8
_U+30EC_U+30A4_U+30E4_U+30FC 1
 62
   179
420
  2234388
370
     9
100
AcDbSpline
210
0.0
220
0.0
230
1.0
 70
    11
 71
     3
 72
    17
 73
    13
 74
     0
 42
0.0000000001
 43
0.0000000001
 12
1.0
 22
0.0
 32
0.0
 13
1.0
 23
0.0
 33
0.0
 40
0.0
 40
0.0
 40
0.0
 40
0.0
 40
1.0
 40
1.0
 40
1.0
 40
2.0
 40
2.0
 40
2.0
 40
3.0
 40
3.0
 40
3.0
 40
4.0
 40
4.0
 40
4.0
 40
4.0
 10
107.2251447644587
 20
-138.4508138542764
 30
0.0
 10
107.2251447644587
 20
-138.3956746876234
 30
0.0
 10
107.1803772656008
 20
-138.3509071876348
 30
0.0
 10
107.1252381003408
 20
-138.3509071876348
 30
0.0
 10
107.0701342128578
 20
-138.3509071876348
 30
0.0
 10
107.025331436223
 20
-138.3956746876234
 30
0.0
 10
107.025331436223
 20
-138.4508138542764
 30
0.0
 10
107.025331436223
 20
-138.5059177431514
 30
0.0
 10
107.0701342128578
 20
-138.5507205209181
 30
0.0
 10
107.1252381003408
 20
-138.5507205209181
 30
0.0
 10
107.1803772656008
 20
-138.5507205209181
 30
0.0
 10
107.2251447644587
 20
-138.5059177431514
 30
0.0
 10
107.2251447644587
 20
-138.4508138542764
 30
0.0
  0
SPLINE
  5
65
330
1F
100
AcDbEntity
  8
_U+30EC_U+30A4_U+30E4_U+30FC 1
 62
   179
420
  2234388
370
     9
100
AcDbSpline
210
0.0
220
0.0
230
1.0
 70
    11
 71
     3
 72
    17
 73
    13
 74
     0
 42
0.0000000001
 43
0.0000000001
 12
1.0
 22
0.0
 32
0.0
 13
1.0
 23
0.0
 33
0.0
 40
0.0
 40
0.0
 40
0.0
 40
0.0
 40
1.0
 40
1.0
 40
1.0
 40
2.0
 40
2.0
 40
2.0
 40
3.0
 40
3.0
 40
3.0
 40
4.0
 40
4.0
 40
4.0
 40
4.0
 10
103.2247154220737
 20
-142.4533246866091
 30
0.0
 10
103.2247154220737
 20
-142.398185519956
 30
0.0
 10
103.1799126454389
 20
-142.3534180199675
 30
0.0
 10
103.1248087579558
 20
-142.3534180199675
 30
0.0
 10
103.0696721964545
 20
-142.3534180199675
 30
0.0
 10
103.024902093838
 20
-142.398185519956
 30
0.0
 10
103.024902093838
 20
-142.4533246866091
 30
0.0
 10
103.024902093838
 20
-142.508428575484
 30
0.0
 10
103.0696721964545
 20
-142.5532313532507
 30
0.0
 10
103.1248087579558
 20
-142.5532313532507
 30
0.0
 10
103.1799126454389
 20
-142.5532313532507
 30
0.0
 10
103.2247154220737
 20
-142.508428575484
 30
0.0
 10
103.2247154220737
 20
-142.4533246866091
 30
0.0
  0
SPLINE
  5
66
330
1F
100
AcDbEntity
  8
_U+30EC_U+30A4_U+30E4_U+30FC 1
 62
   179
420
  2234388
370
     9
100
AcDbSpline
210
0.0
220
0.0
230
1.0
 70
    11
 71
     3
 72
    17
 73
    13
 74
     0
 42
0.0000000001
 43
0.0000000001
 12
1.0
 22
0.0
 32
0.0
 13
1.0
 23
0.0
 33
0.0
 40
0.0
 40
0.0
 40
0.0
 40
0.0
 40
1.0
 40
1.0
 40
1.0
 40
2.0
 40
2.0
 40
2.0
 40
3.0
 40
3.0
 40
3.0
 40
4.0
 40
4.0
 40
4.0
 40
4.0
 10
78.22536578208243
 20
-142.4533246866091
 30
0.0
 10
78.22536578208243
 20
-142.398185519956
 30
0.0
 10
78.18059828322455
 20
-142.3534180199675
 30
0.0
 10
78.12546109157962
 20
-142.3534180199675
 30
0.0
 10
78.07035523048152
 20
-142.3534180199675
 30
0.0
 10
78.02555245384676
 20
-142.398185519956
 30
0.0
 10
78.02555245384676
 20
-142.4533246866091
 30
0.0
 10
78.02555245384676
 20
-142.508428575484
 30
0.0
 10
78.07035523048152
 20
-142.5532313532507
 30
0.0
 10
78.12546109157962
 20
-142.5532313532507
 30
0.0
 10
78.18059828322455
 20
-142.5532313532507
 30
0.0
 10
78.22536578208243
 20
-142.508428575484
 30
0.0
 10
78.22536578208243
 20
-142.4533246866091
 30
0.0
  0
SPLINE
  5
67
330
1F
100
AcDbEntity
  8
_U+30EC_U+30A4_U+30E4_U+30FC 1
 62
   179
420
  2234388
370
     9
100
AcDbSpline
210
0.0
220
0.0
230
1.0
 70
    11
 71
     3
 72
    17
 73
    13
 74
     0
 42
0.0000000001
 43
0.0000000001
 12
1.0
 22
0.0
 32
0.0
 13
1.0
 23
0.0
 33
0.0
 40
0.0
 40
0.0
 40
0.0
 40
0.0
 40
1.0
 40
1.0
 40
1.0
 40
2.0
 40
2.0
 40
2.0
 40
3.0
 40
3.0
 40
3.0
 40
4.0
 40
4.0
 40
4.0
 40
4.0
 10
74.22560671745812
 20
-138.4508138542764
 30
0.0
 10
74.22560671745812
 20
-138.3956746876234
 30
0.0
 10
74.18083921860024
 20
-138.3509071876348
 30
0.0
 10
74.1250297755796
 20
-138.3509071876348
 30
0.0
 10
74.06989061031966
 20
-138.3509071876348
 30
0.0
 10
74.02512498149373
 20
-138.3956746876234
 30
0.0
 10
74.02512498149373
 20
-138.4508138542764
 30
0.0
 10
74.02512498149373
 20
-138.5059177431514
 30
0.0
 10
74.06989061031966
 20
-138.5507205209181
 30
0.0
 10
74.1250297755796
 20
-138.5507205209181
 30
0.0
 10
74.18083921860024
 20
-138.5507205209181
 30
0.0
 10
74.22560671745812
 20
-138.5059177431514
 30
0.0
 10
74.22560671745812
 20
-138.4508138542764
 30
0.0
  0
SPLINE
  5
68
330
1F
100
AcDbEntity
  8
_U+30EC_U+30A4_U+30E4_U+30FC 1
 62
   179
420
  2234388
370
     9
100
AcDbSpline
210
0.0
220
0.0
230
1.0
 70
    11
 71
     3
 72
    17
 73
    13
 74
     0
 42
0.0000000001
 43
0.0000000001
 12
1.0
 22
0.0
 32
0.0
 13
1.0
 23
0.0
 33
0.0
 40
0.0
 40
0.0
 40
0.0
 40
0.0
 40
1.0
 40
1.0
 40
1.0
 40
2.0
 40
2.0
 40
2.0
 40
3.0
 40
3.0
 40
3.0
 40
4.0
 40
4.0
 40
4.0
 40
4.0
 10
74.22560671745812
 20
-113.4506169160819
 30
0.0
 10
74.22560671745812
 20
-113.3954777494288
 30
0.0
 10
74.18083921860024
 20
-113.3507102494402
 30
0.0
 10
74.1250297755796
 20
-113.3507102494402
 30
0.0
 10
74.06989061031966
 20
-113.3507102494402
 30
0.0
 10
74.02512498149373
 20
-113.3954777494288
 30
0.0
 10
74.02512498149373
 20
-113.4506169160819
 30
0.0
 10
74.02512498149373
 20
-113.5057208049568
 30
0.0
 10
74.06989061031966
 20
-113.5505235827235
 30
0.0
 10
74.1250297755796
 20
-113.5505235827235
 30
0.0
 10
74.18083921860024
 20
-113.5505235827235
 30
0.0
 10
74.22560671745812
 20
-113.5057208049568
 30
0.0
 10
74.22560671745812
 20
-113.4506169160819
 30
0.0
  0
POLYLINE
  5
69
330
1F
100
AcDbEntity
  8
_U+30EC_U+30A4_U+30E4_U+30FC 1
 62
   179
420
  2234388
370
     9
100
AcDb2dPolyline
 66
     1
 10
0.0
 20
0.0
 30
0.0
  0
VERTEX
  5
6A
330
69
100
AcDbEntity
  8
_U+30EC_U+30A4_U+30E4_U+30FC 1
 62
   179
420
  2234388
370
     9
100
AcDbVertex
100
AcDb2dVertex
 10
107.1252381003408
 20
-137.5509482989455
 30
0.0
  0
VERTEX
  5
6B
330
69
100
AcDbEntity
  8
_U+30EC_U+30A4_U+30E4_U+30FC 1
 62
   179
420
  2234388
370
     9
100
AcDbVertex
100
AcDb2dVertex
 10
107.1252381003408
 20
-139.4505860762484
 30
0.0
  0
SEQEND
  5
6C
330
69
100
AcDbEntity
  8
_U+30EC_U+30A4_U+30E4_U+30FC 1
 62
   179
420
  2234388
370
     9
  0
POLYLINE
  5
6D
330
1F
100
AcDbEntity
  8
_U+30EC_U+30A4_U+30E4_U+30FC 1
 62
   179
420
  2234388
370
     9
100
AcDb2dPolyline
 66
     1
 10
0.0
 20
0.0
 30
0.0
  0
VERTEX
  5
6E
330
6D
100
AcDbEntity
  8
_U+30EC_U+30A4_U+30E4_U+30FC 1
 62
   179
420
  2234388
370
     9
100
AcDbVertex
100
AcDb2dVertex
 10
105.6651967487007
 20
-137.5509482989455
 30
0.0
  0
VERTEX
  5
6F
330
6D
100
AcDbEntity
  8
_U+30EC_U+30A4_U+30E4_U+30FC 1
 62
   179
420
  2234388
370
     9
100
AcDbVertex
100
AcDb2dVertex
 10
108.1250102970567
 20
-137.5509482989455
 30
0.0
  0
SEQEND
  5
70
330
6D
100
AcDbEntity
  8
_U+30EC_U+30A4_U+30E4_U+30FC 1
 62
   179
420
  2234388
370
     9
  0
POLYLINE
  5
71
330
1F
100
AcDbEntity
  8
_U+30EC_U+30A4_U+30E4_U+30FC 1
 62
   179
420
  2234388
370
     9
100
AcDb2dPolyline
 66
     1
 10
0.0
 20
0.0
 30
0.0
  0
VERTEX
  5
72
330
71
100
AcDbEntity
  8
_U+30EC_U+30A4_U+30E4_U+30FC 1
 62
   179
420
  2234388
370
     9
100
AcDbVertex
100
AcDb2dVertex
 10
105.6651967487007
 20
-138.4508138542764
 30
0.0
  0
VERTEX
  5
73
330
71
100
AcDbEntity
  8
_U+30EC_U+30A4_U+30E4_U+30FC 1
 62
   179
420
  2234388
370
     9
100
AcDbVertex
100
AcDb2dVertex
 10
108.1250102970567
 20
-138.4508138542764
 30
0.0
  0
SEQEND
  5
74
330
71
100
AcDbEntity
  8
_U+30EC_U+30A4_U+30E4_U+30FC 1
 62
   179
420
  2234388
370
     9
  0
INSERT
  5
76
330
1F
100
AcDbEntity
  8
_U+30EC_U+30A4_U+30E4_U+30FC 1
100
AcDbBlockReference
  2
block 2
 10
0.0
 20
0.0
 30
0.0
  0
POLYLINE
  5
88
330
1F
100
AcDbEntity
  8
_U+30EC_U+30A4_U+30E4_U+30FC 1
 62
   179
420
  2234388
370
     9
100
AcDb2dPolyline
 66
     1
 10
0.0
 20
0.0
 30
0.0
  0
VERTEX
  5
89
330
88
100
AcDbEntity
  8
_U+30EC_U+30A4_U+30E4_U+30FC 1
 62
   179
420
  2234388
370
     9
100
AcDbVertex
100
AcDb2dVertex
 10
74.1250297755796
 20
-113.4506169160819
 30
0.0
  0
VERTEX
  5
8A
330
88
100
AcDbEntity
  8
_U+30EC_U+30A4_U+30E4_U+30FC 1
 62
   179
420
  2234388
370
     9
100
AcDbVertex
100
AcDb2dVertex
 10
74.1250297755796
 20
-138.4508138542764
 30
0.0
  0
SEQEND
  5
8B
330
88
100
AcDbEntity
  8
_U+30EC_U+30A4_U+30E4_U+30FC 1
 62
   179
420
  2234388
370
     9
  0
POLYLINE
  5
8C
330
1F
100
AcDbEntity
  8
_U+30EC_U+30A4_U+30E4_U+30FC 1
 62
   179
420
  2234388
370
     9
100
AcDb2dPolyline
 66
     1
 10
0.0
 20
0.0
 30
0.0
  0
VERTEX
  5
8D
330
8C
100
AcDbEntity
  8
_U+30EC_U+30A4_U+30E4_U+30FC 1
 62
   179
420
  2234388
370
     9
100
AcDbVertex
100
AcDb2dVertex
 10
75.58574140498041
 20
-113.4506169160819
 30
0.0
  0
VERTEX
  5
8E
330
8C
100
AcDbEntity
  8
_U+30EC_U+30A4_U+30E4_U+30FC 1
 62
   179
420
  2234388
370
     9
100
AcDbVertex
100
AcDb2dVertex
 10
73.1252575788637
 20
-113.4506169160819
 30
0.0
  0
SEQEND
  5
8F
330
8C
100
AcDbEntity
  8
_U+30EC_U+30A4_U+30E4_U+30FC 1
 62
   179
420
  2234388
370
     9
  0
POLYLINE
  5
90
330
1F
100
AcDbEntity
  8
_U+30EC_U+30A4_U+30E4_U+30FC 1
 62
   179
420
  2234388
370
     9
100
AcDb2dPolyline
 66
     1
 10
0.0
 20
0.0
 30
0.0
  0
VERTEX
  5
91
330
90
100
AcDbEntity
  8
_U+30EC_U+30A4_U+30E4_U+30FC 1
 62
   179
420
  2234388
370
     9
100
AcDbVertex
100
AcDb2dVertex
 10
75.58574140498041
 20
-138.4508138542764
 30
0.0
  0
VERTEX
  5
92
330
90
100
AcDbEntity
  8
_U+30EC_U+30A4_U+30E4_U+30FC 1
 62
   179
420
  2234388
370
     9
100
AcDbVertex
100
AcDb2dVertex
 10
73.1252575788637
 20
-138.4508138542764
 30
0.0
  0
SEQEND
  5
93
330
90
100
AcDbEntity
  8
_U+30EC_U+30A4_U+30E4_U+30FC 1
 62
   179
420
  2234388
370
     9
  0
INSERT
  5
95
330
1F
100
AcDbEntity
  8
_U+30EC_U+30A4_U+30E4_U+30FC 1
100
AcDbBlockReference
  2
block 3
 10
0.0
 20
0.0
 30
0.0
  0
POLYLINE
  5
9C
330
1F
100
AcDbEntity
  8
_U+30EC_U+30A4_U+30E4_U+30FC 1
 62
   179
420
  2234388
370
     9
100
AcDb2dPolyline
 66
     1
 10
0.0
 20
0.0
 30
0.0
  0
VERTEX
  5
9D
330
9C
100
AcDbEntity
  8
_U+30EC_U+30A4_U+30E4_U+30FC 1
 62
   179
420
  2234388
370
     9
100
AcDbVertex
100
AcDb2dVertex
 10
78.12546109157962
 20
-142.4533246866091
 30
0.0
  0
VERTEX
  5
9E
330
9C
100
AcDbEntity
  8
_U+30EC_U+30A4_U+30E4_U+30FC 1
 62
   179
420
  2234388
370
     9
100
AcDbVertex
100
AcDb2dVertex
 10
103.1248087579558
 20
-142.4533246866091
 30
0.0
  0
SEQEND
  5
9F
330
9C
100
AcDbEntity
  8
_U+30EC_U+30A4_U+30E4_U+30FC 1
 62
   179
420
  2234388
370
     9
  0
POLYLINE
  5
A0
330
1F
100
AcDbEntity
  8
_U+30EC_U+30A4_U+30E4_U+30FC 1
 62
   179
420
  2234388
370
     9
100
AcDb2dPolyline
 66
     1
 10
0.0
 20
0.0
 30
0.0
  0
VERTEX
  5
A1
330
A0
100
AcDbEntity
  8
_U+30EC_U+30A4_U+30E4_U+30FC 1
 62
   179
420
  2234388
370
     9
100
AcDbVertex
100
AcDb2dVertex
 10
78.12546109157962
 20
-140.9932832980847
 30
0.0
  0
VERTEX
  5
A2
330
A0
100
AcDbEntity
  8
_U+30EC_U+30A4_U+30E4_U+30FC 1
 62
   179
420
  2234388
370
     9
100
AcDbVertex
100
AcDb2dVertex
 10
78.12546109157962
 20
-143.453096908581
 30
0.0
  0
SEQEND
  5
A3
330
A0
100
AcDbEntity
  8
_U+30EC_U+30A4_U+30E4_U+30FC 1
 62
   179
420
  2234388
370
     9
  0
POLYLINE
  5
A4
330
1F
100
AcDbEntity
  8
_U+30EC_U+30A4_U+30E4_U+30FC 1
 62
   179
420
  2234388
370
     9
100
AcDb2dPolyline
 66
     1
 10
0.0
 20
0.0
 30
0.0
  0
VERTEX
  5
A5
330
A4
100
AcDbEntity
  8
_U+30EC_U+30A4_U+30E4_U+30FC 1
 62
   179
420
  2234388
370
     9
100
AcDbVertex
100
AcDb2dVertex
 10
103.1248087579558
 20
-140.9932832980847
 30
0.0
  0
VERTEX
  5
A6
330
A4
100
AcDbEntity
  8
_U+30EC_U+30A4_U+30E4_U+30FC 1
 62
   179
420
  2234388
370
     9
100
AcDbVertex
100
AcDb2dVertex
 10
103.1248087579558
 20
-143.453096908581
 30
0.0
  0
SEQEND
  5
A7
330
A4
100
AcDbEntity
  8
_U+30EC_U+30A4_U+30E4_U+30FC 1
 62
   179
420
  2234388
370
     9
  0
INSERT
  5
A9
330
1F
100
AcDbEntity
  8
_U+30EC_U+30A4_U+30E4_U+30FC 1
100
AcDbBlockReference
  2
block 4
 10
0.0
 20
0.0
 30
0.0
  0
POLYLINE
  5
B0
330
1F
100
AcDbEntity
  8
_U+30EC_U+30A4_U+30E4_U+30FC 1
  6
AI-Linetype-1
 62
   154
420
    23468
370
    25
100
AcDb2dPolyline
 66
     1
 10
0.0
 20
0.0
 30
0.0
  0
VERTEX
  5
B1
330
B0
100
AcDbEntity
  8
_U+30EC_U+30A4_U+30E4_U+30FC 1
  6
AI-Linetype-1
 62
   154
420
    23468
370
    25
100
AcDbVertex
100
AcDb2dVertex
 10
77.48604941205508
 20
-113.4506169160819
 30
0.0
  0
VERTEX
  5
B2
330
B0
100
AcDbEntity
  8
_U+30EC_U+30A4_U+30E4_U+30FC 1
  6
AI-Linetype-1
 62
   154
420
    23468
370
    25
100
AcDbVertex
100
AcDb2dVertex
 10
77.48604941205508
 20
-133.4506121888597
 30
0.0
  0
SEQEND
  5
B4
330
B0
100
AcDbEntity
  8
_U+30EC_U+30A4_U+30E4_U+30FC 1
  6
AI-Linetype-1
 62
   154
420
    23468
370
    25
  0
POLYLINE
  5
B5
330
1F
100
AcDbEntity
  8
_U+30EC_U+30A4_U+30E4_U+30FC 1
  6
AI-Linetype-2
 62
   154
420
    23468
370
    25
100
AcDb2dPolyline
 66
     1
 10
0.0
 20
0.0
 30
0.0
  0
VERTEX
  5
B6
330
B5
100
AcDbEntity
  8
_U+30EC_U+30A4_U+30E4_U+30FC 1
  6
AI-Linetype-2
 62
   154
420
    23468
370
    25
100
AcDbVertex
100
AcDb2dVertex
 10
83.02508371518698
 20
-139.1480791318795
 30
0.0
  0
VERTEX
  5
B7
330
B5
100
AcDbEntity
  8
_U+30EC_U+30A4_U+30E4_U+30FC 1
  6
AI-Linetype-2
 62
   154
420
    23468
370
    25
100
AcDbVertex
100
AcDb2dVertex
 10
103.024902093838
 20
-139.1480791318795
 30
0.0
  0
SEQEND
  5
B9
330
B5
100
AcDbEntity
  8
_U+30EC_U+30A4_U+30E4_U+30FC 1
  6
AI-Linetype-2
 62
   154
420
    23468
370
    25
  0
POLYLINE
  5
BA
330
1F
100
AcDbEntity
  8
_U+30EC_U+30A4_U+30E4_U+30FC 1
 62
   179
420
  2234388
370
     9
100
AcDb2dPolyline
 66
     1
 10
0.0
 20
0.0
 30
0.0
  0
VERTEX
  5
BB
330
BA
100
AcDbEntity
  8
_U+30EC_U+30A4_U+30E4_U+30FC 1
 62
   179
420
  2234388
370
     9
100
AcDbVertex
100
AcDb2dVertex
 10
77.6114638694861
 20
-119.5449941367803
 30
0.0
  0
VERTEX
  5
BC
330
BA
100
AcDbEntity
  8
_U+30EC_U+30A4_U+30E4_U+30FC 1
 62
   179
420
  2234388
370
     9
100
AcDbVertex
100
AcDb2dVertex
 10
91.69156349408667
 20
-119.5449941367803
 30
0.0
  0
SEQEND
  5
BD
330
BA
100
AcDbEntity
  8
_U+30EC_U+30A4_U+30E4_U+30FC 1
 62
   179
420
  2234388
370
     9
  0
POLYLINE
  5
BE
330
1F
100
AcDbEntity
  8
_U+30EC_U+30A4_U+30E4_U+30FC 1
 62
   179
420
  2234388
370
     9
100
AcDb2dPolyline
 66
     1
 10
0.0
 20
0.0
 30
0.0
  0
VERTEX
  5
BF
330
BE
100
AcDbEntity
  8
_U+30EC_U+30A4_U+30E4_U+30FC 1
 62
   179
420
  2234388
370
     9
100
AcDbVertex
100
AcDb2dVertex
 10
77.6114638694861
 20
-119.5449941367803
 30
0.0
  0
VERTEX
  5
C0
330
BE
100
AcDbEntity
  8
_U+30EC_U+30A4_U+30E4_U+30FC 1
 62
   179
420
  2234388
370
     9
100
AcDbVertex
100
AcDb2dVertex
 10
78.57747327309943
 20
-119.2862669146228
 30
0.0
  0
SEQEND
  5
C1
330
BE
100
AcDbEntity
  8
_U+30EC_U+30A4_U+30E4_U+30FC 1
 62
   179
420
  2234388
370
     9
  0
POLYLINE
  5
C2
330
1F
100
AcDbEntity
  8
_U+30EC_U+30A4_U+30E4_U+30FC 1
 62
   179
420
  2234388
370
     9
100
AcDb2dPolyline
 66
     1
 10
0.0
 20
0.0
 30
0.0
  0
VERTEX
  5
C3
330
C2
100
AcDbEntity
  8
_U+30EC_U+30A4_U+30E4_U+30FC 1
 62
   179
420
  2234388
370
     9
100
AcDbVertex
100
AcDb2dVertex
 10
77.6114638694861
 20
-119.5449941367803
 30
0.0
  0
VERTEX
  5
C4
330
C2
100
AcDbEntity
  8
_U+30EC_U+30A4_U+30E4_U+30FC 1
 62
   179
420
  2234388
370
     9
100
AcDbVertex
100
AcDb2dVertex
 10
78.57747327309943
 20
-119.8040741367157
 30
0.0
  0
SEQEND
  5
C5
330
C2
100
AcDbEntity
  8
_U+30EC_U+30A4_U+30E4_U+30FC 1
 62
   179
420
  2234388
370
     9
  0
POLYLINE
  5
C6
330
1F
100
AcDbEntity
  8
_U+30EC_U+30A4_U+30E4_U+30FC 1
 62
   179
420
  2234388
370
     9
100
AcDb2dPolyline
 66
     1
 10
0.0
 20
0.0
 30
0.0
  0
VERTEX
  5
C7
330
C6
100
AcDbEntity
  8
_U+30EC_U+30A4_U+30E4_U+30FC 1
 62
   179
420
  2234388
370
     9
100
AcDbVertex
100
AcDb2dVertex
 10
96.43063892873833
 20
-138.8904102430549
 30
0.0
  0
VERTEX
  5
C8
330
C6
100
AcDbEntity
  8
_U+30EC_U+30A4_U+30E4_U+30FC 1
 62
   179
420
  2234388
370
     9
100
AcDbVertex
100
AcDb2dVertex
 10
96.68971892212865
 20
-137.9243988544079
 30
0.0
  0
SEQEND
  5
C9
330
C6
100
AcDbEntity
  8
_U+30EC_U+30A4_U+30E4_U+30FC 1
 62
   179
420
  2234388
370
     9
  0
POLYLINE
  5
CA
330
1F
100
AcDbEntity
  8
_U+30EC_U+30A4_U+30E4_U+30FC 1
 62
   179
420
  2234388
370
     9
100
AcDb2dPolyline
 66
     1
 10
0.0
 20
0.0
 30
0.0
  0
VERTEX
  5
CB
330
CA
100
AcDbEntity
  8
_U+30EC_U+30A4_U+30E4_U+30FC 1
 62
   179
420
  2234388
370
     9
100
AcDbVertex
100
AcDb2dVertex
 10
96.43063892873833
 20
-138.8904102430549
 30
0.0
  0
VERTEX
  5
CC
330
CA
100
AcDbEntity
  8
_U+30EC_U+30A4_U+30E4_U+30FC 1
 62
   179
420
  2234388
370
     9
100
AcDbVertex
100
AcDb2dVertex
 10
96.43063892873833
 20
-120.5943669142959
 30
0.0
  0
SEQEND
  5
CD
330
CA
100
AcDbEntity
  8
_U+30EC_U+30A4_U+30E4_U+30FC 1
 62
   179
420
  2234388
370
     9
  0
POLYLINE
  5
CE
330
1F
100
AcDbEntity
  8
_U+30EC_U+30A4_U+30E4_U+30FC 1
 62
   179
420
  2234388
370
     9
100
AcDb2dPolyline
 66
     1
 10
0.0
 20
0.0
 30
0.0
  0
VERTEX
  5
CF
330
CE
100
AcDbEntity
  8
_U+30EC_U+30A4_U+30E4_U+30FC 1
 62
   179
420
  2234388
370
     9
100
AcDbVertex
100
AcDb2dVertex
 10
96.43063892873833
 20
-138.8904102430549
 30
0.0
  0
VERTEX
  5
D0
330
CE
100
AcDbEntity
  8
_U+30EC_U+30A4_U+30E4_U+30FC 1
 62
   179
420
  2234388
370
     9
100
AcDbVertex
100
AcDb2dVertex
 10
96.17226449088557
 20
-137.9243988544079
 30
0.0
  0
SEQEND
  5
D1
330
CE
100
AcDbEntity
  8
_U+30EC_U+30A4_U+30E4_U+30FC 1
 62
   179
420
  2234388
370
     9
  0
INSERT
  5
D3
330
1F
100
AcDbEntity
  8
_U+30EC_U+30A4_U+30E4_U+30FC 1
100
AcDbBlockReference
  2
block 5
 10
0.0
 20
0.0
 30
0.0
  0
ENDSEC
  0
SECTION
  2
OBJECTS
  0
DICTIONARY
  5
C
330
0
100
AcDbDictionary
281
     1
  3
ACAD_GROUP
350
D
  3
ACAD_LAYOUT
350
1A
  3
ACAD_MATERIAL
350
3B
  3
ACAD_MLEADERSTYLE
350
FB
  3
ACAD_MLINESTYLE
350
17
  3
ACAD_PLOTSETTINGS
350
19
  3
ACAD_PLOTSTYLENAME
350
E
  3
ACAD_TABLESTYLE
350
FA
  3
ACAD_VISUALSTYLE
350
2A
  0
SUN
  5
3F
330
29
100
AcDbSun
 90
        1
290
     0
 63
     7
421
 16777215
 40
1.0
291
     1
 91
  2455826
 92
 54000000
292
     0
 70
     2
 71
   256
280
     1
  0
DICTIONARY
  5
D
102
{ACAD_REACTORS
330
C
102
}
330
C
100
AcDbDictionary
281
     1
  0
DICTIONARY
  5
1A
102
{ACAD_REACTORS
330
C
102
}
330
C
100
AcDbDictionary
281
     1
  3
Layout1
350
1E
  3
Layout2
350
26
  3
Model
350
22
  0
DICTIONARY
  5
3B
102
{ACAD_REACTORS
330
C
102
}
330
C
100
AcDbDictionary
281
     1
  3
ByBlock
350
3D
  3
ByLayer
350
3C
  3
Global
350
3E
  0
DICTIONARY
  5
FB
102
{ACAD_REACTORS
330
C
102
}
330
C
100
AcDbDictionary
281
     1
  0
DICTIONARY
  5
17
102
{ACAD_REACTORS
330
C
102
}
330
C
100
AcDbDictionary
281
     1
  3
Standard
350
18
  0
DICTIONARY
  5
19
102
{ACAD_REACTORS
330
C
102
}
330
C
100
AcDbDictionary
281
     1
  0
ACDBDICTIONARYWDFLT
  5
E
102
{ACAD_REACTORS
330
C
102
}
330
C
100
AcDbDictionary
281
     1
  3
Normal
350
F
100
AcDbDictionaryWithDefault
340
F
  0
DICTIONARY
  5
FA
102
{ACAD_REACTORS
330
C
102
}
330
C
100
AcDbDictionary
281
     1
  0
DICTIONARY
  5
2A
102
{ACAD_REACTORS
330
C
102
}
330
C
100
AcDbDictionary
281
     1
  3
2dWireframe
350
2F
  3
3D Hidden
350
31
  3
3dWireframe
350
30
  3
Basic
350
32
  3
Brighten
350
36
  3
ColorChange
350
3A
  3
Conceptual
350
34
  3
Dim
350
35
  3
Facepattern
350
39
  3
Flat
350
2B
  3
FlatWithEdges
350
2C
  3
Gouraud
350
2D
  3
GouraudWithEdges
350
2E
  3
Linepattern
350
38
  3
Realistic
350
33
  3
Thicken
350
37
  0
LAYOUT
  5
1E
102
{ACAD_REACTORS
330
1A
102
}
330
1A
100
AcDbPlotSettings
  1

  2
none_device
  4

  6

 40
0.0
 41
0.0
 42
0.0
 43
0.0
 44
0.0
 45
0.0
 46
0.0
 47
0.0
 48
0.0
 49
0.0
140
0.0
141
0.0
142
1.0
143
1.0
 70
   688
 72
     0
 73
     0
 74
     5
  7

 75
    16
 76
     0
 77
     2
 78
   300
147
1.0
148
0.0
149
0.0
100
AcDbLayout
  1
Layout1
 70
     1
 71
     1
 10
0.0
 20
0.0
 11
12.0
 21
9.0
 12
0.0
 22
0.0
 32
0.0
 14
1.000000000000000E+20
 24
1.000000000000000E+20
 34
1.000000000000000E+20
 15
-1.000000000000000E+20
 25
-1.000000000000000E+20
 35
-1.000000000000000E+20
146
0.0
 13
0.0
 23
0.0
 33
0.0
 16
1.0
 26
0.0
 36
0.0
 17
0.0
 27
1.0
 37
0.0
 76
     0
330
1B
  0
LAYOUT
  5
26
102
{ACAD_REACTORS
330
1A
102
}
330
1A
100
AcDbPlotSettings
  1

  2
none_device
  4

  6

 40
0.0
 41
0.0
 42
0.0
 43
0.0
 44
0.0
 45
0.0
 46
0.0
 47
0.0
 48
0.0
 49
0.0
140
0.0
141
0.0
142
1.0
143
1.0
 70
   688
 72
     0
 73
     0
 74
     5
  7

 75
    16
 76
     0
 77
     2
 78
   300
147
1.0
148
0.0
149
0.0
100
AcDbLayout
  1
Layout2
 70
     1
 71
     2
 10
0.0
 20
0.0
 11
0.0
 21
0.0
 12
0.0
 22
0.0
 32
0.0
 14
0.0
 24
0.0
 34
0.0
 15
0.0
 25
0.0
 35
0.0
146
0.0
 13
0.0
 23
0.0
 33
0.0
 16
1.0
 26
0.0
 36
0.0
 17
0.0
 27
1.0
 37
0.0
 76
     0
330
23
  0
LAYOUT
  5
22
102
{ACAD_REACTORS
330
1A
102
}
330
1A
100
AcDbPlotSettings
  1

  2
none_device
  4

  6

 40
0.0
 41
0.0
 42
0.0
 43
0.0
 44
0.0
 45
0.0
 46
0.0
 47
0.0
 48
0.0
 49
0.0
140
0.0
141
0.0
142
1.0
143
1.0
 70
  1712
 72
     0
 73
     0
 74
     0
  7

 75
     0
 76
     0
 77
     2
 78
   300
147
1.0
148
0.0
149
0.0
100
AcDbLayout
  1
Model
 70
     1
 71
     0
 10
0.0
 20
0.0
 11
12.0
 21
9.0
 12
0.0
 22
0.0
 32
0.0
 14
1.000000000000000E+20
 24
1.000000000000000E+20
 34
1.000000000000000E+20
 15
-1.000000000000000E+20
 25
-1.000000000000000E+20
 35
-1.000000000000000E+20
146
0.0
 13
0.0
 23
0.0
 33
0.0
 16
1.0
 26
0.0
 36
0.0
 17
0.0
 27
1.0
 37
0.0
 76
     0
330
1F
331
29
  0
MATERIAL
  5
3D
102
{ACAD_REACTORS
330
3B
102
}
330
3B
100
AcDbMaterial
  1
ByBlock
 72
     1
 94
      127
  0
MATERIAL
  5
3C
102
{ACAD_REACTORS
330
3B
102
}
330
3B
100
AcDbMaterial
  1
ByLayer
 72
     1
 94
      127
  0
MATERIAL
  5
3E
102
{ACAD_REACTORS
330
3B
102
}
330
3B
100
AcDbMaterial
  1
Global
 72
     1
 94
      127
  0
MLINESTYLE
  5
18
102
{ACAD_REACTORS
330
17
102
}
330
17
100
AcDbMlineStyle
  2
Standard
 70
     0
  3

 62
   256
 51
90.0
 52
90.0
 71
     2
 49
0.5
 62
   256
  6
BYLAYER
 49
-0.5
 62
   256
  6
BYLAYER
  0
ACDBPLACEHOLDER
  5
F
102
{ACAD_REACTORS
330
E
102
}
330
E
  0
VISUALSTYLE
  5
2F
102
{ACAD_REACTORS
330
2A
102
}
330
2A
100
AcDbVisualStyle
  2
2dWireframe
 70
     4
177
     2
291
     0
 71
     0
176
     1
 72
     2
176
     1
 73
     0
176
     1
 90
        0
176
     1
 40
-0.6
176
     1
 41
-30.0
176
     1
 62
     5
 63
     7
421
 16777215
176
     1
 74
     1
176
     1
 91
        4
176
     1
 64
     7
176
     1
 65
   257
176
     1
 75
     1
176
     1
175
     1
176
     1
 42
1.0
176
     1
 92
        0
176
     1
 66
   257
176
     1
 43
1.0
176
     1
 76
     1
176
     1
 77
     6
176
     1
 78
     2
176
     1
 67
     7
176
     1
 79
     5
176
     1
170
     0
176
     1
171
     0
176
     1
290
     0
176
     1
 93
        1
176
     1
 44
0.0
176
     1
173
     0
176
     1
  0
VISUALSTYLE
  5
31
102
{ACAD_REACTORS
330
2A
102
}
330
2A
100
AcDbVisualStyle
  2
3D Hidden
 70
     6
177
     2
291
     0
 71
     1
176
     1
 72
     2
176
     1
 73
     2
176
     1
 90
        0
176
     1
 40
-0.6
176
     1
 41
-30.0
176
     1
 62
     5
 63
     7
421
 16777215
176
     1
 74
     2
176
     1
 91
        2
176
     1
 64
     7
176
     1
 65
   257
176
     1
 75
     2
176
     1
175
     1
176
     1
 42
40.0
176
     1
 92
        0
176
     1
 66
   257
176
     1
 43
1.0
176
     1
 76
     1
176
     1
 77
     6
176
     1
 78
     2
176
     1
 67
     7
176
     1
 79
     3
176
     1
170
     0
176
     1
171
     0
176
     1
290
     0
176
     1
 93
        1
176
     1
 44
0.0
176
     1
173
     0
176
     1
  0
VISUALSTYLE
  5
30
102
{ACAD_REACTORS
330
2A
102
}
330
2A
100
AcDbVisualStyle
  2
3dWireframe
 70
     5
177
     2
291
     0
 71
     0
176
     1
 72
     2
176
     1
 73
     0
176
     1
 90
        0
176
     1
 40
-0.6
176
     1
 41
-30.0
176
     1
 62
     5
 63
     7
421
 16777215
176
     1
 74
     1
176
     1
 91
        4
176
     1
 64
     7
176
     1
 65
   257
176
     1
 75
     1
176
     1
175
     1
176
     1
 42
1.0
176
     1
 92
        0
176
     1
 66
   257
176
     1
 43
1.0
176
     1
 76
     1
176
     1
 77
     6
176
     1
 78
     2
176
     1
 67
     7
176
     1
 79
     5
176
     1
170
     0
176
     1
171
     0
176
     1
290
     0
176
     1
 93
        1
176
     1
 44
0.0
176
     1
173
     0
176
     1
  0
VISUALSTYLE
  5
32
102
{ACAD_REACTORS
330
2A
102
}
330
2A
100
AcDbVisualStyle
  2
Basic
 70
     7
177
     2
291
     1
 71
     1
176
     1
 72
     0
176
     1
 73
     1
176
     1
 90
        0
176
     1
 40
-0.6
176
     1
 41
-30.0
176
     1
 62
     5
 63
     7
421
 16777215
176
     1
 74
     0
176
     1
 91
        4
176
     1
 64
     7
176
     1
 65
   257
176
     1
 75
     1
176
     1
175
     1
176
     1
 42
1.0
176
     1
 92
        8
176
     1
 66
     7
176
     1
 43
1.0
176
     1
 76
     1
176
     1
 77
     6
176
     1
 78
     2
176
     1
 67
     7
176
     1
 79
     5
176
     1
170
     0
176
     1
171
     0
176
     1
290
     0
176
     1
 93
        1
176
     1
 44
0.0
176
     1
173
     0
176
     1
  0
VISUALSTYLE
  5
36
102
{ACAD_REACTORS
330
2A
102
}
330
2A
100
AcDbVisualStyle
  2
Brighten
 70
    12
177
     2
291
     1
 71
     2
176
     1
 72
     2
176
     1
 73
     0
176
     1
 90
        0
176
     1
 40
-0.6
176
     1
 41
-30.0
176
     1
 62
     5
 63
     7
421
 16777215
176
     1
 74
     1
176
     1
 91
        4
176
     1
 64
     7
176
     1
 65
   257
176
     1
 75
     1
176
     1
175
     1
176
     1
 42
1.0
176
     1
 92
        8
176
     1
 66
     7
176
     1
 43
1.0
176
     1
 76
     1
176
     1
 77
     6
176
     1
 78
     2
176
     1
 67
     7
176
     1
 79
     5
176
     1
170
     0
176
     1
171
     0
176
     1
290
     0
176
     1
 93
        1
176
     1
 44
50.0
176
     1
173
     0
176
     1
  0
VISUALSTYLE
  5
3A
102
{ACAD_REACTORS
330
2A
102
}
330
2A
100
AcDbVisualStyle
  2
ColorChange
 70
    16
177
     2
291
     1
 71
     2
176
     1
 72
     2
176
     1
 73
     3
176
     1
 90
        0
176
     1
 40
-0.6
176
     1
 41
-30.0
176
     1
 62
     5
 63
     8
421
  8421504
176
     1
 74
     1
176
     1
 91
        4
176
     1
 64
     7
176
     1
 65
   257
176
     1
 75
     1
176
     1
175
     1
176
     1
 42
1.0
176
     1
 92
        8
176
     1
 66
     8
424
  8421504
176
     1
 43
1.0
176
     1
 76
     1
176
     1
 77
     6
176
     1
 78
     2
176
     1
 67
     7
176
     1
 79
     5
176
     1
170
     0
176
     1
171
     0
176
     1
290
     0
176
     1
 93
        1
176
     1
 44
0.0
176
     1
173
     0
176
     1
  0
VISUALSTYLE
  5
34
102
{ACAD_REACTORS
330
2A
102
}
330
2A
100
AcDbVisualStyle
  2
Conceptual
 70
     9
177
     2
291
     0
 71
     3
176
     1
 72
     2
176
     1
 73
     0
176
     1
 90
        0
176
     1
 40
-0.6
176
     1
 41
-30.0
176
     1
 62
     5
 63
     7
421
 16777215
176
     1
 74
     2
176
     1
 91
        2
176
     1
 64
     7
176
     1
 65
   257
176
     1
 75
     1
176
     1
175
     1
176
     1
 42
40.0
176
     1
 92
        8
176
     1
 66
     7
176
     1
 43
1.0
176
     1
 76
     1
176
     1
 77
     6
176
     1
 78
     2
176
     1
 67
     7
176
     1
 79
     3
176
     1
170
     0
176
     1
171
     0
176
     1
290
     0
176
     1
 93
        1
176
     1
 44
0.0
176
     1
173
     0
176
     1
  0
VISUALSTYLE
  5
35
102
{ACAD_REACTORS
330
2A
102
}
330
2A
100
AcDbVisualStyle
  2
Dim
 70
    11
177
     2
291
     1
 71
     2
176
     1
 72
     2
176
     1
 73
     0
176
     1
 90
        0
176
     1
 40
-0.6
176
     1
 41
-30.0
176
     1
 62
     5
 63
     7
421
 16777215
176
     1
 74
     1
176
     1
 91
        4
176
     1
 64
     7
176
     1
 65
   257
176
     1
 75
     1
176
     1
175
     1
176
     1
 42
1.0
176
     1
 92
        8
176
     1
 66
     7
176
     1
 43
1.0
176
     1
 76
     1
176
     1
 77
     6
176
     1
 78
     2
176
     1
 67
     7
176
     1
 79
     5
176
     1
170
     0
176
     1
171
     0
176
     1
290
     0
176
     1
 93
        1
176
     1
 44
-50.0
176
     1
173
     0
176
     1
  0
VISUALSTYLE
  5
39
102
{ACAD_REACTORS
330
2A
102
}
330
2A
100
AcDbVisualStyle
  2
Facepattern
 70
    15
177
     2
291
     1
 71
     2
176
     1
 72
     2
176
     1
 73
     0
176
     1
 90
        0
176
     1
 40
-0.6
176
     1
 41
-30.0
176
     1
 62
     5
 63
     7
421
 16777215
176
     1
 74
     1
176
     1
 91
        4
176
     1
 64
     7
176
     1
 65
   257
176
     1
 75
     1
176
     1
175
     1
176
     1
 42
1.0
176
     1
 92
        8
176
     1
 66
     7
176
     1
 43
1.0
176
     1
 76
     1
176
     1
 77
     6
176
     1
 78
     2
176
     1
 67
     7
176
     1
 79
     5
176
     1
170
     0
176
     1
171
     0
176
     1
290
     0
176
     1
 93
        1
176
     1
 44
0.0
176
     1
173
     0
176
     1
  0
VISUALSTYLE
  5
2B
102
{ACAD_REACTORS
330
2A
102
}
330
2A
100
AcDbVisualStyle
  2
Flat
 70
     0
177
     2
291
     1
 71
     2
176
     1
 72
     1
176
     1
 73
     1
176
     1
 90
        2
176
     1
 40
-0.6
176
     1
 41
30.0
176
     1
 62
     5
 63
     7
421
 16777215
176
     1
 74
     0
176
     1
 91
        4
176
     1
 64
     7
176
     1
 65
   257
176
     1
 75
     1
176
     1
175
     1
176
     1
 42
1.0
176
     1
 92
        8
176
     1
 66
     7
176
     1
 43
1.0
176
     1
 76
     1
176
     1
 77
     6
176
     1
 78
     2
176
     1
 67
     7
176
     1
 79
     5
176
     1
170
     0
176
     1
171
     0
176
     1
290
     0
176
     1
 93
       13
176
     1
 44
0.0
176
     1
173
     0
176
     1
  0
VISUALSTYLE
  5
2C
102
{ACAD_REACTORS
330
2A
102
}
330
2A
100
AcDbVisualStyle
  2
FlatWithEdges
 70
     1
177
     2
291
     1
 71
     2
176
     1
 72
     1
176
     1
 73
     1
176
     1
 90
        2
176
     1
 40
-0.6
176
     1
 41
30.0
176
     1
 62
     5
 63
     7
421
 16777215
176
     1
 74
     1
176
     1
 91
        4
176
     1
 64
     7
176
     1
 65
   257
176
     1
 75
     1
176
     1
175
     1
176
     1
 42
1.0
176
     1
 92
        0
176
     1
 66
   257
176
     1
 43
1.0
176
     1
 76
     1
176
     1
 77
     6
176
     1
 78
     2
176
     1
 67
     7
176
     1
 79
     5
176
     1
170
     0
176
     1
171
     0
176
     1
290
     0
176
     1
 93
       13
176
     1
 44
0.0
176
     1
173
     0
176
     1
  0
VISUALSTYLE
  5
2D
102
{ACAD_REACTORS
330
2A
102
}
330
2A
100
AcDbVisualStyle
  2
Gouraud
 70
     2
177
     2
291
     1
 71
     2
176
     1
 72
     2
176
     1
 73
     1
176
     1
 90
        2
176
     1
 40
-0.6
176
     1
 41
30.0
176
     1
 62
     5
 63
     7
421
 16777215
176
     1
 74
     0
176
     1
 91
        4
176
     1
 64
     7
176
     1
 65
   257
176
     1
 75
     1
176
     1
175
     1
176
     1
 42
1.0
176
     1
 92
        0
176
     1
 66
     7
176
     1
 43
1.0
176
     1
 76
     1
176
     1
 77
     6
176
     1
 78
     2
176
     1
 67
     7
176
     1
 79
     5
176
     1
170
     0
176
     1
171
     0
176
     1
290
     0
176
     1
 93
       13
176
     1
 44
0.0
176
     1
173
     0
176
     1
  0
VISUALSTYLE
  5
2E
102
{ACAD_REACTORS
330
2A
102
}
330
2A
100
AcDbVisualStyle
  2
GouraudWithEdges
 70
     3
177
     2
291
     1
 71
     2
176
     1
 72
     2
176
     1
 73
     1
176
     1
 90
        2
176
     1
 40
-0.6
176
     1
 41
30.0
176
     1
 62
     5
 63
     7
421
 16777215
176
     1
 74
     1
176
     1
 91
        4
176
     1
 64
     7
176
     1
 65
   257
176
     1
 75
     1
176
     1
175
     1
176
     1
 42
1.0
176
     1
 92
        0
176
     1
 66
   257
176
     1
 43
1.0
176
     1
 76
     1
176
     1
 77
     6
176
     1
 78
     2
176
     1
 67
     7
176
     1
 79
     5
176
     1
170
     0
176
     1
171
     0
176
     1
290
     0
176
     1
 93
       13
176
     1
 44
0.0
176
     1
173
     0
176
     1
  0
VISUALSTYLE
  5
38
102
{ACAD_REACTORS
330
2A
102
}
330
2A
100
AcDbVisualStyle
  2
Linepattern
 70
    14
177
     2
291
     1
 71
     2
176
     1
 72
     2
176
     1
 73
     0
176
     1
 90
        0
176
     1
 40
-0.6
176
     1
 41
-30.0
176
     1
 62
     5
 63
     7
421
 16777215
176
     1
 74
     1
176
     1
 91
        4
176
     1
 64
     7
176
     1
 65
   257
176
     1
 75
     7
176
     1
175
     7
176
     1
 42
1.0
176
     1
 92
        8
176
     1
 66
     7
176
     1
 43
1.0
176
     1
 76
     1
176
     1
 77
     6
176
     1
 78
     2
176
     1
 67
     7
176
     1
 79
     5
176
     1
170
     0
176
     1
171
     0
176
     1
290
     0
176
     1
 93
        1
176
     1
 44
0.0
176
     1
173
     0
176
     1
  0
VISUALSTYLE
  5
33
102
{ACAD_REACTORS
330
2A
102
}
330
2A
100
AcDbVisualStyle
  2
Realistic
 70
     8
177
     2
291
     0
 71
     2
176
     1
 72
     2
176
     1
 73
     0
176
     1
 90
        0
176
     1
 40
-0.6
176
     1
 41
-30.0
176
     1
 62
     5
 63
     7
421
 16777215
176
     1
 74
     1
176
     1
 91
        0
176
     1
 64
     7
176
     1
 65
   257
176
     1
 75
     1
176
     1
175
     1
176
     1
 42
1.0
176
     1
 92
        8
176
     1
 66
     8
424
  7895160
176
     1
 43
1.0
176
     1
 76
     1
176
     1
 77
     6
176
     1
 78
     2
176
     1
 67
     7
176
     1
 79
     5
176
     1
170
     0
176
     1
171
     0
176
     1
290
     0
176
     1
 93
       13
176
     1
 44
0.0
176
     1
173
     0
176
     1
  0
VISUALSTYLE
  5
37
102
{ACAD_REACTORS
330
2A
102
}
330
2A
100
AcDbVisualStyle
  2
Thicken
 70
    13
177
     2
291
     1
 71
     2
176
     1
 72
     2
176
     1
 73
     0
176
     1
 90
        0
176
     1
 40
-0.6
176
     1
 41
-30.0
176
     1
 62
     5
 63
     7
421
 16777215
176
     1
 74
     1
176
     1
 91
        4
176
     1
 64
     7
176
     1
 65
   257
176
     1
 75
     1
176
     1
175
     1
176
     1
 42
1.0
176
     1
 92
       12
176
     1
 66
     7
176
     1
 43
1.0
176
     1
 76
     1
176
     1
 77
     6
176
     1
 78
     2
176
     1
 67
     7
176
     1
 79
     5
176
     1
170
     0
176
     1
171
     0
176
     1
290
     0
176
     1
 93
        1
176
     1
 44
0.0
176
     1
173
     0
176
     1
  0
ENDSEC
  0
EOF
