  0
SECTION
  2
HEADER
  9
$ACADVER
  1
AC1024
  9
$ACADMAINTVER
 70
     6
  9
$DWGCODEPAGE
  3
UNDEFINED
  9
$INSBASE
 10
0.0
 20
0.0
 30
0.0
  9
$EXTMIN
 10
1.000000000000000E+20
 20
1.000000000000000E+20
 30
1.000000000000000E+20
  9
$EXTMAX
 10
-1.000000000000000E+20
 20
-1.000000000000000E+20
 30
-1.000000000000000E+20
  9
$LIMMIN
 10
0.0
 20
0.0
  9
$LIMMAX
 10
12.0
 20
9.0
  9
$ORTHOMODE
 70
     0
  9
$REGENMODE
 70
     1
  9
$FILLMODE
 70
     1
  9
$QTEXTMODE
 70
     0
  9
$MIRRTEXT
 70
     1
  9
$LTSCALE
 40
1.0
  9
$ATTMODE
 70
     1
  9
$TEXTSIZE
 40
0.2
  9
$TRACEWID
 40
0.05
  9
$TEXTSTYLE
  7
Standard
  9
$CLAYER
  8
0
  9
$CELTYPE
  6
ByLayer
  9
$CECOLOR
 62
   256
  9
$CELTSCALE
 40
1.0
  9
$DISPSILH
 70
     0
  9
$DIMSCALE
 40
1.0
  9
$DIMASZ
 40
0.18
  9
$DIMEXO
 40
0.0625
  9
$DIMDLI
 40
0.38
  9
$DIMRND
 40
0.0
  9
$DIMDLE
 40
0.0
  9
$DIMEXE
 40
0.18
  9
$DIMTP
 40
0.0
  9
$DIMTM
 40
0.0
  9
$DIMTXT
 40
0.18
  9
$DIMCEN
 40
0.09
  9
$DIMTSZ
 40
0.0
  9
$DIMTOL
 70
     0
  9
$DIMLIM
 70
     0
  9
$DIMTIH
 70
     1
  9
$DIMTOH
 70
     1
  9
$DIMSE1
 70
     0
  9
$DIMSE2
 70
     0
  9
$DIMTAD
 70
     0
  9
$DIMZIN
 70
     0
  9
$DIMBLK
  1

  9
$DIMASO
 70
     1
  9
$DIMSHO
 70
     1
  9
$DIMPOST
  1

  9
$DIMAPOST
  1

  9
$DIMALT
 70
     0
  9
$DIMALTD
 70
     2
  9
$DIMALTF
 40
25.4
  9
$DIMLFAC
 40
1.0
  9
$DIMTOFL
 70
     0
  9
$DIMTVP
 40
0.0
  9
$DIMTIX
 70
     0
  9
$DIMSOXD
 70
     0
  9
$DIMSAH
 70
     0
  9
$DIMBLK1
  1

  9
$DIMBLK2
  1

  9
$DIMSTYLE
  2
Standard
  9
$DIMCLRD
 70
     0
  9
$DIMCLRE
 70
     0
  9
$DIMCLRT
 70
     0
  9
$DIMTFAC
 40
1.0
  9
$DIMGAP
 40
0.09
  9
$DIMJUST
 70
     0
  9
$DIMSD1
 70
     0
  9
$DIMSD2
 70
     0
  9
$DIMTOLJ
 70
     1
  9
$DIMTZIN
 70
     0
  9
$DIMALTZ
 70
     0
  9
$DIMALTTZ
 70
     0
  9
$DIMUPT
 70
     0
  9
$DIMDEC
 70
     4
  9
$DIMTDEC
 70
     4
  9
$DIMALTU
 70
     2
  9
$DIMALTTD
 70
     2
  9
$DIMTXSTY
  7
Standard
  9
$DIMAUNIT
 70
     0
  9
$DIMADEC
 70
     0
  9
$DIMALTRND
 40
0.0
  9
$DIMAZIN
 70
     0
  9
$DIMDSEP
 70
    46
  9
$DIMATFIT
 70
     3
  9
$DIMFRAC
 70
     0
  9
$DIMLDRBLK
  1

  9
$DIMLUNIT
 70
     2
  9
$DIMLWD
 70
    -2
  9
$DIMLWE
 70
    -2
  9
$DIMTMOVE
 70
     0
  9
$DIMFXL
 40
1.0
  9
$DIMFXLON
 70
     0
  9
$DIMJOGANG
 40
0.7853981633974483
  9
$DIMTFILL
 70
     0
  9
$DIMTFILLCLR
 70
     0
  9
$DIMARCSYM
 70
     0
  9
$DIMLTYPE
  6

  9
$DIMLTEX1
  6

  9
$DIMLTEX2
  6

  9
$DIMTXTDIRECTION
 70
     0
  9
$LUNITS
 70
     2
  9
$LUPREC
 70
     4
  9
$SKETCHINC
 40
0.1
  9
$FILLETRAD
 40
0.5
  9
$AUNITS
 70
     0
  9
$AUPREC
 70
     0
  9
$MENU
  1
.
  9
$ELEVATION
 40
0.0
  9
$PELEVATION
 40
0.0
  9
$THICKNESS
 40
0.0
  9
$LIMCHECK
 70
     0
  9
$CHAMFERA
 40
0.5
  9
$CHAMFERB
 40
0.5
  9
$CHAMFERC
 40
1.0
  9
$CHAMFERD
 40
0.0
  9
$SKPOLY
 70
     0
  9
$TDCREATE
 40
2457917.62091434
  9
$TDUCREATE
 40
2457917.245914352
  9
$TDUPDATE
 40
2457917.62091434
  9
$TDUUPDATE
 40
2457917.245914352
  9
$TDINDWG
 40
0.0000000116
  9
$TDUSRTIMER
 40
0.0000000116
  9
$USRTIMER
 70
     1
  9
$ANGBASE
 50
0.0
  9
$ANGDIR
 70
     0
  9
$PDMODE
 70
     0
  9
$PDSIZE
 40
0.0
  9
$PLINEWID
 40
0.0
  9
$SPLFRAME
 70
     0
  9
$SPLINETYPE
 70
     6
  9
$SPLINESEGS
 70
     8
  9
$HANDSEED
  5
FC
  9
$SURFTAB1
 70
     6
  9
$SURFTAB2
 70
     6
  9
$SURFTYPE
 70
     6
  9
$SURFU
 70
     6
  9
$SURFV
 70
     6
  9
$UCSBASE
  2

  9
$UCSNAME
  2

  9
$UCSORG
 10
0.0
 20
0.0
 30
0.0
  9
$UCSXDIR
 10
1.0
 20
0.0
 30
0.0
  9
$UCSYDIR
 10
0.0
 20
1.0
 30
0.0
  9
$UCSORTHOREF
  2

  9
$UCSORTHOVIEW
 70
     0
  9
$UCSORGTOP
 10
0.0
 20
0.0
 30
0.0
  9
$UCSORGBOTTOM
 10
0.0
 20
0.0
 30
0.0
  9
$UCSORGLEFT
 10
0.0
 20
0.0
 30
0.0
  9
$UCSORGRIGHT
 10
0.0
 20
0.0
 30
0.0
  9
$UCSORGFRONT
 10
0.0
 20
0.0
 30
0.0
  9
$UCSORGBACK
 10
0.0
 20
0.0
 30
0.0
  9
$PUCSBASE
  2

  9
$PUCSNAME
  2

  9
$PUCSORG
 10
0.0
 20
0.0
 30
0.0
  9
$PUCSXDIR
 10
1.0
 20
0.0
 30
0.0
  9
$PUCSYDIR
 10
0.0
 20
1.0
 30
0.0
  9
$PUCSORTHOREF
  2

  9
$PUCSORTHOVIEW
 70
     0
  9
$PUCSORGTOP
 10
0.0
 20
0.0
 30
0.0
  9
$PUCSORGBOTTOM
 10
0.0
 20
0.0
 30
0.0
  9
$PUCSORGLEFT
 10
0.0
 20
0.0
 30
0.0
  9
$PUCSORGRIGHT
 10
0.0
 20
0.0
 30
0.0
  9
$PUCSORGFRONT
 10
0.0
 20
0.0
 30
0.0
  9
$PUCSORGBACK
 10
0.0
 20
0.0
 30
0.0
  9
$USERI1
 70
     0
  9
$USERI2
 70
     0
  9
$USERI3
 70
     0
  9
$USERI4
 70
     0
  9
$USERI5
 70
     0
  9
$USERR1
 40
0.0
  9
$USERR2
 40
0.0
  9
$USERR3
 40
0.0
  9
$USERR4
 40
0.0
  9
$USERR5
 40
0.0
  9
$WORLDVIEW
 70
     1
  9
$SHADEDGE
 70
     3
  9
$SHADEDIF
 70
    70
  9
$TILEMODE
 70
     1
  9
$MAXACTVP
 70
    64
  9
$PINSBASE
 10
0.0
 20
0.0
 30
0.0
  9
$PLIMCHECK
 70
     0
  9
$PEXTMIN
 10
1.000000000000000E+20
 20
1.000000000000000E+20
 30
1.000000000000000E+20
  9
$PEXTMAX
 10
-1.000000000000000E+20
 20
-1.000000000000000E+20
 30
-1.000000000000000E+20
  9
$PLIMMIN
 10
0.0
 20
0.0
  9
$PLIMMAX
 10
12.0
 20
9.0
  9
$UNITMODE
 70
     0
  9
$VISRETAIN
 70
     1
  9
$PLINEGEN
 70
     0
  9
$PSLTSCALE
 70
     1
  9
$TREEDEPTH
 70
  3020
  9
$CMLSTYLE
  2
Standard
  9
$CMLJUST
 70
     0
  9
$CMLSCALE
 40
1.0
  9
$PROXYGRAPHICS
 70
     1
  9
$MEASUREMENT
 70
     0
  9
$CELWEIGHT
370
    -1
  9
$ENDCAPS
280
     0
  9
$JOINSTYLE
280
     0
  9
$LWDISPLAY
290
     1
  9
$INSUNITS
 70
     1
  9
$HYPERLINKBASE
  1

  9
$STYLESHEET
  1

  9
$XEDIT
290
     1
  9
$CEPSNTYPE
380
     0
  9
$PSTYLEMODE
290
     1
  9
$FINGERPRINTGUID
  2
{47C31622-C9B6-476A-2533-9A9E7449E8E1}
  9
$VERSIONGUID
  2
{FAEB1C32-E019-11D5-929B-00C0DF256EC4}
  9
$EXTNAMES
290
     1
  9
$PSVPSCALE
 40
0.0
  9
$OLESTARTUP
290
     0
  9
$SORTENTS
280
   127
  9
$INDEXCTL
280
     0
  9
$HIDETEXT
280
     1
  9
$XCLIPFRAME
280
     2
  9
$HALOGAP
280
     0
  9
$OBSCOLOR
 70
   257
  9
$OBSLTYPE
280
     0
  9
$INTERSECTIONDISPLAY
280
     0
  9
$INTERSECTIONCOLOR
 70
   257
  9
$DIMASSOC
280
     2
  9
$PROJECTNAME
  1

  9
$CAMERADISPLAY
290
     0
  9
$LENSLENGTH
 40
50.0
  9
$CAMERAHEIGHT
 40
0.0
  9
$STEPSPERSEC
 40
2.0
  9
$STEPSIZE
 40
6.0
  9
$3DDWFPREC
 40
2.0
  9
$PSOLWIDTH
 40
0.25
  9
$PSOLHEIGHT
 40
4.0
  9
$LOFTANG1
 40
1.570796326794897
  9
$LOFTANG2
 40
1.570796326794897
  9
$LOFTMAG1
 40
0.0
  9
$LOFTMAG2
 40
0.0
  9
$LOFTPARAM
 70
     7
  9
$LOFTNORMALS
280
     1
  9
$LATITUDE
 40
37.795
  9
$LONGITUDE
 40
-122.394
  9
$NORTHDIRECTION
 40
0.0
  9
$TIMEZONE
 70
 -8000
  9
$LIGHTGLYPHDISPLAY
280
     1
  9
$TILEMODELIGHTSYNCH
280
     1
  9
$CMATERIAL
347
3C
  9
$SOLIDHIST
280
     1
  9
$SHOWHIST
280
     1
  9
$DWFFRAME
280
     2
  9
$DGNFRAME
280
     2
  9
$REALWORLDSCALE
290
     1
  9
$INTERFERECOLOR
 62
   256
  9
$CSHADOW
280
     0
  9
$SHADOWPLANELOCATION
 40
0.0
  0
ENDSEC
  0
SECTION
  2
CLASSES
  0
CLASS
  1
ACDBDICTIONARYWDFLT
  2
AcDbDictionaryWithDefault
  3
ObjectDBX Classes
 90
        0
 91
        4
280
     0
281
     0
  0
CLASS
  1
VISUALSTYLE
  2
AcDbVisualStyle
  3
ObjectDBX Classes
 90
     4095
 91
        4
280
     0
281
     0
  0
CLASS
  1
MATERIAL
  2
AcDbMaterial
  3
ObjectDBX Classes
 90
     1153
 91
        4
280
     0
281
     0
  0
CLASS
  1
SUN
  2
AcDbSun
  3
SCENEOE
 90
     1024
 91
        4
280
     0
281
     0
  0
ENDSEC
  0
SECTION
  2
TABLES
  0
TABLE
  2
VPORT
  5
8
330
0
100
AcDbSymbolTable
 70
     1
  0
VPORT
  5
29
330
8
100
AcDbSymbolTableRecord
100
AcDbViewportTableRecord
  2
*Active
 70
     0
 10
0.0
 20
0.0
 11
1.0
 21
1.0
 12
0.0
 22
0.0
 13
0.0
 23
0.0
 14
0.5
 24
0.5
 15
0.5
 25
0.5
 16
0.0
 26
0.0
 36
1.0
 17
91.00082462281999
 27
-128.4993055234307
 37
0.0
 40
256.9986110468615
 41
0.7081814508812795
 42
50.0
 43
0.0
 44
0.0
 50
0.0
 51
0.0
 71
     0
 72
   100
 73
     1
 74
     3
 75
     0
 76
     0
 77
     0
 78
     0
281
     0
 65
     1
110
0.0
120
0.0
130
0.0
111
1.0
121
0.0
131
0.0
112
0.0
122
1.0
132
0.0
 79
     0
146
0.0
 60
     3
 61
     5
292
     1
282
     1
141
0.0
142
0.0
 63
   250
361
3F
  0
ENDTAB
  0
TABLE
  2
LTYPE
  5
5
330
0
100
AcDbSymbolTable
 70
     3
  0
LTYPE
  5
14
330
5
100
AcDbSymbolTableRecord
100
AcDbLinetypeTableRecord
  2
ByBlock
 70
     0
  3

 72
    65
 73
     0
 40
0.0
  0
LTYPE
  5
15
330
5
100
AcDbSymbolTableRecord
100
AcDbLinetypeTableRecord
  2
ByLayer
 70
     0
  3

 72
    65
 73
     0
 40
0.0
  0
LTYPE
  5
16
330
5
100
AcDbSymbolTableRecord
100
AcDbLinetypeTableRecord
  2
Continuous
 70
     0
  3
Solid line
 72
    65
 73
     0
 40
0.0
  0
LTYPE
  5
B3
330
5
100
AcDbSymbolTableRecord
100
AcDbLinetypeTableRecord
  2
AI-Linetype-1
 70
     0
  3
Adobe Illustrator Linetype No. 1
 72
    65
 73
     2
 40
1.411111110758333
 49
0.7055555553791667
 74
     0
 49
-0.7055555553791667
 74
     0
  0
LTYPE
  5
B8
330
5
100
AcDbSymbolTableRecord
100
AcDbLinetypeTableRecord
  2
AI-Linetype-2
 70
     0
  3
Adobe Illustrator Linetype No. 2
 72
    65
 73
     2
 40
1.411111110758333
 49
0.7055555553791667
 74
     0
 49
-0.7055555553791667
 74
     0
  0
ENDTAB
  0
TABLE
  2
LAYER
  5
2
330
0
100
AcDbSymbolTable
 70
     2
  0
LAYER
  5
10
330
2
100
AcDbSymbolTableRecord
100
AcDbLayerTableRecord
  2
0
 70
     0
 62
     7
  6
Continuous
370
    -3
390
F
347
3E
  0
LAYER
  5
40
330
2
100
AcDbSymbolTableRecord
100
AcDbLayerTableRecord
  2
_U+30EC_U+30A4_U+30E4_U+30FC 1
 70
     0
 62
     7
  6
Continuous
370
    -3
390
F
347
3E
  0
ENDTAB
  0
TABLE
  2
STYLE
  5
3
330
0
100
AcDbSymbolTable
 70
     1
  0
STYLE
  5
11
330
3
100
AcDbSymbolTableRecord
100
AcDbTextStyleTableRecord
  2
Standard
 70
     0
 40
0.0
 41
1.0
 50
0.0
 71
     0
 42
0.2
  3
txt
  4

  0
ENDTAB
  0
TABLE
  2
VIEW
  5
6
330
0
100
AcDbSymbolTable
 70
     0
  0
ENDTAB
  0
TABLE
  2
UCS
  5
7
330
0
100
AcDbSymbolTable
 70
     0
  0
ENDTAB
  0
TABLE
  2
APPID
  5
9
330
0
100
AcDbSymbolTable
 70
     1
  0
APPID
  5
12
330
9
100
AcDbSymbolTableRecord
100
AcDbRegAppTableRecord
  2
ACAD
 70
     0
  0
ENDTAB
  0
TABLE
  2
DIMSTYLE
  5
A
330
0
100
AcDbSymbolTable
 70
     1
100
AcDbDimStyleTable
  0
DIMSTYLE
105
27
330
A
100
AcDbSymbolTableRecord
100
AcDbDimStyleTableRecord
  2
Standard
 70
     0
178
     0
340
11
  0
ENDTAB
  0
TABLE
  2
BLOCK_RECORD
  5
1
330
0
100
AcDbSymbolTable
 70
     5
  0
BLOCK_RECORD
  5
1F
330
1
100
AcDbSymbolTableRecord
100
AcDbBlockTableRecord
  2
*Model_Space
340
22
 70
     0
280
     1
281
     0
  0
BLOCK_RECORD
  5
1B
330
1
100
AcDbSymbolTableRecord
100
AcDbBlockTableRecord
  2
*Paper_Space
340
1E
 70
     0
280
     1
281
     0
  0
BLOCK_RECORD
  5
23
330
1
100
AcDbSymbolTableRecord
100
AcDbBlockTableRecord
  2
*Paper_Space0
340
26
 70
     0
280
     1
281
     0
  0
BLOCK_RECORD
  5
75
330
1
100
AcDbSymbolTableRecord
100
AcDbBlockTableRecord
  2
block 2
340
0
102
{BLKREFS
331
76
102
}
 70
     0
280
     1
281
     0
  0
BLOCK_RECORD
  5
94
330
1
100
AcDbSymbolTableRecord
100
AcDbBlockTableRecord
  2
block 3
340
0
102
{BLKREFS
331
95
102
}
 70
     0
280
     1
281
     0
  0
BLOCK_RECORD
  5
A8
330
1
100
AcDbSymbolTableRecord
100
AcDbBlockTableRecord
  2
block 4
340
0
102
{BLKREFS
331
A9
102
}
 70
     0
280
     1
281
     0
  0
BLOCK_RECORD
  5
D2
330
1
100
AcDbSymbolTableRecord
100
AcDbBlockTableRecord
  2
block 5
340
0
102
{BLKREFS
331
D3
102
}
 70
     0
280
     1
281
     0
  0
ENDTAB
  0
ENDSEC
  0
SECTION
  2
BLOCKS
  0
BLOCK
  5
20
330
1F
100
AcDbEntity
  8
0
100
AcDbBlockBegin
  2
*Model_Space
 70
     0
 10
0.0
 20
0.0
 30
0.0
  3
*Model_Space
  1

  0
ENDBLK
  5
21
330
1F
100
AcDbEntity
  8
0
100
AcDbBlockEnd
  0
BLOCK
  5
1C
330
1B
100
AcDbEntity
 67
     1
  8
0
100
AcDbBlockBegin
  2
*Paper_Space
 70
     0
 10
0.0
 20
0.0
 30
0.0
  3
*Paper_Space
  1

  0
ENDBLK
  5
1D
330
1B
100
AcDbEntity
 67
     1
  8
0
100
AcDbBlockEnd
  0
BLOCK
  5
24
330
23
100
AcDbEntity
  8
0
100
AcDbBlockBegin
  2
*Paper_Space0
 70
     0
 10
0.0
 20
0.0
 30
0.0
  3
*Paper_Space0
  1

  0
ENDBLK
  5
25
330
23
100
AcDbEntity
  8
0
100
AcDbBlockEnd
  0
BLOCK
  5
77
330
75
100
AcDbEntity
  8
0
100
AcDbBlockBegin
  2
block 2
 70
     0
 10
0.0
 20
0.0
 30
0.0
  3
block 2
  1

  0
SPLINE
  5
79
330
75
100
AcDbEntity
  8
_U+30EC_U+30A4_U+30E4_U+30FC 1
370
     0
100
AcDbSpline
210
0.0
220
0.0
230
1.0
 70
    11
 71
     3
 72
    29
 73
    25
 74
     0
 42
0.0000000001
 43
0.0000000001
 12
1.0
 22
0.0
 32
0.0
 13
1.0
 23
0.0
 33
0.0
 40
0.0
 40
0.0
 40
0.0
 40
0.0
 40
1.0
 40
1.0
 40
1.0
 40
2.0
 40
2.0
 40
2.0
 40
3.0
 40
3.0
 40
3.0
 40
4.0
 40
4.0
 40
4.0
 40
5.0
 40
5.0
 40
5.0
 40
6.0
 40
6.0
 40
6.0
 40
7.0
 40
7.0
 40
7.0
 40
8.0
 40
8.0
 40
8.0
 40
8.0
 10
109.7621201982539
 20
-138.6351209505843
 30
0.0
 10
109.9715820037571
 20
-138.7432969488211
 30
0.0
 10
109.9901855193775
 20
-138.9165852517292
 30
0.0
 10
109.9901855193775
 20
-139.0330294791306
 30
0.0
 10
109.9901855193775
 20
-139.1939154382918
 30
0.0
 10
109.9440212398751
 20
-139.3355088627356
 30
0.0
 10
109.7621201982539
 20
-139.4305934981285
 30
0.0
 10
109.5671277937888
 20
-139.5342908722345
 30
0.0
 10
109.3301052244036
 20
-139.5535834069519
 30
0.0
 10
109.1674967174998
 20
-139.5535834069519
 30
0.0
 10
109.0234917262163
 20
-139.5535834069519
 30
0.0
 10
108.7719997557931
 20
-139.5363579295256
 30
0.0
 10
108.5728732367457
 20
-139.4305934981285
 30
0.0
 10
108.370301622213
 20
-139.3227620094401
 30
0.0
 10
108.3468749729133
 20
-139.161876050279
 30
0.0
 10
108.3468749729133
 20
-139.0330294791306
 30
0.0
 10
108.3468749729133
 20
-138.8742105772606
 30
0.0
 10
108.3909721951245
 20
-138.7305500955257
 30
0.0
 10
108.5728732367457
 20
-138.6351209505843
 30
0.0
 10
108.7657985839197
 20
-138.5359022006091
 30
0.0
 10
108.9938639050432
 20
-138.5124755513094
 30
0.0
 10
109.1674967174998
 20
-138.5124755513094
 30
0.0
 10
109.3390624726652
 20
-138.5124755513094
 30
0.0
 10
109.5691948510799
 20
-138.5338351433179
 30
0.0
 10
109.7621201982539
 20
-138.6351209505843
 30
0.0
  0
SPLINE
  5
7A
330
75
100
AcDbEntity
  8
_U+30EC_U+30A4_U+30E4_U+30FC 1
370
     0
100
AcDbSpline
210
0.0
220
0.0
230
1.0
 70
    11
 71
     3
 72
    17
 73
    13
 74
     0
 42
0.0000000001
 43
0.0000000001
 12
1.0
 22
0.0
 32
0.0
 13
1.0
 23
0.0
 33
0.0
 40
0.0
 40
0.0
 40
0.0
 40
0.0
 40
1.0
 40
1.0
 40
1.0
 40
2.0
 40
2.0
 40
2.0
 40
3.0
 40
3.0
 40
3.0
 40
4.0
 40
4.0
 40
4.0
 40
4.0
 10
108.5391113009902
 20
-139.0330294791306
 30
0.0
 10
108.5391113009902
 20
-139.2827989018112
 30
0.0
 10
108.8229871689748
 20
-139.3293076908621
 30
0.0
 10
109.1674967174998
 20
-139.3293076908621
 30
0.0
 10
109.487201578531
 20
-139.3293076908621
 30
0.0
 10
109.7958821340094
 20
-139.293134188267
 30
0.0
 10
109.7958821340094
 20
-139.0330294791306
 30
0.0
 10
109.7958821340094
 20
-138.7853271137412
 30
0.0
 10
109.514762342413
 20
-138.7367512673991
 30
0.0
 10
109.1674967174998
 20
-138.7367512673991
 30
0.0
 10
108.8477918564686
 20
-138.7367512673991
 30
0.0
 10
108.5391113009902
 20
-138.7749918272854
 30
0.0
 10
108.5391113009902
 20
-139.0330294791306
 30
0.0
  0
HATCH
  5
7B
330
75
100
AcDbEntity
  8
_U+30EC_U+30A4_U+30E4_U+30FC 1
 62
   179
420
  2234388
100
AcDbHatch
 10
0.0
 20
0.0
 30
0.0
210
0.0
220
0.0
230
1.0
  2
SOLID
 70
     1
 71
     0
 91
        2
 92
        1
 93
        1
 72
     4
 94
        3
 73
     0
 74
     1
 95
       29
 96
       25
 40
0.0
 40
0.0
 40
0.0
 40
0.0
 40
1.0
 40
1.0
 40
1.0
 40
2.0
 40
2.0
 40
2.0
 40
3.0
 40
3.0
 40
3.0
 40
4.0
 40
4.0
 40
4.0
 40
5.0
 40
5.0
 40
5.0
 40
6.0
 40
6.0
 40
6.0
 40
7.0
 40
7.0
 40
7.0
 40
8.0
 40
8.0
 40
8.0
 40
8.0
 10
109.7621201982539
 20
-138.6351209505843
 10
109.9715820037571
 20
-138.7432969488211
 10
109.9901855193775
 20
-138.9165852517292
 10
109.9901855193775
 20
-139.0330294791306
 10
109.9901855193775
 20
-139.1939154382918
 10
109.9440212398751
 20
-139.3355088627356
 10
109.7621201982539
 20
-139.4305934981285
 10
109.5671277937888
 20
-139.5342908722345
 10
109.3301052244036
 20
-139.5535834069519
 10
109.1674967174998
 20
-139.5535834069519
 10
109.0234917262163
 20
-139.5535834069519
 10
108.7719997557931
 20
-139.5363579295256
 10
108.5728732367457
 20
-139.4305934981285
 10
108.370301622213
 20
-139.3227620094401
 10
108.3468749729133
 20
-139.161876050279
 10
108.3468749729133
 20
-139.0330294791306
 10
108.3468749729133
 20
-138.8742105772606
 10
108.3909721951245
 20
-138.7305500955257
 10
108.5728732367457
 20
-138.6351209505843
 10
108.7657985839197
 20
-138.5359022006091
 10
108.9938639050432
 20
-138.5124755513094
 10
109.1674967174998
 20
-138.5124755513094
 10
109.3390624726652
 20
-138.5124755513094
 10
109.5691948510799
 20
-138.5338351433179
 10
109.7621201982539
 20
-138.6351209505843
 97
        0
 97
        0
 92
        1
 93
        1
 72
     4
 94
        3
 73
     0
 74
     1
 95
       17
 96
       13
 40
0.0
 40
0.0
 40
0.0
 40
0.0
 40
1.0
 40
1.0
 40
1.0
 40
2.0
 40
2.0
 40
2.0
 40
3.0
 40
3.0
 40
3.0
 40
4.0
 40
4.0
 40
4.0
 40
4.0
 10
108.5391113009902
 20
-139.0330294791306
 10
108.5391113009902
 20
-139.2827989018112
 10
108.8229871689748
 20
-139.3293076908621
 10
109.1674967174998
 20
-139.3293076908621
 10
109.487201578531
 20
-139.3293076908621
 10
109.7958821340094
 20
-139.293134188267
 10
109.7958821340094
 20
-139.0330294791306
 10
109.7958821340094
 20
-138.7853271137412
 10
109.514762342413
 20
-138.7367512673991
 10
109.1674967174998
 20
-138.7367512673991
 10
108.8477918564686
 20
-138.7367512673991
 10
108.5391113009902
 20
-138.7749918272854
 10
108.5391113009902
 20
-139.0330294791306
 97
        0
 97
        0
 75
     2
 76
     1
 98
        0
  0
POLYLINE
  5
7C
330
75
100
AcDbEntity
  8
_U+30EC_U+30A4_U+30E4_U+30FC 1
370
     0
100
AcDb2dPolyline
 66
     1
 10
0.0
 20
0.0
 30
0.0
  0
VERTEX
  5
7D
330
7C
100
AcDbEntity
  8
_U+30EC_U+30A4_U+30E4_U+30FC 1
370
     0
100
AcDbVertex
100
AcDb2dVertex
 10
109.9398871252928
 20
-138.2961235548357
 30
0.0
  0
VERTEX
  5
7E
330
7C
100
AcDbEntity
  8
_U+30EC_U+30A4_U+30E4_U+30FC 1
370
     0
100
AcDbVertex
100
AcDb2dVertex
 10
109.6877061357725
 20
-138.2961235548357
 30
0.0
  0
VERTEX
  5
7F
330
7C
100
AcDbEntity
  8
_U+30EC_U+30A4_U+30E4_U+30FC 1
370
     0
100
AcDbVertex
100
AcDb2dVertex
 10
109.6877061357725
 20
-138.0442870748639
 30
0.0
  0
VERTEX
  5
80
330
7C
100
AcDbEntity
  8
_U+30EC_U+30A4_U+30E4_U+30FC 1
370
     0
100
AcDbVertex
100
AcDb2dVertex
 10
109.9398871252928
 20
-138.0442870748639
 30
0.0
  0
VERTEX
  5
81
330
7C
100
AcDbEntity
  8
_U+30EC_U+30A4_U+30E4_U+30FC 1
370
     0
100
AcDbVertex
100
AcDb2dVertex
 10
109.9398871252928
 20
-138.2961235548357
 30
0.0
  0
SEQEND
  5
82
330
7C
100
AcDbEntity
  8
_U+30EC_U+30A4_U+30E4_U+30FC 1
370
     0
  0
HATCH
  5
83
330
75
100
AcDbEntity
  8
_U+30EC_U+30A4_U+30E4_U+30FC 1
 62
   179
420
  2234388
100
AcDbHatch
 10
0.0
 20
0.0
 30
0.0
210
0.0
220
0.0
230
1.0
  2
SOLID
 70
     1
 71
     0
 91
        1
 92
        1
 93
        4
 72
     1
 10
109.9398871252928
 20
-138.2961235548357
 11
109.6877061357725
 21
-138.2961235548357
 72
     1
 10
109.6877061357725
 20
-138.2961235548357
 11
109.6877061357725
 21
-138.0442870748639
 72
     1
 10
109.6877061357725
 20
-138.0442870748639
 11
109.9398871252928
 21
-138.0442870748639
 72
     1
 10
109.9398871252928
 20
-138.0442870748639
 11
109.9398871252928
 21
-138.2961235548357
 97
        0
 75
     2
 76
     1
 98
        0
  0
SPLINE
  5
84
330
75
100
AcDbEntity
  8
_U+30EC_U+30A4_U+30E4_U+30FC 1
370
     0
100
AcDbSpline
210
0.0
220
0.0
230
1.0
 70
    11
 71
     3
 72
    29
 73
    25
 74
     0
 42
0.0000000001
 43
0.0000000001
 12
1.0
 22
0.0
 32
0.0
 13
1.0
 23
0.0
 33
0.0
 40
0.0
 40
0.0
 40
0.0
 40
0.0
 40
1.0
 40
1.0
 40
1.0
 40
2.0
 40
2.0
 40
2.0
 40
3.0
 40
3.0
 40
3.0
 40
4.0
 40
4.0
 40
4.0
 40
5.0
 40
5.0
 40
5.0
 40
6.0
 40
6.0
 40
6.0
 40
7.0
 40
7.0
 40
7.0
 40
8.0
 40
8.0
 40
8.0
 40
8.0
 10
109.9901855193775
 20
-137.3080701696661
 30
0.0
 10
109.9901855193775
 20
-137.5747205602244
 30
0.0
 10
109.8530707190645
 20
-137.8282795879388
 30
0.0
 10
109.5037380368602
 20
-137.8282795879388
 30
0.0
 10
109.2481119518546
 20
-137.8282795879388
 30
0.0
 10
109.1530273164617
 20
-137.686686163495
 30
0.0
 10
109.0917046168243
 20
-137.5809217320978
 30
0.0
 10
109.032448974478
 20
-137.7056341886639
 30
0.0
 10
108.9180718043677
 20
-137.7817707988879
 30
0.0
 10
108.756841335658
 20
-137.7817707988879
 30
0.0
 10
108.4819227159351
 20
-137.7817707988879
 30
0.0
 10
108.3468749729133
 20
-137.582988789389
 30
0.0
 10
108.3468749729133
 20
-137.3080701696661
 30
0.0
 10
108.3468749729133
 20
-137.02453881123
 30
0.0
 10
108.4908799641967
 20
-136.8340250308957
 30
0.0
 10
108.756841335658
 20
-136.8340250308957
 30
0.0
 10
108.9180718043677
 20
-136.8340250308957
 30
0.0
 10
109.032448974478
 20
-136.9125732079594
 30
0.0
 10
109.0917046168243
 20
-137.0372856645254
 30
0.0
 10
109.142003010909
 20
-136.948402201006
 30
0.0
 10
109.2370876463018
 20
-136.789583299136
 30
0.0
 10
109.4996039222779
 20
-136.789583299136
 30
0.0
 10
109.8744303110731
 20
-136.789583299136
 30
0.0
 10
109.9901855193775
 20
-137.0689805429897
 30
0.0
 10
109.9901855193775
 20
-137.3080701696661
 30
0.0
  0
SPLINE
  5
85
330
75
100
AcDbEntity
  8
_U+30EC_U+30A4_U+30E4_U+30FC 1
370
     0
100
AcDbSpline
210
0.0
220
0.0
230
1.0
 70
    11
 71
     3
 72
    17
 73
    13
 74
     0
 42
0.0000000001
 43
0.0000000001
 12
1.0
 22
0.0
 32
0.0
 13
1.0
 23
0.0
 33
0.0
 40
0.0
 40
0.0
 40
0.0
 40
0.0
 40
1.0
 40
1.0
 40
1.0
 40
2.0
 40
2.0
 40
2.0
 40
3.0
 40
3.0
 40
3.0
 40
4.0
 40
4.0
 40
4.0
 40
4.0
 10
108.5391113009902
 20
-137.3080701696661
 30
0.0
 10
108.5391113009902
 20
-137.4730902434095
 30
0.0
 10
108.6341959363831
 20
-137.5574950827981
 30
0.0
 10
108.769932698502
 20
-137.5574950827981
 30
0.0
 10
108.8925780977769
 20
-137.5574950827981
 30
0.0
 10
109.0110893824695
 20
-137.4858370967049
 30
0.0
 10
109.0110893824695
 20
-137.3080701696661
 30
0.0
 10
109.0110893824695
 20
-137.1303032426271
 30
0.0
 10
108.8925780977769
 20
-137.0583007469854
 30
0.0
 10
108.769932698502
 20
-137.0583007469854
 30
0.0
 10
108.6341959363831
 20
-137.0583007469854
 30
0.0
 10
108.5391113009902
 20
-137.1451171532137
 30
0.0
 10
108.5391113009902
 20
-137.3080701696661
 30
0.0
  0
SPLINE
  5
86
330
75
100
AcDbEntity
  8
_U+30EC_U+30A4_U+30E4_U+30FC 1
370
     0
100
AcDbSpline
210
0.0
220
0.0
230
1.0
 70
    11
 71
     3
 72
    17
 73
    13
 74
     0
 42
0.0000000001
 43
0.0000000001
 12
1.0
 22
0.0
 32
0.0
 13
1.0
 23
0.0
 33
0.0
 40
0.0
 40
0.0
 40
0.0
 40
0.0
 40
1.0
 40
1.0
 40
1.0
 40
2.0
 40
2.0
 40
2.0
 40
3.0
 40
3.0
 40
3.0
 40
4.0
 40
4.0
 40
4.0
 40
4.0
 10
109.1991915959641
 20
-137.3080701696661
 30
0.0
 10
109.1991915959641
 20
-137.451730651401
 30
0.0
 10
109.2860080021924
 20
-137.6043483813975
 30
0.0
 10
109.4892686358221
 20
-137.6043483813975
 30
0.0
 10
109.694596326743
 20
-137.6043483813975
 30
0.0
 10
109.7958821340094
 20
-137.4772243579918
 30
0.0
 10
109.7958821340094
 20
-137.3080701696661
 30
0.0
 10
109.7958821340094
 20
-137.1220350134626
 30
0.0
 10
109.6732367347345
 20
-137.0117919579345
 30
0.0
 10
109.4954698076956
 20
-137.0117919579345
 30
0.0
 10
109.2736056584455
 20
-137.0117919579345
 30
0.0
 10
109.1991915959641
 20
-137.1747449743869
 30
0.0
 10
109.1991915959641
 20
-137.3080701696661
 30
0.0
  0
HATCH
  5
87
330
75
100
AcDbEntity
  8
_U+30EC_U+30A4_U+30E4_U+30FC 1
 62
   179
420
  2234388
100
AcDbHatch
 10
0.0
 20
0.0
 30
0.0
210
0.0
220
0.0
230
1.0
  2
SOLID
 70
     1
 71
     0
 91
        3
 92
        1
 93
        1
 72
     4
 94
        3
 73
     0
 74
     1
 95
       29
 96
       25
 40
0.0
 40
0.0
 40
0.0
 40
0.0
 40
1.0
 40
1.0
 40
1.0
 40
2.0
 40
2.0
 40
2.0
 40
3.0
 40
3.0
 40
3.0
 40
4.0
 40
4.0
 40
4.0
 40
5.0
 40
5.0
 40
5.0
 40
6.0
 40
6.0
 40
6.0
 40
7.0
 40
7.0
 40
7.0
 40
8.0
 40
8.0
 40
8.0
 40
8.0
 10
109.9901855193775
 20
-137.3080701696661
 10
109.9901855193775
 20
-137.5747205602244
 10
109.8530707190645
 20
-137.8282795879388
 10
109.5037380368602
 20
-137.8282795879388
 10
109.2481119518546
 20
-137.8282795879388
 10
109.1530273164617
 20
-137.686686163495
 10
109.0917046168243
 20
-137.5809217320978
 10
109.032448974478
 20
-137.7056341886639
 10
108.9180718043677
 20
-137.7817707988879
 10
108.756841335658
 20
-137.7817707988879
 10
108.4819227159351
 20
-137.7817707988879
 10
108.3468749729133
 20
-137.582988789389
 10
108.3468749729133
 20
-137.3080701696661
 10
108.3468749729133
 20
-137.02453881123
 10
108.4908799641967
 20
-136.8340250308957
 10
108.756841335658
 20
-136.8340250308957
 10
108.9180718043677
 20
-136.8340250308957
 10
109.032448974478
 20
-136.9125732079594
 10
109.0917046168243
 20
-137.0372856645254
 10
109.142003010909
 20
-136.948402201006
 10
109.2370876463018
 20
-136.789583299136
 10
109.4996039222779
 20
-136.789583299136
 10
109.8744303110731
 20
-136.789583299136
 10
109.9901855193775
 20
-137.0689805429897
 10
109.9901855193775
 20
-137.3080701696661
 97
        0
 97
        0
 92
        1
 93
        1
 72
     4
 94
        3
 73
     0
 74
     1
 95
       17
 96
       13
 40
0.0
 40
0.0
 40
0.0
 40
0.0
 40
1.0
 40
1.0
 40
1.0
 40
2.0
 40
2.0
 40
2.0
 40
3.0
 40
3.0
 40
3.0
 40
4.0
 40
4.0
 40
4.0
 40
4.0
 10
108.5391113009902
 20
-137.3080701696661
 10
108.5391113009902
 20
-137.4730902434095
 10
108.6341959363831
 20
-137.5574950827981
 10
108.769932698502
 20
-137.5574950827981
 10
108.8925780977769
 20
-137.5574950827981
 10
109.0110893824695
 20
-137.4858370967049
 10
109.0110893824695
 20
-137.3080701696661
 10
109.0110893824695
 20
-137.1303032426271
 10
108.8925780977769
 20
-137.0583007469854
 10
108.769932698502
 20
-137.0583007469854
 10
108.6341959363831
 20
-137.0583007469854
 10
108.5391113009902
 20
-137.1451171532137
 10
108.5391113009902
 20
-137.3080701696661
 97
        0
 97
        0
 92
        1
 93
        1
 72
     4
 94
        3
 73
     0
 74
     1
 95
       17
 96
       13
 40
0.0
 40
0.0
 40
0.0
 40
0.0
 40
1.0
 40
1.0
 40
1.0
 40
2.0
 40
2.0
 40
2.0
 40
3.0
 40
3.0
 40
3.0
 40
4.0
 40
4.0
 40
4.0
 40
4.0
 10
109.1991915959641
 20
-137.3080701696661
 10
109.1991915959641
 20
-137.451730651401
 10
109.2860080021924
 20
-137.6043483813975
 10
109.4892686358221
 20
-137.6043483813975
 10
109.694596326743
 20
-137.6043483813975
 10
109.7958821340094
 20
-137.4772243579918
 10
109.7958821340094
 20
-137.3080701696661
 10
109.7958821340094
 20
-137.1220350134626
 10
109.6732367347345
 20
-137.0117919579345
 10
109.4954698076956
 20
-137.0117919579345
 10
109.2736056584455
 20
-137.0117919579345
 10
109.1991915959641
 20
-137.1747449743869
 10
109.1991915959641
 20
-137.3080701696661
 97
        0
 97
        0
 75
     2
 76
     1
 98
        0
  0
ENDBLK
  5
78
330
75
100
AcDbEntity
  8
0
100
AcDbBlockEnd
  0
BLOCK
  5
96
330
94
100
AcDbEntity
  8
0
100
AcDbBlockBegin
  2
block 3
 70
     0
 10
0.0
 20
0.0
 30
0.0
  3
block 3
  1

  0
SPLINE
  5
98
330
94
100
AcDbEntity
  8
_U+30EC_U+30A4_U+30E4_U+30FC 1
370
     0
100
AcDbSpline
210
0.0
220
0.0
230
1.0
 70
    11
 71
     3
 72
    44
 73
    40
 74
     0
 42
0.0000000001
 43
0.0000000001
 12
1.0
 22
0.0
 32
0.0
 13
1.0
 23
0.0
 33
0.0
 40
0.0
 40
0.0
 40
0.0
 40
0.0
 40
1.0
 40
1.0
 40
1.0
 40
2.0
 40
2.0
 40
2.0
 40
3.0
 40
3.0
 40
3.0
 40
4.0
 40
4.0
 40
4.0
 40
5.0
 40
5.0
 40
5.0
 40
6.0
 40
6.0
 40
6.0
 40
7.0
 40
7.0
 40
7.0
 40
8.0
 40
8.0
 40
8.0
 40
9.0
 40
9.0
 40
9.0
 40
10.0
 40
10.0
 40
10.0
 40
11.0
 40
11.0
 40
11.0
 40
12.0
 40
12.0
 40
12.0
 40
13.0
 40
13.0
 40
13.0
 40
13.0
 10
72.82983532250435
 20
-126.5442138355514
 30
0.0
 10
72.9884819696001
 20
-126.7619438702192
 30
0.0
 10
73.06255152253297
 20
-126.854961448321
 30
0.0
 10
73.20638425904215
 20
-126.9038818042115
 30
0.0
 10
73.20638425904215
 20
-126.9038818042115
 30
0.0
 10
73.20638425904215
 20
-126.1252902245451
 30
0.0
 10
73.20638425904215
 20
-126.1252902245451
 30
0.0
 10
73.20638425904215
 20
-126.1252902245451
 30
0.0
 10
73.41153969518878
 20
-126.1252902245451
 30
0.0
 10
73.41153969518878
 20
-126.1252902245451
 30
0.0
 10
73.41153969518878
 20
-126.1252902245451
 30
0.0
 10
73.41153969518878
 20
-127.1533067173436
 30
0.0
 10
73.41153969518878
 20
-127.1533067173436
 30
0.0
 10
73.05393878381985
 20
-127.1216118388793
 30
0.0
 10
72.97573511630468
 20
-127.0561550246596
 30
0.0
 10
72.67738984728204
 20
-126.6709933494086
 30
0.0
 10
72.47860783778313
 20
-126.4150227548546
 30
0.0
 10
72.41091171149797
 20
-126.3495659406348
 30
0.0
 10
72.2734524016365
 20
-126.3495659406348
 30
0.0
 10
72.1549411169439
 20
-126.3495659406348
 30
0.0
 10
72.02385523373015
 20
-126.4215684362766
 30
0.0
 10
72.02385523373015
 20
-126.6182833884843
 30
0.0
 10
72.02385523373015
 20
-126.8783880976207
 30
0.0
 10
72.25433212169337
 20
-126.8870008363338
 30
0.0
 10
72.37077634909481
 20
-126.8911349509161
 30
0.0
 10
72.37077634909481
 20
-126.8911349509161
 30
0.0
 10
72.37077634909481
 20
-127.1154106670059
 30
0.0
 10
72.37077634909481
 20
-127.1154106670059
 30
0.0
 10
72.24382458046335
 20
-127.1067979282927
 30
0.0
 10
72.13168672241846
 20
-127.0961181322885
 30
0.0
 10
72.01317543772588
 20
-127.0158474074822
 30
0.0
 10
71.85246173333897
 20
-126.9059488615027
 30
0.0
 10
71.81852754280926
 20
-126.7195691957507
 30
0.0
 10
71.81852754280926
 20
-126.6034694778977
 30
0.0
 10
71.81852754280926
 20
-126.3261392913351
 30
0.0
 10
72.00266789649586
 20
-126.1187445431231
 30
0.0
 10
72.27551945892765
 20
-126.1187445431231
 30
0.0
 10
72.50392928959971
 20
-126.1187445431231
 30
0.0
 10
72.60349254912343
 20
-126.2351887705245
 30
0.0
 10
72.82983532250435
 20
-126.5442138355514
 30
0.0
  0
HATCH
  5
99
330
94
100
AcDbEntity
  8
_U+30EC_U+30A4_U+30E4_U+30FC 1
 62
   179
420
  2234388
100
AcDbHatch
 10
0.0
 20
0.0
 30
0.0
210
0.0
220
0.0
230
1.0
  2
SOLID
 70
     1
 71
     0
 91
        1
 92
        1
 93
        1
 72
     4
 94
        3
 73
     0
 74
     1
 95
       44
 96
       40
 40
0.0
 40
0.0
 40
0.0
 40
0.0
 40
1.0
 40
1.0
 40
1.0
 40
2.0
 40
2.0
 40
2.0
 40
3.0
 40
3.0
 40
3.0
 40
4.0
 40
4.0
 40
4.0
 40
5.0
 40
5.0
 40
5.0
 40
6.0
 40
6.0
 40
6.0
 40
7.0
 40
7.0
 40
7.0
 40
8.0
 40
8.0
 40
8.0
 40
9.0
 40
9.0
 40
9.0
 40
10.0
 40
10.0
 40
10.0
 40
11.0
 40
11.0
 40
11.0
 40
12.0
 40
12.0
 40
12.0
 40
13.0
 40
13.0
 40
13.0
 40
13.0
 10
72.82983532250435
 20
-126.5442138355514
 10
72.9884819696001
 20
-126.7619438702192
 10
73.06255152253297
 20
-126.854961448321
 10
73.20638425904215
 20
-126.9038818042115
 10
73.20638425904215
 20
-126.9038818042115
 10
73.20638425904215
 20
-126.1252902245451
 10
73.20638425904215
 20
-126.1252902245451
 10
73.20638425904215
 20
-126.1252902245451
 10
73.41153969518878
 20
-126.1252902245451
 10
73.41153969518878
 20
-126.1252902245451
 10
73.41153969518878
 20
-126.1252902245451
 10
73.41153969518878
 20
-127.1533067173436
 10
73.41153969518878
 20
-127.1533067173436
 10
73.05393878381985
 20
-127.1216118388793
 10
72.97573511630468
 20
-127.0561550246596
 10
72.67738984728204
 20
-126.6709933494086
 10
72.47860783778313
 20
-126.4150227548546
 10
72.41091171149797
 20
-126.3495659406348
 10
72.2734524016365
 20
-126.3495659406348
 10
72.1549411169439
 20
-126.3495659406348
 10
72.02385523373015
 20
-126.4215684362766
 10
72.02385523373015
 20
-126.6182833884843
 10
72.02385523373015
 20
-126.8783880976207
 10
72.25433212169337
 20
-126.8870008363338
 10
72.37077634909481
 20
-126.8911349509161
 10
72.37077634909481
 20
-126.8911349509161
 10
72.37077634909481
 20
-127.1154106670059
 10
72.37077634909481
 20
-127.1154106670059
 10
72.24382458046335
 20
-127.1067979282927
 10
72.13168672241846
 20
-127.0961181322885
 10
72.01317543772588
 20
-127.0158474074822
 10
71.85246173333897
 20
-126.9059488615027
 10
71.81852754280926
 20
-126.7195691957507
 10
71.81852754280926
 20
-126.6034694778977
 10
71.81852754280926
 20
-126.3261392913351
 10
72.00266789649586
 20
-126.1187445431231
 10
72.27551945892765
 20
-126.1187445431231
 10
72.50392928959971
 20
-126.1187445431231
 10
72.60349254912343
 20
-126.2351887705245
 10
72.82983532250435
 20
-126.5442138355514
 97
        0
 97
        0
 75
     2
 76
     1
 98
        0
  0
SPLINE
  5
9A
330
94
100
AcDbEntity
  8
_U+30EC_U+30A4_U+30E4_U+30FC 1
370
     0
100
AcDbSpline
210
0.0
220
0.0
230
1.0
 70
    11
 71
     3
 72
    53
 73
    49
 74
     0
 42
0.0000000001
 43
0.0000000001
 12
1.0
 22
0.0
 32
0.0
 13
1.0
 23
0.0
 33
0.0
 40
0.0
 40
0.0
 40
0.0
 40
0.0
 40
1.0
 40
1.0
 40
1.0
 40
2.0
 40
2.0
 40
2.0
 40
3.0
 40
3.0
 40
3.0
 40
4.0
 40
4.0
 40
4.0
 40
5.0
 40
5.0
 40
5.0
 40
6.0
 40
6.0
 40
6.0
 40
7.0
 40
7.0
 40
7.0
 40
8.0
 40
8.0
 40
8.0
 40
9.0
 40
9.0
 40
9.0
 40
10.0
 40
10.0
 40
10.0
 40
11.0
 40
11.0
 40
11.0
 40
12.0
 40
12.0
 40
12.0
 40
13.0
 40
13.0
 40
13.0
 40
14.0
 40
14.0
 40
14.0
 40
15.0
 40
15.0
 40
15.0
 40
16.0
 40
16.0
 40
16.0
 40
16.0
 10
73.46235485359622
 20
-125.4793348210607
 30
0.0
 10
73.46235485359622
 20
-125.5575384885759
 30
0.0
 10
73.44530163094423
 20
-125.6591688053908
 30
0.0
 10
73.38191187401564
 20
-125.7607991222056
 30
0.0
 10
73.27184107326191
 20
-125.9340874251137
 30
0.0
 10
73.14075519004815
 20
-125.9554470171223
 30
0.0
 10
73.03292370135983
 20
-125.9743950422911
 30
0.0
 10
73.03292370135983
 20
-125.9743950422911
 30
0.0
 10
73.03292370135983
 20
-125.7521863834925
 30
0.0
 10
73.03292370135983
 20
-125.7521863834925
 30
0.0
 10
73.23170571085875
 20
-125.697409365277
 30
0.0
 10
73.2613335320319
 20
-125.5702853418713
 30
0.0
 10
73.2613335320319
 20
-125.4772677637696
 30
0.0
 10
73.2613335320319
 20
-125.337741396617
 30
0.0
 10
73.16194252728243
 20
-125.1854681761689
 30
0.0
 10
72.9292263272538
 20
-125.1854681761689
 30
0.0
 10
72.67325573269974
 20
-125.1854681761689
 30
0.0
 10
72.60349254912343
 20
-125.365302160499
 30
0.0
 10
72.60349254912343
 20
-125.4858805024827
 30
0.0
 10
72.60349254912343
 20
-125.517575380947
 30
0.0
 10
72.60349254912343
 20
-125.6591688053908
 30
0.0
 10
72.73251137504604
 20
-125.7480522689102
 30
0.0
 10
72.73251137504604
 20
-125.7480522689102
 30
0.0
 10
72.7133910951029
 20
-125.923752138658
 30
0.0
 10
72.7133910951029
 20
-125.923752138658
 30
0.0
 10
72.7133910951029
 20
-125.923752138658
 30
0.0
 10
71.86727564392555
 20
-125.8031737966742
 30
0.0
 10
71.86727564392555
 20
-125.8031737966742
 30
0.0
 10
71.86727564392555
 20
-125.8031737966742
 30
0.0
 10
71.86727564392555
 20
-125.0245822170077
 30
0.0
 10
71.86727564392555
 20
-125.0245822170077
 30
0.0
 10
71.86727564392555
 20
-125.0245822170077
 30
0.0
 10
72.06192353884217
 20
-125.0245822170077
 30
0.0
 10
72.06192353884217
 20
-125.0245822170077
 30
0.0
 10
72.06192353884217
 20
-125.0245822170077
 30
0.0
 10
72.06192353884217
 20
-125.6402207802219
 30
0.0
 10
72.06192353884217
 20
-125.6402207802219
 30
0.0
 10
72.06192353884217
 20
-125.6402207802219
 30
0.0
 10
72.48498126443084
 20
-125.7056775944416
 30
0.0
 10
72.48498126443084
 20
-125.7056775944416
 30
0.0
 10
72.45104707390114
 20
-125.6443548948042
 30
0.0
 10
72.41091171149797
 20
-125.5620171127067
 30
0.0
 10
72.41091171149797
 20
-125.4435058280141
 30
0.0
 10
72.41091171149797
 20
-125.1896022907512
 30
0.0
 10
72.59711912247572
 20
-124.952579721366
 30
0.0
 10
72.91010604731068
 20
-124.952579721366
 30
0.0
 10
73.22757159627645
 20
-124.952579721366
 30
0.0
 10
73.46235485359622
 20
-125.1768554374558
 30
0.0
 10
73.46235485359622
 20
-125.4793348210607
 30
0.0
  0
HATCH
  5
9B
330
94
100
AcDbEntity
  8
_U+30EC_U+30A4_U+30E4_U+30FC 1
 62
   179
420
  2234388
100
AcDbHatch
 10
0.0
 20
0.0
 30
0.0
210
0.0
220
0.0
230
1.0
  2
SOLID
 70
     1
 71
     0
 91
        1
 92
        1
 93
        1
 72
     4
 94
        3
 73
     0
 74
     1
 95
       53
 96
       49
 40
0.0
 40
0.0
 40
0.0
 40
0.0
 40
1.0
 40
1.0
 40
1.0
 40
2.0
 40
2.0
 40
2.0
 40
3.0
 40
3.0
 40
3.0
 40
4.0
 40
4.0
 40
4.0
 40
5.0
 40
5.0
 40
5.0
 40
6.0
 40
6.0
 40
6.0
 40
7.0
 40
7.0
 40
7.0
 40
8.0
 40
8.0
 40
8.0
 40
9.0
 40
9.0
 40
9.0
 40
10.0
 40
10.0
 40
10.0
 40
11.0
 40
11.0
 40
11.0
 40
12.0
 40
12.0
 40
12.0
 40
13.0
 40
13.0
 40
13.0
 40
14.0
 40
14.0
 40
14.0
 40
15.0
 40
15.0
 40
15.0
 40
16.0
 40
16.0
 40
16.0
 40
16.0
 10
73.46235485359622
 20
-125.4793348210607
 10
73.46235485359622
 20
-125.5575384885759
 10
73.44530163094423
 20
-125.6591688053908
 10
73.38191187401564
 20
-125.7607991222056
 10
73.27184107326191
 20
-125.9340874251137
 10
73.14075519004815
 20
-125.9554470171223
 10
73.03292370135983
 20
-125.9743950422911
 10
73.03292370135983
 20
-125.9743950422911
 10
73.03292370135983
 20
-125.7521863834925
 10
73.03292370135983
 20
-125.7521863834925
 10
73.23170571085875
 20
-125.697409365277
 10
73.2613335320319
 20
-125.5702853418713
 10
73.2613335320319
 20
-125.4772677637696
 10
73.2613335320319
 20
-125.337741396617
 10
73.16194252728243
 20
-125.1854681761689
 10
72.9292263272538
 20
-125.1854681761689
 10
72.67325573269974
 20
-125.1854681761689
 10
72.60349254912343
 20
-125.365302160499
 10
72.60349254912343
 20
-125.4858805024827
 10
72.60349254912343
 20
-125.517575380947
 10
72.60349254912343
 20
-125.6591688053908
 10
72.73251137504604
 20
-125.7480522689102
 10
72.73251137504604
 20
-125.7480522689102
 10
72.7133910951029
 20
-125.923752138658
 10
72.7133910951029
 20
-125.923752138658
 10
72.7133910951029
 20
-125.923752138658
 10
71.86727564392555
 20
-125.8031737966742
 10
71.86727564392555
 20
-125.8031737966742
 10
71.86727564392555
 20
-125.8031737966742
 10
71.86727564392555
 20
-125.0245822170077
 10
71.86727564392555
 20
-125.0245822170077
 10
71.86727564392555
 20
-125.0245822170077
 10
72.06192353884217
 20
-125.0245822170077
 10
72.06192353884217
 20
-125.0245822170077
 10
72.06192353884217
 20
-125.0245822170077
 10
72.06192353884217
 20
-125.6402207802219
 10
72.06192353884217
 20
-125.6402207802219
 10
72.06192353884217
 20
-125.6402207802219
 10
72.48498126443084
 20
-125.7056775944416
 10
72.48498126443084
 20
-125.7056775944416
 10
72.45104707390114
 20
-125.6443548948042
 10
72.41091171149797
 20
-125.5620171127067
 10
72.41091171149797
 20
-125.4435058280141
 10
72.41091171149797
 20
-125.1896022907512
 10
72.59711912247572
 20
-124.952579721366
 10
72.91010604731068
 20
-124.952579721366
 10
73.22757159627645
 20
-124.952579721366
 10
73.46235485359622
 20
-125.1768554374558
 10
73.46235485359622
 20
-125.4793348210607
 97
        0
 97
        0
 75
     2
 76
     1
 98
        0
  0
ENDBLK
  5
97
330
94
100
AcDbEntity
  8
0
100
AcDbBlockEnd
  0
BLOCK
  5
AA
330
A8
100
AcDbEntity
  8
0
100
AcDbBlockBegin
  2
block 4
 70
     0
 10
0.0
 20
0.0
 30
0.0
  3
block 4
  1

  0
SPLINE
  5
AC
330
A8
100
AcDbEntity
  8
_U+30EC_U+30A4_U+30E4_U+30FC 1
370
     0
100
AcDbSpline
210
0.0
220
0.0
230
1.0
 70
    11
 71
     3
 72
    44
 73
    40
 74
     0
 42
0.0000000001
 43
0.0000000001
 12
1.0
 22
0.0
 32
0.0
 13
1.0
 23
0.0
 33
0.0
 40
0.0
 40
0.0
 40
0.0
 40
0.0
 40
1.0
 40
1.0
 40
1.0
 40
2.0
 40
2.0
 40
2.0
 40
3.0
 40
3.0
 40
3.0
 40
4.0
 40
4.0
 40
4.0
 40
5.0
 40
5.0
 40
5.0
 40
6.0
 40
6.0
 40
6.0
 40
7.0
 40
7.0
 40
7.0
 40
8.0
 40
8.0
 40
8.0
 40
9.0
 40
9.0
 40
9.0
 40
10.0
 40
10.0
 40
10.0
 40
11.0
 40
11.0
 40
11.0
 40
12.0
 40
12.0
 40
12.0
 40
13.0
 40
13.0
 40
13.0
 40
13.0
 10
89.93662920928668
 20
-141.2943901556486
 30
0.0
 10
89.7188991746189
 20
-141.4532090575186
 30
0.0
 10
89.62588159651715
 20
-141.5272786104515
 30
0.0
 10
89.5769612406266
 20
-141.6709390921864
 30
0.0
 10
89.5769612406266
 20
-141.6709390921864
 30
0.0
 10
90.35555282029306
 20
-141.6709390921864
 30
0.0
 10
90.35555282029306
 20
-141.6709390921864
 30
0.0
 10
90.35555282029306
 20
-141.6709390921864
 30
0.0
 10
90.35555282029306
 20
-141.8762667831073
 30
0.0
 10
90.35555282029306
 20
-141.8762667831073
 30
0.0
 10
90.35555282029306
 20
-141.8762667831073
 30
0.0
 10
89.32753632749451
 20
-141.8762667831073
 30
0.0
 10
89.32753632749451
 20
-141.8762667831073
 30
0.0
 10
89.3592312059588
 20
-141.5186658717384
 30
0.0
 10
89.42468802017855
 20
-141.4404622042232
 30
0.0
 10
89.80984969542949
 20
-141.1421169352006
 30
0.0
 10
90.06582028998355
 20
-140.9433349257017
 30
0.0
 10
90.13127710420329
 20
-140.8754665446423
 30
0.0
 10
90.13127710420329
 20
-140.7380072347808
 30
0.0
 10
90.13127710420329
 20
-140.6194959500882
 30
0.0
 10
90.05927460856158
 20
-140.4885823216487
 30
0.0
 10
89.86255965635381
 20
-140.4885823216487
 30
0.0
 10
89.60245494721745
 20
-140.4885823216487
 30
0.0
 10
89.59384220850433
 20
-140.7190592096119
 30
0.0
 10
89.58970809392203
 20
-140.8355034370134
 30
0.0
 10
89.58970809392203
 20
-140.8355034370134
 30
0.0
 10
89.36543237783226
 20
-140.8355034370134
 30
0.0
 10
89.36543237783226
 20
-140.8355034370134
 30
0.0
 10
89.37404511654537
 20
-140.7083794136076
 30
0.0
 10
89.38472491254966
 20
-140.596413810337
 30
0.0
 10
89.46499563735598
 20
-140.4779025256444
 30
0.0
 10
89.57489418333545
 20
-140.3170165664833
 30
0.0
 10
89.76127384908746
 20
-140.2832546307278
 30
0.0
 10
89.87737356694038
 20
-140.2832546307278
 30
0.0
 10
90.154703753503
 20
-140.2832546307278
 30
0.0
 10
90.36209850171504
 20
-140.4672227296402
 30
0.0
 10
90.36209850171504
 20
-140.7400742920719
 30
0.0
 10
90.36209850171504
 20
-140.9688286322925
 30
0.0
 10
90.2456542743136
 20
-141.0680473822677
 30
0.0
 10
89.93662920928668
 20
-141.2943901556486
 30
0.0
  0
HATCH
  5
AD
330
A8
100
AcDbEntity
  8
_U+30EC_U+30A4_U+30E4_U+30FC 1
 62
   179
420
  2234388
100
AcDbHatch
 10
0.0
 20
0.0
 30
0.0
210
0.0
220
0.0
230
1.0
  2
SOLID
 70
     1
 71
     0
 91
        1
 92
        1
 93
        1
 72
     4
 94
        3
 73
     0
 74
     1
 95
       44
 96
       40
 40
0.0
 40
0.0
 40
0.0
 40
0.0
 40
1.0
 40
1.0
 40
1.0
 40
2.0
 40
2.0
 40
2.0
 40
3.0
 40
3.0
 40
3.0
 40
4.0
 40
4.0
 40
4.0
 40
5.0
 40
5.0
 40
5.0
 40
6.0
 40
6.0
 40
6.0
 40
7.0
 40
7.0
 40
7.0
 40
8.0
 40
8.0
 40
8.0
 40
9.0
 40
9.0
 40
9.0
 40
10.0
 40
10.0
 40
10.0
 40
11.0
 40
11.0
 40
11.0
 40
12.0
 40
12.0
 40
12.0
 40
13.0
 40
13.0
 40
13.0
 40
13.0
 10
89.93662920928668
 20
-141.2943901556486
 10
89.7188991746189
 20
-141.4532090575186
 10
89.62588159651715
 20
-141.5272786104515
 10
89.5769612406266
 20
-141.6709390921864
 10
89.5769612406266
 20
-141.6709390921864
 10
90.35555282029306
 20
-141.6709390921864
 10
90.35555282029306
 20
-141.6709390921864
 10
90.35555282029306
 20
-141.6709390921864
 10
90.35555282029306
 20
-141.8762667831073
 10
90.35555282029306
 20
-141.8762667831073
 10
90.35555282029306
 20
-141.8762667831073
 10
89.32753632749451
 20
-141.8762667831073
 10
89.32753632749451
 20
-141.8762667831073
 10
89.3592312059588
 20
-141.5186658717384
 10
89.42468802017855
 20
-141.4404622042232
 10
89.80984969542949
 20
-141.1421169352006
 10
90.06582028998355
 20
-140.9433349257017
 10
90.13127710420329
 20
-140.8754665446423
 10
90.13127710420329
 20
-140.7380072347808
 10
90.13127710420329
 20
-140.6194959500882
 10
90.05927460856158
 20
-140.4885823216487
 10
89.86255965635381
 20
-140.4885823216487
 10
89.60245494721745
 20
-140.4885823216487
 10
89.59384220850433
 20
-140.7190592096119
 10
89.58970809392203
 20
-140.8355034370134
 10
89.58970809392203
 20
-140.8355034370134
 10
89.36543237783226
 20
-140.8355034370134
 10
89.36543237783226
 20
-140.8355034370134
 10
89.37404511654537
 20
-140.7083794136076
 10
89.38472491254966
 20
-140.596413810337
 10
89.46499563735598
 20
-140.4779025256444
 10
89.57489418333545
 20
-140.3170165664833
 10
89.76127384908746
 20
-140.2832546307278
 10
89.87737356694038
 20
-140.2832546307278
 10
90.154703753503
 20
-140.2832546307278
 10
90.36209850171504
 20
-140.4672227296402
 10
90.36209850171504
 20
-140.7400742920719
 10
90.36209850171504
 20
-140.9688286322925
 10
90.2456542743136
 20
-141.0680473822677
 10
89.93662920928668
 20
-141.2943901556486
 97
        0
 97
        0
 75
     2
 76
     1
 98
        0
  0
SPLINE
  5
AE
330
A8
100
AcDbEntity
  8
_U+30EC_U+30A4_U+30E4_U+30FC 1
370
     0
100
AcDbSpline
210
0.0
220
0.0
230
1.0
 70
    11
 71
     3
 72
    53
 73
    49
 74
     0
 42
0.0000000001
 43
0.0000000001
 12
1.0
 22
0.0
 32
0.0
 13
1.0
 23
0.0
 33
0.0
 40
0.0
 40
0.0
 40
0.0
 40
0.0
 40
1.0
 40
1.0
 40
1.0
 40
2.0
 40
2.0
 40
2.0
 40
3.0
 40
3.0
 40
3.0
 40
4.0
 40
4.0
 40
4.0
 40
5.0
 40
5.0
 40
5.0
 40
6.0
 40
6.0
 40
6.0
 40
7.0
 40
7.0
 40
7.0
 40
8.0
 40
8.0
 40
8.0
 40
9.0
 40
9.0
 40
9.0
 40
10.0
 40
10.0
 40
10.0
 40
11.0
 40
11.0
 40
11.0
 40
12.0
 40
12.0
 40
12.0
 40
13.0
 40
13.0
 40
13.0
 40
14.0
 40
14.0
 40
14.0
 40
15.0
 40
15.0
 40
15.0
 40
16.0
 40
16.0
 40
16.0
 40
16.0
 10
91.0015082237774
 20
-141.9269096867405
 30
0.0
 10
90.92330455626224
 20
-141.9269096867405
 30
0.0
 10
90.82167423944736
 20
-141.9100287188628
 30
0.0
 10
90.7200439226325
 20
-141.8466389619342
 30
0.0
 10
90.54675561972442
 20
-141.7367404159547
 30
0.0
 10
90.52539602771587
 20
-141.6054822779667
 30
0.0
 10
90.506448002547
 20
-141.4976507892784
 30
0.0
 10
90.506448002547
 20
-141.4976507892784
 30
0.0
 10
90.72865666134562
 20
-141.4976507892784
 30
0.0
 10
90.72865666134562
 20
-141.4976507892784
 30
0.0
 10
90.78343367956109
 20
-141.6964327987773
 30
0.0
 10
90.91055770296681
 20
-141.7260606199504
 30
0.0
 10
91.00357528106855
 20
-141.7260606199504
 30
0.0
 10
91.14310164822118
 20
-141.7260606199504
 30
0.0
 10
91.29537486866921
 20
-141.6264973604267
 30
0.0
 10
91.29537486866921
 20
-141.3939534151723
 30
0.0
 10
91.29537486866921
 20
-141.1379828206183
 30
0.0
 10
91.11554088433917
 20
-141.0680473822677
 30
0.0
 10
90.99496254235542
 20
-141.0680473822677
 30
0.0
 10
90.96326766389113
 20
-141.0680473822677
 30
0.0
 10
90.82167423944736
 20
-141.0680473822677
 30
0.0
 10
90.73279077592792
 20
-141.1972384629646
 30
0.0
 10
90.73279077592792
 20
-141.1972384629646
 30
0.0
 10
90.55709090618018
 20
-141.1782904377957
 30
0.0
 10
90.55709090618018
 20
-141.1782904377957
 30
0.0
 10
90.55709090618018
 20
-141.1782904377957
 30
0.0
 10
90.67766924816392
 20
-140.3318304770698
 30
0.0
 10
90.67766924816392
 20
-140.3318304770698
 30
0.0
 10
90.67766924816392
 20
-140.3318304770698
 30
0.0
 10
91.45626082783038
 20
-140.3318304770698
 30
0.0
 10
91.45626082783038
 20
-140.3318304770698
 30
0.0
 10
91.45626082783038
 20
-140.3318304770698
 30
0.0
 10
91.45626082783038
 20
-140.5264783719864
 30
0.0
 10
91.45626082783038
 20
-140.5264783719864
 30
0.0
 10
91.45626082783038
 20
-140.5264783719864
 30
0.0
 10
90.84062226461624
 20
-140.5264783719864
 30
0.0
 10
90.84062226461624
 20
-140.5264783719864
 30
0.0
 10
90.84062226461624
 20
-140.5264783719864
 30
0.0
 10
90.77516545039649
 20
-140.9495360975751
 30
0.0
 10
90.77516545039649
 20
-140.9495360975751
 30
0.0
 10
90.83648815003394
 20
-140.9157741618197
 30
0.0
 10
90.91882593213141
 20
-140.8754665446423
 30
0.0
 10
91.037337216824
 20
-140.8754665446423
 30
0.0
 10
91.29124075408691
 20
-140.8754665446423
 30
0.0
 10
91.5282633234721
 20
-141.0618462103943
 30
0.0
 10
91.5282633234721
 20
-141.3750053900035
 30
0.0
 10
91.5282633234721
 20
-141.692298684195
 30
0.0
 10
91.30398760738234
 20
-141.9269096867405
 30
0.0
 10
91.0015082237774
 20
-141.9269096867405
 30
0.0
  0
HATCH
  5
AF
330
A8
100
AcDbEntity
  8
_U+30EC_U+30A4_U+30E4_U+30FC 1
 62
   179
420
  2234388
100
AcDbHatch
 10
0.0
 20
0.0
 30
0.0
210
0.0
220
0.0
230
1.0
  2
SOLID
 70
     1
 71
     0
 91
        1
 92
        1
 93
        1
 72
     4
 94
        3
 73
     0
 74
     1
 95
       53
 96
       49
 40
0.0
 40
0.0
 40
0.0
 40
0.0
 40
1.0
 40
1.0
 40
1.0
 40
2.0
 40
2.0
 40
2.0
 40
3.0
 40
3.0
 40
3.0
 40
4.0
 40
4.0
 40
4.0
 40
5.0
 40
5.0
 40
5.0
 40
6.0
 40
6.0
 40
6.0
 40
7.0
 40
7.0
 40
7.0
 40
8.0
 40
8.0
 40
8.0
 40
9.0
 40
9.0
 40
9.0
 40
10.0
 40
10.0
 40
10.0
 40
11.0
 40
11.0
 40
11.0
 40
12.0
 40
12.0
 40
12.0
 40
13.0
 40
13.0
 40
13.0
 40
14.0
 40
14.0
 40
14.0
 40
15.0
 40
15.0
 40
15.0
 40
16.0
 40
16.0
 40
16.0
 40
16.0
 10
91.0015082237774
 20
-141.9269096867405
 10
90.92330455626224
 20
-141.9269096867405
 10
90.82167423944736
 20
-141.9100287188628
 10
90.7200439226325
 20
-141.8466389619342
 10
90.54675561972442
 20
-141.7367404159547
 10
90.52539602771587
 20
-141.6054822779667
 10
90.506448002547
 20
-141.4976507892784
 10
90.506448002547
 20
-141.4976507892784
 10
90.72865666134562
 20
-141.4976507892784
 10
90.72865666134562
 20
-141.4976507892784
 10
90.78343367956109
 20
-141.6964327987773
 10
90.91055770296681
 20
-141.7260606199504
 10
91.00357528106855
 20
-141.7260606199504
 10
91.14310164822118
 20
-141.7260606199504
 10
91.29537486866921
 20
-141.6264973604267
 10
91.29537486866921
 20
-141.3939534151723
 10
91.29537486866921
 20
-141.1379828206183
 10
91.11554088433917
 20
-141.0680473822677
 10
90.99496254235542
 20
-141.0680473822677
 10
90.96326766389113
 20
-141.0680473822677
 10
90.82167423944736
 20
-141.0680473822677
 10
90.73279077592792
 20
-141.1972384629646
 10
90.73279077592792
 20
-141.1972384629646
 10
90.55709090618018
 20
-141.1782904377957
 10
90.55709090618018
 20
-141.1782904377957
 10
90.55709090618018
 20
-141.1782904377957
 10
90.67766924816392
 20
-140.3318304770698
 10
90.67766924816392
 20
-140.3318304770698
 10
90.67766924816392
 20
-140.3318304770698
 10
91.45626082783038
 20
-140.3318304770698
 10
91.45626082783038
 20
-140.3318304770698
 10
91.45626082783038
 20
-140.3318304770698
 10
91.45626082783038
 20
-140.5264783719864
 10
91.45626082783038
 20
-140.5264783719864
 10
91.45626082783038
 20
-140.5264783719864
 10
90.84062226461624
 20
-140.5264783719864
 10
90.84062226461624
 20
-140.5264783719864
 10
90.84062226461624
 20
-140.5264783719864
 10
90.77516545039649
 20
-140.9495360975751
 10
90.77516545039649
 20
-140.9495360975751
 10
90.83648815003394
 20
-140.9157741618197
 10
90.91882593213141
 20
-140.8754665446423
 10
91.037337216824
 20
-140.8754665446423
 10
91.29124075408691
 20
-140.8754665446423
 10
91.5282633234721
 20
-141.0618462103943
 10
91.5282633234721
 20
-141.3750053900035
 10
91.5282633234721
 20
-141.692298684195
 10
91.30398760738234
 20
-141.9269096867405
 10
91.0015082237774
 20
-141.9269096867405
 97
        0
 97
        0
 75
     2
 76
     1
 98
        0
  0
ENDBLK
  5
AB
330
A8
100
AcDbEntity
  8
0
100
AcDbBlockEnd
  0
BLOCK
  5
D4
330
D2
100
AcDbEntity
  8
0
100
AcDbBlockBegin
  2
block 5
 70
     0
 10
0.0
 20
0.0
 30
0.0
  3
block 5
  1

  0
SPLINE
  5
D6
330
D2
100
AcDbEntity
  8
_U+30EC_U+30A4_U+30E4_U+30FC 1
370
     0
100
AcDbSpline
210
0.0
220
0.0
230
1.0
 70
    11
 71
     3
 72
   242
 73
   238
 74
     0
 42
0.0000000001
 43
0.0000000001
 12
1.0
 22
0.0
 32
0.0
 13
1.0
 23
0.0
 33
0.0
 40
0.0
 40
0.0
 40
0.0
 40
0.0
 40
1.0
 40
1.0
 40
1.0
 40
2.0
 40
2.0
 40
2.0
 40
3.0
 40
3.0
 40
3.0
 40
4.0
 40
4.0
 40
4.0
 40
5.0
 40
5.0
 40
5.0
 40
6.0
 40
6.0
 40
6.0
 40
7.0
 40
7.0
 40
7.0
 40
8.0
 40
8.0
 40
8.0
 40
9.0
 40
9.0
 40
9.0
 40
10.0
 40
10.0
 40
10.0
 40
11.0
 40
11.0
 40
11.0
 40
12.0
 40
12.0
 40
12.0
 40
13.0
 40
13.0
 40
13.0
 40
14.0
 40
14.0
 40
14.0
 40
15.0
 40
15.0
 40
15.0
 40
16.0
 40
16.0
 40
16.0
 40
17.0
 40
17.0
 40
17.0
 40
18.0
 40
18.0
 40
18.0
 40
19.0
 40
19.0
 40
19.0
 40
20.0
 40
20.0
 40
20.0
 40
21.0
 40
21.0
 40
21.0
 40
22.0
 40
22.0
 40
22.0
 40
23.0
 40
23.0
 40
23.0
 40
24.0
 40
24.0
 40
24.0
 40
25.0
 40
25.0
 40
25.0
 40
26.0
 40
26.0
 40
26.0
 40
27.0
 40
27.0
 40
27.0
 40
28.0
 40
28.0
 40
28.0
 40
29.0
 40
29.0
 40
29.0
 40
30.0
 40
30.0
 40
30.0
 40
31.0
 40
31.0
 40
31.0
 40
32.0
 40
32.0
 40
32.0
 40
33.0
 40
33.0
 40
33.0
 40
34.0
 40
34.0
 40
34.0
 40
35.0
 40
35.0
 40
35.0
 40
36.0
 40
36.0
 40
36.0
 40
37.0
 40
37.0
 40
37.0
 40
38.0
 40
38.0
 40
38.0
 40
39.0
 40
39.0
 40
39.0
 40
40.0
 40
40.0
 40
40.0
 40
41.0
 40
41.0
 40
41.0
 40
42.0
 40
42.0
 40
42.0
 40
43.0
 40
43.0
 40
43.0
 40
44.0
 40
44.0
 40
44.0
 40
45.0
 40
45.0
 40
45.0
 40
46.0
 40
46.0
 40
46.0
 40
47.0
 40
47.0
 40
47.0
 40
48.0
 40
48.0
 40
48.0
 40
49.0
 40
49.0
 40
49.0
 40
50.0
 40
50.0
 40
50.0
 40
51.0
 40
51.0
 40
51.0
 40
52.0
 40
52.0
 40
52.0
 40
53.0
 40
53.0
 40
53.0
 40
54.0
 40
54.0
 40
54.0
 40
55.0
 40
55.0
 40
55.0
 40
56.0
 40
56.0
 40
56.0
 40
57.0
 40
57.0
 40
57.0
 40
58.0
 40
58.0
 40
58.0
 40
59.0
 40
59.0
 40
59.0
 40
60.0
 40
60.0
 40
60.0
 40
61.0
 40
61.0
 40
61.0
 40
62.0
 40
62.0
 40
62.0
 40
63.0
 40
63.0
 40
63.0
 40
64.0
 40
64.0
 40
64.0
 40
65.0
 40
65.0
 40
65.0
 40
66.0
 40
66.0
 40
66.0
 40
67.0
 40
67.0
 40
67.0
 40
68.0
 40
68.0
 40
68.0
 40
69.0
 40
69.0
 40
69.0
 40
70.0
 40
70.0
 40
70.0
 40
71.0
 40
71.0
 40
71.0
 40
72.0
 40
72.0
 40
72.0
 40
73.0
 40
73.0
 40
73.0
 40
74.0
 40
74.0
 40
74.0
 40
75.0
 40
75.0
 40
75.0
 40
76.0
 40
76.0
 40
76.0
 40
77.0
 40
77.0
 40
77.0
 40
78.0
 40
78.0
 40
78.0
 40
79.0
 40
79.0
 40
79.0
 40
79.0
 10
92.33958331024844
 20
-120.6456936004809
 30
0.0
 10
92.33958331024844
 20
-120.6456936004809
 30
0.0
 10
92.11771916099835
 20
-120.6456936004809
 30
0.0
 10
92.11771916099835
 20
-120.6456936004809
 30
0.0
 10
92.11771916099835
 20
-120.6456936004809
 30
0.0
 10
91.87483992928824
 20
-120.6456936004809
 30
0.0
 10
91.87483992928824
 20
-120.6456936004809
 30
0.0
 10
91.87483992928824
 20
-120.6456936004809
 30
0.0
 10
91.98611651346181
 20
-120.6880682749495
 30
0.0
 10
91.98611651346181
 20
-120.6880682749495
 30
0.0
 10
91.99541827127199
 20
-120.6923746443061
 30
0.0
 10
92.00644257682478
 20
-120.6985758161795
 30
0.0
 10
92.00644257682478
 20
-120.711322669475
 30
0.0
 10
92.00644257682478
 20
-120.7325100067092
 30
0.0
 10
91.97853730339426
 20
-120.7388834333569
 30
0.0
 10
91.96027829732243
 20
-120.7430175479392
 30
0.0
 10
91.95097653951225
 20
-120.7662719424647
 30
0.0
 10
91.92479381382437
 20
-120.8319010114587
 30
0.0
 10
91.90825735549517
 20
-120.8763427432184
 30
0.0
 10
91.90825735549517
 20
-120.8763427432184
 30
0.0
 10
92.14527992488036
 20
-120.8763427432184
 30
0.0
 10
92.14527992488036
 20
-120.8763427432184
 30
0.0
 10
92.22486163058963
 20
-120.8763427432184
 30
0.0
 10
92.39711640485211
 20
-120.8720363738619
 30
0.0
 10
92.5211398423211
 20
-120.863595889923
 30
0.0
 10
92.5211398423211
 20
-120.863595889923
 30
0.0
 10
92.5211398423211
 20
-121.0413628169619
 30
0.0
 10
92.5211398423211
 20
-121.0413628169619
 30
0.0
 10
92.4491373466794
 20
-121.0370564476053
 30
0.0
 10
92.43053383105904
 20
-121.0370564476053
 30
0.0
 10
92.27309296738312
 20
-121.032922333023
 30
0.0
 10
92.2451876939526
 20
-121.1872626107622
 30
0.0
 10
92.2066026245178
 20
-121.2677055903428
 30
0.0
 10
92.16767304553447
 20
-121.3374687739191
 30
0.0
 10
92.27309296738312
 20
-121.3967244162654
 30
0.0
 10
92.36576603593635
 20
-121.4644205425506
 30
0.0
 10
92.45637204719841
 20
-121.5469305794223
 30
0.0
 10
92.45637204719841
 20
-121.5469305794223
 30
0.0
 10
92.3526746730924
 20
-121.7140177104569
 30
0.0
 10
92.3526746730924
 20
-121.7140177104569
 30
0.0
 10
92.33234860972942
 20
-121.695069685288
 30
0.0
 10
92.32132430417661
 20
-121.6866292013492
 30
0.0
 10
92.223139082847
 20
-121.601879852412
 30
0.0
 10
92.1804198988299
 20
-121.5638115473
 30
0.0
 10
92.12874346655116
 20
-121.5279825542534
 30
0.0
 10
92.05846351865206
 20
-121.4835408224937
 30
0.0
 10
91.87311738154561
 20
-121.6697482334715
 30
0.0
 10
91.69362790676409
 20
-121.6930026279969
 30
0.0
 10
91.43972436950118
 20
-121.72263044917
 30
0.0
 10
91.43972436950118
 20
-121.72263044917
 30
0.0
 10
91.34894610346485
 20
-121.54279646484
 30
0.0
 10
91.34894610346485
 20
-121.54279646484
 30
0.0
 10
91.62679305435024
 20
-121.5384900954834
 30
0.0
 10
91.78044431299239
 20
-121.5131686436669
 30
0.0
 10
91.91376950827156
 20
-121.4030978429131
 30
0.0
 10
91.81007213416554
 20
-121.3522826845057
 30
0.0
 10
91.73255748574742
 20
-121.3248941753979
 30
0.0
 10
91.70086260728313
 20
-121.3121473221025
 30
0.0
 10
91.68432614895393
 20
-121.3397080859845
 30
0.0
 10
91.67123478610998
 20
-121.3586561111534
 30
0.0
 10
91.64711911771323
 20
-121.3925903016831
 30
0.0
 10
91.64711911771323
 20
-121.3925903016831
 30
0.0
 10
91.47486434345073
 20
-121.3100802648114
 30
0.0
 10
91.47486434345073
 20
-121.3100802648114
 30
0.0
 10
91.54721134864099
 20
-121.2296372852308
 30
0.0
 10
91.60095483821088
 20
-121.1343803950636
 30
0.0
 10
91.650908722747
 20
-121.032922333023
 30
0.0
 10
91.48416610126091
 20
-121.0370564476053
 30
0.0
 10
91.46590709518908
 20
-121.0370564476053
 30
0.0
 10
91.39356008999884
 20
-121.0413628169619
 30
0.0
 10
91.39356008999884
 20
-121.0413628169619
 30
0.0
 10
91.39356008999884
 20
-120.863595889923
 30
0.0
 10
91.39356008999884
 20
-120.863595889923
 30
0.0
 10
91.5158609797252
 20
-120.8699693165707
 30
0.0
 10
91.6991400595405
 20
-120.8742756859273
 30
0.0
 10
91.7211886706461
 20
-120.8742756859273
 30
0.0
 10
91.73600258123267
 20
-120.8403414953976
 30
0.0
 10
91.78423391802617
 20
-120.7197631534138
 30
0.0
 10
91.80077037635537
 20
-120.6456936004809
 30
0.0
 10
91.78423391802617
 20
-120.6456936004809
 30
0.0
 10
91.62851560209288
 20
-120.6520670271287
 30
0.0
 10
91.45832788512153
 20
-120.6648138804241
 30
0.0
 10
91.45832788512153
 20
-120.6648138804241
 30
0.0
 10
91.45832788512153
 20
-120.7981390757032
 30
0.0
 10
91.45832788512153
 20
-120.7981390757032
 30
0.0
 10
91.41560870110443
 20
-120.8234605275198
 30
0.0
 10
91.36376001405142
 20
-120.8551554059841
 30
0.0
 10
91.24697127710145
 20
-120.9207844749781
 30
0.0
 10
91.24697127710145
 20
-120.9207844749781
 30
0.0
 10
91.24697127710145
 20
-121.0666842687785
 30
0.0
 10
91.24697127710145
 20
-121.0666842687785
 30
0.0
 10
91.24697127710145
 20
-121.0666842687785
 30
0.0
 10
91.24697127710145
 20
-121.5343559809011
 30
0.0
 10
91.24697127710145
 20
-121.5343559809011
 30
0.0
 10
91.24697127710145
 20
-121.6611354947583
 30
0.0
 10
91.21562090818568
 20
-121.7203911371046
 30
0.0
 10
90.9675740332477
 20
-121.7119506531658
 30
0.0
 10
90.9675740332477
 20
-121.7119506531658
 30
0.0
 10
90.87662351243709
 20
-121.504728159728
 30
0.0
 10
90.87662351243709
 20
-121.504728159728
 30
0.0
 10
90.93243405929815
 20
-121.5173027582492
 30
0.0
 10
90.97480873376672
 20
-121.5216091276057
 30
0.0
 10
91.00994870771626
 20
-121.5216091276057
 30
0.0
 10
91.07678356013011
 20
-121.5216091276057
 30
0.0
 10
91.08608531794029
 20
-121.4983547330803
 30
0.0
 10
91.08608531794029
 20
-121.4327256640863
 30
0.0
 10
91.08608531794029
 20
-121.4327256640863
 30
0.0
 10
91.08608531794029
 20
-121.0032945118499
 30
0.0
 10
91.08608531794029
 20
-121.0032945118499
 30
0.0
 10
91.0006469499061
 20
-121.043429874253
 30
0.0
 10
90.98583303931952
 20
-121.0498033009007
 30
0.0
 10
90.94518091259357
 20
-121.0689235808439
 30
0.0
 10
90.9413913075598
 20
-121.0899386633039
 30
0.0
 10
90.93794621207455
 20
-121.1195664844771
 30
0.0
 10
90.92106524419683
 20
-121.1195664844771
 30
0.0
 10
90.91383054367779
 20
-121.1195664844771
 30
0.0
 10
90.90452878586763
 20
-121.1154323698948
 30
0.0
 10
90.89901663309122
 20
-121.0921779753693
 30
0.0
 10
90.89901663309122
 20
-121.0921779753693
 30
0.0
 10
90.85250784404035
 20
-120.8995971377439
 30
0.0
 10
90.85250784404035
 20
-120.8995971377439
 30
0.0
 10
90.98032088654311
 20
-120.853088348693
 30
0.0
 10
91.0378539811468
 20
-120.8298339541675
 30
0.0
 10
91.08608531794029
 20
-120.8086466169333
 30
0.0
 10
91.08608531794029
 20
-120.8086466169333
 30
0.0
 10
91.08608531794029
 20
-120.3960964325746
 30
0.0
 10
91.08608531794029
 20
-120.3960964325746
 30
0.0
 10
91.08608531794029
 20
-120.3960964325746
 30
0.0
 10
91.03957652888941
 20
-120.3960964325746
 30
0.0
 10
91.03957652888941
 20
-120.3960964325746
 30
0.0
 10
91.03957652888941
 20
-120.3960964325746
 30
0.0
 10
90.97101912873295
 20
-120.3960964325746
 30
0.0
 10
90.97101912873295
 20
-120.3960964325746
 30
0.0
 10
90.91176348638665
 20
-120.3960964325746
 30
0.0
 10
90.90452878586763
 20
-120.3960964325746
 30
0.0
 10
90.87317841695184
 20
-120.4024698592223
 30
0.0
 10
90.87317841695184
 20
-120.4024698592223
 30
0.0
 10
90.87317841695184
 20
-120.2078219643057
 30
0.0
 10
90.87317841695184
 20
-120.2078219643057
 30
0.0
 10
90.89694957580008
 20
-120.2141953909534
 30
0.0
 10
90.90452878586763
 20
-120.2141953909534
 30
0.0
 10
90.96550697595654
 20
-120.2141953909534
 30
0.0
 10
90.96550697595654
 20
-120.2141953909534
 30
0.0
 10
91.08229571290651
 20
-120.2141953909534
 30
0.0
 10
91.08229571290651
 20
-120.2141953909534
 30
0.0
 10
91.08229571290651
 20
-120.1444322073771
 30
0.0
 10
91.08229571290651
 20
-120.0619221705054
 30
0.0
 10
91.08057316516388
 20
-120.0576158011488
 30
0.0
 10
91.07299395509634
 20
-119.8777818168188
 30
0.0
 10
91.07299395509634
 20
-119.8588337916499
 30
0.0
 10
91.07127140735372
 20
-119.812325002599
 30
0.0
 10
91.07127140735372
 20
-119.812325002599
 30
0.0
 10
91.2600626399454
 20
-119.8207654865379
 30
0.0
 10
91.2600626399454
 20
-119.8207654865379
 30
0.0
 10
91.26936439775558
 20
-119.8207654865379
 30
0.0
 10
91.28796791337592
 20
-119.822832543829
 30
0.0
 10
91.28796791337592
 20
-119.8397135117067
 30
0.0
 10
91.28796791337592
 20
-119.8588337916499
 30
0.0
 10
91.27487655053199
 20
-119.8693413328799
 30
0.0
 10
91.25248342987786
 20
-119.888461612823
 30
0.0
 10
91.25248342987786
 20
-119.9391045164562
 30
0.0
 10
91.24697127710145
 20
-120.1676866019025
 30
0.0
 10
91.24903833439261
 20
-120.2141953909534
 30
0.0
 10
91.36169295676028
 20
-120.2141953909534
 30
0.0
 10
91.37323402663586
 20
-120.2141953909534
 30
0.0
 10
91.45832788512153
 20
-120.2057549070145
 30
0.0
 10
91.45832788512153
 20
-120.2057549070145
 30
0.0
 10
91.45832788512153
 20
-120.4004028019312
 30
0.0
 10
91.45832788512153
 20
-120.4004028019312
 30
0.0
 10
91.42491045891461
 20
-120.3981634898657
 30
0.0
 10
91.36548256179405
 20
-120.3940293752834
 30
0.0
 10
91.24697127710145
 20
-120.3960964325746
 30
0.0
 10
91.24697127710145
 20
-120.3960964325746
 30
0.0
 10
91.24697127710145
 20
-120.7345770640004
 30
0.0
 10
91.24697127710145
 20
-120.7345770640004
 30
0.0
 10
91.29520261389496
 20
-120.711322669475
 30
0.0
 10
91.35273570849863
 20
-120.683761905593
 30
0.0
 10
91.39528263774146
 20
-120.6605075110675
 30
0.0
 10
91.39528263774146
 20
-120.6605075110675
 30
0.0
 10
91.39528263774146
 20
-120.4829128388029
 30
0.0
 10
91.39528263774146
 20
-120.4829128388029
 30
0.0
 10
91.49553491636223
 20
-120.495487437324
 30
0.0
 10
91.59888778091972
 20
-120.495487437324
 30
0.0
 10
91.70086260728313
 20
-120.495487437324
 30
0.0
 10
91.68053654392014
 20
-120.4004028019312
 30
0.0
 10
91.6564208755234
 20
-120.3178927650594
 30
0.0
 10
91.60095483821088
 20
-120.1845675697803
 30
0.0
 10
91.56202525922755
 20
-120.1866346270714
 30
0.0
 10
91.4896782540373
 20
-120.190940996428
 30
0.0
 10
91.4566053373789
 20
-120.1930080537191
 30
0.0
 10
91.4566053373789
 20
-120.1930080537191
 30
0.0
 10
91.4566053373789
 20
-120.0131740693891
 30
0.0
 10
91.4566053373789
 20
-120.0131740693891
 30
0.0
 10
91.56581486426133
 20
-120.0216145533279
 30
0.0
 10
91.71739906561233
 20
-120.0259209226845
 30
0.0
 10
91.78974607080256
 20
-120.0259209226845
 30
0.0
 10
91.78974607080256
 20
-120.0259209226845
 30
0.0
 10
91.86209307599282
 20
-120.0259209226845
 30
0.0
 10
91.86209307599282
 20
-120.0259209226845
 30
0.0
 10
91.86209307599282
 20
-119.8629679062322
 30
0.0
 10
91.86209307599282
 20
-119.8524603650022
 30
0.0
 10
91.86002601870166
 20
-119.7975110920124
 30
0.0
 10
91.86002601870166
 20
-119.7975110920124
 30
0.0
 10
92.0563964613609
 20
-119.822832543829
 30
0.0
 10
92.0563964613609
 20
-119.822832543829
 30
0.0
 10
92.06018606639468
 20
-119.822832543829
 30
0.0
 10
92.07878958201503
 20
-119.8248996011202
 30
0.0
 10
92.07878958201503
 20
-119.8417805689979
 30
0.0
 10
92.07878958201503
 20
-119.8565944795845
 30
0.0
 10
92.06948782420486
 20
-119.8652072182976
 30
0.0
 10
92.04537215580811
 20
-119.8800211288842
 30
0.0
 10
92.0398600030317
 20
-119.9454779431039
 30
0.0
 10
92.03779294574056
 20
-119.9666652803382
 30
0.0
 10
92.03779294574056
 20
-120.0259209226845
 30
0.0
 10
92.03779294574056
 20
-120.0259209226845
 30
0.0
 10
92.1211642564836
 20
-120.0259209226845
 30
0.0
 10
92.1211642564836
 20
-120.0259209226845
 30
0.0
 10
92.19351126167385
 20
-120.0259209226845
 30
0.0
 10
92.34543997257336
 20
-120.0216145533279
 30
0.0
 10
92.45464949945578
 20
-120.0131740693891
 30
0.0
 10
92.45464949945578
 20
-120.0131740693891
 30
0.0
 10
92.45464949945578
 20
-120.1930080537191
 30
0.0
 10
92.45464949945578
 20
-120.1930080537191
 30
0.0
 10
92.4284667737679
 20
-120.190940996428
 30
0.0
 10
92.32511390921039
 20
-120.1866346270714
 30
0.0
 10
92.28962942571232
 20
-120.1845675697803
 30
0.0
 10
92.2768825724169
 20
-120.2353827281877
 30
0.0
 10
92.24725475124374
 20
-120.3475205862326
 30
0.0
 10
92.18972165664007
 20
-120.4870469533852
 30
0.0
 10
92.22692868788077
 20
-120.4870469533852
 30
0.0
 10
92.46946341004237
 20
-120.4680989282163
 30
0.0
 10
92.52320689961226
 20
-120.4658596161509
 30
0.0
 10
92.52320689961226
 20
-120.4658596161509
 30
0.0
 10
92.52320689961226
 20
-120.6499999698375
 30
0.0
 10
92.52320689961226
 20
-120.6499999698375
 30
0.0
 10
92.49702417392436
 20
-120.6499999698375
 30
0.0
 10
92.48221026333779
 20
-120.6456936004809
 30
0.0
 10
92.33958331024844
 20
-120.6456936004809
 30
0.0
  0
SPLINE
  5
D7
330
D2
100
AcDbEntity
  8
_U+30EC_U+30A4_U+30E4_U+30FC 1
370
     0
100
AcDbSpline
210
0.0
220
0.0
230
1.0
 70
    11
 71
     3
 72
    20
 73
    16
 74
     0
 42
0.0000000001
 43
0.0000000001
 12
1.0
 22
0.0
 32
0.0
 13
1.0
 23
0.0
 33
0.0
 40
0.0
 40
0.0
 40
0.0
 40
0.0
 40
1.0
 40
1.0
 40
1.0
 40
2.0
 40
2.0
 40
2.0
 40
3.0
 40
3.0
 40
3.0
 40
4.0
 40
4.0
 40
4.0
 40
5.0
 40
5.0
 40
5.0
 40
5.0
 10
91.78974607080256
 20
-120.180433455198
 30
0.0
 10
91.78974607080256
 20
-120.180433455198
 30
0.0
 10
91.76218530692057
 20
-120.180433455198
 30
0.0
 10
91.76218530692057
 20
-120.180433455198
 30
0.0
 10
91.80283743364652
 20
-120.2798244599474
 30
0.0
 10
91.83039819752851
 20
-120.3600951847537
 30
0.0
 10
91.86002601870166
 20
-120.4870469533852
 30
0.0
 10
91.86002601870166
 20
-120.4870469533852
 30
0.0
 10
92.04158255077434
 20
-120.4870469533852
 30
0.0
 10
92.04158255077434
 20
-120.4870469533852
 30
0.0
 10
92.06948782420486
 20
-120.3940293752834
 30
0.0
 10
92.08981388756783
 20
-120.3094522811206
 30
0.0
 10
92.1101399509308
 20
-120.180433455198
 30
0.0
 10
92.1101399509308
 20
-120.180433455198
 30
0.0
 10
91.78974607080256
 20
-120.180433455198
 30
0.0
 10
91.78974607080256
 20
-120.180433455198
 30
0.0
  0
SPLINE
  5
D8
330
D2
100
AcDbEntity
  8
_U+30EC_U+30A4_U+30E4_U+30FC 1
370
     0
100
AcDbSpline
210
0.0
220
0.0
230
1.0
 70
    11
 71
     3
 72
    17
 73
    13
 74
     0
 42
0.0000000001
 43
0.0000000001
 12
1.0
 22
0.0
 32
0.0
 13
1.0
 23
0.0
 33
0.0
 40
0.0
 40
0.0
 40
0.0
 40
0.0
 40
1.0
 40
1.0
 40
1.0
 40
2.0
 40
2.0
 40
2.0
 40
3.0
 40
3.0
 40
3.0
 40
4.0
 40
4.0
 40
4.0
 40
4.0
 10
91.84521210811509
 20
-121.0308552757319
 30
0.0
 10
91.83039819752851
 20
-121.0603108421308
 30
0.0
 10
91.78595646576879
 20
-121.1535006750068
 30
0.0
 10
91.77665470795861
 20
-121.1724487001757
 30
0.0
 10
91.94339732944471
 20
-121.2317043425219
 30
0.0
 10
91.96200084506506
 20
-121.2380777691696
 30
0.0
 10
92.02504609244514
 20
-121.2656385330517
 30
0.0
 10
92.0729329196901
 20
-121.1788221268233
 30
0.0
 10
92.0936034926016
 20
-121.1047525738905
 30
0.0
 10
92.10635034589703
 20
-121.0308552757319
 30
0.0
 10
92.10635034589703
 20
-121.0308552757319
 30
0.0
 10
91.84521210811509
 20
-121.0308552757319
 30
0.0
 10
91.84521210811509
 20
-121.0308552757319
 30
0.0
  0
HATCH
  5
D9
330
D2
100
AcDbEntity
  8
_U+30EC_U+30A4_U+30E4_U+30FC 1
 62
   179
420
  2234388
100
AcDbHatch
 10
0.0
 20
0.0
 30
0.0
210
0.0
220
0.0
230
1.0
  2
SOLID
 70
     1
 71
     0
 91
        3
 92
        1
 93
        1
 72
     4
 94
        3
 73
     0
 74
     1
 95
      242
 96
      238
 40
0.0
 40
0.0
 40
0.0
 40
0.0
 40
1.0
 40
1.0
 40
1.0
 40
2.0
 40
2.0
 40
2.0
 40
3.0
 40
3.0
 40
3.0
 40
4.0
 40
4.0
 40
4.0
 40
5.0
 40
5.0
 40
5.0
 40
6.0
 40
6.0
 40
6.0
 40
7.0
 40
7.0
 40
7.0
 40
8.0
 40
8.0
 40
8.0
 40
9.0
 40
9.0
 40
9.0
 40
10.0
 40
10.0
 40
10.0
 40
11.0
 40
11.0
 40
11.0
 40
12.0
 40
12.0
 40
12.0
 40
13.0
 40
13.0
 40
13.0
 40
14.0
 40
14.0
 40
14.0
 40
15.0
 40
15.0
 40
15.0
 40
16.0
 40
16.0
 40
16.0
 40
17.0
 40
17.0
 40
17.0
 40
18.0
 40
18.0
 40
18.0
 40
19.0
 40
19.0
 40
19.0
 40
20.0
 40
20.0
 40
20.0
 40
21.0
 40
21.0
 40
21.0
 40
22.0
 40
22.0
 40
22.0
 40
23.0
 40
23.0
 40
23.0
 40
24.0
 40
24.0
 40
24.0
 40
25.0
 40
25.0
 40
25.0
 40
26.0
 40
26.0
 40
26.0
 40
27.0
 40
27.0
 40
27.0
 40
28.0
 40
28.0
 40
28.0
 40
29.0
 40
29.0
 40
29.0
 40
30.0
 40
30.0
 40
30.0
 40
31.0
 40
31.0
 40
31.0
 40
32.0
 40
32.0
 40
32.0
 40
33.0
 40
33.0
 40
33.0
 40
34.0
 40
34.0
 40
34.0
 40
35.0
 40
35.0
 40
35.0
 40
36.0
 40
36.0
 40
36.0
 40
37.0
 40
37.0
 40
37.0
 40
38.0
 40
38.0
 40
38.0
 40
39.0
 40
39.0
 40
39.0
 40
40.0
 40
40.0
 40
40.0
 40
41.0
 40
41.0
 40
41.0
 40
42.0
 40
42.0
 40
42.0
 40
43.0
 40
43.0
 40
43.0
 40
44.0
 40
44.0
 40
44.0
 40
45.0
 40
45.0
 40
45.0
 40
46.0
 40
46.0
 40
46.0
 40
47.0
 40
47.0
 40
47.0
 40
48.0
 40
48.0
 40
48.0
 40
49.0
 40
49.0
 40
49.0
 40
50.0
 40
50.0
 40
50.0
 40
51.0
 40
51.0
 40
51.0
 40
52.0
 40
52.0
 40
52.0
 40
53.0
 40
53.0
 40
53.0
 40
54.0
 40
54.0
 40
54.0
 40
55.0
 40
55.0
 40
55.0
 40
56.0
 40
56.0
 40
56.0
 40
57.0
 40
57.0
 40
57.0
 40
58.0
 40
58.0
 40
58.0
 40
59.0
 40
59.0
 40
59.0
 40
60.0
 40
60.0
 40
60.0
 40
61.0
 40
61.0
 40
61.0
 40
62.0
 40
62.0
 40
62.0
 40
63.0
 40
63.0
 40
63.0
 40
64.0
 40
64.0
 40
64.0
 40
65.0
 40
65.0
 40
65.0
 40
66.0
 40
66.0
 40
66.0
 40
67.0
 40
67.0
 40
67.0
 40
68.0
 40
68.0
 40
68.0
 40
69.0
 40
69.0
 40
69.0
 40
70.0
 40
70.0
 40
70.0
 40
71.0
 40
71.0
 40
71.0
 40
72.0
 40
72.0
 40
72.0
 40
73.0
 40
73.0
 40
73.0
 40
74.0
 40
74.0
 40
74.0
 40
75.0
 40
75.0
 40
75.0
 40
76.0
 40
76.0
 40
76.0
 40
77.0
 40
77.0
 40
77.0
 40
78.0
 40
78.0
 40
78.0
 40
79.0
 40
79.0
 40
79.0
 40
79.0
 10
92.33958331024844
 20
-120.6456936004809
 10
92.33958331024844
 20
-120.6456936004809
 10
92.11771916099835
 20
-120.6456936004809
 10
92.11771916099835
 20
-120.6456936004809
 10
92.11771916099835
 20
-120.6456936004809
 10
91.87483992928824
 20
-120.6456936004809
 10
91.87483992928824
 20
-120.6456936004809
 10
91.87483992928824
 20
-120.6456936004809
 10
91.98611651346181
 20
-120.6880682749495
 10
91.98611651346181
 20
-120.6880682749495
 10
91.99541827127199
 20
-120.6923746443061
 10
92.00644257682478
 20
-120.6985758161795
 10
92.00644257682478
 20
-120.711322669475
 10
92.00644257682478
 20
-120.7325100067092
 10
91.97853730339426
 20
-120.7388834333569
 10
91.96027829732243
 20
-120.7430175479392
 10
91.95097653951225
 20
-120.7662719424647
 10
91.92479381382437
 20
-120.8319010114587
 10
91.90825735549517
 20
-120.8763427432184
 10
91.90825735549517
 20
-120.8763427432184
 10
92.14527992488036
 20
-120.8763427432184
 10
92.14527992488036
 20
-120.8763427432184
 10
92.22486163058963
 20
-120.8763427432184
 10
92.39711640485211
 20
-120.8720363738619
 10
92.5211398423211
 20
-120.863595889923
 10
92.5211398423211
 20
-120.863595889923
 10
92.5211398423211
 20
-121.0413628169619
 10
92.5211398423211
 20
-121.0413628169619
 10
92.4491373466794
 20
-121.0370564476053
 10
92.43053383105904
 20
-121.0370564476053
 10
92.27309296738312
 20
-121.032922333023
 10
92.2451876939526
 20
-121.1872626107622
 10
92.2066026245178
 20
-121.2677055903428
 10
92.16767304553447
 20
-121.3374687739191
 10
92.27309296738312
 20
-121.3967244162654
 10
92.36576603593635
 20
-121.4644205425506
 10
92.45637204719841
 20
-121.5469305794223
 10
92.45637204719841
 20
-121.5469305794223
 10
92.3526746730924
 20
-121.7140177104569
 10
92.3526746730924
 20
-121.7140177104569
 10
92.33234860972942
 20
-121.695069685288
 10
92.32132430417661
 20
-121.6866292013492
 10
92.223139082847
 20
-121.601879852412
 10
92.1804198988299
 20
-121.5638115473
 10
92.12874346655116
 20
-121.5279825542534
 10
92.05846351865206
 20
-121.4835408224937
 10
91.87311738154561
 20
-121.6697482334715
 10
91.69362790676409
 20
-121.6930026279969
 10
91.43972436950118
 20
-121.72263044917
 10
91.43972436950118
 20
-121.72263044917
 10
91.34894610346485
 20
-121.54279646484
 10
91.34894610346485
 20
-121.54279646484
 10
91.62679305435024
 20
-121.5384900954834
 10
91.78044431299239
 20
-121.5131686436669
 10
91.91376950827156
 20
-121.4030978429131
 10
91.81007213416554
 20
-121.3522826845057
 10
91.73255748574742
 20
-121.3248941753979
 10
91.70086260728313
 20
-121.3121473221025
 10
91.68432614895393
 20
-121.3397080859845
 10
91.67123478610998
 20
-121.3586561111534
 10
91.64711911771323
 20
-121.3925903016831
 10
91.64711911771323
 20
-121.3925903016831
 10
91.47486434345073
 20
-121.3100802648114
 10
91.47486434345073
 20
-121.3100802648114
 10
91.54721134864099
 20
-121.2296372852308
 10
91.60095483821088
 20
-121.1343803950636
 10
91.650908722747
 20
-121.032922333023
 10
91.48416610126091
 20
-121.0370564476053
 10
91.46590709518908
 20
-121.0370564476053
 10
91.39356008999884
 20
-121.0413628169619
 10
91.39356008999884
 20
-121.0413628169619
 10
91.39356008999884
 20
-120.863595889923
 10
91.39356008999884
 20
-120.863595889923
 10
91.5158609797252
 20
-120.8699693165707
 10
91.6991400595405
 20
-120.8742756859273
 10
91.7211886706461
 20
-120.8742756859273
 10
91.73600258123267
 20
-120.8403414953976
 10
91.78423391802617
 20
-120.7197631534138
 10
91.80077037635537
 20
-120.6456936004809
 10
91.78423391802617
 20
-120.6456936004809
 10
91.62851560209288
 20
-120.6520670271287
 10
91.45832788512153
 20
-120.6648138804241
 10
91.45832788512153
 20
-120.6648138804241
 10
91.45832788512153
 20
-120.7981390757032
 10
91.45832788512153
 20
-120.7981390757032
 10
91.41560870110443
 20
-120.8234605275198
 10
91.36376001405142
 20
-120.8551554059841
 10
91.24697127710145
 20
-120.9207844749781
 10
91.24697127710145
 20
-120.9207844749781
 10
91.24697127710145
 20
-121.0666842687785
 10
91.24697127710145
 20
-121.0666842687785
 10
91.24697127710145
 20
-121.0666842687785
 10
91.24697127710145
 20
-121.5343559809011
 10
91.24697127710145
 20
-121.5343559809011
 10
91.24697127710145
 20
-121.6611354947583
 10
91.21562090818568
 20
-121.7203911371046
 10
90.9675740332477
 20
-121.7119506531658
 10
90.9675740332477
 20
-121.7119506531658
 10
90.87662351243709
 20
-121.504728159728
 10
90.87662351243709
 20
-121.504728159728
 10
90.93243405929815
 20
-121.5173027582492
 10
90.97480873376672
 20
-121.5216091276057
 10
91.00994870771626
 20
-121.5216091276057
 10
91.07678356013011
 20
-121.5216091276057
 10
91.08608531794029
 20
-121.4983547330803
 10
91.08608531794029
 20
-121.4327256640863
 10
91.08608531794029
 20
-121.4327256640863
 10
91.08608531794029
 20
-121.0032945118499
 10
91.08608531794029
 20
-121.0032945118499
 10
91.0006469499061
 20
-121.043429874253
 10
90.98583303931952
 20
-121.0498033009007
 10
90.94518091259357
 20
-121.0689235808439
 10
90.9413913075598
 20
-121.0899386633039
 10
90.93794621207455
 20
-121.1195664844771
 10
90.92106524419683
 20
-121.1195664844771
 10
90.91383054367779
 20
-121.1195664844771
 10
90.90452878586763
 20
-121.1154323698948
 10
90.89901663309122
 20
-121.0921779753693
 10
90.89901663309122
 20
-121.0921779753693
 10
90.85250784404035
 20
-120.8995971377439
 10
90.85250784404035
 20
-120.8995971377439
 10
90.98032088654311
 20
-120.853088348693
 10
91.0378539811468
 20
-120.8298339541675
 10
91.08608531794029
 20
-120.8086466169333
 10
91.08608531794029
 20
-120.8086466169333
 10
91.08608531794029
 20
-120.3960964325746
 10
91.08608531794029
 20
-120.3960964325746
 10
91.08608531794029
 20
-120.3960964325746
 10
91.03957652888941
 20
-120.3960964325746
 10
91.03957652888941
 20
-120.3960964325746
 10
91.03957652888941
 20
-120.3960964325746
 10
90.97101912873295
 20
-120.3960964325746
 10
90.97101912873295
 20
-120.3960964325746
 10
90.91176348638665
 20
-120.3960964325746
 10
90.90452878586763
 20
-120.3960964325746
 10
90.87317841695184
 20
-120.4024698592223
 10
90.87317841695184
 20
-120.4024698592223
 10
90.87317841695184
 20
-120.2078219643057
 10
90.87317841695184
 20
-120.2078219643057
 10
90.89694957580008
 20
-120.2141953909534
 10
90.90452878586763
 20
-120.2141953909534
 10
90.96550697595654
 20
-120.2141953909534
 10
90.96550697595654
 20
-120.2141953909534
 10
91.08229571290651
 20
-120.2141953909534
 10
91.08229571290651
 20
-120.2141953909534
 10
91.08229571290651
 20
-120.1444322073771
 10
91.08229571290651
 20
-120.0619221705054
 10
91.08057316516388
 20
-120.0576158011488
 10
91.07299395509634
 20
-119.8777818168188
 10
91.07299395509634
 20
-119.8588337916499
 10
91.07127140735372
 20
-119.812325002599
 10
91.07127140735372
 20
-119.812325002599
 10
91.2600626399454
 20
-119.8207654865379
 10
91.2600626399454
 20
-119.8207654865379
 10
91.26936439775558
 20
-119.8207654865379
 10
91.28796791337592
 20
-119.822832543829
 10
91.28796791337592
 20
-119.8397135117067
 10
91.28796791337592
 20
-119.8588337916499
 10
91.27487655053199
 20
-119.8693413328799
 10
91.25248342987786
 20
-119.888461612823
 10
91.25248342987786
 20
-119.9391045164562
 10
91.24697127710145
 20
-120.1676866019025
 10
91.24903833439261
 20
-120.2141953909534
 10
91.36169295676028
 20
-120.2141953909534
 10
91.37323402663586
 20
-120.2141953909534
 10
91.45832788512153
 20
-120.2057549070145
 10
91.45832788512153
 20
-120.2057549070145
 10
91.45832788512153
 20
-120.4004028019312
 10
91.45832788512153
 20
-120.4004028019312
 10
91.42491045891461
 20
-120.3981634898657
 10
91.36548256179405
 20
-120.3940293752834
 10
91.24697127710145
 20
-120.3960964325746
 10
91.24697127710145
 20
-120.3960964325746
 10
91.24697127710145
 20
-120.7345770640004
 10
91.24697127710145
 20
-120.7345770640004
 10
91.29520261389496
 20
-120.711322669475
 10
91.35273570849863
 20
-120.683761905593
 10
91.39528263774146
 20
-120.6605075110675
 10
91.39528263774146
 20
-120.6605075110675
 10
91.39528263774146
 20
-120.4829128388029
 10
91.39528263774146
 20
-120.4829128388029
 10
91.49553491636223
 20
-120.495487437324
 10
91.59888778091972
 20
-120.495487437324
 10
91.70086260728313
 20
-120.495487437324
 10
91.68053654392014
 20
-120.4004028019312
 10
91.6564208755234
 20
-120.3178927650594
 10
91.60095483821088
 20
-120.1845675697803
 10
91.56202525922755
 20
-120.1866346270714
 10
91.4896782540373
 20
-120.190940996428
 10
91.4566053373789
 20
-120.1930080537191
 10
91.4566053373789
 20
-120.1930080537191
 10
91.4566053373789
 20
-120.0131740693891
 10
91.4566053373789
 20
-120.0131740693891
 10
91.56581486426133
 20
-120.0216145533279
 10
91.71739906561233
 20
-120.0259209226845
 10
91.78974607080256
 20
-120.0259209226845
 10
91.78974607080256
 20
-120.0259209226845
 10
91.86209307599282
 20
-120.0259209226845
 10
91.86209307599282
 20
-120.0259209226845
 10
91.86209307599282
 20
-119.8629679062322
 10
91.86209307599282
 20
-119.8524603650022
 10
91.86002601870166
 20
-119.7975110920124
 10
91.86002601870166
 20
-119.7975110920124
 10
92.0563964613609
 20
-119.822832543829
 10
92.0563964613609
 20
-119.822832543829
 10
92.06018606639468
 20
-119.822832543829
 10
92.07878958201503
 20
-119.8248996011202
 10
92.07878958201503
 20
-119.8417805689979
 10
92.07878958201503
 20
-119.8565944795845
 10
92.06948782420486
 20
-119.8652072182976
 10
92.04537215580811
 20
-119.8800211288842
 10
92.0398600030317
 20
-119.9454779431039
 10
92.03779294574056
 20
-119.9666652803382
 10
92.03779294574056
 20
-120.0259209226845
 10
92.03779294574056
 20
-120.0259209226845
 10
92.1211642564836
 20
-120.0259209226845
 10
92.1211642564836
 20
-120.0259209226845
 10
92.19351126167385
 20
-120.0259209226845
 10
92.34543997257336
 20
-120.0216145533279
 10
92.45464949945578
 20
-120.0131740693891
 10
92.45464949945578
 20
-120.0131740693891
 10
92.45464949945578
 20
-120.1930080537191
 10
92.45464949945578
 20
-120.1930080537191
 10
92.4284667737679
 20
-120.190940996428
 10
92.32511390921039
 20
-120.1866346270714
 10
92.28962942571232
 20
-120.1845675697803
 10
92.2768825724169
 20
-120.2353827281877
 10
92.24725475124374
 20
-120.3475205862326
 10
92.18972165664007
 20
-120.4870469533852
 10
92.22692868788077
 20
-120.4870469533852
 10
92.46946341004237
 20
-120.4680989282163
 10
92.52320689961226
 20
-120.4658596161509
 10
92.52320689961226
 20
-120.4658596161509
 10
92.52320689961226
 20
-120.6499999698375
 10
92.52320689961226
 20
-120.6499999698375
 10
92.49702417392436
 20
-120.6499999698375
 10
92.48221026333779
 20
-120.6456936004809
 10
92.33958331024844
 20
-120.6456936004809
 97
        0
 97
        0
 92
        1
 93
        1
 72
     4
 94
        3
 73
     0
 74
     1
 95
       20
 96
       16
 40
0.0
 40
0.0
 40
0.0
 40
0.0
 40
1.0
 40
1.0
 40
1.0
 40
2.0
 40
2.0
 40
2.0
 40
3.0
 40
3.0
 40
3.0
 40
4.0
 40
4.0
 40
4.0
 40
5.0
 40
5.0
 40
5.0
 40
5.0
 10
91.78974607080256
 20
-120.180433455198
 10
91.78974607080256
 20
-120.180433455198
 10
91.76218530692057
 20
-120.180433455198
 10
91.76218530692057
 20
-120.180433455198
 10
91.80283743364652
 20
-120.2798244599474
 10
91.83039819752851
 20
-120.3600951847537
 10
91.86002601870166
 20
-120.4870469533852
 10
91.86002601870166
 20
-120.4870469533852
 10
92.04158255077434
 20
-120.4870469533852
 10
92.04158255077434
 20
-120.4870469533852
 10
92.06948782420486
 20
-120.3940293752834
 10
92.08981388756783
 20
-120.3094522811206
 10
92.1101399509308
 20
-120.180433455198
 10
92.1101399509308
 20
-120.180433455198
 10
91.78974607080256
 20
-120.180433455198
 10
91.78974607080256
 20
-120.180433455198
 97
        0
 97
        0
 92
        1
 93
        1
 72
     4
 94
        3
 73
     0
 74
     1
 95
       17
 96
       13
 40
0.0
 40
0.0
 40
0.0
 40
0.0
 40
1.0
 40
1.0
 40
1.0
 40
2.0
 40
2.0
 40
2.0
 40
3.0
 40
3.0
 40
3.0
 40
4.0
 40
4.0
 40
4.0
 40
4.0
 10
91.84521210811509
 20
-121.0308552757319
 10
91.83039819752851
 20
-121.0603108421308
 10
91.78595646576879
 20
-121.1535006750068
 10
91.77665470795861
 20
-121.1724487001757
 10
91.94339732944471
 20
-121.2317043425219
 10
91.96200084506506
 20
-121.2380777691696
 10
92.02504609244514
 20
-121.2656385330517
 10
92.0729329196901
 20
-121.1788221268233
 10
92.0936034926016
 20
-121.1047525738905
 10
92.10635034589703
 20
-121.0308552757319
 10
92.10635034589703
 20
-121.0308552757319
 10
91.84521210811509
 20
-121.0308552757319
 10
91.84521210811509
 20
-121.0308552757319
 97
        0
 97
        0
 75
     2
 76
     1
 98
        0
  0
SPLINE
  5
DA
330
D2
100
AcDbEntity
  8
_U+30EC_U+30A4_U+30E4_U+30FC 1
370
     0
100
AcDbSpline
210
0.0
220
0.0
230
1.0
 70
    11
 71
     3
 72
   203
 73
   199
 74
     0
 42
0.0000000001
 43
0.0000000001
 12
1.0
 22
0.0
 32
0.0
 13
1.0
 23
0.0
 33
0.0
 40
0.0
 40
0.0
 40
0.0
 40
0.0
 40
1.0
 40
1.0
 40
1.0
 40
2.0
 40
2.0
 40
2.0
 40
3.0
 40
3.0
 40
3.0
 40
4.0
 40
4.0
 40
4.0
 40
5.0
 40
5.0
 40
5.0
 40
6.0
 40
6.0
 40
6.0
 40
7.0
 40
7.0
 40
7.0
 40
8.0
 40
8.0
 40
8.0
 40
9.0
 40
9.0
 40
9.0
 40
10.0
 40
10.0
 40
10.0
 40
11.0
 40
11.0
 40
11.0
 40
12.0
 40
12.0
 40
12.0
 40
13.0
 40
13.0
 40
13.0
 40
14.0
 40
14.0
 40
14.0
 40
15.0
 40
15.0
 40
15.0
 40
16.0
 40
16.0
 40
16.0
 40
17.0
 40
17.0
 40
17.0
 40
18.0
 40
18.0
 40
18.0
 40
19.0
 40
19.0
 40
19.0
 40
20.0
 40
20.0
 40
20.0
 40
21.0
 40
21.0
 40
21.0
 40
22.0
 40
22.0
 40
22.0
 40
23.0
 40
23.0
 40
23.0
 40
24.0
 40
24.0
 40
24.0
 40
25.0
 40
25.0
 40
25.0
 40
26.0
 40
26.0
 40
26.0
 40
27.0
 40
27.0
 40
27.0
 40
28.0
 40
28.0
 40
28.0
 40
29.0
 40
29.0
 40
29.0
 40
30.0
 40
30.0
 40
30.0
 40
31.0
 40
31.0
 40
31.0
 40
32.0
 40
32.0
 40
32.0
 40
33.0
 40
33.0
 40
33.0
 40
34.0
 40
34.0
 40
34.0
 40
35.0
 40
35.0
 40
35.0
 40
36.0
 40
36.0
 40
36.0
 40
37.0
 40
37.0
 40
37.0
 40
38.0
 40
38.0
 40
38.0
 40
39.0
 40
39.0
 40
39.0
 40
40.0
 40
40.0
 40
40.0
 40
41.0
 40
41.0
 40
41.0
 40
42.0
 40
42.0
 40
42.0
 40
43.0
 40
43.0
 40
43.0
 40
44.0
 40
44.0
 40
44.0
 40
45.0
 40
45.0
 40
45.0
 40
46.0
 40
46.0
 40
46.0
 40
47.0
 40
47.0
 40
47.0
 40
48.0
 40
48.0
 40
48.0
 40
49.0
 40
49.0
 40
49.0
 40
50.0
 40
50.0
 40
50.0
 40
51.0
 40
51.0
 40
51.0
 40
52.0
 40
52.0
 40
52.0
 40
53.0
 40
53.0
 40
53.0
 40
54.0
 40
54.0
 40
54.0
 40
55.0
 40
55.0
 40
55.0
 40
56.0
 40
56.0
 40
56.0
 40
57.0
 40
57.0
 40
57.0
 40
58.0
 40
58.0
 40
58.0
 40
59.0
 40
59.0
 40
59.0
 40
60.0
 40
60.0
 40
60.0
 40
61.0
 40
61.0
 40
61.0
 40
62.0
 40
62.0
 40
62.0
 40
63.0
 40
63.0
 40
63.0
 40
64.0
 40
64.0
 40
64.0
 40
65.0
 40
65.0
 40
65.0
 40
66.0
 40
66.0
 40
66.0
 40
66.0
 10
93.82166338800292
 20
-120.7133897267661
 30
0.0
 10
93.82166338800292
 20
-120.7133897267661
 30
0.0
 10
93.33280433864597
 20
-120.7133897267661
 30
0.0
 10
93.33280433864597
 20
-120.7133897267661
 30
0.0
 10
93.3235025808358
 20
-120.7578314585258
 30
0.0
 10
93.31626788031677
 20
-120.7895263369901
 30
0.0
 10
93.30489906521545
 20
-120.8277668968764
 30
0.0
 10
93.32729218586957
 20
-120.8277668968764
 30
0.0
 10
93.34038354871352
 20
-120.8298339541675
 30
0.0
 10
93.34589570148992
 20
-120.8298339541675
 30
0.0
 10
93.34589570148992
 20
-120.8298339541675
 30
0.0
 10
93.51057126568486
 20
-120.8298339541675
 30
0.0
 10
93.51057126568486
 20
-120.8298339541675
 30
0.0
 10
93.51057126568486
 20
-120.8298339541675
 30
0.0
 10
93.83819984633212
 20
-120.8298339541675
 30
0.0
 10
93.83819984633212
 20
-120.8298339541675
 30
0.0
 10
93.88298608764038
 20
-120.8298339541675
 30
0.0
 10
94.13103296257836
 20
-120.8170871008721
 30
0.0
 10
94.15859372646035
 20
-120.8170871008721
 30
0.0
 10
94.15687117871774
 20
-120.8446478647541
 30
0.0
 10
94.1551486309751
 20
-120.863595889923
 30
0.0
 10
94.1551486309751
 20
-120.8932237110961
 30
0.0
 10
94.15308157368396
 20
-120.9249185895604
 30
0.0
 10
94.15308157368396
 20
-121.0603108421308
 30
0.0
 10
94.15308157368396
 20
-121.0878716060128
 30
0.0
 10
94.15308157368396
 20
-121.0878716060128
 30
0.0
 10
94.15308157368396
 20
-121.3333346593368
 30
0.0
 10
94.15308157368396
 20
-121.3333346593368
 30
0.0
 10
94.15308157368396
 20
-121.3777763910965
 30
0.0
 10
94.15687117871774
 20
-121.5744913433043
 30
0.0
 10
94.16066078375151
 20
-121.7267645637523
 30
0.0
 10
94.16066078375151
 20
-121.7267645637523
 30
0.0
 10
93.96256779334963
 20
-121.7267645637523
 30
0.0
 10
93.96256779334963
 20
-121.7267645637523
 30
0.0
 10
93.96256779334963
 20
-121.7267645637523
 30
0.0
 10
93.96429034109227
 20
-121.6930026279969
 30
0.0
 10
93.96429034109227
 20
-121.6930026279969
 30
0.0
 10
93.96429034109227
 20
-121.6930026279969
 30
0.0
 10
93.3496853065237
 20
-121.6930026279969
 30
0.0
 10
93.3496853065237
 20
-121.6930026279969
 30
0.0
 10
93.3496853065237
 20
-121.6930026279969
 30
0.0
 10
93.35140785426631
 20
-121.7267645637523
 30
0.0
 10
93.35140785426631
 20
-121.7267645637523
 30
0.0
 10
93.35140785426631
 20
-121.7267645637523
 30
0.0
 10
93.16054956438347
 20
-121.7267645637523
 30
0.0
 10
93.16054956438347
 20
-121.7267645637523
 30
0.0
 10
93.16433916941725
 20
-121.6718152907626
 30
0.0
 10
93.16433916941725
 20
-121.6590684374672
 30
0.0
 10
93.16985132219365
 20
-121.5448635221312
 30
0.0
 10
93.17191837948481
 20
-121.5173027582492
 30
0.0
 10
93.17364092722742
 20
-121.3841498177442
 30
0.0
 10
93.17364092722742
 20
-121.3650295378011
 30
0.0
 10
93.17364092722742
 20
-121.3650295378011
 30
0.0
 10
93.17364092722742
 20
-121.1619411589456
 30
0.0
 10
93.17364092722742
 20
-121.1619411589456
 30
0.0
 10
93.05134003750106
 20
-121.411538326852
 30
0.0
 10
92.90320093163531
 20
-121.54279646484
 30
0.0
 10
92.8105278630821
 20
-121.6082532790598
 30
0.0
 10
92.8105278630821
 20
-121.6082532790598
 30
0.0
 10
92.6589436617311
 20
-121.4687269119071
 30
0.0
 10
92.6589436617311
 20
-121.4687269119071
 30
0.0
 10
92.73645831014922
 20
-121.4179117534997
 30
0.0
 10
92.86254880490937
 20
-121.3310953472714
 30
0.0
 10
92.98278263734458
 20
-121.136619707129
 30
0.0
 10
93.06236434305386
 20
-121.0096679384976
 30
0.0
 10
93.11989743765753
 20
-120.8658352019884
 30
0.0
 10
93.14952525883068
 20
-120.7133897267661
 30
0.0
 10
92.94936521113766
 20
-120.7156290388315
 30
0.0
 10
92.79226885701027
 20
-120.7220024654792
 30
0.0
 10
92.70889754626722
 20
-120.7240695227704
 30
0.0
 10
92.70889754626722
 20
-120.7240695227704
 30
0.0
 10
92.70889754626722
 20
-120.5463025957315
 30
0.0
 10
92.70889754626722
 20
-120.5463025957315
 30
0.0
 10
92.88115232052972
 20
-120.5526760223792
 30
0.0
 10
93.1291991954677
 20
-120.5569823917358
 30
0.0
 10
93.26080184300424
 20
-120.5569823917358
 30
0.0
 10
93.26080184300424
 20
-120.5569823917358
 30
0.0
 10
93.44752601830479
 20
-120.5569823917358
 30
0.0
 10
93.44752601830479
 20
-120.5569823917358
 30
0.0
 10
93.44752601830479
 20
-120.5569823917358
 30
0.0
 10
93.44752601830479
 20
-120.4489786482732
 30
0.0
 10
93.44752601830479
 20
-120.4489786482732
 30
0.0
 10
93.44752601830479
 20
-120.4489786482732
 30
0.0
 10
93.32005748535055
 20
-120.4489786482732
 30
0.0
 10
93.32005748535055
 20
-120.4489786482732
 30
0.0
 10
93.17191837948481
 20
-120.4489786482732
 30
0.0
 10
93.02377927361906
 20
-120.4532850176297
 30
0.0
 10
92.87736271549593
 20
-120.4596584442775
 30
0.0
 10
92.87736271549593
 20
-120.4596584442775
 30
0.0
 10
92.87736271549593
 20
-120.2882649438863
 30
0.0
 10
92.87736271549593
 20
-120.2882649438863
 30
0.0
 10
93.01241045851773
 20
-120.2987724851163
 30
0.0
 10
93.17536347497006
 20
-120.2987724851163
 30
0.0
 10
93.32005748535055
 20
-120.2987724851163
 30
0.0
 10
93.32005748535055
 20
-120.2987724851163
 30
0.0
 10
93.44752601830479
 20
-120.2987724851163
 30
0.0
 10
93.44752601830479
 20
-120.2987724851163
 30
0.0
 10
93.44752601830479
 20
-120.2987724851163
 30
0.0
 10
93.44752601830479
 20
-120.180433455198
 30
0.0
 10
93.44752601830479
 20
-120.180433455198
 30
0.0
 10
93.44752601830479
 20
-120.180433455198
 30
0.0
 10
93.33280433864597
 20
-120.180433455198
 30
0.0
 10
93.33280433864597
 20
-120.180433455198
 30
0.0
 10
93.29215221192003
 20
-120.180433455198
 30
0.0
 10
93.11438528488112
 20
-120.1888739391368
 30
0.0
 10
93.07717825364043
 20
-120.1888739391368
 30
0.0
 10
92.89941132660154
 20
-120.1930080537191
 30
0.0
 10
92.83292098373622
 20
-120.1950751110103
 30
0.0
 10
92.76436358357975
 20
-120.1973144230757
 30
0.0
 10
92.76436358357975
 20
-120.1973144230757
 30
0.0
 10
92.76436358357975
 20
-120.0131740693891
 30
0.0
 10
92.76436358357975
 20
-120.0131740693891
 30
0.0
 10
92.864271352652
 20
-120.0216145533279
 30
0.0
 10
92.90320093163531
 20
-120.0216145533279
 30
0.0
 10
93.23840872235013
 20
-120.0302272920411
 30
0.0
 10
93.1829426850376
 20
-119.9349704018739
 30
0.0
 10
93.15882701664086
 20
-119.9074096379919
 30
0.0
 10
93.12713213817655
 20
-119.871408390171
 30
0.0
 10
93.12713213817655
 20
-119.871408390171
 30
0.0
 10
93.28112790636722
 20
-119.7888983532993
 30
0.0
 10
93.28112790636722
 20
-119.7888983532993
 30
0.0
 10
93.31626788031677
 20
-119.8248996011202
 30
0.0
 10
93.3551974593001
 20
-119.8672742755887
 30
0.0
 10
93.41996525442279
 20
-119.9771728215682
 30
0.0
 10
93.41996525442279
 20
-119.9771728215682
 30
0.0
 10
93.32005748535055
 20
-120.0322943493322
 30
0.0
 10
93.32005748535055
 20
-120.0322943493322
 30
0.0
 10
93.32005748535055
 20
-120.0322943493322
 30
0.0
 10
93.3290147336122
 20
-120.0322943493322
 30
0.0
 10
93.3290147336122
 20
-120.0322943493322
 30
0.0
 10
93.3290147336122
 20
-120.0322943493322
 30
0.0
 10
93.78652341405338
 20
-120.0322943493322
 30
0.0
 10
93.78652341405338
 20
-120.0322943493322
 30
0.0
 10
93.78652341405338
 20
-120.0322943493322
 30
0.0
 10
93.70315210331033
 20
-119.9878526175725
 30
0.0
 10
93.70315210331033
 20
-119.9878526175725
 30
0.0
 10
93.72726777170708
 20
-119.9497843124605
 30
0.0
 10
93.7772216562432
 20
-119.8693413328799
 30
0.0
 10
93.79031301908715
 20
-119.795271779947
 30
0.0
 10
93.79031301908715
 20
-119.795271779947
 30
0.0
 10
93.97738170393622
 20
-119.8588337916499
 30
0.0
 10
93.97738170393622
 20
-119.8588337916499
 30
0.0
 10
93.98461640445524
 20
-119.860900848941
 30
0.0
 10
94.0032199200756
 20
-119.871408390171
 30
0.0
 10
94.0032199200756
 20
-119.8925957274053
 30
0.0
 10
94.0032199200756
 20
-119.9306640325173
 30
0.0
 10
93.94568682547191
 20
-119.9306640325173
 30
0.0
 10
93.92915036714271
 20
-119.9306640325173
 30
0.0
 10
93.91984860933255
 20
-119.9497843124605
 30
0.0
 10
93.89952254596957
 20
-119.9899196748636
 30
0.0
 10
93.8736843298302
 20
-120.0302272920411
 30
0.0
 10
94.22336152158306
 20
-120.0238538653933
 30
0.0
 10
94.24954424727095
 20
-120.0216145533279
 30
0.0
 10
94.31603459013627
 20
-120.0154133814545
 30
0.0
 10
94.31603459013627
 20
-120.0154133814545
 30
0.0
 10
94.31603459013627
 20
-120.1973144230757
 30
0.0
 10
94.31603459013627
 20
-120.1973144230757
 30
0.0
 10
94.29949813180707
 20
-120.1973144230757
 30
0.0
 10
94.27710501115295
 20
-120.1950751110103
 30
0.0
 10
94.08452417352748
 20
-120.1866346270714
 30
0.0
 10
94.04008244176777
 20
-120.1845675697803
 30
0.0
 10
93.8475016041423
 20
-120.180433455198
 30
0.0
 10
93.80857202515897
 20
-120.180433455198
 30
0.0
 10
93.80857202515897
 20
-120.180433455198
 30
0.0
 10
93.61978079256728
 20
-120.180433455198
 30
0.0
 10
93.61978079256728
 20
-120.180433455198
 30
0.0
 10
93.61978079256728
 20
-120.180433455198
 30
0.0
 10
93.61978079256728
 20
-120.2987724851163
 30
0.0
 10
93.61978079256728
 20
-120.2987724851163
 30
0.0
 10
93.61978079256728
 20
-120.2987724851163
 30
0.0
 10
93.7717095034668
 20
-120.2987724851163
 30
0.0
 10
93.7717095034668
 20
-120.2987724851163
 30
0.0
 10
93.91433645655614
 20
-120.2987724851163
 30
0.0
 10
94.08107907804224
 20
-120.2987724851163
 30
0.0
 10
94.21784936880665
 20
-120.2882649438863
 30
0.0
 10
94.21784936880665
 20
-120.2882649438863
 30
0.0
 10
94.21784936880665
 20
-120.4596584442775
 30
0.0
 10
94.21784936880665
 20
-120.4596584442775
 30
0.0
 10
94.03457028899136
 20
-120.4512179603386
 30
0.0
 10
93.86231551472886
 20
-120.4489786482732
 30
0.0
 10
93.7717095034668
 20
-120.4489786482732
 30
0.0
 10
93.7717095034668
 20
-120.4489786482732
 30
0.0
 10
93.61978079256728
 20
-120.4489786482732
 30
0.0
 10
93.61978079256728
 20
-120.4489786482732
 30
0.0
 10
93.61978079256728
 20
-120.4489786482732
 30
0.0
 10
93.61978079256728
 20
-120.5569823917358
 30
0.0
 10
93.61978079256728
 20
-120.5569823917358
 30
0.0
 10
93.61978079256728
 20
-120.5569823917358
 30
0.0
 10
93.82166338800292
 20
-120.5569823917358
 30
0.0
 10
93.82166338800292
 20
-120.5569823917358
 30
0.0
 10
93.93845212495289
 20
-120.5569823917358
 30
0.0
 10
94.19028860492466
 20
-120.5526760223792
 30
0.0
 10
94.37356768473994
 20
-120.5463025957315
 30
0.0
 10
94.37356768473994
 20
-120.5463025957315
 30
0.0
 10
94.37356768473994
 20
-120.7240695227704
 30
0.0
 10
94.37356768473994
 20
-120.7240695227704
 30
0.0
 10
94.20510251551123
 20
-120.7176960961227
 30
0.0
 10
93.93087291488534
 20
-120.7133897267661
 30
0.0
 10
93.82166338800292
 20
-120.7133897267661
 30
0.0
  0
POLYLINE
  5
DB
330
D2
100
AcDbEntity
  8
_U+30EC_U+30A4_U+30E4_U+30FC 1
370
     0
100
AcDb2dPolyline
 66
     1
 10
0.0
 20
0.0
 30
0.0
  0
VERTEX
  5
DC
330
DB
100
AcDbEntity
  8
_U+30EC_U+30A4_U+30E4_U+30FC 1
370
     0
100
AcDbVertex
100
AcDb2dVertex
 10
93.9660128888349
 20
-120.9693603213202
 30
0.0
  0
VERTEX
  5
DD
330
DB
100
AcDbEntity
  8
_U+30EC_U+30A4_U+30E4_U+30FC 1
370
     0
100
AcDbVertex
100
AcDb2dVertex
 10
93.34761824923254
 20
-120.9693603213202
 30
0.0
  0
VERTEX
  5
DE
330
DB
100
AcDbEntity
  8
_U+30EC_U+30A4_U+30E4_U+30FC 1
370
     0
100
AcDbVertex
100
AcDb2dVertex
 10
93.34761824923254
 20
-121.0773640647827
 30
0.0
  0
VERTEX
  5
DF
330
DB
100
AcDbEntity
  8
_U+30EC_U+30A4_U+30E4_U+30FC 1
370
     0
100
AcDbVertex
100
AcDb2dVertex
 10
93.9660128888349
 20
-121.0773640647827
 30
0.0
  0
VERTEX
  5
E0
330
DB
100
AcDbEntity
  8
_U+30EC_U+30A4_U+30E4_U+30FC 1
370
     0
100
AcDbVertex
100
AcDb2dVertex
 10
93.9660128888349
 20
-120.9693603213202
 30
0.0
  0
SEQEND
  5
E1
330
DB
100
AcDbEntity
  8
_U+30EC_U+30A4_U+30E4_U+30FC 1
370
     0
  0
POLYLINE
  5
E2
330
D2
100
AcDbEntity
  8
_U+30EC_U+30A4_U+30E4_U+30FC 1
370
     0
100
AcDb2dPolyline
 66
     1
 10
0.0
 20
0.0
 30
0.0
  0
VERTEX
  5
E3
330
E2
100
AcDbEntity
  8
_U+30EC_U+30A4_U+30E4_U+30FC 1
370
     0
100
AcDbVertex
100
AcDb2dVertex
 10
93.9660128888349
 20
-121.2020765213488
 30
0.0
  0
VERTEX
  5
E4
330
E2
100
AcDbEntity
  8
_U+30EC_U+30A4_U+30E4_U+30FC 1
370
     0
100
AcDbVertex
100
AcDb2dVertex
 10
93.34761824923254
 20
-121.2020765213488
 30
0.0
  0
VERTEX
  5
E5
330
E2
100
AcDbEntity
  8
_U+30EC_U+30A4_U+30E4_U+30FC 1
370
     0
100
AcDbVertex
100
AcDb2dVertex
 10
93.34761824923254
 20
-121.3164536914591
 30
0.0
  0
VERTEX
  5
E6
330
E2
100
AcDbEntity
  8
_U+30EC_U+30A4_U+30E4_U+30FC 1
370
     0
100
AcDbVertex
100
AcDb2dVertex
 10
93.9660128888349
 20
-121.3164536914591
 30
0.0
  0
VERTEX
  5
E7
330
E2
100
AcDbEntity
  8
_U+30EC_U+30A4_U+30E4_U+30FC 1
370
     0
100
AcDbVertex
100
AcDb2dVertex
 10
93.9660128888349
 20
-121.2020765213488
 30
0.0
  0
SEQEND
  5
E8
330
E2
100
AcDbEntity
  8
_U+30EC_U+30A4_U+30E4_U+30FC 1
370
     0
  0
POLYLINE
  5
E9
330
D2
100
AcDbEntity
  8
_U+30EC_U+30A4_U+30E4_U+30FC 1
370
     0
100
AcDb2dPolyline
 66
     1
 10
0.0
 20
0.0
 30
0.0
  0
VERTEX
  5
EA
330
E9
100
AcDbEntity
  8
_U+30EC_U+30A4_U+30E4_U+30FC 1
370
     0
100
AcDbVertex
100
AcDb2dVertex
 10
93.9660128888349
 20
-121.4454725173817
 30
0.0
  0
VERTEX
  5
EB
330
E9
100
AcDbEntity
  8
_U+30EC_U+30A4_U+30E4_U+30FC 1
370
     0
100
AcDbVertex
100
AcDb2dVertex
 10
93.34761824923254
 20
-121.4454725173817
 30
0.0
  0
VERTEX
  5
EC
330
E9
100
AcDbEntity
  8
_U+30EC_U+30A4_U+30E4_U+30FC 1
370
     0
100
AcDbVertex
100
AcDb2dVertex
 10
93.34761824923254
 20
-121.5596774327177
 30
0.0
  0
VERTEX
  5
ED
330
E9
100
AcDbEntity
  8
_U+30EC_U+30A4_U+30E4_U+30FC 1
370
     0
100
AcDbVertex
100
AcDb2dVertex
 10
93.9660128888349
 20
-121.5596774327177
 30
0.0
  0
VERTEX
  5
EE
330
E9
100
AcDbEntity
  8
_U+30EC_U+30A4_U+30E4_U+30FC 1
370
     0
100
AcDbVertex
100
AcDb2dVertex
 10
93.9660128888349
 20
-121.4454725173817
 30
0.0
  0
SEQEND
  5
EF
330
E9
100
AcDbEntity
  8
_U+30EC_U+30A4_U+30E4_U+30FC 1
370
     0
  0
HATCH
  5
F0
330
D2
100
AcDbEntity
  8
_U+30EC_U+30A4_U+30E4_U+30FC 1
 62
   179
420
  2234388
100
AcDbHatch
 10
0.0
 20
0.0
 30
0.0
210
0.0
220
0.0
230
1.0
  2
SOLID
 70
     1
 71
     0
 91
        4
 92
        1
 93
        1
 72
     4
 94
        3
 73
     0
 74
     1
 95
      203
 96
      199
 40
0.0
 40
0.0
 40
0.0
 40
0.0
 40
1.0
 40
1.0
 40
1.0
 40
2.0
 40
2.0
 40
2.0
 40
3.0
 40
3.0
 40
3.0
 40
4.0
 40
4.0
 40
4.0
 40
5.0
 40
5.0
 40
5.0
 40
6.0
 40
6.0
 40
6.0
 40
7.0
 40
7.0
 40
7.0
 40
8.0
 40
8.0
 40
8.0
 40
9.0
 40
9.0
 40
9.0
 40
10.0
 40
10.0
 40
10.0
 40
11.0
 40
11.0
 40
11.0
 40
12.0
 40
12.0
 40
12.0
 40
13.0
 40
13.0
 40
13.0
 40
14.0
 40
14.0
 40
14.0
 40
15.0
 40
15.0
 40
15.0
 40
16.0
 40
16.0
 40
16.0
 40
17.0
 40
17.0
 40
17.0
 40
18.0
 40
18.0
 40
18.0
 40
19.0
 40
19.0
 40
19.0
 40
20.0
 40
20.0
 40
20.0
 40
21.0
 40
21.0
 40
21.0
 40
22.0
 40
22.0
 40
22.0
 40
23.0
 40
23.0
 40
23.0
 40
24.0
 40
24.0
 40
24.0
 40
25.0
 40
25.0
 40
25.0
 40
26.0
 40
26.0
 40
26.0
 40
27.0
 40
27.0
 40
27.0
 40
28.0
 40
28.0
 40
28.0
 40
29.0
 40
29.0
 40
29.0
 40
30.0
 40
30.0
 40
30.0
 40
31.0
 40
31.0
 40
31.0
 40
32.0
 40
32.0
 40
32.0
 40
33.0
 40
33.0
 40
33.0
 40
34.0
 40
34.0
 40
34.0
 40
35.0
 40
35.0
 40
35.0
 40
36.0
 40
36.0
 40
36.0
 40
37.0
 40
37.0
 40
37.0
 40
38.0
 40
38.0
 40
38.0
 40
39.0
 40
39.0
 40
39.0
 40
40.0
 40
40.0
 40
40.0
 40
41.0
 40
41.0
 40
41.0
 40
42.0
 40
42.0
 40
42.0
 40
43.0
 40
43.0
 40
43.0
 40
44.0
 40
44.0
 40
44.0
 40
45.0
 40
45.0
 40
45.0
 40
46.0
 40
46.0
 40
46.0
 40
47.0
 40
47.0
 40
47.0
 40
48.0
 40
48.0
 40
48.0
 40
49.0
 40
49.0
 40
49.0
 40
50.0
 40
50.0
 40
50.0
 40
51.0
 40
51.0
 40
51.0
 40
52.0
 40
52.0
 40
52.0
 40
53.0
 40
53.0
 40
53.0
 40
54.0
 40
54.0
 40
54.0
 40
55.0
 40
55.0
 40
55.0
 40
56.0
 40
56.0
 40
56.0
 40
57.0
 40
57.0
 40
57.0
 40
58.0
 40
58.0
 40
58.0
 40
59.0
 40
59.0
 40
59.0
 40
60.0
 40
60.0
 40
60.0
 40
61.0
 40
61.0
 40
61.0
 40
62.0
 40
62.0
 40
62.0
 40
63.0
 40
63.0
 40
63.0
 40
64.0
 40
64.0
 40
64.0
 40
65.0
 40
65.0
 40
65.0
 40
66.0
 40
66.0
 40
66.0
 40
66.0
 10
93.82166338800292
 20
-120.7133897267661
 10
93.82166338800292
 20
-120.7133897267661
 10
93.33280433864597
 20
-120.7133897267661
 10
93.33280433864597
 20
-120.7133897267661
 10
93.3235025808358
 20
-120.7578314585258
 10
93.31626788031677
 20
-120.7895263369901
 10
93.30489906521545
 20
-120.8277668968764
 10
93.32729218586957
 20
-120.8277668968764
 10
93.34038354871352
 20
-120.8298339541675
 10
93.34589570148992
 20
-120.8298339541675
 10
93.34589570148992
 20
-120.8298339541675
 10
93.51057126568486
 20
-120.8298339541675
 10
93.51057126568486
 20
-120.8298339541675
 10
93.51057126568486
 20
-120.8298339541675
 10
93.83819984633212
 20
-120.8298339541675
 10
93.83819984633212
 20
-120.8298339541675
 10
93.88298608764038
 20
-120.8298339541675
 10
94.13103296257836
 20
-120.8170871008721
 10
94.15859372646035
 20
-120.8170871008721
 10
94.15687117871774
 20
-120.8446478647541
 10
94.1551486309751
 20
-120.863595889923
 10
94.1551486309751
 20
-120.8932237110961
 10
94.15308157368396
 20
-120.9249185895604
 10
94.15308157368396
 20
-121.0603108421308
 10
94.15308157368396
 20
-121.0878716060128
 10
94.15308157368396
 20
-121.0878716060128
 10
94.15308157368396
 20
-121.3333346593368
 10
94.15308157368396
 20
-121.3333346593368
 10
94.15308157368396
 20
-121.3777763910965
 10
94.15687117871774
 20
-121.5744913433043
 10
94.16066078375151
 20
-121.7267645637523
 10
94.16066078375151
 20
-121.7267645637523
 10
93.96256779334963
 20
-121.7267645637523
 10
93.96256779334963
 20
-121.7267645637523
 10
93.96256779334963
 20
-121.7267645637523
 10
93.96429034109227
 20
-121.6930026279969
 10
93.96429034109227
 20
-121.6930026279969
 10
93.96429034109227
 20
-121.6930026279969
 10
93.3496853065237
 20
-121.6930026279969
 10
93.3496853065237
 20
-121.6930026279969
 10
93.3496853065237
 20
-121.6930026279969
 10
93.35140785426631
 20
-121.7267645637523
 10
93.35140785426631
 20
-121.7267645637523
 10
93.35140785426631
 20
-121.7267645637523
 10
93.16054956438347
 20
-121.7267645637523
 10
93.16054956438347
 20
-121.7267645637523
 10
93.16433916941725
 20
-121.6718152907626
 10
93.16433916941725
 20
-121.6590684374672
 10
93.16985132219365
 20
-121.5448635221312
 10
93.17191837948481
 20
-121.5173027582492
 10
93.17364092722742
 20
-121.3841498177442
 10
93.17364092722742
 20
-121.3650295378011
 10
93.17364092722742
 20
-121.3650295378011
 10
93.17364092722742
 20
-121.1619411589456
 10
93.17364092722742
 20
-121.1619411589456
 10
93.05134003750106
 20
-121.411538326852
 10
92.90320093163531
 20
-121.54279646484
 10
92.8105278630821
 20
-121.6082532790598
 10
92.8105278630821
 20
-121.6082532790598
 10
92.6589436617311
 20
-121.4687269119071
 10
92.6589436617311
 20
-121.4687269119071
 10
92.73645831014922
 20
-121.4179117534997
 10
92.86254880490937
 20
-121.3310953472714
 10
92.98278263734458
 20
-121.136619707129
 10
93.06236434305386
 20
-121.0096679384976
 10
93.11989743765753
 20
-120.8658352019884
 10
93.14952525883068
 20
-120.7133897267661
 10
92.94936521113766
 20
-120.7156290388315
 10
92.79226885701027
 20
-120.7220024654792
 10
92.70889754626722
 20
-120.7240695227704
 10
92.70889754626722
 20
-120.7240695227704
 10
92.70889754626722
 20
-120.5463025957315
 10
92.70889754626722
 20
-120.5463025957315
 10
92.88115232052972
 20
-120.5526760223792
 10
93.1291991954677
 20
-120.5569823917358
 10
93.26080184300424
 20
-120.5569823917358
 10
93.26080184300424
 20
-120.5569823917358
 10
93.44752601830479
 20
-120.5569823917358
 10
93.44752601830479
 20
-120.5569823917358
 10
93.44752601830479
 20
-120.5569823917358
 10
93.44752601830479
 20
-120.4489786482732
 10
93.44752601830479
 20
-120.4489786482732
 10
93.44752601830479
 20
-120.4489786482732
 10
93.32005748535055
 20
-120.4489786482732
 10
93.32005748535055
 20
-120.4489786482732
 10
93.17191837948481
 20
-120.4489786482732
 10
93.02377927361906
 20
-120.4532850176297
 10
92.87736271549593
 20
-120.4596584442775
 10
92.87736271549593
 20
-120.4596584442775
 10
92.87736271549593
 20
-120.2882649438863
 10
92.87736271549593
 20
-120.2882649438863
 10
93.01241045851773
 20
-120.2987724851163
 10
93.17536347497006
 20
-120.2987724851163
 10
93.32005748535055
 20
-120.2987724851163
 10
93.32005748535055
 20
-120.2987724851163
 10
93.44752601830479
 20
-120.2987724851163
 10
93.44752601830479
 20
-120.2987724851163
 10
93.44752601830479
 20
-120.2987724851163
 10
93.44752601830479
 20
-120.180433455198
 10
93.44752601830479
 20
-120.180433455198
 10
93.44752601830479
 20
-120.180433455198
 10
93.33280433864597
 20
-120.180433455198
 10
93.33280433864597
 20
-120.180433455198
 10
93.29215221192003
 20
-120.180433455198
 10
93.11438528488112
 20
-120.1888739391368
 10
93.07717825364043
 20
-120.1888739391368
 10
92.89941132660154
 20
-120.1930080537191
 10
92.83292098373622
 20
-120.1950751110103
 10
92.76436358357975
 20
-120.1973144230757
 10
92.76436358357975
 20
-120.1973144230757
 10
92.76436358357975
 20
-120.0131740693891
 10
92.76436358357975
 20
-120.0131740693891
 10
92.864271352652
 20
-120.0216145533279
 10
92.90320093163531
 20
-120.0216145533279
 10
93.23840872235013
 20
-120.0302272920411
 10
93.1829426850376
 20
-119.9349704018739
 10
93.15882701664086
 20
-119.9074096379919
 10
93.12713213817655
 20
-119.871408390171
 10
93.12713213817655
 20
-119.871408390171
 10
93.28112790636722
 20
-119.7888983532993
 10
93.28112790636722
 20
-119.7888983532993
 10
93.31626788031677
 20
-119.8248996011202
 10
93.3551974593001
 20
-119.8672742755887
 10
93.41996525442279
 20
-119.9771728215682
 10
93.41996525442279
 20
-119.9771728215682
 10
93.32005748535055
 20
-120.0322943493322
 10
93.32005748535055
 20
-120.0322943493322
 10
93.32005748535055
 20
-120.0322943493322
 10
93.3290147336122
 20
-120.0322943493322
 10
93.3290147336122
 20
-120.0322943493322
 10
93.3290147336122
 20
-120.0322943493322
 10
93.78652341405338
 20
-120.0322943493322
 10
93.78652341405338
 20
-120.0322943493322
 10
93.78652341405338
 20
-120.0322943493322
 10
93.70315210331033
 20
-119.9878526175725
 10
93.70315210331033
 20
-119.9878526175725
 10
93.72726777170708
 20
-119.9497843124605
 10
93.7772216562432
 20
-119.8693413328799
 10
93.79031301908715
 20
-119.795271779947
 10
93.79031301908715
 20
-119.795271779947
 10
93.97738170393622
 20
-119.8588337916499
 10
93.97738170393622
 20
-119.8588337916499
 10
93.98461640445524
 20
-119.860900848941
 10
94.0032199200756
 20
-119.871408390171
 10
94.0032199200756
 20
-119.8925957274053
 10
94.0032199200756
 20
-119.9306640325173
 10
93.94568682547191
 20
-119.9306640325173
 10
93.92915036714271
 20
-119.9306640325173
 10
93.91984860933255
 20
-119.9497843124605
 10
93.89952254596957
 20
-119.9899196748636
 10
93.8736843298302
 20
-120.0302272920411
 10
94.22336152158306
 20
-120.0238538653933
 10
94.24954424727095
 20
-120.0216145533279
 10
94.31603459013627
 20
-120.0154133814545
 10
94.31603459013627
 20
-120.0154133814545
 10
94.31603459013627
 20
-120.1973144230757
 10
94.31603459013627
 20
-120.1973144230757
 10
94.29949813180707
 20
-120.1973144230757
 10
94.27710501115295
 20
-120.1950751110103
 10
94.08452417352748
 20
-120.1866346270714
 10
94.04008244176777
 20
-120.1845675697803
 10
93.8475016041423
 20
-120.180433455198
 10
93.80857202515897
 20
-120.180433455198
 10
93.80857202515897
 20
-120.180433455198
 10
93.61978079256728
 20
-120.180433455198
 10
93.61978079256728
 20
-120.180433455198
 10
93.61978079256728
 20
-120.180433455198
 10
93.61978079256728
 20
-120.2987724851163
 10
93.61978079256728
 20
-120.2987724851163
 10
93.61978079256728
 20
-120.2987724851163
 10
93.7717095034668
 20
-120.2987724851163
 10
93.7717095034668
 20
-120.2987724851163
 10
93.91433645655614
 20
-120.2987724851163
 10
94.08107907804224
 20
-120.2987724851163
 10
94.21784936880665
 20
-120.2882649438863
 10
94.21784936880665
 20
-120.2882649438863
 10
94.21784936880665
 20
-120.4596584442775
 10
94.21784936880665
 20
-120.4596584442775
 10
94.03457028899136
 20
-120.4512179603386
 10
93.86231551472886
 20
-120.4489786482732
 10
93.7717095034668
 20
-120.4489786482732
 10
93.7717095034668
 20
-120.4489786482732
 10
93.61978079256728
 20
-120.4489786482732
 10
93.61978079256728
 20
-120.4489786482732
 10
93.61978079256728
 20
-120.4489786482732
 10
93.61978079256728
 20
-120.5569823917358
 10
93.61978079256728
 20
-120.5569823917358
 10
93.61978079256728
 20
-120.5569823917358
 10
93.82166338800292
 20
-120.5569823917358
 10
93.82166338800292
 20
-120.5569823917358
 10
93.93845212495289
 20
-120.5569823917358
 10
94.19028860492466
 20
-120.5526760223792
 10
94.37356768473994
 20
-120.5463025957315
 10
94.37356768473994
 20
-120.5463025957315
 10
94.37356768473994
 20
-120.7240695227704
 10
94.37356768473994
 20
-120.7240695227704
 10
94.20510251551123
 20
-120.7176960961227
 10
93.93087291488534
 20
-120.7133897267661
 10
93.82166338800292
 20
-120.7133897267661
 97
        0
 97
        0
 92
        1
 93
        4
 72
     1
 10
93.9660128888349
 20
-120.9693603213202
 11
93.34761824923254
 21
-120.9693603213202
 72
     1
 10
93.34761824923254
 20
-120.9693603213202
 11
93.34761824923254
 21
-121.0773640647827
 72
     1
 10
93.34761824923254
 20
-121.0773640647827
 11
93.9660128888349
 21
-121.0773640647827
 72
     1
 10
93.9660128888349
 20
-121.0773640647827
 11
93.9660128888349
 21
-120.9693603213202
 97
        0
 92
        1
 93
        4
 72
     1
 10
93.9660128888349
 20
-121.2020765213488
 11
93.34761824923254
 21
-121.2020765213488
 72
     1
 10
93.34761824923254
 20
-121.2020765213488
 11
93.34761824923254
 21
-121.3164536914591
 72
     1
 10
93.34761824923254
 20
-121.3164536914591
 11
93.9660128888349
 21
-121.3164536914591
 72
     1
 10
93.9660128888349
 20
-121.3164536914591
 11
93.9660128888349
 21
-121.2020765213488
 97
        0
 92
        1
 93
        4
 72
     1
 10
93.9660128888349
 20
-121.4454725173817
 11
93.34761824923254
 21
-121.4454725173817
 72
     1
 10
93.34761824923254
 20
-121.4454725173817
 11
93.34761824923254
 21
-121.5596774327177
 72
     1
 10
93.34761824923254
 20
-121.5596774327177
 11
93.9660128888349
 21
-121.5596774327177
 72
     1
 10
93.9660128888349
 20
-121.5596774327177
 11
93.9660128888349
 21
-121.4454725173817
 97
        0
 75
     2
 76
     1
 98
        0
  0
SPLINE
  5
F1
330
D2
100
AcDbEntity
  8
_U+30EC_U+30A4_U+30E4_U+30FC 1
370
     0
100
AcDbSpline
210
0.0
220
0.0
230
1.0
 70
    11
 71
     3
 72
    47
 73
    43
 74
     0
 42
0.0000000001
 43
0.0000000001
 12
1.0
 22
0.0
 32
0.0
 13
1.0
 23
0.0
 33
0.0
 40
0.0
 40
0.0
 40
0.0
 40
0.0
 40
1.0
 40
1.0
 40
1.0
 40
2.0
 40
2.0
 40
2.0
 40
3.0
 40
3.0
 40
3.0
 40
4.0
 40
4.0
 40
4.0
 40
5.0
 40
5.0
 40
5.0
 40
6.0
 40
6.0
 40
6.0
 40
7.0
 40
7.0
 40
7.0
 40
8.0
 40
8.0
 40
8.0
 40
9.0
 40
9.0
 40
9.0
 40
10.0
 40
10.0
 40
10.0
 40
11.0
 40
11.0
 40
11.0
 40
12.0
 40
12.0
 40
12.0
 40
13.0
 40
13.0
 40
13.0
 40
14.0
 40
14.0
 40
14.0
 40
14.0
 10
95.55351288843802
 20
-120.6901353322407
 30
0.0
 10
95.55351288843802
 20
-120.6901353322407
 30
0.0
 10
95.46462942491857
 20
-120.6901353322407
 30
0.0
 10
95.46462942491857
 20
-120.6901353322407
 30
0.0
 10
95.46462942491857
 20
-120.776951738469
 30
0.0
 10
95.44602590929821
 20
-121.1662475283022
 30
0.0
 10
95.27377113503573
 20
-121.3862168750354
 30
0.0
 10
95.14044593975656
 20
-121.5553710633612
 30
0.0
 10
94.9588894076839
 20
-121.6253065017117
 30
0.0
 10
94.88481985475102
 20
-121.6526950108195
 30
0.0
 10
94.88481985475102
 20
-121.6526950108195
 30
0.0
 10
94.71463213777967
 20
-121.4856078797849
 30
0.0
 10
94.71463213777967
 20
-121.4856078797849
 30
0.0
 10
94.79972599626535
 20
-121.4728610264894
 30
0.0
 10
94.9533772549075
 20
-121.449606631964
 30
0.0
 10
95.11839732865096
 20
-121.2613321636951
 30
0.0
 10
95.18316512377366
 20
-121.1895019228276
 30
0.0
 10
95.27377113503573
 20
-121.0498033009007
 30
0.0
 10
95.27377113503573
 20
-120.6901353322407
 30
0.0
 10
95.27377113503573
 20
-120.6901353322407
 30
0.0
 10
95.07188853960008
 20
-120.6901353322407
 30
0.0
 10
95.07188853960008
 20
-120.6901353322407
 30
0.0
 10
94.90893552314778
 20
-120.6901353322407
 30
0.0
 10
94.74598250669546
 20
-120.6944417015972
 30
0.0
 10
94.58302949024313
 20
-120.7092556121838
 30
0.0
 10
94.58302949024313
 20
-120.7092556121838
 30
0.0
 10
94.58302949024313
 20
-120.4892862654506
 30
0.0
 10
94.58302949024313
 20
-120.4892862654506
 30
0.0
 10
94.74770505443807
 20
-120.5041001760372
 30
0.0
 10
94.99781898666721
 20
-120.5082342906195
 30
0.0
 10
95.07188853960008
 20
-120.5082342906195
 30
0.0
 10
95.07188853960008
 20
-120.5082342906195
 30
0.0
 10
95.55351288843802
 20
-120.5082342906195
 30
0.0
 10
95.55351288843802
 20
-120.5082342906195
 30
0.0
 10
95.57004934676722
 20
-120.5082342906195
 30
0.0
 10
95.84772404287835
 20
-120.5082342906195
 30
0.0
 10
96.04788409057137
 20
-120.4892862654506
 30
0.0
 10
96.04788409057137
 20
-120.4892862654506
 30
0.0
 10
96.04788409057137
 20
-120.7092556121838
 30
0.0
 10
96.04788409057137
 20
-120.7092556121838
 30
0.0
 10
95.8828640168279
 20
-120.6944417015972
 30
0.0
 10
95.71818845263296
 20
-120.6901353322407
 30
0.0
 10
95.55351288843802
 20
-120.6901353322407
 30
0.0
  0
SPLINE
  5
F2
330
D2
100
AcDbEntity
  8
_U+30EC_U+30A4_U+30E4_U+30FC 1
370
     0
100
AcDbSpline
210
0.0
220
0.0
230
1.0
 70
    11
 71
     3
 72
    29
 73
    25
 74
     0
 42
0.0000000001
 43
0.0000000001
 12
1.0
 22
0.0
 32
0.0
 13
1.0
 23
0.0
 33
0.0
 40
0.0
 40
0.0
 40
0.0
 40
0.0
 40
1.0
 40
1.0
 40
1.0
 40
2.0
 40
2.0
 40
2.0
 40
3.0
 40
3.0
 40
3.0
 40
4.0
 40
4.0
 40
4.0
 40
5.0
 40
5.0
 40
5.0
 40
6.0
 40
6.0
 40
6.0
 40
7.0
 40
7.0
 40
7.0
 40
8.0
 40
8.0
 40
8.0
 40
8.0
 10
95.46462942491857
 20
-120.1613131752548
 30
0.0
 10
95.46462942491857
 20
-120.1613131752548
 30
0.0
 10
95.15525985034313
 20
-120.1613131752548
 30
0.0
 10
95.15525985034313
 20
-120.1613131752548
 30
0.0
 10
95.05707462901351
 20
-120.1613131752548
 30
0.0
 10
94.93477373928714
 20
-120.1676866019025
 30
0.0
 10
94.8403781229913
 20
-120.180433455198
 30
0.0
 10
94.8403781229913
 20
-120.180433455198
 30
0.0
 10
94.8403781229913
 20
-119.9454779431039
 30
0.0
 10
94.8403781229913
 20
-119.9454779431039
 30
0.0
 10
94.94407549709732
 20
-119.9602918536905
 30
0.0
 10
95.105305965807
 20
-119.964598223047
 30
0.0
 10
95.15525985034313
 20
-119.964598223047
 30
0.0
 10
95.15525985034313
 20
-119.964598223047
 30
0.0
 10
95.46462942491857
 20
-119.964598223047
 30
0.0
 10
95.46462942491857
 20
-119.964598223047
 30
0.0
 10
95.48116588324777
 20
-119.964598223047
 30
0.0
 10
95.65893281028666
 20
-119.964598223047
 30
0.0
 10
95.78295624775565
 20
-119.9454779431039
 30
0.0
 10
95.78295624775565
 20
-119.9454779431039
 30
0.0
 10
95.78295624775565
 20
-120.180433455198
 30
0.0
 10
95.78295624775565
 20
-120.180433455198
 30
0.0
 10
95.6458414474427
 20
-120.1613131752548
 30
0.0
 10
95.47944333550514
 20
-120.1613131752548
 30
0.0
 10
95.46462942491857
 20
-120.1613131752548
 30
0.0
  0
HATCH
  5
F3
330
D2
100
AcDbEntity
  8
_U+30EC_U+30A4_U+30E4_U+30FC 1
 62
   179
420
  2234388
100
AcDbHatch
 10
0.0
 20
0.0
 30
0.0
210
0.0
220
0.0
230
1.0
  2
SOLID
 70
     1
 71
     0
 91
        2
 92
        1
 93
        1
 72
     4
 94
        3
 73
     0
 74
     1
 95
       47
 96
       43
 40
0.0
 40
0.0
 40
0.0
 40
0.0
 40
1.0
 40
1.0
 40
1.0
 40
2.0
 40
2.0
 40
2.0
 40
3.0
 40
3.0
 40
3.0
 40
4.0
 40
4.0
 40
4.0
 40
5.0
 40
5.0
 40
5.0
 40
6.0
 40
6.0
 40
6.0
 40
7.0
 40
7.0
 40
7.0
 40
8.0
 40
8.0
 40
8.0
 40
9.0
 40
9.0
 40
9.0
 40
10.0
 40
10.0
 40
10.0
 40
11.0
 40
11.0
 40
11.0
 40
12.0
 40
12.0
 40
12.0
 40
13.0
 40
13.0
 40
13.0
 40
14.0
 40
14.0
 40
14.0
 40
14.0
 10
95.55351288843802
 20
-120.6901353322407
 10
95.55351288843802
 20
-120.6901353322407
 10
95.46462942491857
 20
-120.6901353322407
 10
95.46462942491857
 20
-120.6901353322407
 10
95.46462942491857
 20
-120.776951738469
 10
95.44602590929821
 20
-121.1662475283022
 10
95.27377113503573
 20
-121.3862168750354
 10
95.14044593975656
 20
-121.5553710633612
 10
94.9588894076839
 20
-121.6253065017117
 10
94.88481985475102
 20
-121.6526950108195
 10
94.88481985475102
 20
-121.6526950108195
 10
94.71463213777967
 20
-121.4856078797849
 10
94.71463213777967
 20
-121.4856078797849
 10
94.79972599626535
 20
-121.4728610264894
 10
94.9533772549075
 20
-121.449606631964
 10
95.11839732865096
 20
-121.2613321636951
 10
95.18316512377366
 20
-121.1895019228276
 10
95.27377113503573
 20
-121.0498033009007
 10
95.27377113503573
 20
-120.6901353322407
 10
95.27377113503573
 20
-120.6901353322407
 10
95.07188853960008
 20
-120.6901353322407
 10
95.07188853960008
 20
-120.6901353322407
 10
94.90893552314778
 20
-120.6901353322407
 10
94.74598250669546
 20
-120.6944417015972
 10
94.58302949024313
 20
-120.7092556121838
 10
94.58302949024313
 20
-120.7092556121838
 10
94.58302949024313
 20
-120.4892862654506
 10
94.58302949024313
 20
-120.4892862654506
 10
94.74770505443807
 20
-120.5041001760372
 10
94.99781898666721
 20
-120.5082342906195
 10
95.07188853960008
 20
-120.5082342906195
 10
95.07188853960008
 20
-120.5082342906195
 10
95.55351288843802
 20
-120.5082342906195
 10
95.55351288843802
 20
-120.5082342906195
 10
95.57004934676722
 20
-120.5082342906195
 10
95.84772404287835
 20
-120.5082342906195
 10
96.04788409057137
 20
-120.4892862654506
 10
96.04788409057137
 20
-120.4892862654506
 10
96.04788409057137
 20
-120.7092556121838
 10
96.04788409057137
 20
-120.7092556121838
 10
95.8828640168279
 20
-120.6944417015972
 10
95.71818845263296
 20
-120.6901353322407
 10
95.55351288843802
 20
-120.6901353322407
 97
        0
 97
        0
 92
        1
 93
        1
 72
     4
 94
        3
 73
     0
 74
     1
 95
       29
 96
       25
 40
0.0
 40
0.0
 40
0.0
 40
0.0
 40
1.0
 40
1.0
 40
1.0
 40
2.0
 40
2.0
 40
2.0
 40
3.0
 40
3.0
 40
3.0
 40
4.0
 40
4.0
 40
4.0
 40
5.0
 40
5.0
 40
5.0
 40
6.0
 40
6.0
 40
6.0
 40
7.0
 40
7.0
 40
7.0
 40
8.0
 40
8.0
 40
8.0
 40
8.0
 10
95.46462942491857
 20
-120.1613131752548
 10
95.46462942491857
 20
-120.1613131752548
 10
95.15525985034313
 20
-120.1613131752548
 10
95.15525985034313
 20
-120.1613131752548
 10
95.05707462901351
 20
-120.1613131752548
 10
94.93477373928714
 20
-120.1676866019025
 10
94.8403781229913
 20
-120.180433455198
 10
94.8403781229913
 20
-120.180433455198
 10
94.8403781229913
 20
-119.9454779431039
 10
94.8403781229913
 20
-119.9454779431039
 10
94.94407549709732
 20
-119.9602918536905
 10
95.105305965807
 20
-119.964598223047
 10
95.15525985034313
 20
-119.964598223047
 10
95.15525985034313
 20
-119.964598223047
 10
95.46462942491857
 20
-119.964598223047
 10
95.46462942491857
 20
-119.964598223047
 10
95.48116588324777
 20
-119.964598223047
 10
95.65893281028666
 20
-119.964598223047
 10
95.78295624775565
 20
-119.9454779431039
 10
95.78295624775565
 20
-119.9454779431039
 10
95.78295624775565
 20
-120.180433455198
 10
95.78295624775565
 20
-120.180433455198
 10
95.6458414474427
 20
-120.1613131752548
 10
95.47944333550514
 20
-120.1613131752548
 10
95.46462942491857
 20
-120.1613131752548
 97
        0
 97
        0
 75
     2
 76
     1
 98
        0
  0
SPLINE
  5
F4
330
D2
100
AcDbEntity
  8
_U+30EC_U+30A4_U+30E4_U+30FC 1
370
     0
100
AcDbSpline
210
0.0
220
0.0
230
1.0
 70
    11
 71
     3
 72
    29
 73
    25
 74
     0
 42
0.0000000001
 43
0.0000000001
 12
1.0
 22
0.0
 32
0.0
 13
1.0
 23
0.0
 33
0.0
 40
0.0
 40
0.0
 40
0.0
 40
0.0
 40
1.0
 40
1.0
 40
1.0
 40
2.0
 40
2.0
 40
2.0
 40
3.0
 40
3.0
 40
3.0
 40
4.0
 40
4.0
 40
4.0
 40
5.0
 40
5.0
 40
5.0
 40
6.0
 40
6.0
 40
6.0
 40
7.0
 40
7.0
 40
7.0
 40
8.0
 40
8.0
 40
8.0
 40
8.0
 10
97.17029619966577
 20
-120.853088348693
 30
0.0
 10
97.17029619966577
 20
-120.853088348693
 30
0.0
 10
96.74620494543151
 20
-120.853088348693
 30
0.0
 10
96.74620494543151
 20
-120.853088348693
 30
0.0
 10
96.72208927703475
 20
-120.853088348693
 30
0.0
 10
96.4440700713751
 20
-120.853088348693
 30
0.0
 10
96.25906844381718
 20
-120.8784098005096
 30
0.0
 10
96.25906844381718
 20
-120.8784098005096
 30
0.0
 10
96.25906844381718
 20
-120.6479329125464
 30
0.0
 10
96.25906844381718
 20
-120.6479329125464
 30
0.0
 10
96.39790579187274
 20
-120.6711873070718
 30
0.0
 10
96.56464841335884
 20
-120.6732543643629
 30
0.0
 10
96.74620494543151
 20
-120.6732543643629
 30
0.0
 10
96.74620494543151
 20
-120.6732543643629
 30
0.0
 10
97.17029619966577
 20
-120.6732543643629
 30
0.0
 10
97.17029619966577
 20
-120.6732543643629
 30
0.0
 10
97.33290470656955
 20
-120.6732543643629
 30
0.0
 10
97.4962022325704
 20
-120.6711873070718
 30
0.0
 10
97.65708819173156
 20
-120.6479329125464
 30
0.0
 10
97.65708819173156
 20
-120.6479329125464
 30
0.0
 10
97.65708819173156
 20
-120.8784098005096
 30
0.0
 10
97.65708819173156
 20
-120.8784098005096
 30
0.0
 10
97.4962022325704
 20
-120.8551554059841
 30
0.0
 10
97.27950572654818
 20
-120.853088348693
 30
0.0
 10
97.17029619966577
 20
-120.853088348693
 30
0.0
  0
HATCH
  5
F5
330
D2
100
AcDbEntity
  8
_U+30EC_U+30A4_U+30E4_U+30FC 1
 62
   179
420
  2234388
100
AcDbHatch
 10
0.0
 20
0.0
 30
0.0
210
0.0
220
0.0
230
1.0
  2
SOLID
 70
     1
 71
     0
 91
        1
 92
        1
 93
        1
 72
     4
 94
        3
 73
     0
 74
     1
 95
       29
 96
       25
 40
0.0
 40
0.0
 40
0.0
 40
0.0
 40
1.0
 40
1.0
 40
1.0
 40
2.0
 40
2.0
 40
2.0
 40
3.0
 40
3.0
 40
3.0
 40
4.0
 40
4.0
 40
4.0
 40
5.0
 40
5.0
 40
5.0
 40
6.0
 40
6.0
 40
6.0
 40
7.0
 40
7.0
 40
7.0
 40
8.0
 40
8.0
 40
8.0
 40
8.0
 10
97.17029619966577
 20
-120.853088348693
 10
97.17029619966577
 20
-120.853088348693
 10
96.74620494543151
 20
-120.853088348693
 10
96.74620494543151
 20
-120.853088348693
 10
96.72208927703475
 20
-120.853088348693
 10
96.4440700713751
 20
-120.853088348693
 10
96.25906844381718
 20
-120.8784098005096
 10
96.25906844381718
 20
-120.8784098005096
 10
96.25906844381718
 20
-120.6479329125464
 10
96.25906844381718
 20
-120.6479329125464
 10
96.39790579187274
 20
-120.6711873070718
 10
96.56464841335884
 20
-120.6732543643629
 10
96.74620494543151
 20
-120.6732543643629
 10
96.74620494543151
 20
-120.6732543643629
 10
97.17029619966577
 20
-120.6732543643629
 10
97.17029619966577
 20
-120.6732543643629
 10
97.33290470656955
 20
-120.6732543643629
 10
97.4962022325704
 20
-120.6711873070718
 10
97.65708819173156
 20
-120.6479329125464
 10
97.65708819173156
 20
-120.6479329125464
 10
97.65708819173156
 20
-120.8784098005096
 10
97.65708819173156
 20
-120.8784098005096
 10
97.4962022325704
 20
-120.8551554059841
 10
97.27950572654818
 20
-120.853088348693
 10
97.17029619966577
 20
-120.853088348693
 97
        0
 97
        0
 75
     2
 76
     1
 98
        0
  0
SPLINE
  5
F6
330
D2
100
AcDbEntity
  8
_U+30EC_U+30A4_U+30E4_U+30FC 1
370
     0
100
AcDbSpline
210
0.0
220
0.0
230
1.0
 70
    11
 71
     3
 72
    44
 73
    40
 74
     0
 42
0.0000000001
 43
0.0000000001
 12
1.0
 22
0.0
 32
0.0
 13
1.0
 23
0.0
 33
0.0
 40
0.0
 40
0.0
 40
0.0
 40
0.0
 40
1.0
 40
1.0
 40
1.0
 40
2.0
 40
2.0
 40
2.0
 40
3.0
 40
3.0
 40
3.0
 40
4.0
 40
4.0
 40
4.0
 40
5.0
 40
5.0
 40
5.0
 40
6.0
 40
6.0
 40
6.0
 40
7.0
 40
7.0
 40
7.0
 40
8.0
 40
8.0
 40
8.0
 40
9.0
 40
9.0
 40
9.0
 40
10.0
 40
10.0
 40
10.0
 40
11.0
 40
11.0
 40
11.0
 40
12.0
 40
12.0
 40
12.0
 40
13.0
 40
13.0
 40
13.0
 40
13.0
 10
99.10712888147322
 20
-120.4152167125177
 30
0.0
 10
99.0089436601436
 20
-120.7833251651167
 30
0.0
 10
98.96450192838388
 20
-120.9419718122124
 30
0.0
 10
98.79224715412138
 20
-121.1915689801188
 30
0.0
 10
98.63136119496022
 20
-121.4222181228563
 30
0.0
 10
98.42396644674818
 20
-121.6082532790598
 30
0.0
 10
98.17936466729545
 20
-121.7014431119358
 30
0.0
 10
98.17936466729545
 20
-121.7014431119358
 30
0.0
 10
98.01089949806672
 20
-121.5216091276057
 30
0.0
 10
98.01089949806672
 20
-121.5216091276057
 30
0.0
 10
98.57210555261392
 20
-121.3693359071577
 30
0.0
 10
98.86080455427786
 20
-120.8129529862898
 30
0.0
 10
98.91627059159038
 20
-120.3728420380492
 30
0.0
 10
98.91627059159038
 20
-120.3728420380492
 30
0.0
 10
98.2461995197093
 20
-120.3728420380492
 30
0.0
 10
98.2461995197093
 20
-120.3728420380492
 30
0.0
 10
98.16455075670886
 20
-120.3728420380492
 30
0.0
 10
98.0036647975477
 20
-120.3771484074057
 30
0.0
 10
97.86654999723476
 20
-120.3960964325746
 30
0.0
 10
97.86654999723476
 20
-120.3960964325746
 30
0.0
 10
97.86654999723476
 20
-120.1761270858414
 30
0.0
 10
97.86654999723476
 20
-120.1761270858414
 30
0.0
 10
97.94234209791026
 20
-120.1973144230757
 30
0.0
 10
98.16282820896625
 20
-120.1973144230757
 30
0.0
 10
98.24998912474307
 20
-120.1973144230757
 30
0.0
 10
98.24998912474307
 20
-120.1973144230757
 30
0.0
 10
98.62757158992645
 20
-120.1973144230757
 30
0.0
 10
98.62757158992645
 20
-120.1973144230757
 30
0.0
 10
98.66477862116714
 20
-120.1973144230757
 30
0.0
 10
98.87010631208804
 20
-120.1950751110103
 30
0.0
 10
98.90352373829495
 20
-120.1888739391368
 30
0.0
 10
98.94038625998714
 20
-120.1825005124891
 30
0.0
 10
98.94245331727828
 20
-120.180433455198
 30
0.0
 10
98.99619680684818
 20
-120.1401258380205
 30
0.0
 10
98.99619680684818
 20
-120.1401258380205
 30
0.0
 10
99.16087237104313
 20
-120.294638370534
 30
0.0
 10
99.16087237104313
 20
-120.294638370534
 30
0.0
 10
99.13503415490375
 20
-120.3242661917071
 30
0.0
 10
99.1219427920598
 20
-120.3559610701714
 30
0.0
 10
99.10712888147322
 20
-120.4152167125177
 30
0.0
  0
SPLINE
  5
F7
330
D2
100
AcDbEntity
  8
_U+30EC_U+30A4_U+30E4_U+30FC 1
370
     0
100
AcDbSpline
210
0.0
220
0.0
230
1.0
 70
    11
 71
     3
 72
    17
 73
    13
 74
     0
 42
0.0000000001
 43
0.0000000001
 12
1.0
 22
0.0
 32
0.0
 13
1.0
 23
0.0
 33
0.0
 40
0.0
 40
0.0
 40
0.0
 40
0.0
 40
1.0
 40
1.0
 40
1.0
 40
2.0
 40
2.0
 40
2.0
 40
3.0
 40
3.0
 40
3.0
 40
4.0
 40
4.0
 40
4.0
 40
4.0
 10
99.29040796128851
 20
-120.2162624482445
 30
0.0
 10
99.17947588666347
 20
-120.2162624482445
 30
0.0
 10
99.09059242314402
 20
-120.1148043862039
 30
0.0
 10
99.09059242314402
 20
-119.9878526175725
 30
0.0
 10
99.09059242314402
 20
-119.860900848941
 30
0.0
 10
99.17947588666347
 20
-119.757203474835
 30
0.0
 10
99.29040796128851
 20
-119.757203474835
 30
0.0
 10
99.40168454546209
 20
-119.757203474835
 30
0.0
 10
99.49229055672416
 20
-119.860900848941
 30
0.0
 10
99.49229055672416
 20
-119.9878526175725
 30
0.0
 10
99.49229055672416
 20
-120.1148043862039
 30
0.0
 10
99.40168454546209
 20
-120.2162624482445
 30
0.0
 10
99.29040796128851
 20
-120.2162624482445
 30
0.0
  0
SPLINE
  5
F8
330
D2
100
AcDbEntity
  8
_U+30EC_U+30A4_U+30E4_U+30FC 1
370
     0
100
AcDbSpline
210
0.0
220
0.0
230
1.0
 70
    11
 71
     3
 72
    17
 73
    13
 74
     0
 42
0.0000000001
 43
0.0000000001
 12
1.0
 22
0.0
 32
0.0
 13
1.0
 23
0.0
 33
0.0
 40
0.0
 40
0.0
 40
0.0
 40
0.0
 40
1.0
 40
1.0
 40
1.0
 40
2.0
 40
2.0
 40
2.0
 40
3.0
 40
3.0
 40
3.0
 40
4.0
 40
4.0
 40
4.0
 40
4.0
 10
99.28868541354589
 20
-119.8862223007576
 30
0.0
 10
99.24045407675239
 20
-119.8862223007576
 30
0.0
 10
99.20152449776907
 20
-119.9306640325173
 30
0.0
 10
99.20152449776907
 20
-119.9857855602813
 30
0.0
 10
99.20152449776907
 20
-120.0428018905622
 30
0.0
 10
99.24045407675239
 20
-120.0915499916785
 30
0.0
 10
99.29247501857967
 20
-120.0915499916785
 30
0.0
 10
99.3441514508584
 20
-120.0915499916785
 30
0.0
 10
99.37929142480796
 20
-120.0407348332711
 30
0.0
 10
99.37929142480796
 20
-119.9878526175725
 30
0.0
 10
99.37929142480796
 20
-119.9306640325173
 30
0.0
 10
99.33863929808201
 20
-119.8862223007576
 30
0.0
 10
99.28868541354589
 20
-119.8862223007576
 30
0.0
  0
HATCH
  5
F9
330
D2
100
AcDbEntity
  8
_U+30EC_U+30A4_U+30E4_U+30FC 1
 62
   179
420
  2234388
100
AcDbHatch
 10
0.0
 20
0.0
 30
0.0
210
0.0
220
0.0
230
1.0
  2
SOLID
 70
     1
 71
     0
 91
        3
 92
        1
 93
        1
 72
     4
 94
        3
 73
     0
 74
     1
 95
       44
 96
       40
 40
0.0
 40
0.0
 40
0.0
 40
0.0
 40
1.0
 40
1.0
 40
1.0
 40
2.0
 40
2.0
 40
2.0
 40
3.0
 40
3.0
 40
3.0
 40
4.0
 40
4.0
 40
4.0
 40
5.0
 40
5.0
 40
5.0
 40
6.0
 40
6.0
 40
6.0
 40
7.0
 40
7.0
 40
7.0
 40
8.0
 40
8.0
 40
8.0
 40
9.0
 40
9.0
 40
9.0
 40
10.0
 40
10.0
 40
10.0
 40
11.0
 40
11.0
 40
11.0
 40
12.0
 40
12.0
 40
12.0
 40
13.0
 40
13.0
 40
13.0
 40
13.0
 10
99.10712888147322
 20
-120.4152167125177
 10
99.0089436601436
 20
-120.7833251651167
 10
98.96450192838388
 20
-120.9419718122124
 10
98.79224715412138
 20
-121.1915689801188
 10
98.63136119496022
 20
-121.4222181228563
 10
98.42396644674818
 20
-121.6082532790598
 10
98.17936466729545
 20
-121.7014431119358
 10
98.17936466729545
 20
-121.7014431119358
 10
98.01089949806672
 20
-121.5216091276057
 10
98.01089949806672
 20
-121.5216091276057
 10
98.57210555261392
 20
-121.3693359071577
 10
98.86080455427786
 20
-120.8129529862898
 10
98.91627059159038
 20
-120.3728420380492
 10
98.91627059159038
 20
-120.3728420380492
 10
98.2461995197093
 20
-120.3728420380492
 10
98.2461995197093
 20
-120.3728420380492
 10
98.16455075670886
 20
-120.3728420380492
 10
98.0036647975477
 20
-120.3771484074057
 10
97.86654999723476
 20
-120.3960964325746
 10
97.86654999723476
 20
-120.3960964325746
 10
97.86654999723476
 20
-120.1761270858414
 10
97.86654999723476
 20
-120.1761270858414
 10
97.94234209791026
 20
-120.1973144230757
 10
98.16282820896625
 20
-120.1973144230757
 10
98.24998912474307
 20
-120.1973144230757
 10
98.24998912474307
 20
-120.1973144230757
 10
98.62757158992645
 20
-120.1973144230757
 10
98.62757158992645
 20
-120.1973144230757
 10
98.66477862116714
 20
-120.1973144230757
 10
98.87010631208804
 20
-120.1950751110103
 10
98.90352373829495
 20
-120.1888739391368
 10
98.94038625998714
 20
-120.1825005124891
 10
98.94245331727828
 20
-120.180433455198
 10
98.99619680684818
 20
-120.1401258380205
 10
98.99619680684818
 20
-120.1401258380205
 10
99.16087237104313
 20
-120.294638370534
 10
99.16087237104313
 20
-120.294638370534
 10
99.13503415490375
 20
-120.3242661917071
 10
99.1219427920598
 20
-120.3559610701714
 10
99.10712888147322
 20
-120.4152167125177
 97
        0
 97
        0
 92
        1
 93
        1
 72
     4
 94
        3
 73
     0
 74
     1
 95
       17
 96
       13
 40
0.0
 40
0.0
 40
0.0
 40
0.0
 40
1.0
 40
1.0
 40
1.0
 40
2.0
 40
2.0
 40
2.0
 40
3.0
 40
3.0
 40
3.0
 40
4.0
 40
4.0
 40
4.0
 40
4.0
 10
99.29040796128851
 20
-120.2162624482445
 10
99.17947588666347
 20
-120.2162624482445
 10
99.09059242314402
 20
-120.1148043862039
 10
99.09059242314402
 20
-119.9878526175725
 10
99.09059242314402
 20
-119.860900848941
 10
99.17947588666347
 20
-119.757203474835
 10
99.29040796128851
 20
-119.757203474835
 10
99.40168454546209
 20
-119.757203474835
 10
99.49229055672416
 20
-119.860900848941
 10
99.49229055672416
 20
-119.9878526175725
 10
99.49229055672416
 20
-120.1148043862039
 10
99.40168454546209
 20
-120.2162624482445
 10
99.29040796128851
 20
-120.2162624482445
 97
        0
 97
        0
 92
        1
 93
        1
 72
     4
 94
        3
 73
     0
 74
     1
 95
       17
 96
       13
 40
0.0
 40
0.0
 40
0.0
 40
0.0
 40
1.0
 40
1.0
 40
1.0
 40
2.0
 40
2.0
 40
2.0
 40
3.0
 40
3.0
 40
3.0
 40
4.0
 40
4.0
 40
4.0
 40
4.0
 10
99.28868541354589
 20
-119.8862223007576
 10
99.24045407675239
 20
-119.8862223007576
 10
99.20152449776907
 20
-119.9306640325173
 10
99.20152449776907
 20
-119.9857855602813
 10
99.20152449776907
 20
-120.0428018905622
 10
99.24045407675239
 20
-120.0915499916785
 10
99.29247501857967
 20
-120.0915499916785
 10
99.3441514508584
 20
-120.0915499916785
 10
99.37929142480796
 20
-120.0407348332711
 10
99.37929142480796
 20
-119.9878526175725
 10
99.37929142480796
 20
-119.9306640325173
 10
99.33863929808201
 20
-119.8862223007576
 10
99.28868541354589
 20
-119.8862223007576
 97
        0
 97
        0
 75
     2
 76
     1
 98
        0
  0
ENDBLK
  5
D5
330
D2
100
AcDbEntity
  8
0
100
AcDbBlockEnd
  0
ENDSEC
  0
SECTION
  2
ENTITIES
  0
POLYLINE
  5
41
330
1F
100
AcDbEntity
  8
_U+30EC_U+30A4_U+30E4_U+30FC 1
370
     0
100
AcDb2dPolyline
 66
     1
 10
0.0
 20
0.0
 30
0.0
  0
VERTEX
  5
42
330
41
100
AcDbEntity
  8
_U+30EC_U+30A4_U+30E4_U+30FC 1
370
     0
100
AcDbVertex
100
AcDb2dVertex
 10
78.90767326467532
 20
-113.471959971632
 30
0.0
  0
VERTEX
  5
43
330
41
100
AcDbEntity
  8
_U+30EC_U+30A4_U+30E4_U+30FC 1
370
     0
100
AcDbVertex
100
AcDb2dVertex
 10
78.00780773207724
 20
-113.471959971632
 30
0.0
  0
VERTEX
  5
44
330
41
100
AcDbEntity
  8
_U+30EC_U+30A4_U+30E4_U+30FC 1
370
     0
100
AcDbVertex
100
AcDb2dVertex
 10
78.00780773207724
 20
-138.4721569098265
 30
0.0
  0
VERTEX
  5
45
330
41
100
AcDbEntity
  8
_U+30EC_U+30A4_U+30E4_U+30FC 1
370
     0
100
AcDbVertex
100
AcDb2dVertex
 10
103.0073337609529
 20
-138.4721569098265
 30
0.0
  0
VERTEX
  5
46
330
41
100
AcDbEntity
  8
_U+30EC_U+30A4_U+30E4_U+30FC 1
370
     0
100
AcDbVertex
100
AcDb2dVertex
 10
103.0073337609529
 20
-137.5723266322738
 30
0.0
  0
VERTEX
  5
47
330
41
100
AcDbEntity
  8
_U+30EC_U+30A4_U+30E4_U+30FC 1
370
     0
100
AcDbVertex
100
AcDb2dVertex
 10
78.90767326467532
 20
-137.5723266322738
 30
0.0
  0
VERTEX
  5
48
330
41
100
AcDbEntity
  8
_U+30EC_U+30A4_U+30E4_U+30FC 1
370
     0
100
AcDbVertex
100
AcDb2dVertex
 10
78.90767326467532
 20
-113.471959971632
 30
0.0
  0
SEQEND
  5
4A
330
41
100
AcDbEntity
  8
_U+30EC_U+30A4_U+30E4_U+30FC 1
370
     0
  0
HATCH
  5
49
330
1F
100
AcDbEntity
  8
_U+30EC_U+30A4_U+30E4_U+30FC 1
 62
   253
420
 11711154
100
AcDbHatch
 10
0.0
 20
0.0
 30
0.0
210
0.0
220
0.0
230
1.0
  2
SOLID
 70
     1
 71
     0
 91
        1
 92
        1
 93
        6
 72
     1
 10
78.90767326467532
 20
-113.471959971632
 11
78.00780773207724
 21
-113.471959971632
 72
     1
 10
78.00780773207724
 20
-113.471959971632
 11
78.00780773207724
 21
-138.4721569098265
 72
     1
 10
78.00780773207724
 20
-138.4721569098265
 11
103.0073337609529
 21
-138.4721569098265
 72
     1
 10
103.0073337609529
 20
-138.4721569098265
 11
103.0073337609529
 21
-137.5723266322738
 72
     1
 10
103.0073337609529
 20
-137.5723266322738
 11
78.90767326467532
 21
-137.5723266322738
 72
     1
 10
78.90767326467532
 20
-137.5723266322738
 11
78.90767326467532
 21
-113.471959971632
 97
        0
 75
     2
 76
     1
 98
        0
  0
POLYLINE
  5
4B
330
1F
100
AcDbEntity
  8
_U+30EC_U+30A4_U+30E4_U+30FC 1
 62
   179
420
  2234388
370
    25
100
AcDb2dPolyline
 66
     1
 10
0.0
 20
0.0
 30
0.0
  0
VERTEX
  5
4C
330
4B
100
AcDbEntity
  8
_U+30EC_U+30A4_U+30E4_U+30FC 1
 62
   179
420
  2234388
370
    25
100
AcDbVertex
100
AcDb2dVertex
 10
78.00780773207724
 20
-113.471959971632
 30
0.0
  0
VERTEX
  5
4D
330
4B
100
AcDbEntity
  8
_U+30EC_U+30A4_U+30E4_U+30FC 1
 62
   179
420
  2234388
370
    25
100
AcDbVertex
100
AcDb2dVertex
 10
78.00780773207724
 20
-138.4721569098265
 30
0.0
  0
SEQEND
  5
4E
330
4B
100
AcDbEntity
  8
_U+30EC_U+30A4_U+30E4_U+30FC 1
 62
   179
420
  2234388
370
    25
  0
POLYLINE
  5
4F
330
1F
100
AcDbEntity
  8
_U+30EC_U+30A4_U+30E4_U+30FC 1
 62
   179
420
  2234388
370
    25
100
AcDb2dPolyline
 66
     1
 10
0.0
 20
0.0
 30
0.0
  0
VERTEX
  5
50
330
4F
100
AcDbEntity
  8
_U+30EC_U+30A4_U+30E4_U+30FC 1
 62
   179
420
  2234388
370
    25
100
AcDbVertex
100
AcDb2dVertex
 10
78.00780773207724
 20
-138.4721569098265
 30
0.0
  0
VERTEX
  5
51
330
4F
100
AcDbEntity
  8
_U+30EC_U+30A4_U+30E4_U+30FC 1
 62
   179
420
  2234388
370
    25
100
AcDbVertex
100
AcDb2dVertex
 10
103.0073337609529
 20
-138.4721569098265
 30
0.0
  0
SEQEND
  5
52
330
4F
100
AcDbEntity
  8
_U+30EC_U+30A4_U+30E4_U+30FC 1
 62
   179
420
  2234388
370
    25
  0
POLYLINE
  5
53
330
1F
100
AcDbEntity
  8
_U+30EC_U+30A4_U+30E4_U+30FC 1
 62
   179
420
  2234388
370
    25
100
AcDb2dPolyline
 66
     1
 10
0.0
 20
0.0
 30
0.0
  0
VERTEX
  5
54
330
53
100
AcDbEntity
  8
_U+30EC_U+30A4_U+30E4_U+30FC 1
 62
   179
420
  2234388
370
    25
100
AcDbVertex
100
AcDb2dVertex
 10
78.90767326467532
 20
-137.5723266322738
 30
0.0
  0
VERTEX
  5
55
330
53
100
AcDbEntity
  8
_U+30EC_U+30A4_U+30E4_U+30FC 1
 62
   179
420
  2234388
370
    25
100
AcDbVertex
100
AcDb2dVertex
 10
103.0073337609529
 20
-137.5723266322738
 30
0.0
  0
SEQEND
  5
56
330
53
100
AcDbEntity
  8
_U+30EC_U+30A4_U+30E4_U+30FC 1
 62
   179
420
  2234388
370
    25
  0
POLYLINE
  5
57
330
1F
100
AcDbEntity
  8
_U+30EC_U+30A4_U+30E4_U+30FC 1
 62
   179
420
  2234388
370
    25
100
AcDb2dPolyline
 66
     1
 10
0.0
 20
0.0
 30
0.0
  0
VERTEX
  5
58
330
57
100
AcDbEntity
  8
_U+30EC_U+30A4_U+30E4_U+30FC 1
 62
   179
420
  2234388
370
    25
100
AcDbVertex
100
AcDb2dVertex
 10
78.90767326467532
 20
-113.471959971632
 30
0.0
  0
VERTEX
  5
59
330
57
100
AcDbEntity
  8
_U+30EC_U+30A4_U+30E4_U+30FC 1
 62
   179
420
  2234388
370
    25
100
AcDbVertex
100
AcDb2dVertex
 10
78.90767326467532
 20
-137.5723266322738
 30
0.0
  0
SEQEND
  5
5A
330
57
100
AcDbEntity
  8
_U+30EC_U+30A4_U+30E4_U+30FC 1
 62
   179
420
  2234388
370
    25
  0
POLYLINE
  5
5B
330
1F
100
AcDbEntity
  8
_U+30EC_U+30A4_U+30E4_U+30FC 1
 62
   179
420
  2234388
370
    25
100
AcDb2dPolyline
 66
     1
 10
0.0
 20
0.0
 30
0.0
  0
VERTEX
  5
5C
330
5B
100
AcDbEntity
  8
_U+30EC_U+30A4_U+30E4_U+30FC 1
 62
   179
420
  2234388
370
    25
100
AcDbVertex
100
AcDb2dVertex
 10
78.00780773207724
 20
-113.471959971632
 30
0.0
  0
VERTEX
  5
5D
330
5B
100
AcDbEntity
  8
_U+30EC_U+30A4_U+30E4_U+30FC 1
 62
   179
420
  2234388
370
    25
100
AcDbVertex
100
AcDb2dVertex
 10
78.90767326467532
 20
-113.471959971632
 30
0.0
  0
SEQEND
  5
5E
330
5B
100
AcDbEntity
  8
_U+30EC_U+30A4_U+30E4_U+30FC 1
 62
   179
420
  2234388
370
    25
  0
POLYLINE
  5
5F
330
1F
100
AcDbEntity
  8
_U+30EC_U+30A4_U+30E4_U+30FC 1
 62
   179
420
  2234388
370
    25
100
AcDb2dPolyline
 66
     1
 10
0.0
 20
0.0
 30
0.0
  0
VERTEX
  5
60
330
5F
100
AcDbEntity
  8
_U+30EC_U+30A4_U+30E4_U+30FC 1
 62
   179
420
  2234388
370
    25
100
AcDbVertex
100
AcDb2dVertex
 10
103.0073337609529
 20
-137.5723266322738
 30
0.0
  0
VERTEX
  5
61
330
5F
100
AcDbEntity
  8
_U+30EC_U+30A4_U+30E4_U+30FC 1
 62
   179
420
  2234388
370
    25
100
AcDbVertex
100
AcDb2dVertex
 10
103.0073337609529
 20
-138.4721569098265
 30
0.0
  0
SEQEND
  5
62
330
5F
100
AcDbEntity
  8
_U+30EC_U+30A4_U+30E4_U+30FC 1
 62
   179
420
  2234388
370
    25
  0
SPLINE
  5
63
330
1F
100
AcDbEntity
  8
_U+30EC_U+30A4_U+30E4_U+30FC 1
 62
   179
420
  2234388
370
     9
100
AcDbSpline
210
0.0
220
0.0
230
1.0
 70
    11
 71
     3
 72
    17
 73
    13
 74
     0
 42
0.0000000001
 43
0.0000000001
 12
1.0
 22
0.0
 32
0.0
 13
1.0
 23
0.0
 33
0.0
 40
0.0
 40
0.0
 40
0.0
 40
0.0
 40
1.0
 40
1.0
 40
1.0
 40
2.0
 40
2.0
 40
2.0
 40
3.0
 40
3.0
 40
3.0
 40
4.0
 40
4.0
 40
4.0
 40
4.0
 10
107.1076697674557
 20
-137.5723266322738
 30
0.0
 10
107.1076697674557
 20
-137.5164819100652
 30
0.0
 10
107.0629022685978
 20
-137.4717144100766
 30
0.0
 10
107.0077631033379
 20
-137.4717144100766
 30
0.0
 10
106.9526592158548
 20
-137.4717144100766
 30
0.0
 10
106.90785643922
 20
-137.5164819100652
 30
0.0
 10
106.90785643922
 20
-137.5723266322738
 30
0.0
 10
106.90785643922
 20
-137.6274305211487
 30
0.0
 10
106.9526592158548
 20
-137.6722332989154
 30
0.0
 10
107.0077631033379
 20
-137.6722332989154
 30
0.0
 10
107.0629022685978
 20
-137.6722332989154
 30
0.0
 10
107.1076697674557
 20
-137.6274305211487
 30
0.0
 10
107.1076697674557
 20
-137.5723266322738
 30
0.0
  0
SPLINE
  5
64
330
1F
100
AcDbEntity
  8
_U+30EC_U+30A4_U+30E4_U+30FC 1
 62
   179
420
  2234388
370
     9
100
AcDbSpline
210
0.0
220
0.0
230
1.0
 70
    11
 71
     3
 72
    17
 73
    13
 74
     0
 42
0.0000000001
 43
0.0000000001
 12
1.0
 22
0.0
 32
0.0
 13
1.0
 23
0.0
 33
0.0
 40
0.0
 40
0.0
 40
0.0
 40
0.0
 40
1.0
 40
1.0
 40
1.0
 40
2.0
 40
2.0
 40
2.0
 40
3.0
 40
3.0
 40
3.0
 40
4.0
 40
4.0
 40
4.0
 40
4.0
 10
107.1076697674557
 20
-138.4721569098265
 30
0.0
 10
107.1076697674557
 20
-138.4170530209516
 30
0.0
 10
107.0629022685978
 20
-138.3722502431849
 30
0.0
 10
107.0077631033379
 20
-138.3722502431849
 30
0.0
 10
106.9526592158548
 20
-138.3722502431849
 30
0.0
 10
106.90785643922
 20
-138.4170530209516
 30
0.0
 10
106.90785643922
 20
-138.4721569098265
 30
0.0
 10
106.90785643922
 20
-138.5272960764796
 30
0.0
 10
106.9526592158548
 20
-138.5720635764682
 30
0.0
 10
107.0077631033379
 20
-138.5720635764682
 30
0.0
 10
107.0629022685978
 20
-138.5720635764682
 30
0.0
 10
107.1076697674557
 20
-138.5272960764796
 30
0.0
 10
107.1076697674557
 20
-138.4721569098265
 30
0.0
  0
SPLINE
  5
65
330
1F
100
AcDbEntity
  8
_U+30EC_U+30A4_U+30E4_U+30FC 1
 62
   179
420
  2234388
370
     9
100
AcDbSpline
210
0.0
220
0.0
230
1.0
 70
    11
 71
     3
 72
    17
 73
    13
 74
     0
 42
0.0000000001
 43
0.0000000001
 12
1.0
 22
0.0
 32
0.0
 13
1.0
 23
0.0
 33
0.0
 40
0.0
 40
0.0
 40
0.0
 40
0.0
 40
1.0
 40
1.0
 40
1.0
 40
2.0
 40
2.0
 40
2.0
 40
3.0
 40
3.0
 40
3.0
 40
4.0
 40
4.0
 40
4.0
 40
4.0
 10
103.1072404250707
 20
-142.4719160754934
 30
0.0
 10
103.1072404250707
 20
-142.4168121866178
 30
0.0
 10
103.0624376484359
 20
-142.3720094088511
 30
0.0
 10
103.0073337609529
 20
-142.3720094088511
 30
0.0
 10
102.9521971964844
 20
-142.3720094088511
 30
0.0
 10
102.907427096835
 20
-142.4168121866178
 30
0.0
 10
102.907427096835
 20
-142.4719160754934
 30
0.0
 10
102.907427096835
 20
-142.5270552421458
 30
0.0
 10
102.9521971964844
 20
-142.5718227421351
 30
0.0
 10
103.0073337609529
 20
-142.5718227421351
 30
0.0
 10
103.0624376484359
 20
-142.5718227421351
 30
0.0
 10
103.1072404250707
 20
-142.5270552421458
 30
0.0
 10
103.1072404250707
 20
-142.4719160754934
 30
0.0
  0
SPLINE
  5
66
330
1F
100
AcDbEntity
  8
_U+30EC_U+30A4_U+30E4_U+30FC 1
 62
   179
420
  2234388
370
     9
100
AcDbSpline
210
0.0
220
0.0
230
1.0
 70
    11
 71
     3
 72
    17
 73
    13
 74
     0
 42
0.0000000001
 43
0.0000000001
 12
1.0
 22
0.0
 32
0.0
 13
1.0
 23
0.0
 33
0.0
 40
0.0
 40
0.0
 40
0.0
 40
0.0
 40
1.0
 40
1.0
 40
1.0
 40
2.0
 40
2.0
 40
2.0
 40
3.0
 40
3.0
 40
3.0
 40
4.0
 40
4.0
 40
4.0
 40
4.0
 10
78.10771439619508
 20
-142.4719160754934
 30
0.0
 10
78.10771439619508
 20
-142.4168121866178
 30
0.0
 10
78.0629468973372
 20
-142.3720094088511
 30
0.0
 10
78.00780773207724
 20
-142.3720094088511
 30
0.0
 10
77.95270384459417
 20
-142.3720094088511
 30
0.0
 10
77.90790106795941
 20
-142.4168121866178
 30
0.0
 10
77.90790106795941
 20
-142.4719160754934
 30
0.0
 10
77.90790106795941
 20
-142.5270552421458
 30
0.0
 10
77.95270384459417
 20
-142.5718227421351
 30
0.0
 10
78.00780773207724
 20
-142.5718227421351
 30
0.0
 10
78.0629468973372
 20
-142.5718227421351
 30
0.0
 10
78.10771439619508
 20
-142.5270552421458
 30
0.0
 10
78.10771439619508
 20
-142.4719160754934
 30
0.0
  0
SPLINE
  5
67
330
1F
100
AcDbEntity
  8
_U+30EC_U+30A4_U+30E4_U+30FC 1
 62
   179
420
  2234388
370
     9
100
AcDbSpline
210
0.0
220
0.0
230
1.0
 70
    11
 71
     3
 72
    17
 73
    13
 74
     0
 42
0.0000000001
 43
0.0000000001
 12
1.0
 22
0.0
 32
0.0
 13
1.0
 23
0.0
 33
0.0
 40
0.0
 40
0.0
 40
0.0
 40
0.0
 40
1.0
 40
1.0
 40
1.0
 40
2.0
 40
2.0
 40
2.0
 40
3.0
 40
3.0
 40
3.0
 40
4.0
 40
4.0
 40
4.0
 40
4.0
 10
74.10795533157076
 20
-138.4721569098265
 30
0.0
 10
74.10795533157076
 20
-138.4170530209516
 30
0.0
 10
74.06318783271288
 20
-138.3722502431849
 30
0.0
 10
74.00769588968416
 20
-138.3722502431849
 30
0.0
 10
73.9522392244323
 20
-138.3722502431849
 30
0.0
 10
73.90747172557442
 20
-138.4170530209516
 30
0.0
 10
73.90747172557442
 20
-138.4721569098265
 30
0.0
 10
73.90747172557442
 20
-138.5272960764796
 30
0.0
 10
73.9522392244323
 20
-138.5720635764682
 30
0.0
 10
74.00769588968416
 20
-138.5720635764682
 30
0.0
 10
74.06318783271288
 20
-138.5720635764682
 30
0.0
 10
74.10795533157076
 20
-138.5272960764796
 30
0.0
 10
74.10795533157076
 20
-138.4721569098265
 30
0.0
  0
SPLINE
  5
68
330
1F
100
AcDbEntity
  8
_U+30EC_U+30A4_U+30E4_U+30FC 1
 62
   179
420
  2234388
370
     9
100
AcDbSpline
210
0.0
220
0.0
230
1.0
 70
    11
 71
     3
 72
    17
 73
    13
 74
     0
 42
0.0000000001
 43
0.0000000001
 12
1.0
 22
0.0
 32
0.0
 13
1.0
 23
0.0
 33
0.0
 40
0.0
 40
0.0
 40
0.0
 40
0.0
 40
1.0
 40
1.0
 40
1.0
 40
2.0
 40
2.0
 40
2.0
 40
3.0
 40
3.0
 40
3.0
 40
4.0
 40
4.0
 40
4.0
 40
4.0
 10
74.10795533157076
 20
-113.471959971632
 30
0.0
 10
74.10795533157076
 20
-113.416856082757
 30
0.0
 10
74.06318783271288
 20
-113.3720533049903
 30
0.0
 10
74.00769588968416
 20
-113.3720533049903
 30
0.0
 10
73.9522392244323
 20
-113.3720533049903
 30
0.0
 10
73.90747172557442
 20
-113.416856082757
 30
0.0
 10
73.90747172557442
 20
-113.471959971632
 30
0.0
 10
73.90747172557442
 20
-113.527099138285
 30
0.0
 10
73.9522392244323
 20
-113.5718666382736
 30
0.0
 10
74.00769588968416
 20
-113.5718666382736
 30
0.0
 10
74.06318783271288
 20
-113.5718666382736
 30
0.0
 10
74.10795533157076
 20
-113.527099138285
 30
0.0
 10
74.10795533157076
 20
-113.471959971632
 30
0.0
  0
POLYLINE
  5
69
330
1F
100
AcDbEntity
  8
_U+30EC_U+30A4_U+30E4_U+30FC 1
 62
   179
420
  2234388
370
     9
100
AcDb2dPolyline
 66
     1
 10
0.0
 20
0.0
 30
0.0
  0
VERTEX
  5
6A
330
69
100
AcDbEntity
  8
_U+30EC_U+30A4_U+30E4_U+30FC 1
 62
   179
420
  2234388
370
     9
100
AcDbVertex
100
AcDb2dVertex
 10
107.0077631033379
 20
-137.5723266322738
 30
0.0
  0
VERTEX
  5
6B
330
69
100
AcDbEntity
  8
_U+30EC_U+30A4_U+30E4_U+30FC 1
 62
   179
420
  2234388
370
     9
100
AcDbVertex
100
AcDb2dVertex
 10
107.0077631033379
 20
-139.4719291317984
 30
0.0
  0
SEQEND
  5
6C
330
69
100
AcDbEntity
  8
_U+30EC_U+30A4_U+30E4_U+30FC 1
 62
   179
420
  2234388
370
     9
  0
POLYLINE
  5
6D
330
1F
100
AcDbEntity
  8
_U+30EC_U+30A4_U+30E4_U+30FC 1
 62
   179
420
  2234388
370
     9
100
AcDb2dPolyline
 66
     1
 10
0.0
 20
0.0
 30
0.0
  0
VERTEX
  5
6E
330
6D
100
AcDbEntity
  8
_U+30EC_U+30A4_U+30E4_U+30FC 1
 62
   179
420
  2234388
370
     9
100
AcDbVertex
100
AcDb2dVertex
 10
105.5477217516977
 20
-137.5723266322738
 30
0.0
  0
VERTEX
  5
6F
330
6D
100
AcDbEntity
  8
_U+30EC_U+30A4_U+30E4_U+30FC 1
 62
   179
420
  2234388
370
     9
100
AcDbVertex
100
AcDb2dVertex
 10
108.0075353000538
 20
-137.5723266322738
 30
0.0
  0
SEQEND
  5
70
330
6D
100
AcDbEntity
  8
_U+30EC_U+30A4_U+30E4_U+30FC 1
 62
   179
420
  2234388
370
     9
  0
POLYLINE
  5
71
330
1F
100
AcDbEntity
  8
_U+30EC_U+30A4_U+30E4_U+30FC 1
 62
   179
420
  2234388
370
     9
100
AcDb2dPolyline
 66
     1
 10
0.0
 20
0.0
 30
0.0
  0
VERTEX
  5
72
330
71
100
AcDbEntity
  8
_U+30EC_U+30A4_U+30E4_U+30FC 1
 62
   179
420
  2234388
370
     9
100
AcDbVertex
100
AcDb2dVertex
 10
105.5477217516977
 20
-138.4721569098265
 30
0.0
  0
VERTEX
  5
73
330
71
100
AcDbEntity
  8
_U+30EC_U+30A4_U+30E4_U+30FC 1
 62
   179
420
  2234388
370
     9
100
AcDbVertex
100
AcDb2dVertex
 10
108.0075353000538
 20
-138.4721569098265
 30
0.0
  0
SEQEND
  5
74
330
71
100
AcDbEntity
  8
_U+30EC_U+30A4_U+30E4_U+30FC 1
 62
   179
420
  2234388
370
     9
  0
INSERT
  5
76
330
1F
100
AcDbEntity
  8
_U+30EC_U+30A4_U+30E4_U+30FC 1
100
AcDbBlockReference
  2
block 2
 10
0.0
 20
0.0
 30
0.0
  0
POLYLINE
  5
88
330
1F
100
AcDbEntity
  8
_U+30EC_U+30A4_U+30E4_U+30FC 1
 62
   179
420
  2234388
370
     9
100
AcDb2dPolyline
 66
     1
 10
0.0
 20
0.0
 30
0.0
  0
VERTEX
  5
89
330
88
100
AcDbEntity
  8
_U+30EC_U+30A4_U+30E4_U+30FC 1
 62
   179
420
  2234388
370
     9
100
AcDbVertex
100
AcDb2dVertex
 10
74.00769588968416
 20
-113.471959971632
 30
0.0
  0
VERTEX
  5
8A
330
88
100
AcDbEntity
  8
_U+30EC_U+30A4_U+30E4_U+30FC 1
 62
   179
420
  2234388
370
     9
100
AcDbVertex
100
AcDb2dVertex
 10
74.00769588968416
 20
-138.4721569098265
 30
0.0
  0
SEQEND
  5
8B
330
88
100
AcDbEntity
  8
_U+30EC_U+30A4_U+30E4_U+30FC 1
 62
   179
420
  2234388
370
     9
  0
POLYLINE
  5
8C
330
1F
100
AcDbEntity
  8
_U+30EC_U+30A4_U+30E4_U+30FC 1
 62
   179
420
  2234388
370
     9
100
AcDb2dPolyline
 66
     1
 10
0.0
 20
0.0
 30
0.0
  0
VERTEX
  5
8D
330
8C
100
AcDbEntity
  8
_U+30EC_U+30A4_U+30E4_U+30FC 1
 62
   179
420
  2234388
370
     9
100
AcDbVertex
100
AcDb2dVertex
 10
75.46809001909307
 20
-113.471959971632
 30
0.0
  0
VERTEX
  5
8E
330
8C
100
AcDbEntity
  8
_U+30EC_U+30A4_U+30E4_U+30FC 1
 62
   179
420
  2234388
370
     9
100
AcDbVertex
100
AcDb2dVertex
 10
73.00760619297635
 20
-113.471959971632
 30
0.0
  0
SEQEND
  5
8F
330
8C
100
AcDbEntity
  8
_U+30EC_U+30A4_U+30E4_U+30FC 1
 62
   179
420
  2234388
370
     9
  0
POLYLINE
  5
90
330
1F
100
AcDbEntity
  8
_U+30EC_U+30A4_U+30E4_U+30FC 1
 62
   179
420
  2234388
370
     9
100
AcDb2dPolyline
 66
     1
 10
0.0
 20
0.0
 30
0.0
  0
VERTEX
  5
91
330
90
100
AcDbEntity
  8
_U+30EC_U+30A4_U+30E4_U+30FC 1
 62
   179
420
  2234388
370
     9
100
AcDbVertex
100
AcDb2dVertex
 10
75.46809001909307
 20
-138.4721569098265
 30
0.0
  0
VERTEX
  5
92
330
90
100
AcDbEntity
  8
_U+30EC_U+30A4_U+30E4_U+30FC 1
 62
   179
420
  2234388
370
     9
100
AcDbVertex
100
AcDb2dVertex
 10
73.00760619297635
 20
-138.4721569098265
 30
0.0
  0
SEQEND
  5
93
330
90
100
AcDbEntity
  8
_U+30EC_U+30A4_U+30E4_U+30FC 1
 62
   179
420
  2234388
370
     9
  0
INSERT
  5
95
330
1F
100
AcDbEntity
  8
_U+30EC_U+30A4_U+30E4_U+30FC 1
100
AcDbBlockReference
  2
block 3
 10
0.0
 20
0.0
 30
0.0
  0
POLYLINE
  5
9C
330
1F
100
AcDbEntity
  8
_U+30EC_U+30A4_U+30E4_U+30FC 1
 62
   179
420
  2234388
370
     9
100
AcDb2dPolyline
 66
     1
 10
0.0
 20
0.0
 30
0.0
  0
VERTEX
  5
9D
330
9C
100
AcDbEntity
  8
_U+30EC_U+30A4_U+30E4_U+30FC 1
 62
   179
420
  2234388
370
     9
100
AcDbVertex
100
AcDb2dVertex
 10
78.00780773207724
 20
-142.4719160754934
 30
0.0
  0
VERTEX
  5
9E
330
9C
100
AcDbEntity
  8
_U+30EC_U+30A4_U+30E4_U+30FC 1
 62
   179
420
  2234388
370
     9
100
AcDbVertex
100
AcDb2dVertex
 10
103.0073337609529
 20
-142.4719160754934
 30
0.0
  0
SEQEND
  5
9F
330
9C
100
AcDbEntity
  8
_U+30EC_U+30A4_U+30E4_U+30FC 1
 62
   179
420
  2234388
370
     9
  0
POLYLINE
  5
A0
330
1F
100
AcDbEntity
  8
_U+30EC_U+30A4_U+30E4_U+30FC 1
 62
   179
420
  2234388
370
     9
100
AcDb2dPolyline
 66
     1
 10
0.0
 20
0.0
 30
0.0
  0
VERTEX
  5
A1
330
A0
100
AcDbEntity
  8
_U+30EC_U+30A4_U+30E4_U+30FC 1
 62
   179
420
  2234388
370
     9
100
AcDbVertex
100
AcDb2dVertex
 10
78.00780773207724
 20
-141.0119099647472
 30
0.0
  0
VERTEX
  5
A2
330
A0
100
AcDbEntity
  8
_U+30EC_U+30A4_U+30E4_U+30FC 1
 62
   179
420
  2234388
370
     9
100
AcDbVertex
100
AcDb2dVertex
 10
78.00780773207724
 20
-143.4716882974653
 30
0.0
  0
SEQEND
  5
A3
330
A0
100
AcDbEntity
  8
_U+30EC_U+30A4_U+30E4_U+30FC 1
 62
   179
420
  2234388
370
     9
  0
POLYLINE
  5
A4
330
1F
100
AcDbEntity
  8
_U+30EC_U+30A4_U+30E4_U+30FC 1
 62
   179
420
  2234388
370
     9
100
AcDb2dPolyline
 66
     1
 10
0.0
 20
0.0
 30
0.0
  0
VERTEX
  5
A5
330
A4
100
AcDbEntity
  8
_U+30EC_U+30A4_U+30E4_U+30FC 1
 62
   179
420
  2234388
370
     9
100
AcDbVertex
100
AcDb2dVertex
 10
103.0073337609529
 20
-141.0119099647472
 30
0.0
  0
VERTEX
  5
A6
330
A4
100
AcDbEntity
  8
_U+30EC_U+30A4_U+30E4_U+30FC 1
 62
   179
420
  2234388
370
     9
100
AcDbVertex
100
AcDb2dVertex
 10
103.0073337609529
 20
-143.4716882974653
 30
0.0
  0
SEQEND
  5
A7
330
A4
100
AcDbEntity
  8
_U+30EC_U+30A4_U+30E4_U+30FC 1
 62
   179
420
  2234388
370
     9
  0
INSERT
  5
A9
330
1F
100
AcDbEntity
  8
_U+30EC_U+30A4_U+30E4_U+30FC 1
100
AcDbBlockReference
  2
block 4
 10
0.0
 20
0.0
 30
0.0
  0
POLYLINE
  5
B0
330
1F
100
AcDbEntity
  8
_U+30EC_U+30A4_U+30E4_U+30FC 1
  6
AI-Linetype-1
 62
   154
420
    23468
370
    25
100
AcDb2dPolyline
 66
     1
 10
0.0
 20
0.0
 30
0.0
  0
VERTEX
  5
B1
330
B0
100
AcDbEntity
  8
_U+30EC_U+30A4_U+30E4_U+30FC 1
  6
AI-Linetype-1
 62
   154
420
    23468
370
    25
100
AcDbVertex
100
AcDb2dVertex
 10
79.43320831347502
 20
-113.471959971632
 30
0.0
  0
VERTEX
  5
B2
330
B0
100
AcDbEntity
  8
_U+30EC_U+30A4_U+30E4_U+30FC 1
  6
AI-Linetype-1
 62
   154
420
    23468
370
    25
100
AcDbVertex
100
AcDb2dVertex
 10
79.43320831347502
 20
-133.4719552444097
 30
0.0
  0
SEQEND
  5
B4
330
B0
100
AcDbEntity
  8
_U+30EC_U+30A4_U+30E4_U+30FC 1
  6
AI-Linetype-1
 62
   154
420
    23468
370
    25
  0
POLYLINE
  5
B5
330
1F
100
AcDbEntity
  8
_U+30EC_U+30A4_U+30E4_U+30FC 1
  6
AI-Linetype-2
 62
   154
420
    23468
370
    25
100
AcDb2dPolyline
 66
     1
 10
0.0
 20
0.0
 30
0.0
  0
VERTEX
  5
B6
330
B5
100
AcDbEntity
  8
_U+30EC_U+30A4_U+30E4_U+30FC 1
  6
AI-Linetype-2
 62
   154
420
    23468
370
    25
100
AcDbVertex
100
AcDb2dVertex
 10
82.90743232929964
 20
-136.9714755213129
 30
0.0
  0
VERTEX
  5
B7
330
B5
100
AcDbEntity
  8
_U+30EC_U+30A4_U+30E4_U+30FC 1
  6
AI-Linetype-2
 62
   154
420
    23468
370
    25
100
AcDbVertex
100
AcDb2dVertex
 10
102.907427096835
 20
-136.9714755213129
 30
0.0
  0
SEQEND
  5
B9
330
B5
100
AcDbEntity
  8
_U+30EC_U+30A4_U+30E4_U+30FC 1
  6
AI-Linetype-2
 62
   154
420
    23468
370
    25
  0
POLYLINE
  5
BA
330
1F
100
AcDbEntity
  8
_U+30EC_U+30A4_U+30E4_U+30FC 1
 62
   179
420
  2234388
370
     9
100
AcDb2dPolyline
 66
     1
 10
0.0
 20
0.0
 30
0.0
  0
VERTEX
  5
BB
330
BA
100
AcDbEntity
  8
_U+30EC_U+30A4_U+30E4_U+30FC 1
 62
   179
420
  2234388
370
     9
100
AcDbVertex
100
AcDb2dVertex
 10
79.99200831333526
 20
-121.438740525196
 30
0.0
  0
VERTEX
  5
BC
330
BA
100
AcDbEntity
  8
_U+30EC_U+30A4_U+30E4_U+30FC 1
 62
   179
420
  2234388
370
     9
100
AcDbVertex
100
AcDb2dVertex
 10
90.22051547606067
 20
-121.438740525196
 30
0.0
  0
SEQEND
  5
BD
330
BA
100
AcDbEntity
  8
_U+30EC_U+30A4_U+30E4_U+30FC 1
 62
   179
420
  2234388
370
     9
  0
POLYLINE
  5
BE
330
1F
100
AcDbEntity
  8
_U+30EC_U+30A4_U+30E4_U+30FC 1
 62
   179
420
  2234388
370
     9
100
AcDb2dPolyline
 66
     1
 10
0.0
 20
0.0
 30
0.0
  0
VERTEX
  5
BF
330
BE
100
AcDbEntity
  8
_U+30EC_U+30A4_U+30E4_U+30FC 1
 62
   179
420
  2234388
370
     9
100
AcDbVertex
100
AcDb2dVertex
 10
79.99200831333526
 20
-121.438740525196
 30
0.0
  0
VERTEX
  5
C0
330
BE
100
AcDbEntity
  8
_U+30EC_U+30A4_U+30E4_U+30FC 1
 62
   179
420
  2234388
370
     9
100
AcDbVertex
100
AcDb2dVertex
 10
80.95801765681112
 20
-121.1800133030385
 30
0.0
  0
SEQEND
  5
C1
330
BE
100
AcDbEntity
  8
_U+30EC_U+30A4_U+30E4_U+30FC 1
 62
   179
420
  2234388
370
     9
  0
POLYLINE
  5
C2
330
1F
100
AcDbEntity
  8
_U+30EC_U+30A4_U+30E4_U+30FC 1
 62
   179
420
  2234388
370
     9
100
AcDb2dPolyline
 66
     1
 10
0.0
 20
0.0
 30
0.0
  0
VERTEX
  5
C3
330
C2
100
AcDbEntity
  8
_U+30EC_U+30A4_U+30E4_U+30FC 1
 62
   179
420
  2234388
370
     9
100
AcDbVertex
100
AcDb2dVertex
 10
79.99200831333526
 20
-121.438740525196
 30
0.0
  0
VERTEX
  5
C4
330
C2
100
AcDbEntity
  8
_U+30EC_U+30A4_U+30E4_U+30FC 1
 62
   179
420
  2234388
370
     9
100
AcDbVertex
100
AcDb2dVertex
 10
80.95801765681112
 20
-121.697820525131
 30
0.0
  0
SEQEND
  5
C5
330
C2
100
AcDbEntity
  8
_U+30EC_U+30A4_U+30E4_U+30FC 1
 62
   179
420
  2234388
370
     9
  0
POLYLINE
  5
C6
330
1F
100
AcDbEntity
  8
_U+30EC_U+30A4_U+30E4_U+30FC 1
 62
   179
420
  2234388
370
     9
100
AcDb2dPolyline
 66
     1
 10
0.0
 20
0.0
 30
0.0
  0
VERTEX
  5
C7
330
C6
100
AcDbEntity
  8
_U+30EC_U+30A4_U+30E4_U+30FC 1
 62
   179
420
  2234388
370
     9
100
AcDbVertex
100
AcDb2dVertex
 10
97.11277002244682
 20
-136.7434046880363
 30
0.0
  0
VERTEX
  5
C8
330
C6
100
AcDbEntity
  8
_U+30EC_U+30A4_U+30E4_U+30FC 1
 62
   179
420
  2234388
370
     9
100
AcDbVertex
100
AcDb2dVertex
 10
97.37114446029959
 20
-135.7774285771668
 30
0.0
  0
SEQEND
  5
C9
330
C6
100
AcDbEntity
  8
_U+30EC_U+30A4_U+30E4_U+30FC 1
 62
   179
420
  2234388
370
     9
  0
POLYLINE
  5
CA
330
1F
100
AcDbEntity
  8
_U+30EC_U+30A4_U+30E4_U+30FC 1
 62
   179
420
  2234388
370
     9
100
AcDb2dPolyline
 66
     1
 10
0.0
 20
0.0
 30
0.0
  0
VERTEX
  5
CB
330
CA
100
AcDbEntity
  8
_U+30EC_U+30A4_U+30E4_U+30FC 1
 62
   179
420
  2234388
370
     9
100
AcDbVertex
100
AcDb2dVertex
 10
97.11277002244682
 20
-136.7434046880363
 30
0.0
  0
VERTEX
  5
CC
330
CA
100
AcDbEntity
  8
_U+30EC_U+30A4_U+30E4_U+30FC 1
 62
   179
420
  2234388
370
     9
100
AcDbVertex
100
AcDb2dVertex
 10
97.11277002244682
 20
-122.1711777472349
 30
0.0
  0
SEQEND
  5
CD
330
CA
100
AcDbEntity
  8
_U+30EC_U+30A4_U+30E4_U+30FC 1
 62
   179
420
  2234388
370
     9
  0
POLYLINE
  5
CE
330
1F
100
AcDbEntity
  8
_U+30EC_U+30A4_U+30E4_U+30FC 1
 62
   179
420
  2234388
370
     9
100
AcDb2dPolyline
 66
     1
 10
0.0
 20
0.0
 30
0.0
  0
VERTEX
  5
CF
330
CE
100
AcDbEntity
  8
_U+30EC_U+30A4_U+30E4_U+30FC 1
 62
   179
420
  2234388
370
     9
100
AcDbVertex
100
AcDb2dVertex
 10
97.11277002244682
 20
-136.7434046880363
 30
0.0
  0
VERTEX
  5
D0
330
CE
100
AcDbEntity
  8
_U+30EC_U+30A4_U+30E4_U+30FC 1
 62
   179
420
  2234388
370
     9
100
AcDbVertex
100
AcDb2dVertex
 10
96.85369002905651
 20
-135.7774285771668
 30
0.0
  0
SEQEND
  5
D1
330
CE
100
AcDbEntity
  8
_U+30EC_U+30A4_U+30E4_U+30FC 1
 62
   179
420
  2234388
370
     9
  0
INSERT
  5
D3
330
1F
100
AcDbEntity
  8
_U+30EC_U+30A4_U+30E4_U+30FC 1
100
AcDbBlockReference
  2
block 5
 10
0.0
 20
0.0
 30
0.0
  0
ENDSEC
  0
SECTION
  2
OBJECTS
  0
DICTIONARY
  5
C
330
0
100
AcDbDictionary
281
     1
  3
ACAD_GROUP
350
D
  3
ACAD_LAYOUT
350
1A
  3
ACAD_MATERIAL
350
3B
  3
ACAD_MLEADERSTYLE
350
FB
  3
ACAD_MLINESTYLE
350
17
  3
ACAD_PLOTSETTINGS
350
19
  3
ACAD_PLOTSTYLENAME
350
E
  3
ACAD_TABLESTYLE
350
FA
  3
ACAD_VISUALSTYLE
350
2A
  0
SUN
  5
3F
330
29
100
AcDbSun
 90
        1
290
     0
 63
     7
421
 16777215
 40
1.0
291
     1
 91
  2455826
 92
 54000000
292
     0
 70
     2
 71
   256
280
     1
  0
DICTIONARY
  5
D
102
{ACAD_REACTORS
330
C
102
}
330
C
100
AcDbDictionary
281
     1
  0
DICTIONARY
  5
1A
102
{ACAD_REACTORS
330
C
102
}
330
C
100
AcDbDictionary
281
     1
  3
Layout1
350
1E
  3
Layout2
350
26
  3
Model
350
22
  0
DICTIONARY
  5
3B
102
{ACAD_REACTORS
330
C
102
}
330
C
100
AcDbDictionary
281
     1
  3
ByBlock
350
3D
  3
ByLayer
350
3C
  3
Global
350
3E
  0
DICTIONARY
  5
FB
102
{ACAD_REACTORS
330
C
102
}
330
C
100
AcDbDictionary
281
     1
  0
DICTIONARY
  5
17
102
{ACAD_REACTORS
330
C
102
}
330
C
100
AcDbDictionary
281
     1
  3
Standard
350
18
  0
DICTIONARY
  5
19
102
{ACAD_REACTORS
330
C
102
}
330
C
100
AcDbDictionary
281
     1
  0
ACDBDICTIONARYWDFLT
  5
E
102
{ACAD_REACTORS
330
C
102
}
330
C
100
AcDbDictionary
281
     1
  3
Normal
350
F
100
AcDbDictionaryWithDefault
340
F
  0
DICTIONARY
  5
FA
102
{ACAD_REACTORS
330
C
102
}
330
C
100
AcDbDictionary
281
     1
  0
DICTIONARY
  5
2A
102
{ACAD_REACTORS
330
C
102
}
330
C
100
AcDbDictionary
281
     1
  3
2dWireframe
350
2F
  3
3D Hidden
350
31
  3
3dWireframe
350
30
  3
Basic
350
32
  3
Brighten
350
36
  3
ColorChange
350
3A
  3
Conceptual
350
34
  3
Dim
350
35
  3
Facepattern
350
39
  3
Flat
350
2B
  3
FlatWithEdges
350
2C
  3
Gouraud
350
2D
  3
GouraudWithEdges
350
2E
  3
Linepattern
350
38
  3
Realistic
350
33
  3
Thicken
350
37
  0
LAYOUT
  5
1E
102
{ACAD_REACTORS
330
1A
102
}
330
1A
100
AcDbPlotSettings
  1

  2
none_device
  4

  6

 40
0.0
 41
0.0
 42
0.0
 43
0.0
 44
0.0
 45
0.0
 46
0.0
 47
0.0
 48
0.0
 49
0.0
140
0.0
141
0.0
142
1.0
143
1.0
 70
   688
 72
     0
 73
     0
 74
     5
  7

 75
    16
 76
     0
 77
     2
 78
   300
147
1.0
148
0.0
149
0.0
100
AcDbLayout
  1
Layout1
 70
     1
 71
     1
 10
0.0
 20
0.0
 11
12.0
 21
9.0
 12
0.0
 22
0.0
 32
0.0
 14
1.000000000000000E+20
 24
1.000000000000000E+20
 34
1.000000000000000E+20
 15
-1.000000000000000E+20
 25
-1.000000000000000E+20
 35
-1.000000000000000E+20
146
0.0
 13
0.0
 23
0.0
 33
0.0
 16
1.0
 26
0.0
 36
0.0
 17
0.0
 27
1.0
 37
0.0
 76
     0
330
1B
  0
LAYOUT
  5
26
102
{ACAD_REACTORS
330
1A
102
}
330
1A
100
AcDbPlotSettings
  1

  2
none_device
  4

  6

 40
0.0
 41
0.0
 42
0.0
 43
0.0
 44
0.0
 45
0.0
 46
0.0
 47
0.0
 48
0.0
 49
0.0
140
0.0
141
0.0
142
1.0
143
1.0
 70
   688
 72
     0
 73
     0
 74
     5
  7

 75
    16
 76
     0
 77
     2
 78
   300
147
1.0
148
0.0
149
0.0
100
AcDbLayout
  1
Layout2
 70
     1
 71
     2
 10
0.0
 20
0.0
 11
0.0
 21
0.0
 12
0.0
 22
0.0
 32
0.0
 14
0.0
 24
0.0
 34
0.0
 15
0.0
 25
0.0
 35
0.0
146
0.0
 13
0.0
 23
0.0
 33
0.0
 16
1.0
 26
0.0
 36
0.0
 17
0.0
 27
1.0
 37
0.0
 76
     0
330
23
  0
LAYOUT
  5
22
102
{ACAD_REACTORS
330
1A
102
}
330
1A
100
AcDbPlotSettings
  1

  2
none_device
  4

  6

 40
0.0
 41
0.0
 42
0.0
 43
0.0
 44
0.0
 45
0.0
 46
0.0
 47
0.0
 48
0.0
 49
0.0
140
0.0
141
0.0
142
1.0
143
1.0
 70
  1712
 72
     0
 73
     0
 74
     0
  7

 75
     0
 76
     0
 77
     2
 78
   300
147
1.0
148
0.0
149
0.0
100
AcDbLayout
  1
Model
 70
     1
 71
     0
 10
0.0
 20
0.0
 11
12.0
 21
9.0
 12
0.0
 22
0.0
 32
0.0
 14
1.000000000000000E+20
 24
1.000000000000000E+20
 34
1.000000000000000E+20
 15
-1.000000000000000E+20
 25
-1.000000000000000E+20
 35
-1.000000000000000E+20
146
0.0
 13
0.0
 23
0.0
 33
0.0
 16
1.0
 26
0.0
 36
0.0
 17
0.0
 27
1.0
 37
0.0
 76
     0
330
1F
331
29
  0
MATERIAL
  5
3D
102
{ACAD_REACTORS
330
3B
102
}
330
3B
100
AcDbMaterial
  1
ByBlock
 72
     1
 94
      127
  0
MATERIAL
  5
3C
102
{ACAD_REACTORS
330
3B
102
}
330
3B
100
AcDbMaterial
  1
ByLayer
 72
     1
 94
      127
  0
MATERIAL
  5
3E
102
{ACAD_REACTORS
330
3B
102
}
330
3B
100
AcDbMaterial
  1
Global
 72
     1
 94
      127
  0
MLINESTYLE
  5
18
102
{ACAD_REACTORS
330
17
102
}
330
17
100
AcDbMlineStyle
  2
Standard
 70
     0
  3

 62
   256
 51
90.0
 52
90.0
 71
     2
 49
0.5
 62
   256
  6
BYLAYER
 49
-0.5
 62
   256
  6
BYLAYER
  0
ACDBPLACEHOLDER
  5
F
102
{ACAD_REACTORS
330
E
102
}
330
E
  0
VISUALSTYLE
  5
2F
102
{ACAD_REACTORS
330
2A
102
}
330
2A
100
AcDbVisualStyle
  2
2dWireframe
 70
     4
177
     2
291
     0
 71
     0
176
     1
 72
     2
176
     1
 73
     0
176
     1
 90
        0
176
     1
 40
-0.6
176
     1
 41
-30.0
176
     1
 62
     5
 63
     7
421
 16777215
176
     1
 74
     1
176
     1
 91
        4
176
     1
 64
     7
176
     1
 65
   257
176
     1
 75
     1
176
     1
175
     1
176
     1
 42
1.0
176
     1
 92
        0
176
     1
 66
   257
176
     1
 43
1.0
176
     1
 76
     1
176
     1
 77
     6
176
     1
 78
     2
176
     1
 67
     7
176
     1
 79
     5
176
     1
170
     0
176
     1
171
     0
176
     1
290
     0
176
     1
 93
        1
176
     1
 44
0.0
176
     1
173
     0
176
     1
  0
VISUALSTYLE
  5
31
102
{ACAD_REACTORS
330
2A
102
}
330
2A
100
AcDbVisualStyle
  2
3D Hidden
 70
     6
177
     2
291
     0
 71
     1
176
     1
 72
     2
176
     1
 73
     2
176
     1
 90
        0
176
     1
 40
-0.6
176
     1
 41
-30.0
176
     1
 62
     5
 63
     7
421
 16777215
176
     1
 74
     2
176
     1
 91
        2
176
     1
 64
     7
176
     1
 65
   257
176
     1
 75
     2
176
     1
175
     1
176
     1
 42
40.0
176
     1
 92
        0
176
     1
 66
   257
176
     1
 43
1.0
176
     1
 76
     1
176
     1
 77
     6
176
     1
 78
     2
176
     1
 67
     7
176
     1
 79
     3
176
     1
170
     0
176
     1
171
     0
176
     1
290
     0
176
     1
 93
        1
176
     1
 44
0.0
176
     1
173
     0
176
     1
  0
VISUALSTYLE
  5
30
102
{ACAD_REACTORS
330
2A
102
}
330
2A
100
AcDbVisualStyle
  2
3dWireframe
 70
     5
177
     2
291
     0
 71
     0
176
     1
 72
     2
176
     1
 73
     0
176
     1
 90
        0
176
     1
 40
-0.6
176
     1
 41
-30.0
176
     1
 62
     5
 63
     7
421
 16777215
176
     1
 74
     1
176
     1
 91
        4
176
     1
 64
     7
176
     1
 65
   257
176
     1
 75
     1
176
     1
175
     1
176
     1
 42
1.0
176
     1
 92
        0
176
     1
 66
   257
176
     1
 43
1.0
176
     1
 76
     1
176
     1
 77
     6
176
     1
 78
     2
176
     1
 67
     7
176
     1
 79
     5
176
     1
170
     0
176
     1
171
     0
176
     1
290
     0
176
     1
 93
        1
176
     1
 44
0.0
176
     1
173
     0
176
     1
  0
VISUALSTYLE
  5
32
102
{ACAD_REACTORS
330
2A
102
}
330
2A
100
AcDbVisualStyle
  2
Basic
 70
     7
177
     2
291
     1
 71
     1
176
     1
 72
     0
176
     1
 73
     1
176
     1
 90
        0
176
     1
 40
-0.6
176
     1
 41
-30.0
176
     1
 62
     5
 63
     7
421
 16777215
176
     1
 74
     0
176
     1
 91
        4
176
     1
 64
     7
176
     1
 65
   257
176
     1
 75
     1
176
     1
175
     1
176
     1
 42
1.0
176
     1
 92
        8
176
     1
 66
     7
176
     1
 43
1.0
176
     1
 76
     1
176
     1
 77
     6
176
     1
 78
     2
176
     1
 67
     7
176
     1
 79
     5
176
     1
170
     0
176
     1
171
     0
176
     1
290
     0
176
     1
 93
        1
176
     1
 44
0.0
176
     1
173
     0
176
     1
  0
VISUALSTYLE
  5
36
102
{ACAD_REACTORS
330
2A
102
}
330
2A
100
AcDbVisualStyle
  2
Brighten
 70
    12
177
     2
291
     1
 71
     2
176
     1
 72
     2
176
     1
 73
     0
176
     1
 90
        0
176
     1
 40
-0.6
176
     1
 41
-30.0
176
     1
 62
     5
 63
     7
421
 16777215
176
     1
 74
     1
176
     1
 91
        4
176
     1
 64
     7
176
     1
 65
   257
176
     1
 75
     1
176
     1
175
     1
176
     1
 42
1.0
176
     1
 92
        8
176
     1
 66
     7
176
     1
 43
1.0
176
     1
 76
     1
176
     1
 77
     6
176
     1
 78
     2
176
     1
 67
     7
176
     1
 79
     5
176
     1
170
     0
176
     1
171
     0
176
     1
290
     0
176
     1
 93
        1
176
     1
 44
50.0
176
     1
173
     0
176
     1
  0
VISUALSTYLE
  5
3A
102
{ACAD_REACTORS
330
2A
102
}
330
2A
100
AcDbVisualStyle
  2
ColorChange
 70
    16
177
     2
291
     1
 71
     2
176
     1
 72
     2
176
     1
 73
     3
176
     1
 90
        0
176
     1
 40
-0.6
176
     1
 41
-30.0
176
     1
 62
     5
 63
     8
421
  8421504
176
     1
 74
     1
176
     1
 91
        4
176
     1
 64
     7
176
     1
 65
   257
176
     1
 75
     1
176
     1
175
     1
176
     1
 42
1.0
176
     1
 92
        8
176
     1
 66
     8
424
  8421504
176
     1
 43
1.0
176
     1
 76
     1
176
     1
 77
     6
176
     1
 78
     2
176
     1
 67
     7
176
     1
 79
     5
176
     1
170
     0
176
     1
171
     0
176
     1
290
     0
176
     1
 93
        1
176
     1
 44
0.0
176
     1
173
     0
176
     1
  0
VISUALSTYLE
  5
34
102
{ACAD_REACTORS
330
2A
102
}
330
2A
100
AcDbVisualStyle
  2
Conceptual
 70
     9
177
     2
291
     0
 71
     3
176
     1
 72
     2
176
     1
 73
     0
176
     1
 90
        0
176
     1
 40
-0.6
176
     1
 41
-30.0
176
     1
 62
     5
 63
     7
421
 16777215
176
     1
 74
     2
176
     1
 91
        2
176
     1
 64
     7
176
     1
 65
   257
176
     1
 75
     1
176
     1
175
     1
176
     1
 42
40.0
176
     1
 92
        8
176
     1
 66
     7
176
     1
 43
1.0
176
     1
 76
     1
176
     1
 77
     6
176
     1
 78
     2
176
     1
 67
     7
176
     1
 79
     3
176
     1
170
     0
176
     1
171
     0
176
     1
290
     0
176
     1
 93
        1
176
     1
 44
0.0
176
     1
173
     0
176
     1
  0
VISUALSTYLE
  5
35
102
{ACAD_REACTORS
330
2A
102
}
330
2A
100
AcDbVisualStyle
  2
Dim
 70
    11
177
     2
291
     1
 71
     2
176
     1
 72
     2
176
     1
 73
     0
176
     1
 90
        0
176
     1
 40
-0.6
176
     1
 41
-30.0
176
     1
 62
     5
 63
     7
421
 16777215
176
     1
 74
     1
176
     1
 91
        4
176
     1
 64
     7
176
     1
 65
   257
176
     1
 75
     1
176
     1
175
     1
176
     1
 42
1.0
176
     1
 92
        8
176
     1
 66
     7
176
     1
 43
1.0
176
     1
 76
     1
176
     1
 77
     6
176
     1
 78
     2
176
     1
 67
     7
176
     1
 79
     5
176
     1
170
     0
176
     1
171
     0
176
     1
290
     0
176
     1
 93
        1
176
     1
 44
-50.0
176
     1
173
     0
176
     1
  0
VISUALSTYLE
  5
39
102
{ACAD_REACTORS
330
2A
102
}
330
2A
100
AcDbVisualStyle
  2
Facepattern
 70
    15
177
     2
291
     1
 71
     2
176
     1
 72
     2
176
     1
 73
     0
176
     1
 90
        0
176
     1
 40
-0.6
176
     1
 41
-30.0
176
     1
 62
     5
 63
     7
421
 16777215
176
     1
 74
     1
176
     1
 91
        4
176
     1
 64
     7
176
     1
 65
   257
176
     1
 75
     1
176
     1
175
     1
176
     1
 42
1.0
176
     1
 92
        8
176
     1
 66
     7
176
     1
 43
1.0
176
     1
 76
     1
176
     1
 77
     6
176
     1
 78
     2
176
     1
 67
     7
176
     1
 79
     5
176
     1
170
     0
176
     1
171
     0
176
     1
290
     0
176
     1
 93
        1
176
     1
 44
0.0
176
     1
173
     0
176
     1
  0
VISUALSTYLE
  5
2B
102
{ACAD_REACTORS
330
2A
102
}
330
2A
100
AcDbVisualStyle
  2
Flat
 70
     0
177
     2
291
     1
 71
     2
176
     1
 72
     1
176
     1
 73
     1
176
     1
 90
        2
176
     1
 40
-0.6
176
     1
 41
30.0
176
     1
 62
     5
 63
     7
421
 16777215
176
     1
 74
     0
176
     1
 91
        4
176
     1
 64
     7
176
     1
 65
   257
176
     1
 75
     1
176
     1
175
     1
176
     1
 42
1.0
176
     1
 92
        8
176
     1
 66
     7
176
     1
 43
1.0
176
     1
 76
     1
176
     1
 77
     6
176
     1
 78
     2
176
     1
 67
     7
176
     1
 79
     5
176
     1
170
     0
176
     1
171
     0
176
     1
290
     0
176
     1
 93
       13
176
     1
 44
0.0
176
     1
173
     0
176
     1
  0
VISUALSTYLE
  5
2C
102
{ACAD_REACTORS
330
2A
102
}
330
2A
100
AcDbVisualStyle
  2
FlatWithEdges
 70
     1
177
     2
291
     1
 71
     2
176
     1
 72
     1
176
     1
 73
     1
176
     1
 90
        2
176
     1
 40
-0.6
176
     1
 41
30.0
176
     1
 62
     5
 63
     7
421
 16777215
176
     1
 74
     1
176
     1
 91
        4
176
     1
 64
     7
176
     1
 65
   257
176
     1
 75
     1
176
     1
175
     1
176
     1
 42
1.0
176
     1
 92
        0
176
     1
 66
   257
176
     1
 43
1.0
176
     1
 76
     1
176
     1
 77
     6
176
     1
 78
     2
176
     1
 67
     7
176
     1
 79
     5
176
     1
170
     0
176
     1
171
     0
176
     1
290
     0
176
     1
 93
       13
176
     1
 44
0.0
176
     1
173
     0
176
     1
  0
VISUALSTYLE
  5
2D
102
{ACAD_REACTORS
330
2A
102
}
330
2A
100
AcDbVisualStyle
  2
Gouraud
 70
     2
177
     2
291
     1
 71
     2
176
     1
 72
     2
176
     1
 73
     1
176
     1
 90
        2
176
     1
 40
-0.6
176
     1
 41
30.0
176
     1
 62
     5
 63
     7
421
 16777215
176
     1
 74
     0
176
     1
 91
        4
176
     1
 64
     7
176
     1
 65
   257
176
     1
 75
     1
176
     1
175
     1
176
     1
 42
1.0
176
     1
 92
        0
176
     1
 66
     7
176
     1
 43
1.0
176
     1
 76
     1
176
     1
 77
     6
176
     1
 78
     2
176
     1
 67
     7
176
     1
 79
     5
176
     1
170
     0
176
     1
171
     0
176
     1
290
     0
176
     1
 93
       13
176
     1
 44
0.0
176
     1
173
     0
176
     1
  0
VISUALSTYLE
  5
2E
102
{ACAD_REACTORS
330
2A
102
}
330
2A
100
AcDbVisualStyle
  2
GouraudWithEdges
 70
     3
177
     2
291
     1
 71
     2
176
     1
 72
     2
176
     1
 73
     1
176
     1
 90
        2
176
     1
 40
-0.6
176
     1
 41
30.0
176
     1
 62
     5
 63
     7
421
 16777215
176
     1
 74
     1
176
     1
 91
        4
176
     1
 64
     7
176
     1
 65
   257
176
     1
 75
     1
176
     1
175
     1
176
     1
 42
1.0
176
     1
 92
        0
176
     1
 66
   257
176
     1
 43
1.0
176
     1
 76
     1
176
     1
 77
     6
176
     1
 78
     2
176
     1
 67
     7
176
     1
 79
     5
176
     1
170
     0
176
     1
171
     0
176
     1
290
     0
176
     1
 93
       13
176
     1
 44
0.0
176
     1
173
     0
176
     1
  0
VISUALSTYLE
  5
38
102
{ACAD_REACTORS
330
2A
102
}
330
2A
100
AcDbVisualStyle
  2
Linepattern
 70
    14
177
     2
291
     1
 71
     2
176
     1
 72
     2
176
     1
 73
     0
176
     1
 90
        0
176
     1
 40
-0.6
176
     1
 41
-30.0
176
     1
 62
     5
 63
     7
421
 16777215
176
     1
 74
     1
176
     1
 91
        4
176
     1
 64
     7
176
     1
 65
   257
176
     1
 75
     7
176
     1
175
     7
176
     1
 42
1.0
176
     1
 92
        8
176
     1
 66
     7
176
     1
 43
1.0
176
     1
 76
     1
176
     1
 77
     6
176
     1
 78
     2
176
     1
 67
     7
176
     1
 79
     5
176
     1
170
     0
176
     1
171
     0
176
     1
290
     0
176
     1
 93
        1
176
     1
 44
0.0
176
     1
173
     0
176
     1
  0
VISUALSTYLE
  5
33
102
{ACAD_REACTORS
330
2A
102
}
330
2A
100
AcDbVisualStyle
  2
Realistic
 70
     8
177
     2
291
     0
 71
     2
176
     1
 72
     2
176
     1
 73
     0
176
     1
 90
        0
176
     1
 40
-0.6
176
     1
 41
-30.0
176
     1
 62
     5
 63
     7
421
 16777215
176
     1
 74
     1
176
     1
 91
        0
176
     1
 64
     7
176
     1
 65
   257
176
     1
 75
     1
176
     1
175
     1
176
     1
 42
1.0
176
     1
 92
        8
176
     1
 66
     8
424
  7895160
176
     1
 43
1.0
176
     1
 76
     1
176
     1
 77
     6
176
     1
 78
     2
176
     1
 67
     7
176
     1
 79
     5
176
     1
170
     0
176
     1
171
     0
176
     1
290
     0
176
     1
 93
       13
176
     1
 44
0.0
176
     1
173
     0
176
     1
  0
VISUALSTYLE
  5
37
102
{ACAD_REACTORS
330
2A
102
}
330
2A
100
AcDbVisualStyle
  2
Thicken
 70
    13
177
     2
291
     1
 71
     2
176
     1
 72
     2
176
     1
 73
     0
176
     1
 90
        0
176
     1
 40
-0.6
176
     1
 41
-30.0
176
     1
 62
     5
 63
     7
421
 16777215
176
     1
 74
     1
176
     1
 91
        4
176
     1
 64
     7
176
     1
 65
   257
176
     1
 75
     1
176
     1
175
     1
176
     1
 42
1.0
176
     1
 92
       12
176
     1
 66
     7
176
     1
 43
1.0
176
     1
 76
     1
176
     1
 77
     6
176
     1
 78
     2
176
     1
 67
     7
176
     1
 79
     5
176
     1
170
     0
176
     1
171
     0
176
     1
290
     0
176
     1
 93
        1
176
     1
 44
0.0
176
     1
173
     0
176
     1
  0
ENDSEC
  0
EOF
