  0
SECTION
  2
HEADER
  9
$ACADVER
  1
AC1024
  9
$ACADMAINTVER
 70
     6
  9
$DWGCODEPAGE
  3
UNDEFINED
  9
$INSBASE
 10
0.0
 20
0.0
 30
0.0
  9
$EXTMIN
 10
1.000000000000000E+20
 20
1.000000000000000E+20
 30
1.000000000000000E+20
  9
$EXTMAX
 10
-1.000000000000000E+20
 20
-1.000000000000000E+20
 30
-1.000000000000000E+20
  9
$LIMMIN
 10
0.0
 20
0.0
  9
$LIMMAX
 10
12.0
 20
9.0
  9
$ORTHOMODE
 70
     0
  9
$REGENMODE
 70
     1
  9
$FILLMODE
 70
     1
  9
$QTEXTMODE
 70
     0
  9
$MIRRTEXT
 70
     1
  9
$LTSCALE
 40
1.0
  9
$ATTMODE
 70
     1
  9
$TEXTSIZE
 40
0.2
  9
$TRACEWID
 40
0.05
  9
$TEXTSTYLE
  7
Standard
  9
$CLAYER
  8
0
  9
$CELTYPE
  6
ByLayer
  9
$CECOLOR
 62
   256
  9
$CELTSCALE
 40
1.0
  9
$DISPSILH
 70
     0
  9
$DIMSCALE
 40
1.0
  9
$DIMASZ
 40
0.18
  9
$DIMEXO
 40
0.0625
  9
$DIMDLI
 40
0.38
  9
$DIMRND
 40
0.0
  9
$DIMDLE
 40
0.0
  9
$DIMEXE
 40
0.18
  9
$DIMTP
 40
0.0
  9
$DIMTM
 40
0.0
  9
$DIMTXT
 40
0.18
  9
$DIMCEN
 40
0.09
  9
$DIMTSZ
 40
0.0
  9
$DIMTOL
 70
     0
  9
$DIMLIM
 70
     0
  9
$DIMTIH
 70
     1
  9
$DIMTOH
 70
     1
  9
$DIMSE1
 70
     0
  9
$DIMSE2
 70
     0
  9
$DIMTAD
 70
     0
  9
$DIMZIN
 70
     0
  9
$DIMBLK
  1

  9
$DIMASO
 70
     1
  9
$DIMSHO
 70
     1
  9
$DIMPOST
  1

  9
$DIMAPOST
  1

  9
$DIMALT
 70
     0
  9
$DIMALTD
 70
     2
  9
$DIMALTF
 40
25.4
  9
$DIMLFAC
 40
1.0
  9
$DIMTOFL
 70
     0
  9
$DIMTVP
 40
0.0
  9
$DIMTIX
 70
     0
  9
$DIMSOXD
 70
     0
  9
$DIMSAH
 70
     0
  9
$DIMBLK1
  1

  9
$DIMBLK2
  1

  9
$DIMSTYLE
  2
Standard
  9
$DIMCLRD
 70
     0
  9
$DIMCLRE
 70
     0
  9
$DIMCLRT
 70
     0
  9
$DIMTFAC
 40
1.0
  9
$DIMGAP
 40
0.09
  9
$DIMJUST
 70
     0
  9
$DIMSD1
 70
     0
  9
$DIMSD2
 70
     0
  9
$DIMTOLJ
 70
     1
  9
$DIMTZIN
 70
     0
  9
$DIMALTZ
 70
     0
  9
$DIMALTTZ
 70
     0
  9
$DIMUPT
 70
     0
  9
$DIMDEC
 70
     4
  9
$DIMTDEC
 70
     4
  9
$DIMALTU
 70
     2
  9
$DIMALTTD
 70
     2
  9
$DIMTXSTY
  7
Standard
  9
$DIMAUNIT
 70
     0
  9
$DIMADEC
 70
     0
  9
$DIMALTRND
 40
0.0
  9
$DIMAZIN
 70
     0
  9
$DIMDSEP
 70
    46
  9
$DIMATFIT
 70
     3
  9
$DIMFRAC
 70
     0
  9
$DIMLDRBLK
  1

  9
$DIMLUNIT
 70
     2
  9
$DIMLWD
 70
    -2
  9
$DIMLWE
 70
    -2
  9
$DIMTMOVE
 70
     0
  9
$DIMFXL
 40
1.0
  9
$DIMFXLON
 70
     0
  9
$DIMJOGANG
 40
0.7853981633974483
  9
$DIMTFILL
 70
     0
  9
$DIMTFILLCLR
 70
     0
  9
$DIMARCSYM
 70
     0
  9
$DIMLTYPE
  6

  9
$DIMLTEX1
  6

  9
$DIMLTEX2
  6

  9
$DIMTXTDIRECTION
 70
     0
  9
$LUNITS
 70
     2
  9
$LUPREC
 70
     4
  9
$SKETCHINC
 40
0.1
  9
$FILLETRAD
 40
0.5
  9
$AUNITS
 70
     0
  9
$AUPREC
 70
     0
  9
$MENU
  1
.
  9
$ELEVATION
 40
0.0
  9
$PELEVATION
 40
0.0
  9
$THICKNESS
 40
0.0
  9
$LIMCHECK
 70
     0
  9
$CHAMFERA
 40
0.5
  9
$CHAMFERB
 40
0.5
  9
$CHAMFERC
 40
1.0
  9
$CHAMFERD
 40
0.0
  9
$SKPOLY
 70
     0
  9
$TDCREATE
 40
2457917.620381933
  9
$TDUCREATE
 40
2457917.245381944
  9
$TDUPDATE
 40
2457917.620381933
  9
$TDUUPDATE
 40
2457917.245381944
  9
$TDINDWG
 40
0.0000000116
  9
$TDUSRTIMER
 40
0.0000000116
  9
$USRTIMER
 70
     1
  9
$ANGBASE
 50
0.0
  9
$ANGDIR
 70
     0
  9
$PDMODE
 70
     0
  9
$PDSIZE
 40
0.0
  9
$PLINEWID
 40
0.0
  9
$SPLFRAME
 70
     0
  9
$SPLINETYPE
 70
     6
  9
$SPLINESEGS
 70
     8
  9
$HANDSEED
  5
B2
  9
$SURFTAB1
 70
     6
  9
$SURFTAB2
 70
     6
  9
$SURFTYPE
 70
     6
  9
$SURFU
 70
     6
  9
$SURFV
 70
     6
  9
$UCSBASE
  2

  9
$UCSNAME
  2

  9
$UCSORG
 10
0.0
 20
0.0
 30
0.0
  9
$UCSXDIR
 10
1.0
 20
0.0
 30
0.0
  9
$UCSYDIR
 10
0.0
 20
1.0
 30
0.0
  9
$UCSORTHOREF
  2

  9
$UCSORTHOVIEW
 70
     0
  9
$UCSORGTOP
 10
0.0
 20
0.0
 30
0.0
  9
$UCSORGBOTTOM
 10
0.0
 20
0.0
 30
0.0
  9
$UCSORGLEFT
 10
0.0
 20
0.0
 30
0.0
  9
$UCSORGRIGHT
 10
0.0
 20
0.0
 30
0.0
  9
$UCSORGFRONT
 10
0.0
 20
0.0
 30
0.0
  9
$UCSORGBACK
 10
0.0
 20
0.0
 30
0.0
  9
$PUCSBASE
  2

  9
$PUCSNAME
  2

  9
$PUCSORG
 10
0.0
 20
0.0
 30
0.0
  9
$PUCSXDIR
 10
1.0
 20
0.0
 30
0.0
  9
$PUCSYDIR
 10
0.0
 20
1.0
 30
0.0
  9
$PUCSORTHOREF
  2

  9
$PUCSORTHOVIEW
 70
     0
  9
$PUCSORGTOP
 10
0.0
 20
0.0
 30
0.0
  9
$PUCSORGBOTTOM
 10
0.0
 20
0.0
 30
0.0
  9
$PUCSORGLEFT
 10
0.0
 20
0.0
 30
0.0
  9
$PUCSORGRIGHT
 10
0.0
 20
0.0
 30
0.0
  9
$PUCSORGFRONT
 10
0.0
 20
0.0
 30
0.0
  9
$PUCSORGBACK
 10
0.0
 20
0.0
 30
0.0
  9
$USERI1
 70
     0
  9
$USERI2
 70
     0
  9
$USERI3
 70
     0
  9
$USERI4
 70
     0
  9
$USERI5
 70
     0
  9
$USERR1
 40
0.0
  9
$USERR2
 40
0.0
  9
$USERR3
 40
0.0
  9
$USERR4
 40
0.0
  9
$USERR5
 40
0.0
  9
$WORLDVIEW
 70
     1
  9
$SHADEDGE
 70
     3
  9
$SHADEDIF
 70
    70
  9
$TILEMODE
 70
     1
  9
$MAXACTVP
 70
    64
  9
$PINSBASE
 10
0.0
 20
0.0
 30
0.0
  9
$PLIMCHECK
 70
     0
  9
$PEXTMIN
 10
1.000000000000000E+20
 20
1.000000000000000E+20
 30
1.000000000000000E+20
  9
$PEXTMAX
 10
-1.000000000000000E+20
 20
-1.000000000000000E+20
 30
-1.000000000000000E+20
  9
$PLIMMIN
 10
0.0
 20
0.0
  9
$PLIMMAX
 10
12.0
 20
9.0
  9
$UNITMODE
 70
     0
  9
$VISRETAIN
 70
     1
  9
$PLINEGEN
 70
     0
  9
$PSLTSCALE
 70
     1
  9
$TREEDEPTH
 70
  3020
  9
$CMLSTYLE
  2
Standard
  9
$CMLJUST
 70
     0
  9
$CMLSCALE
 40
1.0
  9
$PROXYGRAPHICS
 70
     1
  9
$MEASUREMENT
 70
     0
  9
$CELWEIGHT
370
    -1
  9
$ENDCAPS
280
     0
  9
$JOINSTYLE
280
     0
  9
$LWDISPLAY
290
     1
  9
$INSUNITS
 70
     1
  9
$HYPERLINKBASE
  1

  9
$STYLESHEET
  1

  9
$XEDIT
290
     1
  9
$CEPSNTYPE
380
     0
  9
$PSTYLEMODE
290
     1
  9
$FINGERPRINTGUID
  2
{FABC9380-B6F4-9EEB-6A3F-C2F4B7CBF1EA}
  9
$VERSIONGUID
  2
{FAEB1C32-E019-11D5-929B-00C0DF256EC4}
  9
$EXTNAMES
290
     1
  9
$PSVPSCALE
 40
0.0
  9
$OLESTARTUP
290
     0
  9
$SORTENTS
280
   127
  9
$INDEXCTL
280
     0
  9
$HIDETEXT
280
     1
  9
$XCLIPFRAME
280
     2
  9
$HALOGAP
280
     0
  9
$OBSCOLOR
 70
   257
  9
$OBSLTYPE
280
     0
  9
$INTERSECTIONDISPLAY
280
     0
  9
$INTERSECTIONCOLOR
 70
   257
  9
$DIMASSOC
280
     2
  9
$PROJECTNAME
  1

  9
$CAMERADISPLAY
290
     0
  9
$LENSLENGTH
 40
50.0
  9
$CAMERAHEIGHT
 40
0.0
  9
$STEPSPERSEC
 40
2.0
  9
$STEPSIZE
 40
6.0
  9
$3DDWFPREC
 40
2.0
  9
$PSOLWIDTH
 40
0.25
  9
$PSOLHEIGHT
 40
4.0
  9
$LOFTANG1
 40
1.570796326794897
  9
$LOFTANG2
 40
1.570796326794897
  9
$LOFTMAG1
 40
0.0
  9
$LOFTMAG2
 40
0.0
  9
$LOFTPARAM
 70
     7
  9
$LOFTNORMALS
280
     1
  9
$LATITUDE
 40
37.795
  9
$LONGITUDE
 40
-122.394
  9
$NORTHDIRECTION
 40
0.0
  9
$TIMEZONE
 70
 -8000
  9
$LIGHTGLYPHDISPLAY
280
     1
  9
$TILEMODELIGHTSYNCH
280
     1
  9
$CMATERIAL
347
3C
  9
$SOLIDHIST
280
     1
  9
$SHOWHIST
280
     1
  9
$DWFFRAME
280
     2
  9
$DGNFRAME
280
     2
  9
$REALWORLDSCALE
290
     1
  9
$INTERFERECOLOR
 62
   256
  9
$CSHADOW
280
     0
  9
$SHADOWPLANELOCATION
 40
0.0
  0
ENDSEC
  0
SECTION
  2
CLASSES
  0
CLASS
  1
ACDBDICTIONARYWDFLT
  2
AcDbDictionaryWithDefault
  3
ObjectDBX Classes
 90
        0
 91
        4
280
     0
281
     0
  0
CLASS
  1
VISUALSTYLE
  2
AcDbVisualStyle
  3
ObjectDBX Classes
 90
     4095
 91
        4
280
     0
281
     0
  0
CLASS
  1
MATERIAL
  2
AcDbMaterial
  3
ObjectDBX Classes
 90
     1153
 91
        4
280
     0
281
     0
  0
CLASS
  1
SUN
  2
AcDbSun
  3
SCENEOE
 90
     1024
 91
        4
280
     0
281
     0
  0
ENDSEC
  0
SECTION
  2
TABLES
  0
TABLE
  2
VPORT
  5
8
330
0
100
AcDbSymbolTable
 70
     1
  0
VPORT
  5
29
330
8
100
AcDbSymbolTableRecord
100
AcDbViewportTableRecord
  2
*Active
 70
     0
 10
0.0
 20
0.0
 11
1.0
 21
1.0
 12
0.0
 22
0.0
 13
0.0
 23
0.0
 14
0.5
 24
0.5
 15
0.5
 25
0.5
 16
0.0
 26
0.0
 36
1.0
 17
91.00082462281999
 27
-128.4993055234307
 37
0.0
 40
256.9986110468615
 41
0.7081814508812795
 42
50.0
 43
0.0
 44
0.0
 50
0.0
 51
0.0
 71
     0
 72
   100
 73
     1
 74
     3
 75
     0
 76
     0
 77
     0
 78
     0
281
     0
 65
     1
110
0.0
120
0.0
130
0.0
111
1.0
121
0.0
131
0.0
112
0.0
122
1.0
132
0.0
 79
     0
146
0.0
 60
     3
 61
     5
292
     1
282
     1
141
0.0
142
0.0
 63
   250
361
3F
  0
ENDTAB
  0
TABLE
  2
LTYPE
  5
5
330
0
100
AcDbSymbolTable
 70
     1
  0
LTYPE
  5
14
330
5
100
AcDbSymbolTableRecord
100
AcDbLinetypeTableRecord
  2
ByBlock
 70
     0
  3

 72
    65
 73
     0
 40
0.0
  0
LTYPE
  5
15
330
5
100
AcDbSymbolTableRecord
100
AcDbLinetypeTableRecord
  2
ByLayer
 70
     0
  3

 72
    65
 73
     0
 40
0.0
  0
LTYPE
  5
16
330
5
100
AcDbSymbolTableRecord
100
AcDbLinetypeTableRecord
  2
Continuous
 70
     0
  3
Solid line
 72
    65
 73
     0
 40
0.0
  0
ENDTAB
  0
TABLE
  2
LAYER
  5
2
330
0
100
AcDbSymbolTable
 70
     2
  0
LAYER
  5
10
330
2
100
AcDbSymbolTableRecord
100
AcDbLayerTableRecord
  2
0
 70
     0
 62
     7
  6
Continuous
370
    -3
390
F
347
3E
  0
LAYER
  5
40
330
2
100
AcDbSymbolTableRecord
100
AcDbLayerTableRecord
  2
_U+30EC_U+30A4_U+30E4_U+30FC 1
 70
     0
 62
     7
  6
Continuous
370
    -3
390
F
347
3E
  0
ENDTAB
  0
TABLE
  2
STYLE
  5
3
330
0
100
AcDbSymbolTable
 70
     1
  0
STYLE
  5
11
330
3
100
AcDbSymbolTableRecord
100
AcDbTextStyleTableRecord
  2
Standard
 70
     0
 40
0.0
 41
1.0
 50
0.0
 71
     0
 42
0.2
  3
txt
  4

  0
ENDTAB
  0
TABLE
  2
VIEW
  5
6
330
0
100
AcDbSymbolTable
 70
     0
  0
ENDTAB
  0
TABLE
  2
UCS
  5
7
330
0
100
AcDbSymbolTable
 70
     0
  0
ENDTAB
  0
TABLE
  2
APPID
  5
9
330
0
100
AcDbSymbolTable
 70
     1
  0
APPID
  5
12
330
9
100
AcDbSymbolTableRecord
100
AcDbRegAppTableRecord
  2
ACAD
 70
     0
  0
ENDTAB
  0
TABLE
  2
DIMSTYLE
  5
A
330
0
100
AcDbSymbolTable
 70
     1
100
AcDbDimStyleTable
  0
DIMSTYLE
105
27
330
A
100
AcDbSymbolTableRecord
100
AcDbDimStyleTableRecord
  2
Standard
 70
     0
178
     0
340
11
  0
ENDTAB
  0
TABLE
  2
BLOCK_RECORD
  5
1
330
0
100
AcDbSymbolTable
 70
     4
  0
BLOCK_RECORD
  5
1F
330
1
100
AcDbSymbolTableRecord
100
AcDbBlockTableRecord
  2
*Model_Space
340
22
 70
     0
280
     1
281
     0
  0
BLOCK_RECORD
  5
1B
330
1
100
AcDbSymbolTableRecord
100
AcDbBlockTableRecord
  2
*Paper_Space
340
1E
 70
     0
280
     1
281
     0
  0
BLOCK_RECORD
  5
23
330
1
100
AcDbSymbolTableRecord
100
AcDbBlockTableRecord
  2
*Paper_Space0
340
26
 70
     0
280
     1
281
     0
  0
BLOCK_RECORD
  5
75
330
1
100
AcDbSymbolTableRecord
100
AcDbBlockTableRecord
  2
block 2
340
0
102
{BLKREFS
331
76
102
}
 70
     0
280
     1
281
     0
  0
BLOCK_RECORD
  5
94
330
1
100
AcDbSymbolTableRecord
100
AcDbBlockTableRecord
  2
block 3
340
0
102
{BLKREFS
331
95
102
}
 70
     0
280
     1
281
     0
  0
BLOCK_RECORD
  5
A8
330
1
100
AcDbSymbolTableRecord
100
AcDbBlockTableRecord
  2
block 4
340
0
102
{BLKREFS
331
A9
102
}
 70
     0
280
     1
281
     0
  0
ENDTAB
  0
ENDSEC
  0
SECTION
  2
BLOCKS
  0
BLOCK
  5
20
330
1F
100
AcDbEntity
  8
0
100
AcDbBlockBegin
  2
*Model_Space
 70
     0
 10
0.0
 20
0.0
 30
0.0
  3
*Model_Space
  1

  0
ENDBLK
  5
21
330
1F
100
AcDbEntity
  8
0
100
AcDbBlockEnd
  0
BLOCK
  5
1C
330
1B
100
AcDbEntity
 67
     1
  8
0
100
AcDbBlockBegin
  2
*Paper_Space
 70
     0
 10
0.0
 20
0.0
 30
0.0
  3
*Paper_Space
  1

  0
ENDBLK
  5
1D
330
1B
100
AcDbEntity
 67
     1
  8
0
100
AcDbBlockEnd
  0
BLOCK
  5
24
330
23
100
AcDbEntity
  8
0
100
AcDbBlockBegin
  2
*Paper_Space0
 70
     0
 10
0.0
 20
0.0
 30
0.0
  3
*Paper_Space0
  1

  0
ENDBLK
  5
25
330
23
100
AcDbEntity
  8
0
100
AcDbBlockEnd
  0
BLOCK
  5
77
330
75
100
AcDbEntity
  8
0
100
AcDbBlockBegin
  2
block 2
 70
     0
 10
0.0
 20
0.0
 30
0.0
  3
block 2
  1

  0
SPLINE
  5
79
330
75
100
AcDbEntity
  8
_U+30EC_U+30A4_U+30E4_U+30FC 1
370
     0
100
AcDbSpline
210
0.0
220
0.0
230
1.0
 70
    11
 71
     3
 72
    29
 73
    25
 74
     0
 42
0.0000000001
 43
0.0000000001
 12
1.0
 22
0.0
 32
0.0
 13
1.0
 23
0.0
 33
0.0
 40
0.0
 40
0.0
 40
0.0
 40
0.0
 40
1.0
 40
1.0
 40
1.0
 40
2.0
 40
2.0
 40
2.0
 40
3.0
 40
3.0
 40
3.0
 40
4.0
 40
4.0
 40
4.0
 40
5.0
 40
5.0
 40
5.0
 40
6.0
 40
6.0
 40
6.0
 40
7.0
 40
7.0
 40
7.0
 40
8.0
 40
8.0
 40
8.0
 40
8.0
 10
109.6956298553886
 20
-138.6757730773102
 30
0.0
 10
109.9050916608918
 20
-138.7839490755471
 30
0.0
 10
109.9240396860607
 20
-138.9572373784551
 30
0.0
 10
109.9240396860607
 20
-139.0736816058566
 30
0.0
 10
109.9240396860607
 20
-139.2345675650178
 30
0.0
 10
109.8775308970098
 20
-139.3761609894615
 30
0.0
 10
109.6956298553886
 20
-139.4712456248544
 30
0.0
 10
109.500981960472
 20
-139.5749429989604
 30
0.0
 10
109.2639593910868
 20
-139.5942355336778
 30
0.0
 10
109.101350884183
 20
-139.5942355336778
 30
0.0
 10
108.9573458928996
 20
-139.5942355336778
 30
0.0
 10
108.7055094129278
 20
-139.5770100562516
 30
0.0
 10
108.5067274034289
 20
-139.4712456248544
 30
0.0
 10
108.3038112793477
 20
-139.3634141361661
 30
0.0
 10
108.280384630048
 20
-139.2025281770049
 30
0.0
 10
108.280384630048
 20
-139.0736816058566
 30
0.0
 10
108.280384630048
 20
-138.9148627039866
 30
0.0
 10
108.3248263618077
 20
-138.7712022222516
 30
0.0
 10
108.5067274034289
 20
-138.6757730773102
 30
0.0
 10
108.6993082410543
 20
-138.576554327335
 30
0.0
 10
108.9277180717264
 20
-138.5531276780353
 30
0.0
 10
109.101350884183
 20
-138.5531276780353
 30
0.0
 10
109.2725721297999
 20
-138.5531276780353
 30
0.0
 10
109.5030490177631
 20
-138.5744872700439
 30
0.0
 10
109.6956298553886
 20
-138.6757730773102
 30
0.0
  0
SPLINE
  5
7A
330
75
100
AcDbEntity
  8
_U+30EC_U+30A4_U+30E4_U+30FC 1
370
     0
100
AcDbSpline
210
0.0
220
0.0
230
1.0
 70
    11
 71
     3
 72
    17
 73
    13
 74
     0
 42
0.0000000001
 43
0.0000000001
 12
1.0
 22
0.0
 32
0.0
 13
1.0
 23
0.0
 33
0.0
 40
0.0
 40
0.0
 40
0.0
 40
0.0
 40
1.0
 40
1.0
 40
1.0
 40
2.0
 40
2.0
 40
2.0
 40
3.0
 40
3.0
 40
3.0
 40
4.0
 40
4.0
 40
4.0
 40
4.0
 10
108.4729654676734
 20
-139.0736816058566
 30
0.0
 10
108.4729654676734
 20
-139.3234510285372
 30
0.0
 10
108.7564968261095
 20
-139.3699598175881
 30
0.0
 10
109.101350884183
 20
-139.3699598175881
 30
0.0
 10
109.4207112356657
 20
-139.3699598175881
 30
0.0
 10
109.7293917911441
 20
-139.3337863149929
 30
0.0
 10
109.7293917911441
 20
-139.0736816058566
 30
0.0
 10
109.7293917911441
 20
-138.8259792404671
 30
0.0
 10
109.4482719995477
 20
-138.7774033941251
 30
0.0
 10
109.101350884183
 20
-138.7774033941251
 30
0.0
 10
108.7816460231518
 20
-138.7774033941251
 30
0.0
 10
108.4729654676734
 20
-138.8156439540114
 30
0.0
 10
108.4729654676734
 20
-139.0736816058566
 30
0.0
  0
HATCH
  5
7B
330
75
100
AcDbEntity
  8
_U+30EC_U+30A4_U+30E4_U+30FC 1
 62
   179
420
  2234388
100
AcDbHatch
 10
0.0
 20
0.0
 30
0.0
210
0.0
220
0.0
230
1.0
  2
SOLID
 70
     1
 71
     0
 91
        2
 92
        1
 93
        1
 72
     4
 94
        3
 73
     0
 74
     1
 95
       29
 96
       25
 40
0.0
 40
0.0
 40
0.0
 40
0.0
 40
1.0
 40
1.0
 40
1.0
 40
2.0
 40
2.0
 40
2.0
 40
3.0
 40
3.0
 40
3.0
 40
4.0
 40
4.0
 40
4.0
 40
5.0
 40
5.0
 40
5.0
 40
6.0
 40
6.0
 40
6.0
 40
7.0
 40
7.0
 40
7.0
 40
8.0
 40
8.0
 40
8.0
 40
8.0
 10
109.6956298553886
 20
-138.6757730773102
 10
109.9050916608918
 20
-138.7839490755471
 10
109.9240396860607
 20
-138.9572373784551
 10
109.9240396860607
 20
-139.0736816058566
 10
109.9240396860607
 20
-139.2345675650178
 10
109.8775308970098
 20
-139.3761609894615
 10
109.6956298553886
 20
-139.4712456248544
 10
109.500981960472
 20
-139.5749429989604
 10
109.2639593910868
 20
-139.5942355336778
 10
109.101350884183
 20
-139.5942355336778
 10
108.9573458928996
 20
-139.5942355336778
 10
108.7055094129278
 20
-139.5770100562516
 10
108.5067274034289
 20
-139.4712456248544
 10
108.3038112793477
 20
-139.3634141361661
 10
108.280384630048
 20
-139.2025281770049
 10
108.280384630048
 20
-139.0736816058566
 10
108.280384630048
 20
-138.9148627039866
 10
108.3248263618077
 20
-138.7712022222516
 10
108.5067274034289
 20
-138.6757730773102
 10
108.6993082410543
 20
-138.576554327335
 10
108.9277180717264
 20
-138.5531276780353
 10
109.101350884183
 20
-138.5531276780353
 10
109.2725721297999
 20
-138.5531276780353
 10
109.5030490177631
 20
-138.5744872700439
 10
109.6956298553886
 20
-138.6757730773102
 97
        0
 97
        0
 92
        1
 93
        1
 72
     4
 94
        3
 73
     0
 74
     1
 95
       17
 96
       13
 40
0.0
 40
0.0
 40
0.0
 40
0.0
 40
1.0
 40
1.0
 40
1.0
 40
2.0
 40
2.0
 40
2.0
 40
3.0
 40
3.0
 40
3.0
 40
4.0
 40
4.0
 40
4.0
 40
4.0
 10
108.4729654676734
 20
-139.0736816058566
 10
108.4729654676734
 20
-139.3234510285372
 10
108.7564968261095
 20
-139.3699598175881
 10
109.101350884183
 20
-139.3699598175881
 10
109.4207112356657
 20
-139.3699598175881
 10
109.7293917911441
 20
-139.3337863149929
 10
109.7293917911441
 20
-139.0736816058566
 10
109.7293917911441
 20
-138.8259792404671
 10
109.4482719995477
 20
-138.7774033941251
 10
109.101350884183
 20
-138.7774033941251
 10
108.7816460231518
 20
-138.7774033941251
 10
108.4729654676734
 20
-138.8156439540114
 10
108.4729654676734
 20
-139.0736816058566
 97
        0
 97
        0
 75
     2
 76
     1
 98
        0
  0
POLYLINE
  5
7C
330
75
100
AcDbEntity
  8
_U+30EC_U+30A4_U+30E4_U+30FC 1
370
     0
100
AcDb2dPolyline
 66
     1
 10
0.0
 20
0.0
 30
0.0
  0
VERTEX
  5
7D
330
7C
100
AcDbEntity
  8
_U+30EC_U+30A4_U+30E4_U+30FC 1
370
     0
100
AcDbVertex
100
AcDb2dVertex
 10
109.8733967824275
 20
-138.3367756815616
 30
0.0
  0
VERTEX
  5
7E
330
7C
100
AcDbEntity
  8
_U+30EC_U+30A4_U+30E4_U+30FC 1
370
     0
100
AcDbVertex
100
AcDb2dVertex
 10
109.6215603024557
 20
-138.3367756815616
 30
0.0
  0
VERTEX
  5
7F
330
7C
100
AcDbEntity
  8
_U+30EC_U+30A4_U+30E4_U+30FC 1
370
     0
100
AcDbVertex
100
AcDb2dVertex
 10
109.6215603024557
 20
-138.0849392015899
 30
0.0
  0
VERTEX
  5
80
330
7C
100
AcDbEntity
  8
_U+30EC_U+30A4_U+30E4_U+30FC 1
370
     0
100
AcDbVertex
100
AcDb2dVertex
 10
109.8733967824275
 20
-138.0849392015899
 30
0.0
  0
VERTEX
  5
81
330
7C
100
AcDbEntity
  8
_U+30EC_U+30A4_U+30E4_U+30FC 1
370
     0
100
AcDbVertex
100
AcDb2dVertex
 10
109.8733967824275
 20
-138.3367756815616
 30
0.0
  0
SEQEND
  5
82
330
7C
100
AcDbEntity
  8
_U+30EC_U+30A4_U+30E4_U+30FC 1
370
     0
  0
HATCH
  5
83
330
75
100
AcDbEntity
  8
_U+30EC_U+30A4_U+30E4_U+30FC 1
 62
   179
420
  2234388
100
AcDbHatch
 10
0.0
 20
0.0
 30
0.0
210
0.0
220
0.0
230
1.0
  2
SOLID
 70
     1
 71
     0
 91
        1
 92
        1
 93
        4
 72
     1
 10
109.8733967824275
 20
-138.3367756815616
 11
109.6215603024557
 21
-138.3367756815616
 72
     1
 10
109.6215603024557
 20
-138.3367756815616
 11
109.6215603024557
 21
-138.0849392015899
 72
     1
 10
109.6215603024557
 20
-138.0849392015899
 11
109.8733967824275
 21
-138.0849392015899
 72
     1
 10
109.8733967824275
 20
-138.0849392015899
 11
109.8733967824275
 21
-138.3367756815616
 97
        0
 75
     2
 76
     1
 98
        0
  0
SPLINE
  5
84
330
75
100
AcDbEntity
  8
_U+30EC_U+30A4_U+30E4_U+30FC 1
370
     0
100
AcDbSpline
210
0.0
220
0.0
230
1.0
 70
    11
 71
     3
 72
    29
 73
    25
 74
     0
 42
0.0000000001
 43
0.0000000001
 12
1.0
 22
0.0
 32
0.0
 13
1.0
 23
0.0
 33
0.0
 40
0.0
 40
0.0
 40
0.0
 40
0.0
 40
1.0
 40
1.0
 40
1.0
 40
2.0
 40
2.0
 40
2.0
 40
3.0
 40
3.0
 40
3.0
 40
4.0
 40
4.0
 40
4.0
 40
5.0
 40
5.0
 40
5.0
 40
6.0
 40
6.0
 40
6.0
 40
7.0
 40
7.0
 40
7.0
 40
8.0
 40
8.0
 40
8.0
 40
8.0
 10
109.9240396860607
 20
-137.348722296392
 30
0.0
 10
109.9240396860607
 20
-137.6153726869503
 30
0.0
 10
109.7865803761992
 20
-137.8689317146647
 30
0.0
 10
109.4375922035434
 20
-137.8689317146647
 30
0.0
 10
109.1816216089893
 20
-137.8689317146647
 30
0.0
 10
109.0865369735964
 20
-137.727338290221
 30
0.0
 10
109.025214273959
 20
-137.6215738588238
 30
0.0
 10
108.9659586316127
 20
-137.7462863153898
 30
0.0
 10
108.8515814615024
 20
-137.8224229256138
 30
0.0
 10
108.6906955023412
 20
-137.8224229256138
 30
0.0
 10
108.4157768826183
 20
-137.8224229256138
 30
0.0
 10
108.280384630048
 20
-137.6236409161149
 30
0.0
 10
108.280384630048
 20
-137.348722296392
 30
0.0
 10
108.280384630048
 20
-137.0651909379559
 30
0.0
 10
108.4243896213314
 20
-136.8746771576216
 30
0.0
 10
108.6906955023412
 20
-136.8746771576216
 30
0.0
 10
108.8515814615024
 20
-136.8746771576216
 30
0.0
 10
108.9659586316127
 20
-136.9532253346853
 30
0.0
 10
109.025214273959
 20
-137.0779377912513
 30
0.0
 10
109.0758571775922
 20
-136.9890543277319
 30
0.0
 10
109.170941812985
 20
-136.8302354258619
 30
0.0
 10
109.4334580889611
 20
-136.8302354258619
 30
0.0
 10
109.8079399682077
 20
-136.8302354258619
 30
0.0
 10
109.9240396860607
 20
-137.1096326697157
 30
0.0
 10
109.9240396860607
 20
-137.348722296392
 30
0.0
  0
SPLINE
  5
85
330
75
100
AcDbEntity
  8
_U+30EC_U+30A4_U+30E4_U+30FC 1
370
     0
100
AcDbSpline
210
0.0
220
0.0
230
1.0
 70
    11
 71
     3
 72
    17
 73
    13
 74
     0
 42
0.0000000001
 43
0.0000000001
 12
1.0
 22
0.0
 32
0.0
 13
1.0
 23
0.0
 33
0.0
 40
0.0
 40
0.0
 40
0.0
 40
0.0
 40
1.0
 40
1.0
 40
1.0
 40
2.0
 40
2.0
 40
2.0
 40
3.0
 40
3.0
 40
3.0
 40
4.0
 40
4.0
 40
4.0
 40
4.0
 10
108.4729654676734
 20
-137.348722296392
 30
0.0
 10
108.4729654676734
 20
-137.5137423701354
 30
0.0
 10
108.5680501030663
 20
-137.5981472095241
 30
0.0
 10
108.7034423556366
 20
-137.5981472095241
 30
0.0
 10
108.8260877549115
 20
-137.5981472095241
 30
0.0
 10
108.9445990396041
 20
-137.5264892234309
 30
0.0
 10
108.9445990396041
 20
-137.348722296392
 30
0.0
 10
108.9445990396041
 20
-137.1709553693531
 30
0.0
 10
108.8260877549115
 20
-137.0989528737114
 30
0.0
 10
108.7034423556366
 20
-137.0989528737114
 30
0.0
 10
108.5680501030663
 20
-137.0989528737114
 30
0.0
 10
108.4729654676734
 20
-137.1857692799397
 30
0.0
 10
108.4729654676734
 20
-137.348722296392
 30
0.0
  0
SPLINE
  5
86
330
75
100
AcDbEntity
  8
_U+30EC_U+30A4_U+30E4_U+30FC 1
370
     0
100
AcDbSpline
210
0.0
220
0.0
230
1.0
 70
    11
 71
     3
 72
    17
 73
    13
 74
     0
 42
0.0000000001
 43
0.0000000001
 12
1.0
 22
0.0
 32
0.0
 13
1.0
 23
0.0
 33
0.0
 40
0.0
 40
0.0
 40
0.0
 40
0.0
 40
1.0
 40
1.0
 40
1.0
 40
2.0
 40
2.0
 40
2.0
 40
3.0
 40
3.0
 40
3.0
 40
4.0
 40
4.0
 40
4.0
 40
4.0
 10
109.1330457626473
 20
-137.348722296392
 30
0.0
 10
109.1330457626473
 20
-137.4923827781269
 30
0.0
 10
109.2198621688756
 20
-137.6450005081235
 30
0.0
 10
109.4227782929568
 20
-137.6450005081235
 30
0.0
 10
109.6281059838777
 20
-137.6450005081235
 30
0.0
 10
109.7293917911441
 20
-137.5178764847178
 30
0.0
 10
109.7293917911441
 20
-137.348722296392
 30
0.0
 10
109.7293917911441
 20
-137.1626871401885
 30
0.0
 10
109.6067463918692
 20
-137.0524440846605
 30
0.0
 10
109.4289794648303
 20
-137.0524440846605
 30
0.0
 10
109.2071153155802
 20
-137.0524440846605
 30
0.0
 10
109.1330457626473
 20
-137.2153971011128
 30
0.0
 10
109.1330457626473
 20
-137.348722296392
 30
0.0
  0
HATCH
  5
87
330
75
100
AcDbEntity
  8
_U+30EC_U+30A4_U+30E4_U+30FC 1
 62
   179
420
  2234388
100
AcDbHatch
 10
0.0
 20
0.0
 30
0.0
210
0.0
220
0.0
230
1.0
  2
SOLID
 70
     1
 71
     0
 91
        3
 92
        1
 93
        1
 72
     4
 94
        3
 73
     0
 74
     1
 95
       29
 96
       25
 40
0.0
 40
0.0
 40
0.0
 40
0.0
 40
1.0
 40
1.0
 40
1.0
 40
2.0
 40
2.0
 40
2.0
 40
3.0
 40
3.0
 40
3.0
 40
4.0
 40
4.0
 40
4.0
 40
5.0
 40
5.0
 40
5.0
 40
6.0
 40
6.0
 40
6.0
 40
7.0
 40
7.0
 40
7.0
 40
8.0
 40
8.0
 40
8.0
 40
8.0
 10
109.9240396860607
 20
-137.348722296392
 10
109.9240396860607
 20
-137.6153726869503
 10
109.7865803761992
 20
-137.8689317146647
 10
109.4375922035434
 20
-137.8689317146647
 10
109.1816216089893
 20
-137.8689317146647
 10
109.0865369735964
 20
-137.727338290221
 10
109.025214273959
 20
-137.6215738588238
 10
108.9659586316127
 20
-137.7462863153898
 10
108.8515814615024
 20
-137.8224229256138
 10
108.6906955023412
 20
-137.8224229256138
 10
108.4157768826183
 20
-137.8224229256138
 10
108.280384630048
 20
-137.6236409161149
 10
108.280384630048
 20
-137.348722296392
 10
108.280384630048
 20
-137.0651909379559
 10
108.4243896213314
 20
-136.8746771576216
 10
108.6906955023412
 20
-136.8746771576216
 10
108.8515814615024
 20
-136.8746771576216
 10
108.9659586316127
 20
-136.9532253346853
 10
109.025214273959
 20
-137.0779377912513
 10
109.0758571775922
 20
-136.9890543277319
 10
109.170941812985
 20
-136.8302354258619
 10
109.4334580889611
 20
-136.8302354258619
 10
109.8079399682077
 20
-136.8302354258619
 10
109.9240396860607
 20
-137.1096326697157
 10
109.9240396860607
 20
-137.348722296392
 97
        0
 97
        0
 92
        1
 93
        1
 72
     4
 94
        3
 73
     0
 74
     1
 95
       17
 96
       13
 40
0.0
 40
0.0
 40
0.0
 40
0.0
 40
1.0
 40
1.0
 40
1.0
 40
2.0
 40
2.0
 40
2.0
 40
3.0
 40
3.0
 40
3.0
 40
4.0
 40
4.0
 40
4.0
 40
4.0
 10
108.4729654676734
 20
-137.348722296392
 10
108.4729654676734
 20
-137.5137423701354
 10
108.5680501030663
 20
-137.5981472095241
 10
108.7034423556366
 20
-137.5981472095241
 10
108.8260877549115
 20
-137.5981472095241
 10
108.9445990396041
 20
-137.5264892234309
 10
108.9445990396041
 20
-137.348722296392
 10
108.9445990396041
 20
-137.1709553693531
 10
108.8260877549115
 20
-137.0989528737114
 10
108.7034423556366
 20
-137.0989528737114
 10
108.5680501030663
 20
-137.0989528737114
 10
108.4729654676734
 20
-137.1857692799397
 10
108.4729654676734
 20
-137.348722296392
 97
        0
 97
        0
 92
        1
 93
        1
 72
     4
 94
        3
 73
     0
 74
     1
 95
       17
 96
       13
 40
0.0
 40
0.0
 40
0.0
 40
0.0
 40
1.0
 40
1.0
 40
1.0
 40
2.0
 40
2.0
 40
2.0
 40
3.0
 40
3.0
 40
3.0
 40
4.0
 40
4.0
 40
4.0
 40
4.0
 10
109.1330457626473
 20
-137.348722296392
 10
109.1330457626473
 20
-137.4923827781269
 10
109.2198621688756
 20
-137.6450005081235
 10
109.4227782929568
 20
-137.6450005081235
 10
109.6281059838777
 20
-137.6450005081235
 10
109.7293917911441
 20
-137.5178764847178
 10
109.7293917911441
 20
-137.348722296392
 10
109.7293917911441
 20
-137.1626871401885
 10
109.6067463918692
 20
-137.0524440846605
 10
109.4289794648303
 20
-137.0524440846605
 10
109.2071153155802
 20
-137.0524440846605
 10
109.1330457626473
 20
-137.2153971011128
 10
109.1330457626473
 20
-137.348722296392
 97
        0
 97
        0
 75
     2
 76
     1
 98
        0
  0
ENDBLK
  5
78
330
75
100
AcDbEntity
  8
0
100
AcDbBlockEnd
  0
BLOCK
  5
96
330
94
100
AcDbEntity
  8
0
100
AcDbBlockBegin
  2
block 3
 70
     0
 10
0.0
 20
0.0
 30
0.0
  3
block 3
  1

  0
SPLINE
  5
98
330
94
100
AcDbEntity
  8
_U+30EC_U+30A4_U+30E4_U+30FC 1
370
     0
100
AcDbSpline
210
0.0
220
0.0
230
1.0
 70
    11
 71
     3
 72
    44
 73
    40
 74
     0
 42
0.0000000001
 43
0.0000000001
 12
1.0
 22
0.0
 32
0.0
 13
1.0
 23
0.0
 33
0.0
 40
0.0
 40
0.0
 40
0.0
 40
0.0
 40
1.0
 40
1.0
 40
1.0
 40
2.0
 40
2.0
 40
2.0
 40
3.0
 40
3.0
 40
3.0
 40
4.0
 40
4.0
 40
4.0
 40
5.0
 40
5.0
 40
5.0
 40
6.0
 40
6.0
 40
6.0
 40
7.0
 40
7.0
 40
7.0
 40
8.0
 40
8.0
 40
8.0
 40
9.0
 40
9.0
 40
9.0
 40
10.0
 40
10.0
 40
10.0
 40
11.0
 40
11.0
 40
11.0
 40
12.0
 40
12.0
 40
12.0
 40
13.0
 40
13.0
 40
13.0
 40
13.0
 10
72.76351723441329
 20
-126.5852104718259
 30
0.0
 10
72.92216388150905
 20
-126.8029405064937
 30
0.0
 10
72.99623343444192
 20
-126.8959580845955
 30
0.0
 10
73.1400661709511
 20
-126.944878440486
 30
0.0
 10
73.1400661709511
 20
-126.944878440486
 30
0.0
 10
73.1400661709511
 20
-126.1662868608195
 30
0.0
 10
73.1400661709511
 20
-126.1662868608195
 30
0.0
 10
73.1400661709511
 20
-126.1662868608195
 30
0.0
 10
73.34522160709773
 20
-126.1662868608195
 30
0.0
 10
73.34522160709773
 20
-126.1662868608195
 30
0.0
 10
73.34522160709773
 20
-126.1662868608195
 30
0.0
 10
73.34522160709773
 20
-127.1943033536181
 30
0.0
 10
73.34522160709773
 20
-127.1943033536181
 30
0.0
 10
72.9876206957288
 20
-127.1626084751538
 30
0.0
 10
72.90941702821362
 20
-127.097151660934
 30
0.0
 10
72.61107175919099
 20
-126.7119899856831
 30
0.0
 10
72.41228974969206
 20
-126.4560193911291
 30
0.0
 10
72.34459362340691
 20
-126.3905625769093
 30
0.0
 10
72.20713431354544
 20
-126.3905625769093
 30
0.0
 10
72.08862302885285
 20
-126.3905625769093
 30
0.0
 10
71.9575371456391
 20
-126.462565072551
 30
0.0
 10
71.9575371456391
 20
-126.6592800247588
 30
0.0
 10
71.9575371456391
 20
-126.9193847338952
 30
0.0
 10
72.1880140336023
 20
-126.9279974726083
 30
0.0
 10
72.30445826100375
 20
-126.9321315871906
 30
0.0
 10
72.30445826100375
 20
-126.9321315871906
 30
0.0
 10
72.30445826100375
 20
-127.1564073032803
 30
0.0
 10
72.30445826100375
 20
-127.1564073032803
 30
0.0
 10
72.17750649237229
 20
-127.1477945645672
 30
0.0
 10
72.06536863432741
 20
-127.137114768563
 30
0.0
 10
71.94685734963481
 20
-127.0568440437566
 30
0.0
 10
71.78614364524792
 20
-126.9469454977772
 30
0.0
 10
71.7522094547182
 20
-126.7605658320251
 30
0.0
 10
71.7522094547182
 20
-126.6444661141722
 30
0.0
 10
71.7522094547182
 20
-126.3671359276096
 30
0.0
 10
71.9363498084048
 20
-126.1597411793976
 30
0.0
 10
72.2092013708366
 20
-126.1597411793976
 30
0.0
 10
72.43761120150866
 20
-126.1597411793976
 30
0.0
 10
72.53717446103238
 20
-126.276185406799
 30
0.0
 10
72.76351723441329
 20
-126.5852104718259
 30
0.0
  0
HATCH
  5
99
330
94
100
AcDbEntity
  8
_U+30EC_U+30A4_U+30E4_U+30FC 1
 62
   179
420
  2234388
100
AcDbHatch
 10
0.0
 20
0.0
 30
0.0
210
0.0
220
0.0
230
1.0
  2
SOLID
 70
     1
 71
     0
 91
        1
 92
        1
 93
        1
 72
     4
 94
        3
 73
     0
 74
     1
 95
       44
 96
       40
 40
0.0
 40
0.0
 40
0.0
 40
0.0
 40
1.0
 40
1.0
 40
1.0
 40
2.0
 40
2.0
 40
2.0
 40
3.0
 40
3.0
 40
3.0
 40
4.0
 40
4.0
 40
4.0
 40
5.0
 40
5.0
 40
5.0
 40
6.0
 40
6.0
 40
6.0
 40
7.0
 40
7.0
 40
7.0
 40
8.0
 40
8.0
 40
8.0
 40
9.0
 40
9.0
 40
9.0
 40
10.0
 40
10.0
 40
10.0
 40
11.0
 40
11.0
 40
11.0
 40
12.0
 40
12.0
 40
12.0
 40
13.0
 40
13.0
 40
13.0
 40
13.0
 10
72.76351723441329
 20
-126.5852104718259
 10
72.92216388150905
 20
-126.8029405064937
 10
72.99623343444192
 20
-126.8959580845955
 10
73.1400661709511
 20
-126.944878440486
 10
73.1400661709511
 20
-126.944878440486
 10
73.1400661709511
 20
-126.1662868608195
 10
73.1400661709511
 20
-126.1662868608195
 10
73.1400661709511
 20
-126.1662868608195
 10
73.34522160709773
 20
-126.1662868608195
 10
73.34522160709773
 20
-126.1662868608195
 10
73.34522160709773
 20
-126.1662868608195
 10
73.34522160709773
 20
-127.1943033536181
 10
73.34522160709773
 20
-127.1943033536181
 10
72.9876206957288
 20
-127.1626084751538
 10
72.90941702821362
 20
-127.097151660934
 10
72.61107175919099
 20
-126.7119899856831
 10
72.41228974969206
 20
-126.4560193911291
 10
72.34459362340691
 20
-126.3905625769093
 10
72.20713431354544
 20
-126.3905625769093
 10
72.08862302885285
 20
-126.3905625769093
 10
71.9575371456391
 20
-126.462565072551
 10
71.9575371456391
 20
-126.6592800247588
 10
71.9575371456391
 20
-126.9193847338952
 10
72.1880140336023
 20
-126.9279974726083
 10
72.30445826100375
 20
-126.9321315871906
 10
72.30445826100375
 20
-126.9321315871906
 10
72.30445826100375
 20
-127.1564073032803
 10
72.30445826100375
 20
-127.1564073032803
 10
72.17750649237229
 20
-127.1477945645672
 10
72.06536863432741
 20
-127.137114768563
 10
71.94685734963481
 20
-127.0568440437566
 10
71.78614364524792
 20
-126.9469454977772
 10
71.7522094547182
 20
-126.7605658320251
 10
71.7522094547182
 20
-126.6444661141722
 10
71.7522094547182
 20
-126.3671359276096
 10
71.9363498084048
 20
-126.1597411793976
 10
72.2092013708366
 20
-126.1597411793976
 10
72.43761120150866
 20
-126.1597411793976
 10
72.53717446103238
 20
-126.276185406799
 10
72.76351723441329
 20
-126.5852104718259
 97
        0
 97
        0
 75
     2
 76
     1
 98
        0
  0
SPLINE
  5
9A
330
94
100
AcDbEntity
  8
_U+30EC_U+30A4_U+30E4_U+30FC 1
370
     0
100
AcDbSpline
210
0.0
220
0.0
230
1.0
 70
    11
 71
     3
 72
    53
 73
    49
 74
     0
 42
0.0000000001
 43
0.0000000001
 12
1.0
 22
0.0
 32
0.0
 13
1.0
 23
0.0
 33
0.0
 40
0.0
 40
0.0
 40
0.0
 40
0.0
 40
1.0
 40
1.0
 40
1.0
 40
2.0
 40
2.0
 40
2.0
 40
3.0
 40
3.0
 40
3.0
 40
4.0
 40
4.0
 40
4.0
 40
5.0
 40
5.0
 40
5.0
 40
6.0
 40
6.0
 40
6.0
 40
7.0
 40
7.0
 40
7.0
 40
8.0
 40
8.0
 40
8.0
 40
9.0
 40
9.0
 40
9.0
 40
10.0
 40
10.0
 40
10.0
 40
11.0
 40
11.0
 40
11.0
 40
12.0
 40
12.0
 40
12.0
 40
13.0
 40
13.0
 40
13.0
 40
14.0
 40
14.0
 40
14.0
 40
15.0
 40
15.0
 40
15.0
 40
16.0
 40
16.0
 40
16.0
 40
16.0
 10
73.39603676550516
 20
-125.5203314573352
 30
0.0
 10
73.39603676550516
 20
-125.5985351248504
 30
0.0
 10
73.37898354285318
 20
-125.7001654416652
 30
0.0
 10
73.31559378592458
 20
-125.8017957584801
 30
0.0
 10
73.20552298517084
 20
-125.9750840613882
 30
0.0
 10
73.07443710195709
 20
-125.9964436533967
 30
0.0
 10
72.96660561326877
 20
-126.0153916785656
 30
0.0
 10
72.96660561326877
 20
-126.0153916785656
 30
0.0
 10
72.96660561326877
 20
-125.793183019767
 30
0.0
 10
72.96660561326877
 20
-125.793183019767
 30
0.0
 10
73.16538762276768
 20
-125.7384060015515
 30
0.0
 10
73.19501544394083
 20
-125.6112819781458
 30
0.0
 10
73.19501544394083
 20
-125.518264400044
 30
0.0
 10
73.19501544394083
 20
-125.3787380328914
 30
0.0
 10
73.09562443919137
 20
-125.2264648124434
 30
0.0
 10
72.86290823916275
 20
-125.2264648124434
 30
0.0
 10
72.60693764460869
 20
-125.2264648124434
 30
0.0
 10
72.53717446103238
 20
-125.4062987967734
 30
0.0
 10
72.53717446103238
 20
-125.5268771387572
 30
0.0
 10
72.53717446103238
 20
-125.5585720172215
 30
0.0
 10
72.53717446103238
 20
-125.7001654416652
 30
0.0
 10
72.66619328695498
 20
-125.7890489051847
 30
0.0
 10
72.66619328695498
 20
-125.7890489051847
 30
0.0
 10
72.64707300701184
 20
-125.9647487749324
 30
0.0
 10
72.64707300701184
 20
-125.9647487749324
 30
0.0
 10
72.64707300701184
 20
-125.9647487749324
 30
0.0
 10
71.80095755583449
 20
-125.8441704329487
 30
0.0
 10
71.80095755583449
 20
-125.8441704329487
 30
0.0
 10
71.80095755583449
 20
-125.8441704329487
 30
0.0
 10
71.80095755583449
 20
-125.0655788532822
 30
0.0
 10
71.80095755583449
 20
-125.0655788532822
 30
0.0
 10
71.80095755583449
 20
-125.0655788532822
 30
0.0
 10
71.9956054507511
 20
-125.0655788532822
 30
0.0
 10
71.9956054507511
 20
-125.0655788532822
 30
0.0
 10
71.9956054507511
 20
-125.0655788532822
 30
0.0
 10
71.9956054507511
 20
-125.6812174164964
 30
0.0
 10
71.9956054507511
 20
-125.6812174164964
 30
0.0
 10
71.9956054507511
 20
-125.6812174164964
 30
0.0
 10
72.41866317633978
 20
-125.7466742307161
 30
0.0
 10
72.41866317633978
 20
-125.7466742307161
 30
0.0
 10
72.38472898581007
 20
-125.6853515310787
 30
0.0
 10
72.34459362340691
 20
-125.6030137489812
 30
0.0
 10
72.34459362340691
 20
-125.4845024642886
 30
0.0
 10
72.34459362340691
 20
-125.2305989270257
 30
0.0
 10
72.53080103438467
 20
-124.9935763576405
 30
0.0
 10
72.84378795921961
 20
-124.9935763576405
 30
0.0
 10
73.16125350818538
 20
-124.9935763576405
 30
0.0
 10
73.39603676550516
 20
-125.2178520737303
 30
0.0
 10
73.39603676550516
 20
-125.5203314573352
 30
0.0
  0
HATCH
  5
9B
330
94
100
AcDbEntity
  8
_U+30EC_U+30A4_U+30E4_U+30FC 1
 62
   179
420
  2234388
100
AcDbHatch
 10
0.0
 20
0.0
 30
0.0
210
0.0
220
0.0
230
1.0
  2
SOLID
 70
     1
 71
     0
 91
        1
 92
        1
 93
        1
 72
     4
 94
        3
 73
     0
 74
     1
 95
       53
 96
       49
 40
0.0
 40
0.0
 40
0.0
 40
0.0
 40
1.0
 40
1.0
 40
1.0
 40
2.0
 40
2.0
 40
2.0
 40
3.0
 40
3.0
 40
3.0
 40
4.0
 40
4.0
 40
4.0
 40
5.0
 40
5.0
 40
5.0
 40
6.0
 40
6.0
 40
6.0
 40
7.0
 40
7.0
 40
7.0
 40
8.0
 40
8.0
 40
8.0
 40
9.0
 40
9.0
 40
9.0
 40
10.0
 40
10.0
 40
10.0
 40
11.0
 40
11.0
 40
11.0
 40
12.0
 40
12.0
 40
12.0
 40
13.0
 40
13.0
 40
13.0
 40
14.0
 40
14.0
 40
14.0
 40
15.0
 40
15.0
 40
15.0
 40
16.0
 40
16.0
 40
16.0
 40
16.0
 10
73.39603676550516
 20
-125.5203314573352
 10
73.39603676550516
 20
-125.5985351248504
 10
73.37898354285318
 20
-125.7001654416652
 10
73.31559378592458
 20
-125.8017957584801
 10
73.20552298517084
 20
-125.9750840613882
 10
73.07443710195709
 20
-125.9964436533967
 10
72.96660561326877
 20
-126.0153916785656
 10
72.96660561326877
 20
-126.0153916785656
 10
72.96660561326877
 20
-125.793183019767
 10
72.96660561326877
 20
-125.793183019767
 10
73.16538762276768
 20
-125.7384060015515
 10
73.19501544394083
 20
-125.6112819781458
 10
73.19501544394083
 20
-125.518264400044
 10
73.19501544394083
 20
-125.3787380328914
 10
73.09562443919137
 20
-125.2264648124434
 10
72.86290823916275
 20
-125.2264648124434
 10
72.60693764460869
 20
-125.2264648124434
 10
72.53717446103238
 20
-125.4062987967734
 10
72.53717446103238
 20
-125.5268771387572
 10
72.53717446103238
 20
-125.5585720172215
 10
72.53717446103238
 20
-125.7001654416652
 10
72.66619328695498
 20
-125.7890489051847
 10
72.66619328695498
 20
-125.7890489051847
 10
72.64707300701184
 20
-125.9647487749324
 10
72.64707300701184
 20
-125.9647487749324
 10
72.64707300701184
 20
-125.9647487749324
 10
71.80095755583449
 20
-125.8441704329487
 10
71.80095755583449
 20
-125.8441704329487
 10
71.80095755583449
 20
-125.8441704329487
 10
71.80095755583449
 20
-125.0655788532822
 10
71.80095755583449
 20
-125.0655788532822
 10
71.80095755583449
 20
-125.0655788532822
 10
71.9956054507511
 20
-125.0655788532822
 10
71.9956054507511
 20
-125.0655788532822
 10
71.9956054507511
 20
-125.0655788532822
 10
71.9956054507511
 20
-125.6812174164964
 10
71.9956054507511
 20
-125.6812174164964
 10
71.9956054507511
 20
-125.6812174164964
 10
72.41866317633978
 20
-125.7466742307161
 10
72.41866317633978
 20
-125.7466742307161
 10
72.38472898581007
 20
-125.6853515310787
 10
72.34459362340691
 20
-125.6030137489812
 10
72.34459362340691
 20
-125.4845024642886
 10
72.34459362340691
 20
-125.2305989270257
 10
72.53080103438467
 20
-124.9935763576405
 10
72.84378795921961
 20
-124.9935763576405
 10
73.16125350818538
 20
-124.9935763576405
 10
73.39603676550516
 20
-125.2178520737303
 10
73.39603676550516
 20
-125.5203314573352
 97
        0
 97
        0
 75
     2
 76
     1
 98
        0
  0
ENDBLK
  5
97
330
94
100
AcDbEntity
  8
0
100
AcDbBlockEnd
  0
BLOCK
  5
AA
330
A8
100
AcDbEntity
  8
0
100
AcDbBlockBegin
  2
block 4
 70
     0
 10
0.0
 20
0.0
 30
0.0
  3
block 4
  1

  0
SPLINE
  5
AC
330
A8
100
AcDbEntity
  8
_U+30EC_U+30A4_U+30E4_U+30FC 1
370
     0
100
AcDbSpline
210
0.0
220
0.0
230
1.0
 70
    11
 71
     3
 72
    44
 73
    40
 74
     0
 42
0.0000000001
 43
0.0000000001
 12
1.0
 22
0.0
 32
0.0
 13
1.0
 23
0.0
 33
0.0
 40
0.0
 40
0.0
 40
0.0
 40
0.0
 40
1.0
 40
1.0
 40
1.0
 40
2.0
 40
2.0
 40
2.0
 40
3.0
 40
3.0
 40
3.0
 40
4.0
 40
4.0
 40
4.0
 40
5.0
 40
5.0
 40
5.0
 40
6.0
 40
6.0
 40
6.0
 40
7.0
 40
7.0
 40
7.0
 40
8.0
 40
8.0
 40
8.0
 40
9.0
 40
9.0
 40
9.0
 40
10.0
 40
10.0
 40
10.0
 40
11.0
 40
11.0
 40
11.0
 40
12.0
 40
12.0
 40
12.0
 40
13.0
 40
13.0
 40
13.0
 40
13.0
 10
89.87048337596988
 20
-141.3353867919231
 30
0.0
 10
89.65275334130209
 20
-141.4942056937931
 30
0.0
 10
89.55973576320035
 20
-141.568275246726
 30
0.0
 10
89.5108154073098
 20
-141.7119357284609
 30
0.0
 10
89.5108154073098
 20
-141.7119357284609
 30
0.0
 10
90.28940698697626
 20
-141.7119357284609
 30
0.0
 10
90.28940698697626
 20
-141.7119357284609
 30
0.0
 10
90.28940698697626
 20
-141.7119357284609
 30
0.0
 10
90.28940698697626
 20
-141.9172634193818
 30
0.0
 10
90.28940698697626
 20
-141.9172634193818
 30
0.0
 10
90.28940698697626
 20
-141.9172634193818
 30
0.0
 10
89.26139049417772
 20
-141.9172634193818
 30
0.0
 10
89.26139049417772
 20
-141.9172634193818
 30
0.0
 10
89.29308537264201
 20
-141.5596625080129
 30
0.0
 10
89.35854218686175
 20
-141.4814588404977
 30
0.0
 10
89.7437038621127
 20
-141.183113571475
 30
0.0
 10
89.99967445666675
 20
-140.9843315619761
 30
0.0
 10
90.0651312708865
 20
-140.9164631809167
 30
0.0
 10
90.0651312708865
 20
-140.7790038710553
 30
0.0
 10
90.0651312708865
 20
-140.6604925863627
 30
0.0
 10
89.99312877524478
 20
-140.5295789579232
 30
0.0
 10
89.79641382303701
 20
-140.5295789579232
 30
0.0
 10
89.53630911390064
 20
-140.5295789579232
 30
0.0
 10
89.52769637518753
 20
-140.7600558458864
 30
0.0
 10
89.52356226060523
 20
-140.8765000732878
 30
0.0
 10
89.52356226060523
 20
-140.8765000732878
 30
0.0
 10
89.29928654451545
 20
-140.8765000732878
 30
0.0
 10
89.29928654451545
 20
-140.8765000732878
 30
0.0
 10
89.30789928322858
 20
-140.7493760498821
 30
0.0
 10
89.31857907923286
 20
-140.6374104466115
 30
0.0
 10
89.39884980403919
 20
-140.5188991619189
 30
0.0
 10
89.50874835001865
 20
-140.3580132027577
 30
0.0
 10
89.69512801577066
 20
-140.3242512670023
 30
0.0
 10
89.81122773362358
 20
-140.3242512670023
 30
0.0
 10
90.0885579201862
 20
-140.3242512670023
 30
0.0
 10
90.29595266839824
 20
-140.5082193659146
 30
0.0
 10
90.29595266839824
 20
-140.7810709283464
 30
0.0
 10
90.29595266839824
 20
-141.009825268567
 30
0.0
 10
90.1795084409968
 20
-141.1090440185422
 30
0.0
 10
89.87048337596988
 20
-141.3353867919231
 30
0.0
  0
HATCH
  5
AD
330
A8
100
AcDbEntity
  8
_U+30EC_U+30A4_U+30E4_U+30FC 1
 62
   179
420
  2234388
100
AcDbHatch
 10
0.0
 20
0.0
 30
0.0
210
0.0
220
0.0
230
1.0
  2
SOLID
 70
     1
 71
     0
 91
        1
 92
        1
 93
        1
 72
     4
 94
        3
 73
     0
 74
     1
 95
       44
 96
       40
 40
0.0
 40
0.0
 40
0.0
 40
0.0
 40
1.0
 40
1.0
 40
1.0
 40
2.0
 40
2.0
 40
2.0
 40
3.0
 40
3.0
 40
3.0
 40
4.0
 40
4.0
 40
4.0
 40
5.0
 40
5.0
 40
5.0
 40
6.0
 40
6.0
 40
6.0
 40
7.0
 40
7.0
 40
7.0
 40
8.0
 40
8.0
 40
8.0
 40
9.0
 40
9.0
 40
9.0
 40
10.0
 40
10.0
 40
10.0
 40
11.0
 40
11.0
 40
11.0
 40
12.0
 40
12.0
 40
12.0
 40
13.0
 40
13.0
 40
13.0
 40
13.0
 10
89.87048337596988
 20
-141.3353867919231
 10
89.65275334130209
 20
-141.4942056937931
 10
89.55973576320035
 20
-141.568275246726
 10
89.5108154073098
 20
-141.7119357284609
 10
89.5108154073098
 20
-141.7119357284609
 10
90.28940698697626
 20
-141.7119357284609
 10
90.28940698697626
 20
-141.7119357284609
 10
90.28940698697626
 20
-141.7119357284609
 10
90.28940698697626
 20
-141.9172634193818
 10
90.28940698697626
 20
-141.9172634193818
 10
90.28940698697626
 20
-141.9172634193818
 10
89.26139049417772
 20
-141.9172634193818
 10
89.26139049417772
 20
-141.9172634193818
 10
89.29308537264201
 20
-141.5596625080129
 10
89.35854218686175
 20
-141.4814588404977
 10
89.7437038621127
 20
-141.183113571475
 10
89.99967445666675
 20
-140.9843315619761
 10
90.0651312708865
 20
-140.9164631809167
 10
90.0651312708865
 20
-140.7790038710553
 10
90.0651312708865
 20
-140.6604925863627
 10
89.99312877524478
 20
-140.5295789579232
 10
89.79641382303701
 20
-140.5295789579232
 10
89.53630911390064
 20
-140.5295789579232
 10
89.52769637518753
 20
-140.7600558458864
 10
89.52356226060523
 20
-140.8765000732878
 10
89.52356226060523
 20
-140.8765000732878
 10
89.29928654451545
 20
-140.8765000732878
 10
89.29928654451545
 20
-140.8765000732878
 10
89.30789928322858
 20
-140.7493760498821
 10
89.31857907923286
 20
-140.6374104466115
 10
89.39884980403919
 20
-140.5188991619189
 10
89.50874835001865
 20
-140.3580132027577
 10
89.69512801577066
 20
-140.3242512670023
 10
89.81122773362358
 20
-140.3242512670023
 10
90.0885579201862
 20
-140.3242512670023
 10
90.29595266839824
 20
-140.5082193659146
 10
90.29595266839824
 20
-140.7810709283464
 10
90.29595266839824
 20
-141.009825268567
 10
90.1795084409968
 20
-141.1090440185422
 10
89.87048337596988
 20
-141.3353867919231
 97
        0
 97
        0
 75
     2
 76
     1
 98
        0
  0
SPLINE
  5
AE
330
A8
100
AcDbEntity
  8
_U+30EC_U+30A4_U+30E4_U+30FC 1
370
     0
100
AcDbSpline
210
0.0
220
0.0
230
1.0
 70
    11
 71
     3
 72
    53
 73
    49
 74
     0
 42
0.0000000001
 43
0.0000000001
 12
1.0
 22
0.0
 32
0.0
 13
1.0
 23
0.0
 33
0.0
 40
0.0
 40
0.0
 40
0.0
 40
0.0
 40
1.0
 40
1.0
 40
1.0
 40
2.0
 40
2.0
 40
2.0
 40
3.0
 40
3.0
 40
3.0
 40
4.0
 40
4.0
 40
4.0
 40
5.0
 40
5.0
 40
5.0
 40
6.0
 40
6.0
 40
6.0
 40
7.0
 40
7.0
 40
7.0
 40
8.0
 40
8.0
 40
8.0
 40
9.0
 40
9.0
 40
9.0
 40
10.0
 40
10.0
 40
10.0
 40
11.0
 40
11.0
 40
11.0
 40
12.0
 40
12.0
 40
12.0
 40
13.0
 40
13.0
 40
13.0
 40
14.0
 40
14.0
 40
14.0
 40
15.0
 40
15.0
 40
15.0
 40
16.0
 40
16.0
 40
16.0
 40
16.0
 10
90.93536239046061
 20
-141.967906323015
 30
0.0
 10
90.85715872294544
 20
-141.967906323015
 30
0.0
 10
90.75552840613057
 20
-141.9510253551373
 30
0.0
 10
90.6538980893157
 20
-141.8876355982086
 30
0.0
 10
90.48060978640763
 20
-141.7777370522292
 30
0.0
 10
90.45925019439908
 20
-141.6464789142412
 30
0.0
 10
90.44030216923021
 20
-141.5386474255529
 30
0.0
 10
90.44030216923021
 20
-141.5386474255529
 30
0.0
 10
90.66251082802881
 20
-141.5386474255529
 30
0.0
 10
90.66251082802881
 20
-141.5386474255529
 30
0.0
 10
90.71728784624429
 20
-141.7374294350518
 30
0.0
 10
90.84441186965002
 20
-141.7670572562249
 30
0.0
 10
90.93742944775175
 20
-141.7670572562249
 30
0.0
 10
91.07695581490438
 20
-141.7670572562249
 30
0.0
 10
91.22922903535242
 20
-141.6674939967012
 30
0.0
 10
91.22922903535242
 20
-141.4349500514468
 30
0.0
 10
91.22922903535242
 20
-141.1789794568928
 30
0.0
 10
91.04939505102237
 20
-141.1090440185422
 30
0.0
 10
90.92881670903863
 20
-141.1090440185422
 30
0.0
 10
90.89712183057433
 20
-141.1090440185422
 30
0.0
 10
90.75552840613057
 20
-141.1090440185422
 30
0.0
 10
90.66664494261111
 20
-141.2382350992391
 30
0.0
 10
90.66664494261111
 20
-141.2382350992391
 30
0.0
 10
90.49094507286338
 20
-141.2192870740702
 30
0.0
 10
90.49094507286338
 20
-141.2192870740702
 30
0.0
 10
90.49094507286338
 20
-141.2192870740702
 30
0.0
 10
90.61152341484713
 20
-140.3728271133443
 30
0.0
 10
90.61152341484713
 20
-140.3728271133443
 30
0.0
 10
90.61152341484713
 20
-140.3728271133443
 30
0.0
 10
91.39011499451358
 20
-140.3728271133443
 30
0.0
 10
91.39011499451358
 20
-140.3728271133443
 30
0.0
 10
91.39011499451358
 20
-140.3728271133443
 30
0.0
 10
91.39011499451358
 20
-140.5674750082609
 30
0.0
 10
91.39011499451358
 20
-140.5674750082609
 30
0.0
 10
91.39011499451358
 20
-140.5674750082609
 30
0.0
 10
90.77447643129945
 20
-140.5674750082609
 30
0.0
 10
90.77447643129945
 20
-140.5674750082609
 30
0.0
 10
90.77447643129945
 20
-140.5674750082609
 30
0.0
 10
90.70901961707969
 20
-140.9905327338496
 30
0.0
 10
90.70901961707969
 20
-140.9905327338496
 30
0.0
 10
90.77034231671713
 20
-140.9567707980941
 30
0.0
 10
90.85268009881462
 20
-140.9164631809167
 30
0.0
 10
90.9711913835072
 20
-140.9164631809167
 30
0.0
 10
91.22509492077012
 20
-140.9164631809167
 30
0.0
 10
91.46211749015531
 20
-141.1028428466688
 30
0.0
 10
91.46211749015531
 20
-141.4160020262779
 30
0.0
 10
91.46211749015531
 20
-141.7332953204695
 30
0.0
 10
91.23784177406554
 20
-141.967906323015
 30
0.0
 10
90.93536239046061
 20
-141.967906323015
 30
0.0
  0
HATCH
  5
AF
330
A8
100
AcDbEntity
  8
_U+30EC_U+30A4_U+30E4_U+30FC 1
 62
   179
420
  2234388
100
AcDbHatch
 10
0.0
 20
0.0
 30
0.0
210
0.0
220
0.0
230
1.0
  2
SOLID
 70
     1
 71
     0
 91
        1
 92
        1
 93
        1
 72
     4
 94
        3
 73
     0
 74
     1
 95
       53
 96
       49
 40
0.0
 40
0.0
 40
0.0
 40
0.0
 40
1.0
 40
1.0
 40
1.0
 40
2.0
 40
2.0
 40
2.0
 40
3.0
 40
3.0
 40
3.0
 40
4.0
 40
4.0
 40
4.0
 40
5.0
 40
5.0
 40
5.0
 40
6.0
 40
6.0
 40
6.0
 40
7.0
 40
7.0
 40
7.0
 40
8.0
 40
8.0
 40
8.0
 40
9.0
 40
9.0
 40
9.0
 40
10.0
 40
10.0
 40
10.0
 40
11.0
 40
11.0
 40
11.0
 40
12.0
 40
12.0
 40
12.0
 40
13.0
 40
13.0
 40
13.0
 40
14.0
 40
14.0
 40
14.0
 40
15.0
 40
15.0
 40
15.0
 40
16.0
 40
16.0
 40
16.0
 40
16.0
 10
90.93536239046061
 20
-141.967906323015
 10
90.85715872294544
 20
-141.967906323015
 10
90.75552840613057
 20
-141.9510253551373
 10
90.6538980893157
 20
-141.8876355982086
 10
90.48060978640763
 20
-141.7777370522292
 10
90.45925019439908
 20
-141.6464789142412
 10
90.44030216923021
 20
-141.5386474255529
 10
90.44030216923021
 20
-141.5386474255529
 10
90.66251082802881
 20
-141.5386474255529
 10
90.66251082802881
 20
-141.5386474255529
 10
90.71728784624429
 20
-141.7374294350518
 10
90.84441186965002
 20
-141.7670572562249
 10
90.93742944775175
 20
-141.7670572562249
 10
91.07695581490438
 20
-141.7670572562249
 10
91.22922903535242
 20
-141.6674939967012
 10
91.22922903535242
 20
-141.4349500514468
 10
91.22922903535242
 20
-141.1789794568928
 10
91.04939505102237
 20
-141.1090440185422
 10
90.92881670903863
 20
-141.1090440185422
 10
90.89712183057433
 20
-141.1090440185422
 10
90.75552840613057
 20
-141.1090440185422
 10
90.66664494261111
 20
-141.2382350992391
 10
90.66664494261111
 20
-141.2382350992391
 10
90.49094507286338
 20
-141.2192870740702
 10
90.49094507286338
 20
-141.2192870740702
 10
90.49094507286338
 20
-141.2192870740702
 10
90.61152341484713
 20
-140.3728271133443
 10
90.61152341484713
 20
-140.3728271133443
 10
90.61152341484713
 20
-140.3728271133443
 10
91.39011499451358
 20
-140.3728271133443
 10
91.39011499451358
 20
-140.3728271133443
 10
91.39011499451358
 20
-140.3728271133443
 10
91.39011499451358
 20
-140.5674750082609
 10
91.39011499451358
 20
-140.5674750082609
 10
91.39011499451358
 20
-140.5674750082609
 10
90.77447643129945
 20
-140.5674750082609
 10
90.77447643129945
 20
-140.5674750082609
 10
90.77447643129945
 20
-140.5674750082609
 10
90.70901961707969
 20
-140.9905327338496
 10
90.70901961707969
 20
-140.9905327338496
 10
90.77034231671713
 20
-140.9567707980941
 10
90.85268009881462
 20
-140.9164631809167
 10
90.9711913835072
 20
-140.9164631809167
 10
91.22509492077012
 20
-140.9164631809167
 10
91.46211749015531
 20
-141.1028428466688
 10
91.46211749015531
 20
-141.4160020262779
 10
91.46211749015531
 20
-141.7332953204695
 10
91.23784177406554
 20
-141.967906323015
 10
90.93536239046061
 20
-141.967906323015
 97
        0
 97
        0
 75
     2
 76
     1
 98
        0
  0
ENDBLK
  5
AB
330
A8
100
AcDbEntity
  8
0
100
AcDbBlockEnd
  0
ENDSEC
  0
SECTION
  2
ENTITIES
  0
POLYLINE
  5
41
330
1F
100
AcDbEntity
  8
_U+30EC_U+30A4_U+30E4_U+30FC 1
370
     0
100
AcDb2dPolyline
 66
     1
 10
0.0
 20
0.0
 30
0.0
  0
VERTEX
  5
42
330
41
100
AcDbEntity
  8
_U+30EC_U+30A4_U+30E4_U+30FC 1
370
     0
100
AcDbVertex
100
AcDb2dVertex
 10
78.84135104414511
 20
-113.5129527493996
 30
0.0
  0
VERTEX
  5
43
330
41
100
AcDbEntity
  8
_U+30EC_U+30A4_U+30E4_U+30FC 1
370
     0
100
AcDbVertex
100
AcDb2dVertex
 10
77.94148551154704
 20
-113.5129527493996
 30
0.0
  0
VERTEX
  5
44
330
41
100
AcDbEntity
  8
_U+30EC_U+30A4_U+30E4_U+30FC 1
370
     0
100
AcDbVertex
100
AcDb2dVertex
 10
77.94148551154704
 20
-138.5128321875939
 30
0.0
  0
VERTEX
  5
45
330
41
100
AcDbEntity
  8
_U+30EC_U+30A4_U+30E4_U+30FC 1
370
     0
100
AcDbVertex
100
AcDb2dVertex
 10
102.9411879293071
 20
-138.5128321875939
 30
0.0
  0
VERTEX
  5
46
330
41
100
AcDbEntity
  8
_U+30EC_U+30A4_U+30E4_U+30FC 1
370
     0
100
AcDbVertex
100
AcDb2dVertex
 10
102.9411879293071
 20
-137.6129666322637
 30
0.0
  0
VERTEX
  5
47
330
41
100
AcDbEntity
  8
_U+30EC_U+30A4_U+30E4_U+30FC 1
370
     0
100
AcDbVertex
100
AcDb2dVertex
 10
78.84135104414511
 20
-137.6129666322637
 30
0.0
  0
VERTEX
  5
48
330
41
100
AcDbEntity
  8
_U+30EC_U+30A4_U+30E4_U+30FC 1
370
     0
100
AcDbVertex
100
AcDb2dVertex
 10
78.84135104414511
 20
-113.5129527493996
 30
0.0
  0
SEQEND
  5
4A
330
41
100
AcDbEntity
  8
_U+30EC_U+30A4_U+30E4_U+30FC 1
370
     0
  0
HATCH
  5
49
330
1F
100
AcDbEntity
  8
_U+30EC_U+30A4_U+30E4_U+30FC 1
 62
   253
420
 11711154
100
AcDbHatch
 10
0.0
 20
0.0
 30
0.0
210
0.0
220
0.0
230
1.0
  2
SOLID
 70
     1
 71
     0
 91
        1
 92
        1
 93
        6
 72
     1
 10
78.84135104414511
 20
-113.5129527493996
 11
77.94148551154704
 21
-113.5129527493996
 72
     1
 10
77.94148551154704
 20
-113.5129527493996
 11
77.94148551154704
 21
-138.5128321875939
 72
     1
 10
77.94148551154704
 20
-138.5128321875939
 11
102.9411879293071
 21
-138.5128321875939
 72
     1
 10
102.9411879293071
 20
-138.5128321875939
 11
102.9411879293071
 21
-137.6129666322637
 72
     1
 10
102.9411879293071
 20
-137.6129666322637
 11
78.84135104414511
 21
-137.6129666322637
 72
     1
 10
78.84135104414511
 20
-137.6129666322637
 11
78.84135104414511
 21
-113.5129527493996
 97
        0
 75
     2
 76
     1
 98
        0
  0
POLYLINE
  5
4B
330
1F
100
AcDbEntity
  8
_U+30EC_U+30A4_U+30E4_U+30FC 1
 62
   179
420
  2234388
370
    25
100
AcDb2dPolyline
 66
     1
 10
0.0
 20
0.0
 30
0.0
  0
VERTEX
  5
4C
330
4B
100
AcDbEntity
  8
_U+30EC_U+30A4_U+30E4_U+30FC 1
 62
   179
420
  2234388
370
    25
100
AcDbVertex
100
AcDb2dVertex
 10
77.94148551154704
 20
-113.5129527493996
 30
0.0
  0
VERTEX
  5
4D
330
4B
100
AcDbEntity
  8
_U+30EC_U+30A4_U+30E4_U+30FC 1
 62
   179
420
  2234388
370
    25
100
AcDbVertex
100
AcDb2dVertex
 10
77.94148551154704
 20
-138.5128321875939
 30
0.0
  0
SEQEND
  5
4E
330
4B
100
AcDbEntity
  8
_U+30EC_U+30A4_U+30E4_U+30FC 1
 62
   179
420
  2234388
370
    25
  0
POLYLINE
  5
4F
330
1F
100
AcDbEntity
  8
_U+30EC_U+30A4_U+30E4_U+30FC 1
 62
   179
420
  2234388
370
    25
100
AcDb2dPolyline
 66
     1
 10
0.0
 20
0.0
 30
0.0
  0
VERTEX
  5
50
330
4F
100
AcDbEntity
  8
_U+30EC_U+30A4_U+30E4_U+30FC 1
 62
   179
420
  2234388
370
    25
100
AcDbVertex
100
AcDb2dVertex
 10
77.94148551154704
 20
-138.5128321875939
 30
0.0
  0
VERTEX
  5
51
330
4F
100
AcDbEntity
  8
_U+30EC_U+30A4_U+30E4_U+30FC 1
 62
   179
420
  2234388
370
    25
100
AcDbVertex
100
AcDb2dVertex
 10
102.9411879293071
 20
-138.5128321875939
 30
0.0
  0
SEQEND
  5
52
330
4F
100
AcDbEntity
  8
_U+30EC_U+30A4_U+30E4_U+30FC 1
 62
   179
420
  2234388
370
    25
  0
POLYLINE
  5
53
330
1F
100
AcDbEntity
  8
_U+30EC_U+30A4_U+30E4_U+30FC 1
 62
   179
420
  2234388
370
    25
100
AcDb2dPolyline
 66
     1
 10
0.0
 20
0.0
 30
0.0
  0
VERTEX
  5
54
330
53
100
AcDbEntity
  8
_U+30EC_U+30A4_U+30E4_U+30FC 1
 62
   179
420
  2234388
370
    25
100
AcDbVertex
100
AcDb2dVertex
 10
78.84135104414511
 20
-137.6129666322637
 30
0.0
  0
VERTEX
  5
55
330
53
100
AcDbEntity
  8
_U+30EC_U+30A4_U+30E4_U+30FC 1
 62
   179
420
  2234388
370
    25
100
AcDbVertex
100
AcDb2dVertex
 10
102.9411879293071
 20
-137.6129666322637
 30
0.0
  0
SEQEND
  5
56
330
53
100
AcDbEntity
  8
_U+30EC_U+30A4_U+30E4_U+30FC 1
 62
   179
420
  2234388
370
    25
  0
POLYLINE
  5
57
330
1F
100
AcDbEntity
  8
_U+30EC_U+30A4_U+30E4_U+30FC 1
 62
   179
420
  2234388
370
    25
100
AcDb2dPolyline
 66
     1
 10
0.0
 20
0.0
 30
0.0
  0
VERTEX
  5
58
330
57
100
AcDbEntity
  8
_U+30EC_U+30A4_U+30E4_U+30FC 1
 62
   179
420
  2234388
370
    25
100
AcDbVertex
100
AcDb2dVertex
 10
78.84135104414511
 20
-113.5129527493996
 30
0.0
  0
VERTEX
  5
59
330
57
100
AcDbEntity
  8
_U+30EC_U+30A4_U+30E4_U+30FC 1
 62
   179
420
  2234388
370
    25
100
AcDbVertex
100
AcDb2dVertex
 10
78.84135104414511
 20
-137.6129666322637
 30
0.0
  0
SEQEND
  5
5A
330
57
100
AcDbEntity
  8
_U+30EC_U+30A4_U+30E4_U+30FC 1
 62
   179
420
  2234388
370
    25
  0
POLYLINE
  5
5B
330
1F
100
AcDbEntity
  8
_U+30EC_U+30A4_U+30E4_U+30FC 1
 62
   179
420
  2234388
370
    25
100
AcDb2dPolyline
 66
     1
 10
0.0
 20
0.0
 30
0.0
  0
VERTEX
  5
5C
330
5B
100
AcDbEntity
  8
_U+30EC_U+30A4_U+30E4_U+30FC 1
 62
   179
420
  2234388
370
    25
100
AcDbVertex
100
AcDb2dVertex
 10
77.94148551154704
 20
-113.5129527493996
 30
0.0
  0
VERTEX
  5
5D
330
5B
100
AcDbEntity
  8
_U+30EC_U+30A4_U+30E4_U+30FC 1
 62
   179
420
  2234388
370
    25
100
AcDbVertex
100
AcDb2dVertex
 10
78.84135104414511
 20
-113.5129527493996
 30
0.0
  0
SEQEND
  5
5E
330
5B
100
AcDbEntity
  8
_U+30EC_U+30A4_U+30E4_U+30FC 1
 62
   179
420
  2234388
370
    25
  0
POLYLINE
  5
5F
330
1F
100
AcDbEntity
  8
_U+30EC_U+30A4_U+30E4_U+30FC 1
 62
   179
420
  2234388
370
    25
100
AcDb2dPolyline
 66
     1
 10
0.0
 20
0.0
 30
0.0
  0
VERTEX
  5
60
330
5F
100
AcDbEntity
  8
_U+30EC_U+30A4_U+30E4_U+30FC 1
 62
   179
420
  2234388
370
    25
100
AcDbVertex
100
AcDb2dVertex
 10
102.9411879293071
 20
-137.6129666322637
 30
0.0
  0
VERTEX
  5
61
330
5F
100
AcDbEntity
  8
_U+30EC_U+30A4_U+30E4_U+30FC 1
 62
   179
420
  2234388
370
    25
100
AcDbVertex
100
AcDb2dVertex
 10
102.9411879293071
 20
-138.5128321875939
 30
0.0
  0
SEQEND
  5
62
330
5F
100
AcDbEntity
  8
_U+30EC_U+30A4_U+30E4_U+30FC 1
 62
   179
420
  2234388
370
    25
  0
SPLINE
  5
63
330
1F
100
AcDbEntity
  8
_U+30EC_U+30A4_U+30E4_U+30FC 1
 62
   179
420
  2234388
370
     9
100
AcDbSpline
210
0.0
220
0.0
230
1.0
 70
    11
 71
     3
 72
    17
 73
    13
 74
     0
 42
0.0000000001
 43
0.0000000001
 12
1.0
 22
0.0
 32
0.0
 13
1.0
 23
0.0
 33
0.0
 40
0.0
 40
0.0
 40
0.0
 40
0.0
 40
1.0
 40
1.0
 40
1.0
 40
2.0
 40
2.0
 40
2.0
 40
3.0
 40
3.0
 40
3.0
 40
4.0
 40
4.0
 40
4.0
 40
4.0
 10
107.0415239358099
 20
-137.6129666322637
 30
0.0
 10
107.0415239358099
 20
-137.5578274656106
 30
0.0
 10
106.996756436952
 20
-137.5130599656221
 30
0.0
 10
106.9416172716921
 20
-137.5130599656221
 30
0.0
 10
106.886513384209
 20
-137.5130599656221
 30
0.0
 10
106.8417106075742
 20
-137.5578274656106
 30
0.0
 10
106.8417106075742
 20
-137.6129666322637
 30
0.0
 10
106.8417106075742
 20
-137.6680705211386
 30
0.0
 10
106.886513384209
 20
-137.7128732989053
 30
0.0
 10
106.9416172716921
 20
-137.7128732989053
 30
0.0
 10
106.996756436952
 20
-137.7128732989053
 30
0.0
 10
107.0415239358099
 20
-137.6680705211386
 30
0.0
 10
107.0415239358099
 20
-137.6129666322637
 30
0.0
  0
SPLINE
  5
64
330
1F
100
AcDbEntity
  8
_U+30EC_U+30A4_U+30E4_U+30FC 1
 62
   179
420
  2234388
370
     9
100
AcDbSpline
210
0.0
220
0.0
230
1.0
 70
    11
 71
     3
 72
    17
 73
    13
 74
     0
 42
0.0000000001
 43
0.0000000001
 12
1.0
 22
0.0
 32
0.0
 13
1.0
 23
0.0
 33
0.0
 40
0.0
 40
0.0
 40
0.0
 40
0.0
 40
1.0
 40
1.0
 40
1.0
 40
2.0
 40
2.0
 40
2.0
 40
3.0
 40
3.0
 40
3.0
 40
4.0
 40
4.0
 40
4.0
 40
4.0
 10
107.0415239358099
 20
-138.5128321875939
 30
0.0
 10
107.0415239358099
 20
-138.4576930209409
 30
0.0
 10
106.996756436952
 20
-138.4129255209523
 30
0.0
 10
106.9416172716921
 20
-138.4129255209523
 30
0.0
 10
106.886513384209
 20
-138.4129255209523
 30
0.0
 10
106.8417106075742
 20
-138.4576930209409
 30
0.0
 10
106.8417106075742
 20
-138.5128321875939
 30
0.0
 10
106.8417106075742
 20
-138.5679360764689
 30
0.0
 10
106.886513384209
 20
-138.6127388542356
 30
0.0
 10
106.9416172716921
 20
-138.6127388542356
 30
0.0
 10
106.996756436952
 20
-138.6127388542356
 30
0.0
 10
107.0415239358099
 20
-138.5679360764689
 30
0.0
 10
107.0415239358099
 20
-138.5128321875939
 30
0.0
  0
SPLINE
  5
65
330
1F
100
AcDbEntity
  8
_U+30EC_U+30A4_U+30E4_U+30FC 1
 62
   179
420
  2234388
370
     9
100
AcDbSpline
210
0.0
220
0.0
230
1.0
 70
    11
 71
     3
 72
    17
 73
    13
 74
     0
 42
0.0000000001
 43
0.0000000001
 12
1.0
 22
0.0
 32
0.0
 13
1.0
 23
0.0
 33
0.0
 40
0.0
 40
0.0
 40
0.0
 40
0.0
 40
1.0
 40
1.0
 40
1.0
 40
2.0
 40
2.0
 40
2.0
 40
3.0
 40
3.0
 40
3.0
 40
4.0
 40
4.0
 40
4.0
 40
4.0
 10
103.0410971964616
 20
-142.5132616310382
 30
0.0
 10
103.0410971964616
 20
-142.4574521866078
 30
0.0
 10
102.9962944186956
 20
-142.4126846866192
 30
0.0
 10
102.9411879293071
 20
-142.4126846866192
 30
0.0
 10
102.8860487640471
 20
-142.4126846866192
 30
0.0
 10
102.8412812651892
 20
-142.4574521866078
 30
0.0
 10
102.8412812651892
 20
-142.5132616310382
 30
0.0
 10
102.8412812651892
 20
-142.5684007976913
 30
0.0
 10
102.8860487640471
 20
-142.6131682976798
 30
0.0
 10
102.9411879293071
 20
-142.6131682976798
 30
0.0
 10
102.9962944186956
 20
-142.6131682976798
 30
0.0
 10
103.0410971964616
 20
-142.5684007976913
 30
0.0
 10
103.0410971964616
 20
-142.5132616310382
 30
0.0
  0
SPLINE
  5
66
330
1F
100
AcDbEntity
  8
_U+30EC_U+30A4_U+30E4_U+30FC 1
 62
   179
420
  2234388
370
     9
100
AcDbSpline
210
0.0
220
0.0
230
1.0
 70
    11
 71
     3
 72
    17
 73
    13
 74
     0
 42
0.0000000001
 43
0.0000000001
 12
1.0
 22
0.0
 32
0.0
 13
1.0
 23
0.0
 33
0.0
 40
0.0
 40
0.0
 40
0.0
 40
0.0
 40
1.0
 40
1.0
 40
1.0
 40
2.0
 40
2.0
 40
2.0
 40
3.0
 40
3.0
 40
3.0
 40
4.0
 40
4.0
 40
4.0
 40
4.0
 10
78.04139217566488
 20
-142.5132616310382
 30
0.0
 10
78.04139217566488
 20
-142.4574521866078
 30
0.0
 10
77.99662467680699
 20
-142.4126846866192
 30
0.0
 10
77.94148551154704
 20
-142.4126846866192
 30
0.0
 10
77.88638162406397
 20
-142.4126846866192
 30
0.0
 10
77.8415788474292
 20
-142.4574521866078
 30
0.0
 10
77.8415788474292
 20
-142.5132616310382
 30
0.0
 10
77.8415788474292
 20
-142.5684007976913
 30
0.0
 10
77.88638162406397
 20
-142.6131682976798
 30
0.0
 10
77.94148551154704
 20
-142.6131682976798
 30
0.0
 10
77.99662467680699
 20
-142.6131682976798
 30
0.0
 10
78.04139217566488
 20
-142.5684007976913
 30
0.0
 10
78.04139217566488
 20
-142.5132616310382
 30
0.0
  0
SPLINE
  5
67
330
1F
100
AcDbEntity
  8
_U+30EC_U+30A4_U+30E4_U+30FC 1
 62
   179
420
  2234388
370
     9
100
AcDbSpline
210
0.0
220
0.0
230
1.0
 70
    11
 71
     3
 72
    17
 73
    13
 74
     0
 42
0.0000000001
 43
0.0000000001
 12
1.0
 22
0.0
 32
0.0
 13
1.0
 23
0.0
 33
0.0
 40
0.0
 40
0.0
 40
0.0
 40
0.0
 40
1.0
 40
1.0
 40
1.0
 40
2.0
 40
2.0
 40
2.0
 40
3.0
 40
3.0
 40
3.0
 40
4.0
 40
4.0
 40
4.0
 40
4.0
 10
74.04163311104057
 20
-138.5128321875939
 30
0.0
 10
74.04163311104057
 20
-138.4576930209409
 30
0.0
 10
73.99686561218269
 20
-138.4129255209523
 30
0.0
 10
73.94140894693084
 20
-138.4129255209523
 30
0.0
 10
73.88591700390211
 20
-138.4129255209523
 30
0.0
 10
73.84114950504421
 20
-138.4576930209409
 30
0.0
 10
73.84114950504421
 20
-138.5128321875939
 30
0.0
 10
73.84114950504421
 20
-138.5679360764689
 30
0.0
 10
73.88591700390211
 20
-138.6127388542356
 30
0.0
 10
73.94140894693084
 20
-138.6127388542356
 30
0.0
 10
73.99686561218269
 20
-138.6127388542356
 30
0.0
 10
74.04163311104057
 20
-138.5679360764689
 30
0.0
 10
74.04163311104057
 20
-138.5128321875939
 30
0.0
  0
SPLINE
  5
68
330
1F
100
AcDbEntity
  8
_U+30EC_U+30A4_U+30E4_U+30FC 1
 62
   179
420
  2234388
370
     9
100
AcDbSpline
210
0.0
220
0.0
230
1.0
 70
    11
 71
     3
 72
    17
 73
    13
 74
     0
 42
0.0000000001
 43
0.0000000001
 12
1.0
 22
0.0
 32
0.0
 13
1.0
 23
0.0
 33
0.0
 40
0.0
 40
0.0
 40
0.0
 40
0.0
 40
1.0
 40
1.0
 40
1.0
 40
2.0
 40
2.0
 40
2.0
 40
3.0
 40
3.0
 40
3.0
 40
4.0
 40
4.0
 40
4.0
 40
4.0
 10
74.04163311104057
 20
-113.5129527493996
 30
0.0
 10
74.04163311104057
 20
-113.4574960827466
 30
0.0
 10
73.99686561218269
 20
-113.4127285827581
 30
0.0
 10
73.94140894693084
 20
-113.4127285827581
 30
0.0
 10
73.88591700390211
 20
-113.4127285827581
 30
0.0
 10
73.84114950504421
 20
-113.4574960827466
 30
0.0
 10
73.84114950504421
 20
-113.5129527493996
 30
0.0
 10
73.84114950504421
 20
-113.5680919160524
 30
0.0
 10
73.88591700390211
 20
-113.6128594160413
 30
0.0
 10
73.94140894693084
 20
-113.6128594160413
 30
0.0
 10
73.99686561218269
 20
-113.6128594160413
 30
0.0
 10
74.04163311104057
 20
-113.5680919160524
 30
0.0
 10
74.04163311104057
 20
-113.5129527493996
 30
0.0
  0
POLYLINE
  5
69
330
1F
100
AcDbEntity
  8
_U+30EC_U+30A4_U+30E4_U+30FC 1
 62
   179
420
  2234388
370
     9
100
AcDb2dPolyline
 66
     1
 10
0.0
 20
0.0
 30
0.0
  0
VERTEX
  5
6A
330
69
100
AcDbEntity
  8
_U+30EC_U+30A4_U+30E4_U+30FC 1
 62
   179
420
  2234388
370
     9
100
AcDbVertex
100
AcDb2dVertex
 10
106.9416172716921
 20
-137.6129666322637
 30
0.0
  0
VERTEX
  5
6B
330
69
100
AcDbEntity
  8
_U+30EC_U+30A4_U+30E4_U+30FC 1
 62
   179
420
  2234388
370
     9
100
AcDbVertex
100
AcDb2dVertex
 10
106.9416172716921
 20
-139.5126044095665
 30
0.0
  0
SEQEND
  5
6C
330
69
100
AcDbEntity
  8
_U+30EC_U+30A4_U+30E4_U+30FC 1
 62
   179
420
  2234388
370
     9
  0
POLYLINE
  5
6D
330
1F
100
AcDbEntity
  8
_U+30EC_U+30A4_U+30E4_U+30FC 1
 62
   179
420
  2234388
370
     9
100
AcDb2dPolyline
 66
     1
 10
0.0
 20
0.0
 30
0.0
  0
VERTEX
  5
6E
330
6D
100
AcDbEntity
  8
_U+30EC_U+30A4_U+30E4_U+30FC 1
 62
   179
420
  2234388
370
     9
100
AcDbVertex
100
AcDb2dVertex
 10
105.4815759200519
 20
-137.6129666322637
 30
0.0
  0
VERTEX
  5
6F
330
6D
100
AcDbEntity
  8
_U+30EC_U+30A4_U+30E4_U+30FC 1
 62
   179
420
  2234388
370
     9
100
AcDbVertex
100
AcDb2dVertex
 10
107.9413894684079
 20
-137.6129666322637
 30
0.0
  0
SEQEND
  5
70
330
6D
100
AcDbEntity
  8
_U+30EC_U+30A4_U+30E4_U+30FC 1
 62
   179
420
  2234388
370
     9
  0
POLYLINE
  5
71
330
1F
100
AcDbEntity
  8
_U+30EC_U+30A4_U+30E4_U+30FC 1
 62
   179
420
  2234388
370
     9
100
AcDb2dPolyline
 66
     1
 10
0.0
 20
0.0
 30
0.0
  0
VERTEX
  5
72
330
71
100
AcDbEntity
  8
_U+30EC_U+30A4_U+30E4_U+30FC 1
 62
   179
420
  2234388
370
     9
100
AcDbVertex
100
AcDb2dVertex
 10
105.4815759200519
 20
-138.5128321875939
 30
0.0
  0
VERTEX
  5
73
330
71
100
AcDbEntity
  8
_U+30EC_U+30A4_U+30E4_U+30FC 1
 62
   179
420
  2234388
370
     9
100
AcDbVertex
100
AcDb2dVertex
 10
107.9413894684079
 20
-138.5128321875939
 30
0.0
  0
SEQEND
  5
74
330
71
100
AcDbEntity
  8
_U+30EC_U+30A4_U+30E4_U+30FC 1
 62
   179
420
  2234388
370
     9
  0
INSERT
  5
76
330
1F
100
AcDbEntity
  8
_U+30EC_U+30A4_U+30E4_U+30FC 1
100
AcDbBlockReference
  2
block 2
 10
0.0
 20
0.0
 30
0.0
  0
POLYLINE
  5
88
330
1F
100
AcDbEntity
  8
_U+30EC_U+30A4_U+30E4_U+30FC 1
 62
   179
420
  2234388
370
     9
100
AcDb2dPolyline
 66
     1
 10
0.0
 20
0.0
 30
0.0
  0
VERTEX
  5
89
330
88
100
AcDbEntity
  8
_U+30EC_U+30A4_U+30E4_U+30FC 1
 62
   179
420
  2234388
370
     9
100
AcDbVertex
100
AcDb2dVertex
 10
73.94140894693084
 20
-113.5129527493996
 30
0.0
  0
VERTEX
  5
8A
330
88
100
AcDbEntity
  8
_U+30EC_U+30A4_U+30E4_U+30FC 1
 62
   179
420
  2234388
370
     9
100
AcDbVertex
100
AcDb2dVertex
 10
73.94140894693084
 20
-138.5128321875939
 30
0.0
  0
SEQEND
  5
8B
330
88
100
AcDbEntity
  8
_U+30EC_U+30A4_U+30E4_U+30FC 1
 62
   179
420
  2234388
370
     9
  0
POLYLINE
  5
8C
330
1F
100
AcDbEntity
  8
_U+30EC_U+30A4_U+30E4_U+30FC 1
 62
   179
420
  2234388
370
     9
100
AcDb2dPolyline
 66
     1
 10
0.0
 20
0.0
 30
0.0
  0
VERTEX
  5
8D
330
8C
100
AcDbEntity
  8
_U+30EC_U+30A4_U+30E4_U+30FC 1
 62
   179
420
  2234388
370
     9
100
AcDbVertex
100
AcDb2dVertex
 10
75.40176779856286
 20
-113.5129527493996
 30
0.0
  0
VERTEX
  5
8E
330
8C
100
AcDbEntity
  8
_U+30EC_U+30A4_U+30E4_U+30FC 1
 62
   179
420
  2234388
370
     9
100
AcDbVertex
100
AcDb2dVertex
 10
72.94128397244614
 20
-113.5129527493996
 30
0.0
  0
SEQEND
  5
8F
330
8C
100
AcDbEntity
  8
_U+30EC_U+30A4_U+30E4_U+30FC 1
 62
   179
420
  2234388
370
     9
  0
POLYLINE
  5
90
330
1F
100
AcDbEntity
  8
_U+30EC_U+30A4_U+30E4_U+30FC 1
 62
   179
420
  2234388
370
     9
100
AcDb2dPolyline
 66
     1
 10
0.0
 20
0.0
 30
0.0
  0
VERTEX
  5
91
330
90
100
AcDbEntity
  8
_U+30EC_U+30A4_U+30E4_U+30FC 1
 62
   179
420
  2234388
370
     9
100
AcDbVertex
100
AcDb2dVertex
 10
75.40176779856286
 20
-138.5128321875939
 30
0.0
  0
VERTEX
  5
92
330
90
100
AcDbEntity
  8
_U+30EC_U+30A4_U+30E4_U+30FC 1
 62
   179
420
  2234388
370
     9
100
AcDbVertex
100
AcDb2dVertex
 10
72.94128397244614
 20
-138.5128321875939
 30
0.0
  0
SEQEND
  5
93
330
90
100
AcDbEntity
  8
_U+30EC_U+30A4_U+30E4_U+30FC 1
 62
   179
420
  2234388
370
     9
  0
INSERT
  5
95
330
1F
100
AcDbEntity
  8
_U+30EC_U+30A4_U+30E4_U+30FC 1
100
AcDbBlockReference
  2
block 3
 10
0.0
 20
0.0
 30
0.0
  0
POLYLINE
  5
9C
330
1F
100
AcDbEntity
  8
_U+30EC_U+30A4_U+30E4_U+30FC 1
 62
   179
420
  2234388
370
     9
100
AcDb2dPolyline
 66
     1
 10
0.0
 20
0.0
 30
0.0
  0
VERTEX
  5
9D
330
9C
100
AcDbEntity
  8
_U+30EC_U+30A4_U+30E4_U+30FC 1
 62
   179
420
  2234388
370
     9
100
AcDbVertex
100
AcDb2dVertex
 10
77.94148551154704
 20
-142.5132616310382
 30
0.0
  0
VERTEX
  5
9E
330
9C
100
AcDbEntity
  8
_U+30EC_U+30A4_U+30E4_U+30FC 1
 62
   179
420
  2234388
370
     9
100
AcDbVertex
100
AcDb2dVertex
 10
102.9411879293071
 20
-142.5132616310382
 30
0.0
  0
SEQEND
  5
9F
330
9C
100
AcDbEntity
  8
_U+30EC_U+30A4_U+30E4_U+30FC 1
 62
   179
420
  2234388
370
     9
  0
POLYLINE
  5
A0
330
1F
100
AcDbEntity
  8
_U+30EC_U+30A4_U+30E4_U+30FC 1
 62
   179
420
  2234388
370
     9
100
AcDb2dPolyline
 66
     1
 10
0.0
 20
0.0
 30
0.0
  0
VERTEX
  5
A1
330
A0
100
AcDbEntity
  8
_U+30EC_U+30A4_U+30E4_U+30FC 1
 62
   179
420
  2234388
370
     9
100
AcDbVertex
100
AcDb2dVertex
 10
77.94148551154704
 20
-141.0532202425145
 30
0.0
  0
VERTEX
  5
A2
330
A0
100
AcDbEntity
  8
_U+30EC_U+30A4_U+30E4_U+30FC 1
 62
   179
420
  2234388
370
     9
100
AcDbVertex
100
AcDb2dVertex
 10
77.94148551154704
 20
-143.5130338530107
 30
0.0
  0
SEQEND
  5
A3
330
A0
100
AcDbEntity
  8
_U+30EC_U+30A4_U+30E4_U+30FC 1
 62
   179
420
  2234388
370
     9
  0
POLYLINE
  5
A4
330
1F
100
AcDbEntity
  8
_U+30EC_U+30A4_U+30E4_U+30FC 1
 62
   179
420
  2234388
370
     9
100
AcDb2dPolyline
 66
     1
 10
0.0
 20
0.0
 30
0.0
  0
VERTEX
  5
A5
330
A4
100
AcDbEntity
  8
_U+30EC_U+30A4_U+30E4_U+30FC 1
 62
   179
420
  2234388
370
     9
100
AcDbVertex
100
AcDb2dVertex
 10
102.9411879293071
 20
-141.0532202425145
 30
0.0
  0
VERTEX
  5
A6
330
A4
100
AcDbEntity
  8
_U+30EC_U+30A4_U+30E4_U+30FC 1
 62
   179
420
  2234388
370
     9
100
AcDbVertex
100
AcDb2dVertex
 10
102.9411879293071
 20
-143.5130338530107
 30
0.0
  0
SEQEND
  5
A7
330
A4
100
AcDbEntity
  8
_U+30EC_U+30A4_U+30E4_U+30FC 1
 62
   179
420
  2234388
370
     9
  0
INSERT
  5
A9
330
1F
100
AcDbEntity
  8
_U+30EC_U+30A4_U+30E4_U+30FC 1
100
AcDbBlockReference
  2
block 4
 10
0.0
 20
0.0
 30
0.0
  0
ENDSEC
  0
SECTION
  2
OBJECTS
  0
DICTIONARY
  5
C
330
0
100
AcDbDictionary
281
     1
  3
ACAD_GROUP
350
D
  3
ACAD_LAYOUT
350
1A
  3
ACAD_MATERIAL
350
3B
  3
ACAD_MLEADERSTYLE
350
B1
  3
ACAD_MLINESTYLE
350
17
  3
ACAD_PLOTSETTINGS
350
19
  3
ACAD_PLOTSTYLENAME
350
E
  3
ACAD_TABLESTYLE
350
B0
  3
ACAD_VISUALSTYLE
350
2A
  0
SUN
  5
3F
330
29
100
AcDbSun
 90
        1
290
     0
 63
     7
421
 16777215
 40
1.0
291
     1
 91
  2455826
 92
 54000000
292
     0
 70
     2
 71
   256
280
     1
  0
DICTIONARY
  5
D
102
{ACAD_REACTORS
330
C
102
}
330
C
100
AcDbDictionary
281
     1
  0
DICTIONARY
  5
1A
102
{ACAD_REACTORS
330
C
102
}
330
C
100
AcDbDictionary
281
     1
  3
Layout1
350
1E
  3
Layout2
350
26
  3
Model
350
22
  0
DICTIONARY
  5
3B
102
{ACAD_REACTORS
330
C
102
}
330
C
100
AcDbDictionary
281
     1
  3
ByBlock
350
3D
  3
ByLayer
350
3C
  3
Global
350
3E
  0
DICTIONARY
  5
B1
102
{ACAD_REACTORS
330
C
102
}
330
C
100
AcDbDictionary
281
     1
  0
DICTIONARY
  5
17
102
{ACAD_REACTORS
330
C
102
}
330
C
100
AcDbDictionary
281
     1
  3
Standard
350
18
  0
DICTIONARY
  5
19
102
{ACAD_REACTORS
330
C
102
}
330
C
100
AcDbDictionary
281
     1
  0
ACDBDICTIONARYWDFLT
  5
E
102
{ACAD_REACTORS
330
C
102
}
330
C
100
AcDbDictionary
281
     1
  3
Normal
350
F
100
AcDbDictionaryWithDefault
340
F
  0
DICTIONARY
  5
B0
102
{ACAD_REACTORS
330
C
102
}
330
C
100
AcDbDictionary
281
     1
  0
DICTIONARY
  5
2A
102
{ACAD_REACTORS
330
C
102
}
330
C
100
AcDbDictionary
281
     1
  3
2dWireframe
350
2F
  3
3D Hidden
350
31
  3
3dWireframe
350
30
  3
Basic
350
32
  3
Brighten
350
36
  3
ColorChange
350
3A
  3
Conceptual
350
34
  3
Dim
350
35
  3
Facepattern
350
39
  3
Flat
350
2B
  3
FlatWithEdges
350
2C
  3
Gouraud
350
2D
  3
GouraudWithEdges
350
2E
  3
Linepattern
350
38
  3
Realistic
350
33
  3
Thicken
350
37
  0
LAYOUT
  5
1E
102
{ACAD_REACTORS
330
1A
102
}
330
1A
100
AcDbPlotSettings
  1

  2
none_device
  4

  6

 40
0.0
 41
0.0
 42
0.0
 43
0.0
 44
0.0
 45
0.0
 46
0.0
 47
0.0
 48
0.0
 49
0.0
140
0.0
141
0.0
142
1.0
143
1.0
 70
   688
 72
     0
 73
     0
 74
     5
  7

 75
    16
 76
     0
 77
     2
 78
   300
147
1.0
148
0.0
149
0.0
100
AcDbLayout
  1
Layout1
 70
     1
 71
     1
 10
0.0
 20
0.0
 11
12.0
 21
9.0
 12
0.0
 22
0.0
 32
0.0
 14
1.000000000000000E+20
 24
1.000000000000000E+20
 34
1.000000000000000E+20
 15
-1.000000000000000E+20
 25
-1.000000000000000E+20
 35
-1.000000000000000E+20
146
0.0
 13
0.0
 23
0.0
 33
0.0
 16
1.0
 26
0.0
 36
0.0
 17
0.0
 27
1.0
 37
0.0
 76
     0
330
1B
  0
LAYOUT
  5
26
102
{ACAD_REACTORS
330
1A
102
}
330
1A
100
AcDbPlotSettings
  1

  2
none_device
  4

  6

 40
0.0
 41
0.0
 42
0.0
 43
0.0
 44
0.0
 45
0.0
 46
0.0
 47
0.0
 48
0.0
 49
0.0
140
0.0
141
0.0
142
1.0
143
1.0
 70
   688
 72
     0
 73
     0
 74
     5
  7

 75
    16
 76
     0
 77
     2
 78
   300
147
1.0
148
0.0
149
0.0
100
AcDbLayout
  1
Layout2
 70
     1
 71
     2
 10
0.0
 20
0.0
 11
0.0
 21
0.0
 12
0.0
 22
0.0
 32
0.0
 14
0.0
 24
0.0
 34
0.0
 15
0.0
 25
0.0
 35
0.0
146
0.0
 13
0.0
 23
0.0
 33
0.0
 16
1.0
 26
0.0
 36
0.0
 17
0.0
 27
1.0
 37
0.0
 76
     0
330
23
  0
LAYOUT
  5
22
102
{ACAD_REACTORS
330
1A
102
}
330
1A
100
AcDbPlotSettings
  1

  2
none_device
  4

  6

 40
0.0
 41
0.0
 42
0.0
 43
0.0
 44
0.0
 45
0.0
 46
0.0
 47
0.0
 48
0.0
 49
0.0
140
0.0
141
0.0
142
1.0
143
1.0
 70
  1712
 72
     0
 73
     0
 74
     0
  7

 75
     0
 76
     0
 77
     2
 78
   300
147
1.0
148
0.0
149
0.0
100
AcDbLayout
  1
Model
 70
     1
 71
     0
 10
0.0
 20
0.0
 11
12.0
 21
9.0
 12
0.0
 22
0.0
 32
0.0
 14
1.000000000000000E+20
 24
1.000000000000000E+20
 34
1.000000000000000E+20
 15
-1.000000000000000E+20
 25
-1.000000000000000E+20
 35
-1.000000000000000E+20
146
0.0
 13
0.0
 23
0.0
 33
0.0
 16
1.0
 26
0.0
 36
0.0
 17
0.0
 27
1.0
 37
0.0
 76
     0
330
1F
331
29
  0
MATERIAL
  5
3D
102
{ACAD_REACTORS
330
3B
102
}
330
3B
100
AcDbMaterial
  1
ByBlock
 72
     1
 94
      127
  0
MATERIAL
  5
3C
102
{ACAD_REACTORS
330
3B
102
}
330
3B
100
AcDbMaterial
  1
ByLayer
 72
     1
 94
      127
  0
MATERIAL
  5
3E
102
{ACAD_REACTORS
330
3B
102
}
330
3B
100
AcDbMaterial
  1
Global
 72
     1
 94
      127
  0
MLINESTYLE
  5
18
102
{ACAD_REACTORS
330
17
102
}
330
17
100
AcDbMlineStyle
  2
Standard
 70
     0
  3

 62
   256
 51
90.0
 52
90.0
 71
     2
 49
0.5
 62
   256
  6
BYLAYER
 49
-0.5
 62
   256
  6
BYLAYER
  0
ACDBPLACEHOLDER
  5
F
102
{ACAD_REACTORS
330
E
102
}
330
E
  0
VISUALSTYLE
  5
2F
102
{ACAD_REACTORS
330
2A
102
}
330
2A
100
AcDbVisualStyle
  2
2dWireframe
 70
     4
177
     2
291
     0
 71
     0
176
     1
 72
     2
176
     1
 73
     0
176
     1
 90
        0
176
     1
 40
-0.6
176
     1
 41
-30.0
176
     1
 62
     5
 63
     7
421
 16777215
176
     1
 74
     1
176
     1
 91
        4
176
     1
 64
     7
176
     1
 65
   257
176
     1
 75
     1
176
     1
175
     1
176
     1
 42
1.0
176
     1
 92
        0
176
     1
 66
   257
176
     1
 43
1.0
176
     1
 76
     1
176
     1
 77
     6
176
     1
 78
     2
176
     1
 67
     7
176
     1
 79
     5
176
     1
170
     0
176
     1
171
     0
176
     1
290
     0
176
     1
 93
        1
176
     1
 44
0.0
176
     1
173
     0
176
     1
  0
VISUALSTYLE
  5
31
102
{ACAD_REACTORS
330
2A
102
}
330
2A
100
AcDbVisualStyle
  2
3D Hidden
 70
     6
177
     2
291
     0
 71
     1
176
     1
 72
     2
176
     1
 73
     2
176
     1
 90
        0
176
     1
 40
-0.6
176
     1
 41
-30.0
176
     1
 62
     5
 63
     7
421
 16777215
176
     1
 74
     2
176
     1
 91
        2
176
     1
 64
     7
176
     1
 65
   257
176
     1
 75
     2
176
     1
175
     1
176
     1
 42
40.0
176
     1
 92
        0
176
     1
 66
   257
176
     1
 43
1.0
176
     1
 76
     1
176
     1
 77
     6
176
     1
 78
     2
176
     1
 67
     7
176
     1
 79
     3
176
     1
170
     0
176
     1
171
     0
176
     1
290
     0
176
     1
 93
        1
176
     1
 44
0.0
176
     1
173
     0
176
     1
  0
VISUALSTYLE
  5
30
102
{ACAD_REACTORS
330
2A
102
}
330
2A
100
AcDbVisualStyle
  2
3dWireframe
 70
     5
177
     2
291
     0
 71
     0
176
     1
 72
     2
176
     1
 73
     0
176
     1
 90
        0
176
     1
 40
-0.6
176
     1
 41
-30.0
176
     1
 62
     5
 63
     7
421
 16777215
176
     1
 74
     1
176
     1
 91
        4
176
     1
 64
     7
176
     1
 65
   257
176
     1
 75
     1
176
     1
175
     1
176
     1
 42
1.0
176
     1
 92
        0
176
     1
 66
   257
176
     1
 43
1.0
176
     1
 76
     1
176
     1
 77
     6
176
     1
 78
     2
176
     1
 67
     7
176
     1
 79
     5
176
     1
170
     0
176
     1
171
     0
176
     1
290
     0
176
     1
 93
        1
176
     1
 44
0.0
176
     1
173
     0
176
     1
  0
VISUALSTYLE
  5
32
102
{ACAD_REACTORS
330
2A
102
}
330
2A
100
AcDbVisualStyle
  2
Basic
 70
     7
177
     2
291
     1
 71
     1
176
     1
 72
     0
176
     1
 73
     1
176
     1
 90
        0
176
     1
 40
-0.6
176
     1
 41
-30.0
176
     1
 62
     5
 63
     7
421
 16777215
176
     1
 74
     0
176
     1
 91
        4
176
     1
 64
     7
176
     1
 65
   257
176
     1
 75
     1
176
     1
175
     1
176
     1
 42
1.0
176
     1
 92
        8
176
     1
 66
     7
176
     1
 43
1.0
176
     1
 76
     1
176
     1
 77
     6
176
     1
 78
     2
176
     1
 67
     7
176
     1
 79
     5
176
     1
170
     0
176
     1
171
     0
176
     1
290
     0
176
     1
 93
        1
176
     1
 44
0.0
176
     1
173
     0
176
     1
  0
VISUALSTYLE
  5
36
102
{ACAD_REACTORS
330
2A
102
}
330
2A
100
AcDbVisualStyle
  2
Brighten
 70
    12
177
     2
291
     1
 71
     2
176
     1
 72
     2
176
     1
 73
     0
176
     1
 90
        0
176
     1
 40
-0.6
176
     1
 41
-30.0
176
     1
 62
     5
 63
     7
421
 16777215
176
     1
 74
     1
176
     1
 91
        4
176
     1
 64
     7
176
     1
 65
   257
176
     1
 75
     1
176
     1
175
     1
176
     1
 42
1.0
176
     1
 92
        8
176
     1
 66
     7
176
     1
 43
1.0
176
     1
 76
     1
176
     1
 77
     6
176
     1
 78
     2
176
     1
 67
     7
176
     1
 79
     5
176
     1
170
     0
176
     1
171
     0
176
     1
290
     0
176
     1
 93
        1
176
     1
 44
50.0
176
     1
173
     0
176
     1
  0
VISUALSTYLE
  5
3A
102
{ACAD_REACTORS
330
2A
102
}
330
2A
100
AcDbVisualStyle
  2
ColorChange
 70
    16
177
     2
291
     1
 71
     2
176
     1
 72
     2
176
     1
 73
     3
176
     1
 90
        0
176
     1
 40
-0.6
176
     1
 41
-30.0
176
     1
 62
     5
 63
     8
421
  8421504
176
     1
 74
     1
176
     1
 91
        4
176
     1
 64
     7
176
     1
 65
   257
176
     1
 75
     1
176
     1
175
     1
176
     1
 42
1.0
176
     1
 92
        8
176
     1
 66
     8
424
  8421504
176
     1
 43
1.0
176
     1
 76
     1
176
     1
 77
     6
176
     1
 78
     2
176
     1
 67
     7
176
     1
 79
     5
176
     1
170
     0
176
     1
171
     0
176
     1
290
     0
176
     1
 93
        1
176
     1
 44
0.0
176
     1
173
     0
176
     1
  0
VISUALSTYLE
  5
34
102
{ACAD_REACTORS
330
2A
102
}
330
2A
100
AcDbVisualStyle
  2
Conceptual
 70
     9
177
     2
291
     0
 71
     3
176
     1
 72
     2
176
     1
 73
     0
176
     1
 90
        0
176
     1
 40
-0.6
176
     1
 41
-30.0
176
     1
 62
     5
 63
     7
421
 16777215
176
     1
 74
     2
176
     1
 91
        2
176
     1
 64
     7
176
     1
 65
   257
176
     1
 75
     1
176
     1
175
     1
176
     1
 42
40.0
176
     1
 92
        8
176
     1
 66
     7
176
     1
 43
1.0
176
     1
 76
     1
176
     1
 77
     6
176
     1
 78
     2
176
     1
 67
     7
176
     1
 79
     3
176
     1
170
     0
176
     1
171
     0
176
     1
290
     0
176
     1
 93
        1
176
     1
 44
0.0
176
     1
173
     0
176
     1
  0
VISUALSTYLE
  5
35
102
{ACAD_REACTORS
330
2A
102
}
330
2A
100
AcDbVisualStyle
  2
Dim
 70
    11
177
     2
291
     1
 71
     2
176
     1
 72
     2
176
     1
 73
     0
176
     1
 90
        0
176
     1
 40
-0.6
176
     1
 41
-30.0
176
     1
 62
     5
 63
     7
421
 16777215
176
     1
 74
     1
176
     1
 91
        4
176
     1
 64
     7
176
     1
 65
   257
176
     1
 75
     1
176
     1
175
     1
176
     1
 42
1.0
176
     1
 92
        8
176
     1
 66
     7
176
     1
 43
1.0
176
     1
 76
     1
176
     1
 77
     6
176
     1
 78
     2
176
     1
 67
     7
176
     1
 79
     5
176
     1
170
     0
176
     1
171
     0
176
     1
290
     0
176
     1
 93
        1
176
     1
 44
-50.0
176
     1
173
     0
176
     1
  0
VISUALSTYLE
  5
39
102
{ACAD_REACTORS
330
2A
102
}
330
2A
100
AcDbVisualStyle
  2
Facepattern
 70
    15
177
     2
291
     1
 71
     2
176
     1
 72
     2
176
     1
 73
     0
176
     1
 90
        0
176
     1
 40
-0.6
176
     1
 41
-30.0
176
     1
 62
     5
 63
     7
421
 16777215
176
     1
 74
     1
176
     1
 91
        4
176
     1
 64
     7
176
     1
 65
   257
176
     1
 75
     1
176
     1
175
     1
176
     1
 42
1.0
176
     1
 92
        8
176
     1
 66
     7
176
     1
 43
1.0
176
     1
 76
     1
176
     1
 77
     6
176
     1
 78
     2
176
     1
 67
     7
176
     1
 79
     5
176
     1
170
     0
176
     1
171
     0
176
     1
290
     0
176
     1
 93
        1
176
     1
 44
0.0
176
     1
173
     0
176
     1
  0
VISUALSTYLE
  5
2B
102
{ACAD_REACTORS
330
2A
102
}
330
2A
100
AcDbVisualStyle
  2
Flat
 70
     0
177
     2
291
     1
 71
     2
176
     1
 72
     1
176
     1
 73
     1
176
     1
 90
        2
176
     1
 40
-0.6
176
     1
 41
30.0
176
     1
 62
     5
 63
     7
421
 16777215
176
     1
 74
     0
176
     1
 91
        4
176
     1
 64
     7
176
     1
 65
   257
176
     1
 75
     1
176
     1
175
     1
176
     1
 42
1.0
176
     1
 92
        8
176
     1
 66
     7
176
     1
 43
1.0
176
     1
 76
     1
176
     1
 77
     6
176
     1
 78
     2
176
     1
 67
     7
176
     1
 79
     5
176
     1
170
     0
176
     1
171
     0
176
     1
290
     0
176
     1
 93
       13
176
     1
 44
0.0
176
     1
173
     0
176
     1
  0
VISUALSTYLE
  5
2C
102
{ACAD_REACTORS
330
2A
102
}
330
2A
100
AcDbVisualStyle
  2
FlatWithEdges
 70
     1
177
     2
291
     1
 71
     2
176
     1
 72
     1
176
     1
 73
     1
176
     1
 90
        2
176
     1
 40
-0.6
176
     1
 41
30.0
176
     1
 62
     5
 63
     7
421
 16777215
176
     1
 74
     1
176
     1
 91
        4
176
     1
 64
     7
176
     1
 65
   257
176
     1
 75
     1
176
     1
175
     1
176
     1
 42
1.0
176
     1
 92
        0
176
     1
 66
   257
176
     1
 43
1.0
176
     1
 76
     1
176
     1
 77
     6
176
     1
 78
     2
176
     1
 67
     7
176
     1
 79
     5
176
     1
170
     0
176
     1
171
     0
176
     1
290
     0
176
     1
 93
       13
176
     1
 44
0.0
176
     1
173
     0
176
     1
  0
VISUALSTYLE
  5
2D
102
{ACAD_REACTORS
330
2A
102
}
330
2A
100
AcDbVisualStyle
  2
Gouraud
 70
     2
177
     2
291
     1
 71
     2
176
     1
 72
     2
176
     1
 73
     1
176
     1
 90
        2
176
     1
 40
-0.6
176
     1
 41
30.0
176
     1
 62
     5
 63
     7
421
 16777215
176
     1
 74
     0
176
     1
 91
        4
176
     1
 64
     7
176
     1
 65
   257
176
     1
 75
     1
176
     1
175
     1
176
     1
 42
1.0
176
     1
 92
        0
176
     1
 66
     7
176
     1
 43
1.0
176
     1
 76
     1
176
     1
 77
     6
176
     1
 78
     2
176
     1
 67
     7
176
     1
 79
     5
176
     1
170
     0
176
     1
171
     0
176
     1
290
     0
176
     1
 93
       13
176
     1
 44
0.0
176
     1
173
     0
176
     1
  0
VISUALSTYLE
  5
2E
102
{ACAD_REACTORS
330
2A
102
}
330
2A
100
AcDbVisualStyle
  2
GouraudWithEdges
 70
     3
177
     2
291
     1
 71
     2
176
     1
 72
     2
176
     1
 73
     1
176
     1
 90
        2
176
     1
 40
-0.6
176
     1
 41
30.0
176
     1
 62
     5
 63
     7
421
 16777215
176
     1
 74
     1
176
     1
 91
        4
176
     1
 64
     7
176
     1
 65
   257
176
     1
 75
     1
176
     1
175
     1
176
     1
 42
1.0
176
     1
 92
        0
176
     1
 66
   257
176
     1
 43
1.0
176
     1
 76
     1
176
     1
 77
     6
176
     1
 78
     2
176
     1
 67
     7
176
     1
 79
     5
176
     1
170
     0
176
     1
171
     0
176
     1
290
     0
176
     1
 93
       13
176
     1
 44
0.0
176
     1
173
     0
176
     1
  0
VISUALSTYLE
  5
38
102
{ACAD_REACTORS
330
2A
102
}
330
2A
100
AcDbVisualStyle
  2
Linepattern
 70
    14
177
     2
291
     1
 71
     2
176
     1
 72
     2
176
     1
 73
     0
176
     1
 90
        0
176
     1
 40
-0.6
176
     1
 41
-30.0
176
     1
 62
     5
 63
     7
421
 16777215
176
     1
 74
     1
176
     1
 91
        4
176
     1
 64
     7
176
     1
 65
   257
176
     1
 75
     7
176
     1
175
     7
176
     1
 42
1.0
176
     1
 92
        8
176
     1
 66
     7
176
     1
 43
1.0
176
     1
 76
     1
176
     1
 77
     6
176
     1
 78
     2
176
     1
 67
     7
176
     1
 79
     5
176
     1
170
     0
176
     1
171
     0
176
     1
290
     0
176
     1
 93
        1
176
     1
 44
0.0
176
     1
173
     0
176
     1
  0
VISUALSTYLE
  5
33
102
{ACAD_REACTORS
330
2A
102
}
330
2A
100
AcDbVisualStyle
  2
Realistic
 70
     8
177
     2
291
     0
 71
     2
176
     1
 72
     2
176
     1
 73
     0
176
     1
 90
        0
176
     1
 40
-0.6
176
     1
 41
-30.0
176
     1
 62
     5
 63
     7
421
 16777215
176
     1
 74
     1
176
     1
 91
        0
176
     1
 64
     7
176
     1
 65
   257
176
     1
 75
     1
176
     1
175
     1
176
     1
 42
1.0
176
     1
 92
        8
176
     1
 66
     8
424
  7895160
176
     1
 43
1.0
176
     1
 76
     1
176
     1
 77
     6
176
     1
 78
     2
176
     1
 67
     7
176
     1
 79
     5
176
     1
170
     0
176
     1
171
     0
176
     1
290
     0
176
     1
 93
       13
176
     1
 44
0.0
176
     1
173
     0
176
     1
  0
VISUALSTYLE
  5
37
102
{ACAD_REACTORS
330
2A
102
}
330
2A
100
AcDbVisualStyle
  2
Thicken
 70
    13
177
     2
291
     1
 71
     2
176
     1
 72
     2
176
     1
 73
     0
176
     1
 90
        0
176
     1
 40
-0.6
176
     1
 41
-30.0
176
     1
 62
     5
 63
     7
421
 16777215
176
     1
 74
     1
176
     1
 91
        4
176
     1
 64
     7
176
     1
 65
   257
176
     1
 75
     1
176
     1
175
     1
176
     1
 42
1.0
176
     1
 92
       12
176
     1
 66
     7
176
     1
 43
1.0
176
     1
 76
     1
176
     1
 77
     6
176
     1
 78
     2
176
     1
 67
     7
176
     1
 79
     5
176
     1
170
     0
176
     1
171
     0
176
     1
290
     0
176
     1
 93
        1
176
     1
 44
0.0
176
     1
173
     0
176
     1
  0
ENDSEC
  0
EOF
