  0
SECTION
  2
HEADER
  9
$ACADVER
  1
AC1024
  9
$ACADMAINTVER
 70
     6
  9
$DWGCODEPAGE
  3
UNDEFINED
  9
$INSBASE
 10
0.0
 20
0.0
 30
0.0
  9
$EXTMIN
 10
1.000000000000000E+20
 20
1.000000000000000E+20
 30
1.000000000000000E+20
  9
$EXTMAX
 10
-1.000000000000000E+20
 20
-1.000000000000000E+20
 30
-1.000000000000000E+20
  9
$LIMMIN
 10
0.0
 20
0.0
  9
$LIMMAX
 10
12.0
 20
9.0
  9
$ORTHOMODE
 70
     0
  9
$REGENMODE
 70
     1
  9
$FILLMODE
 70
     1
  9
$QTEXTMODE
 70
     0
  9
$MIRRTEXT
 70
     1
  9
$LTSCALE
 40
1.0
  9
$ATTMODE
 70
     1
  9
$TEXTSIZE
 40
0.2
  9
$TRACEWID
 40
0.05
  9
$TEXTSTYLE
  7
Standard
  9
$CLAYER
  8
0
  9
$CELTYPE
  6
ByLayer
  9
$CECOLOR
 62
   256
  9
$CELTSCALE
 40
1.0
  9
$DISPSILH
 70
     0
  9
$DIMSCALE
 40
1.0
  9
$DIMASZ
 40
0.18
  9
$DIMEXO
 40
0.0625
  9
$DIMDLI
 40
0.38
  9
$DIMRND
 40
0.0
  9
$DIMDLE
 40
0.0
  9
$DIMEXE
 40
0.18
  9
$DIMTP
 40
0.0
  9
$DIMTM
 40
0.0
  9
$DIMTXT
 40
0.18
  9
$DIMCEN
 40
0.09
  9
$DIMTSZ
 40
0.0
  9
$DIMTOL
 70
     0
  9
$DIMLIM
 70
     0
  9
$DIMTIH
 70
     1
  9
$DIMTOH
 70
     1
  9
$DIMSE1
 70
     0
  9
$DIMSE2
 70
     0
  9
$DIMTAD
 70
     0
  9
$DIMZIN
 70
     0
  9
$DIMBLK
  1

  9
$DIMASO
 70
     1
  9
$DIMSHO
 70
     1
  9
$DIMPOST
  1

  9
$DIMAPOST
  1

  9
$DIMALT
 70
     0
  9
$DIMALTD
 70
     2
  9
$DIMALTF
 40
25.4
  9
$DIMLFAC
 40
1.0
  9
$DIMTOFL
 70
     0
  9
$DIMTVP
 40
0.0
  9
$DIMTIX
 70
     0
  9
$DIMSOXD
 70
     0
  9
$DIMSAH
 70
     0
  9
$DIMBLK1
  1

  9
$DIMBLK2
  1

  9
$DIMSTYLE
  2
Standard
  9
$DIMCLRD
 70
     0
  9
$DIMCLRE
 70
     0
  9
$DIMCLRT
 70
     0
  9
$DIMTFAC
 40
1.0
  9
$DIMGAP
 40
0.09
  9
$DIMJUST
 70
     0
  9
$DIMSD1
 70
     0
  9
$DIMSD2
 70
     0
  9
$DIMTOLJ
 70
     1
  9
$DIMTZIN
 70
     0
  9
$DIMALTZ
 70
     0
  9
$DIMALTTZ
 70
     0
  9
$DIMUPT
 70
     0
  9
$DIMDEC
 70
     4
  9
$DIMTDEC
 70
     4
  9
$DIMALTU
 70
     2
  9
$DIMALTTD
 70
     2
  9
$DIMTXSTY
  7
Standard
  9
$DIMAUNIT
 70
     0
  9
$DIMADEC
 70
     0
  9
$DIMALTRND
 40
0.0
  9
$DIMAZIN
 70
     0
  9
$DIMDSEP
 70
    46
  9
$DIMATFIT
 70
     3
  9
$DIMFRAC
 70
     0
  9
$DIMLDRBLK
  1

  9
$DIMLUNIT
 70
     2
  9
$DIMLWD
 70
    -2
  9
$DIMLWE
 70
    -2
  9
$DIMTMOVE
 70
     0
  9
$DIMFXL
 40
1.0
  9
$DIMFXLON
 70
     0
  9
$DIMJOGANG
 40
0.7853981633974483
  9
$DIMTFILL
 70
     0
  9
$DIMTFILLCLR
 70
     0
  9
$DIMARCSYM
 70
     0
  9
$DIMLTYPE
  6

  9
$DIMLTEX1
  6

  9
$DIMLTEX2
  6

  9
$DIMTXTDIRECTION
 70
     0
  9
$LUNITS
 70
     2
  9
$LUPREC
 70
     4
  9
$SKETCHINC
 40
0.1
  9
$FILLETRAD
 40
0.5
  9
$AUNITS
 70
     0
  9
$AUPREC
 70
     0
  9
$MENU
  1
.
  9
$ELEVATION
 40
0.0
  9
$PELEVATION
 40
0.0
  9
$THICKNESS
 40
0.0
  9
$LIMCHECK
 70
     0
  9
$CHAMFERA
 40
0.5
  9
$CHAMFERB
 40
0.5
  9
$CHAMFERC
 40
1.0
  9
$CHAMFERD
 40
0.0
  9
$SKPOLY
 70
     0
  9
$TDCREATE
 40
2457917.620752315
  9
$TDUCREATE
 40
2457917.245752315
  9
$TDUPDATE
 40
2457917.620752315
  9
$TDUUPDATE
 40
2457917.245752315
  9
$TDINDWG
 40
0.0000000116
  9
$TDUSRTIMER
 40
0.0000000116
  9
$USRTIMER
 70
     1
  9
$ANGBASE
 50
0.0
  9
$ANGDIR
 70
     0
  9
$PDMODE
 70
     0
  9
$PDSIZE
 40
0.0
  9
$PLINEWID
 40
0.0
  9
$SPLFRAME
 70
     0
  9
$SPLINETYPE
 70
     6
  9
$SPLINESEGS
 70
     8
  9
$HANDSEED
  5
FE
  9
$SURFTAB1
 70
     6
  9
$SURFTAB2
 70
     6
  9
$SURFTYPE
 70
     6
  9
$SURFU
 70
     6
  9
$SURFV
 70
     6
  9
$UCSBASE
  2

  9
$UCSNAME
  2

  9
$UCSORG
 10
0.0
 20
0.0
 30
0.0
  9
$UCSXDIR
 10
1.0
 20
0.0
 30
0.0
  9
$UCSYDIR
 10
0.0
 20
1.0
 30
0.0
  9
$UCSORTHOREF
  2

  9
$UCSORTHOVIEW
 70
     0
  9
$UCSORGTOP
 10
0.0
 20
0.0
 30
0.0
  9
$UCSORGBOTTOM
 10
0.0
 20
0.0
 30
0.0
  9
$UCSORGLEFT
 10
0.0
 20
0.0
 30
0.0
  9
$UCSORGRIGHT
 10
0.0
 20
0.0
 30
0.0
  9
$UCSORGFRONT
 10
0.0
 20
0.0
 30
0.0
  9
$UCSORGBACK
 10
0.0
 20
0.0
 30
0.0
  9
$PUCSBASE
  2

  9
$PUCSNAME
  2

  9
$PUCSORG
 10
0.0
 20
0.0
 30
0.0
  9
$PUCSXDIR
 10
1.0
 20
0.0
 30
0.0
  9
$PUCSYDIR
 10
0.0
 20
1.0
 30
0.0
  9
$PUCSORTHOREF
  2

  9
$PUCSORTHOVIEW
 70
     0
  9
$PUCSORGTOP
 10
0.0
 20
0.0
 30
0.0
  9
$PUCSORGBOTTOM
 10
0.0
 20
0.0
 30
0.0
  9
$PUCSORGLEFT
 10
0.0
 20
0.0
 30
0.0
  9
$PUCSORGRIGHT
 10
0.0
 20
0.0
 30
0.0
  9
$PUCSORGFRONT
 10
0.0
 20
0.0
 30
0.0
  9
$PUCSORGBACK
 10
0.0
 20
0.0
 30
0.0
  9
$USERI1
 70
     0
  9
$USERI2
 70
     0
  9
$USERI3
 70
     0
  9
$USERI4
 70
     0
  9
$USERI5
 70
     0
  9
$USERR1
 40
0.0
  9
$USERR2
 40
0.0
  9
$USERR3
 40
0.0
  9
$USERR4
 40
0.0
  9
$USERR5
 40
0.0
  9
$WORLDVIEW
 70
     1
  9
$SHADEDGE
 70
     3
  9
$SHADEDIF
 70
    70
  9
$TILEMODE
 70
     1
  9
$MAXACTVP
 70
    64
  9
$PINSBASE
 10
0.0
 20
0.0
 30
0.0
  9
$PLIMCHECK
 70
     0
  9
$PEXTMIN
 10
1.000000000000000E+20
 20
1.000000000000000E+20
 30
1.000000000000000E+20
  9
$PEXTMAX
 10
-1.000000000000000E+20
 20
-1.000000000000000E+20
 30
-1.000000000000000E+20
  9
$PLIMMIN
 10
0.0
 20
0.0
  9
$PLIMMAX
 10
12.0
 20
9.0
  9
$UNITMODE
 70
     0
  9
$VISRETAIN
 70
     1
  9
$PLINEGEN
 70
     0
  9
$PSLTSCALE
 70
     1
  9
$TREEDEPTH
 70
  3020
  9
$CMLSTYLE
  2
Standard
  9
$CMLJUST
 70
     0
  9
$CMLSCALE
 40
1.0
  9
$PROXYGRAPHICS
 70
     1
  9
$MEASUREMENT
 70
     0
  9
$CELWEIGHT
370
    -1
  9
$ENDCAPS
280
     0
  9
$JOINSTYLE
280
     0
  9
$LWDISPLAY
290
     1
  9
$INSUNITS
 70
     1
  9
$HYPERLINKBASE
  1

  9
$STYLESHEET
  1

  9
$XEDIT
290
     1
  9
$CEPSNTYPE
380
     0
  9
$PSTYLEMODE
290
     1
  9
$FINGERPRINTGUID
  2
{14453C97-8CA6-8806-6B35-1CD6E2B5499C}
  9
$VERSIONGUID
  2
{FAEB1C32-E019-11D5-929B-00C0DF256EC4}
  9
$EXTNAMES
290
     1
  9
$PSVPSCALE
 40
0.0
  9
$OLESTARTUP
290
     0
  9
$SORTENTS
280
   127
  9
$INDEXCTL
280
     0
  9
$HIDETEXT
280
     1
  9
$XCLIPFRAME
280
     2
  9
$HALOGAP
280
     0
  9
$OBSCOLOR
 70
   257
  9
$OBSLTYPE
280
     0
  9
$INTERSECTIONDISPLAY
280
     0
  9
$INTERSECTIONCOLOR
 70
   257
  9
$DIMASSOC
280
     2
  9
$PROJECTNAME
  1

  9
$CAMERADISPLAY
290
     0
  9
$LENSLENGTH
 40
50.0
  9
$CAMERAHEIGHT
 40
0.0
  9
$STEPSPERSEC
 40
2.0
  9
$STEPSIZE
 40
6.0
  9
$3DDWFPREC
 40
2.0
  9
$PSOLWIDTH
 40
0.25
  9
$PSOLHEIGHT
 40
4.0
  9
$LOFTANG1
 40
1.570796326794897
  9
$LOFTANG2
 40
1.570796326794897
  9
$LOFTMAG1
 40
0.0
  9
$LOFTMAG2
 40
0.0
  9
$LOFTPARAM
 70
     7
  9
$LOFTNORMALS
280
     1
  9
$LATITUDE
 40
37.795
  9
$LONGITUDE
 40
-122.394
  9
$NORTHDIRECTION
 40
0.0
  9
$TIMEZONE
 70
 -8000
  9
$LIGHTGLYPHDISPLAY
280
     1
  9
$TILEMODELIGHTSYNCH
280
     1
  9
$CMATERIAL
347
3C
  9
$SOLIDHIST
280
     1
  9
$SHOWHIST
280
     1
  9
$DWFFRAME
280
     2
  9
$DGNFRAME
280
     2
  9
$REALWORLDSCALE
290
     1
  9
$INTERFERECOLOR
 62
   256
  9
$CSHADOW
280
     0
  9
$SHADOWPLANELOCATION
 40
0.0
  0
ENDSEC
  0
SECTION
  2
CLASSES
  0
CLASS
  1
ACDBDICTIONARYWDFLT
  2
AcDbDictionaryWithDefault
  3
ObjectDBX Classes
 90
        0
 91
        4
280
     0
281
     0
  0
CLASS
  1
VISUALSTYLE
  2
AcDbVisualStyle
  3
ObjectDBX Classes
 90
     4095
 91
        4
280
     0
281
     0
  0
CLASS
  1
MATERIAL
  2
AcDbMaterial
  3
ObjectDBX Classes
 90
     1153
 91
        4
280
     0
281
     0
  0
CLASS
  1
SUN
  2
AcDbSun
  3
SCENEOE
 90
     1024
 91
        4
280
     0
281
     0
  0
ENDSEC
  0
SECTION
  2
TABLES
  0
TABLE
  2
VPORT
  5
8
330
0
100
AcDbSymbolTable
 70
     1
  0
VPORT
  5
29
330
8
100
AcDbSymbolTableRecord
100
AcDbViewportTableRecord
  2
*Active
 70
     0
 10
0.0
 20
0.0
 11
1.0
 21
1.0
 12
0.0
 22
0.0
 13
0.0
 23
0.0
 14
0.5
 24
0.5
 15
0.5
 25
0.5
 16
0.0
 26
0.0
 36
1.0
 17
91.00082462281999
 27
-128.4993055234307
 37
0.0
 40
256.9986110468615
 41
0.7081814508812795
 42
50.0
 43
0.0
 44
0.0
 50
0.0
 51
0.0
 71
     0
 72
   100
 73
     1
 74
     3
 75
     0
 76
     0
 77
     0
 78
     0
281
     0
 65
     1
110
0.0
120
0.0
130
0.0
111
1.0
121
0.0
131
0.0
112
0.0
122
1.0
132
0.0
 79
     0
146
0.0
 60
     3
 61
     5
292
     1
282
     1
141
0.0
142
0.0
 63
   250
361
3F
  0
ENDTAB
  0
TABLE
  2
LTYPE
  5
5
330
0
100
AcDbSymbolTable
 70
     3
  0
LTYPE
  5
14
330
5
100
AcDbSymbolTableRecord
100
AcDbLinetypeTableRecord
  2
ByBlock
 70
     0
  3

 72
    65
 73
     0
 40
0.0
  0
LTYPE
  5
15
330
5
100
AcDbSymbolTableRecord
100
AcDbLinetypeTableRecord
  2
ByLayer
 70
     0
  3

 72
    65
 73
     0
 40
0.0
  0
LTYPE
  5
16
330
5
100
AcDbSymbolTableRecord
100
AcDbLinetypeTableRecord
  2
Continuous
 70
     0
  3
Solid line
 72
    65
 73
     0
 40
0.0
  0
LTYPE
  5
B5
330
5
100
AcDbSymbolTableRecord
100
AcDbLinetypeTableRecord
  2
AI-Linetype-1
 70
     0
  3
Adobe Illustrator Linetype No. 1
 72
    65
 73
     2
 40
1.411111110758333
 49
0.7055555553791667
 74
     0
 49
-0.7055555553791667
 74
     0
  0
LTYPE
  5
BA
330
5
100
AcDbSymbolTableRecord
100
AcDbLinetypeTableRecord
  2
AI-Linetype-2
 70
     0
  3
Adobe Illustrator Linetype No. 2
 72
    65
 73
     2
 40
1.411111110758333
 49
0.7055555553791667
 74
     0
 49
-0.7055555553791667
 74
     0
  0
ENDTAB
  0
TABLE
  2
LAYER
  5
2
330
0
100
AcDbSymbolTable
 70
     2
  0
LAYER
  5
10
330
2
100
AcDbSymbolTableRecord
100
AcDbLayerTableRecord
  2
0
 70
     0
 62
     7
  6
Continuous
370
    -3
390
F
347
3E
  0
LAYER
  5
40
330
2
100
AcDbSymbolTableRecord
100
AcDbLayerTableRecord
  2
_U+30EC_U+30A4_U+30E4_U+30FC 1
 70
     0
 62
     7
  6
Continuous
370
    -3
390
F
347
3E
  0
ENDTAB
  0
TABLE
  2
STYLE
  5
3
330
0
100
AcDbSymbolTable
 70
     1
  0
STYLE
  5
11
330
3
100
AcDbSymbolTableRecord
100
AcDbTextStyleTableRecord
  2
Standard
 70
     0
 40
0.0
 41
1.0
 50
0.0
 71
     0
 42
0.2
  3
txt
  4

  0
ENDTAB
  0
TABLE
  2
VIEW
  5
6
330
0
100
AcDbSymbolTable
 70
     0
  0
ENDTAB
  0
TABLE
  2
UCS
  5
7
330
0
100
AcDbSymbolTable
 70
     0
  0
ENDTAB
  0
TABLE
  2
APPID
  5
9
330
0
100
AcDbSymbolTable
 70
     1
  0
APPID
  5
12
330
9
100
AcDbSymbolTableRecord
100
AcDbRegAppTableRecord
  2
ACAD
 70
     0
  0
ENDTAB
  0
TABLE
  2
DIMSTYLE
  5
A
330
0
100
AcDbSymbolTable
 70
     1
100
AcDbDimStyleTable
  0
DIMSTYLE
105
27
330
A
100
AcDbSymbolTableRecord
100
AcDbDimStyleTableRecord
  2
Standard
 70
     0
178
     0
340
11
  0
ENDTAB
  0
TABLE
  2
BLOCK_RECORD
  5
1
330
0
100
AcDbSymbolTable
 70
     5
  0
BLOCK_RECORD
  5
1F
330
1
100
AcDbSymbolTableRecord
100
AcDbBlockTableRecord
  2
*Model_Space
340
22
 70
     0
280
     1
281
     0
  0
BLOCK_RECORD
  5
1B
330
1
100
AcDbSymbolTableRecord
100
AcDbBlockTableRecord
  2
*Paper_Space
340
1E
 70
     0
280
     1
281
     0
  0
BLOCK_RECORD
  5
23
330
1
100
AcDbSymbolTableRecord
100
AcDbBlockTableRecord
  2
*Paper_Space0
340
26
 70
     0
280
     1
281
     0
  0
BLOCK_RECORD
  5
75
330
1
100
AcDbSymbolTableRecord
100
AcDbBlockTableRecord
  2
block 2
340
0
102
{BLKREFS
331
76
102
}
 70
     0
280
     1
281
     0
  0
BLOCK_RECORD
  5
94
330
1
100
AcDbSymbolTableRecord
100
AcDbBlockTableRecord
  2
block 3
340
0
102
{BLKREFS
331
95
102
}
 70
     0
280
     1
281
     0
  0
BLOCK_RECORD
  5
A9
330
1
100
AcDbSymbolTableRecord
100
AcDbBlockTableRecord
  2
block 4
340
0
102
{BLKREFS
331
AA
102
}
 70
     0
280
     1
281
     0
  0
BLOCK_RECORD
  5
D4
330
1
100
AcDbSymbolTableRecord
100
AcDbBlockTableRecord
  2
block 5
340
0
102
{BLKREFS
331
D5
102
}
 70
     0
280
     1
281
     0
  0
ENDTAB
  0
ENDSEC
  0
SECTION
  2
BLOCKS
  0
BLOCK
  5
20
330
1F
100
AcDbEntity
  8
0
100
AcDbBlockBegin
  2
*Model_Space
 70
     0
 10
0.0
 20
0.0
 30
0.0
  3
*Model_Space
  1

  0
ENDBLK
  5
21
330
1F
100
AcDbEntity
  8
0
100
AcDbBlockEnd
  0
BLOCK
  5
1C
330
1B
100
AcDbEntity
 67
     1
  8
0
100
AcDbBlockBegin
  2
*Paper_Space
 70
     0
 10
0.0
 20
0.0
 30
0.0
  3
*Paper_Space
  1

  0
ENDBLK
  5
1D
330
1B
100
AcDbEntity
 67
     1
  8
0
100
AcDbBlockEnd
  0
BLOCK
  5
24
330
23
100
AcDbEntity
  8
0
100
AcDbBlockBegin
  2
*Paper_Space0
 70
     0
 10
0.0
 20
0.0
 30
0.0
  3
*Paper_Space0
  1

  0
ENDBLK
  5
25
330
23
100
AcDbEntity
  8
0
100
AcDbBlockEnd
  0
BLOCK
  5
77
330
75
100
AcDbEntity
  8
0
100
AcDbBlockBegin
  2
block 2
 70
     0
 10
0.0
 20
0.0
 30
0.0
  3
block 2
  1

  0
SPLINE
  5
79
330
75
100
AcDbEntity
  8
_U+30EC_U+30A4_U+30E4_U+30FC 1
370
     0
100
AcDbSpline
210
0.0
220
0.0
230
1.0
 70
    11
 71
     3
 72
    29
 73
    25
 74
     0
 42
0.0000000001
 43
0.0000000001
 12
1.0
 22
0.0
 32
0.0
 13
1.0
 23
0.0
 33
0.0
 40
0.0
 40
0.0
 40
0.0
 40
0.0
 40
1.0
 40
1.0
 40
1.0
 40
2.0
 40
2.0
 40
2.0
 40
3.0
 40
3.0
 40
3.0
 40
4.0
 40
4.0
 40
4.0
 40
5.0
 40
5.0
 40
5.0
 40
6.0
 40
6.0
 40
6.0
 40
7.0
 40
7.0
 40
7.0
 40
8.0
 40
8.0
 40
8.0
 40
8.0
 10
107.0391167267125
 20
-135.8066975571942
 30
0.0
 10
107.2485785322156
 20
-135.914873555431
 30
0.0
 10
107.267182047836
 20
-136.0881618583391
 30
0.0
 10
107.267182047836
 20
-136.2046060857405
 30
0.0
 10
107.267182047836
 20
-136.3654920449017
 30
0.0
 10
107.2210177683336
 20
-136.5070854693455
 30
0.0
 10
107.0391167267125
 20
-136.6021701047383
 30
0.0
 10
106.8441243222473
 20
-136.7058674788444
 30
0.0
 10
106.6071017528621
 20
-136.7251600135618
 30
0.0
 10
106.4444932459583
 20
-136.7251600135618
 30
0.0
 10
106.3004882546749
 20
-136.7251600135618
 30
0.0
 10
106.0489962842516
 20
-136.7079345361355
 30
0.0
 10
105.8498697652042
 20
-136.6021701047383
 30
0.0
 10
105.6472981506715
 20
-136.49433861605
 30
0.0
 10
105.6238715013718
 20
-136.3334526568889
 30
0.0
 10
105.6238715013718
 20
-136.2046060857405
 30
0.0
 10
105.6238715013718
 20
-136.0457871838705
 30
0.0
 10
105.667968723583
 20
-135.9021267021356
 30
0.0
 10
105.8498697652042
 20
-135.8066975571942
 30
0.0
 10
106.0427951123782
 20
-135.707478807219
 30
0.0
 10
106.2708604335017
 20
-135.6840521579193
 30
0.0
 10
106.4444932459583
 20
-135.6840521579193
 30
0.0
 10
106.6160590011238
 20
-135.6840521579193
 30
0.0
 10
106.8461913795385
 20
-135.7054117499278
 30
0.0
 10
107.0391167267125
 20
-135.8066975571942
 30
0.0
  0
SPLINE
  5
7A
330
75
100
AcDbEntity
  8
_U+30EC_U+30A4_U+30E4_U+30FC 1
370
     0
100
AcDbSpline
210
0.0
220
0.0
230
1.0
 70
    11
 71
     3
 72
    17
 73
    13
 74
     0
 42
0.0000000001
 43
0.0000000001
 12
1.0
 22
0.0
 32
0.0
 13
1.0
 23
0.0
 33
0.0
 40
0.0
 40
0.0
 40
0.0
 40
0.0
 40
1.0
 40
1.0
 40
1.0
 40
2.0
 40
2.0
 40
2.0
 40
3.0
 40
3.0
 40
3.0
 40
4.0
 40
4.0
 40
4.0
 40
4.0
 10
105.8161078294488
 20
-136.2046060857405
 30
0.0
 10
105.8161078294488
 20
-136.4543755084211
 30
0.0
 10
106.0999836974333
 20
-136.500884297472
 30
0.0
 10
106.4444932459583
 20
-136.500884297472
 30
0.0
 10
106.7641981069895
 20
-136.500884297472
 30
0.0
 10
107.0728786624679
 20
-136.4647107948769
 30
0.0
 10
107.0728786624679
 20
-136.2046060857405
 30
0.0
 10
107.0728786624679
 20
-135.9569037203511
 30
0.0
 10
106.7917588708715
 20
-135.908327874009
 30
0.0
 10
106.4444932459583
 20
-135.908327874009
 30
0.0
 10
106.1247883849271
 20
-135.908327874009
 30
0.0
 10
105.8161078294488
 20
-135.9465684338953
 30
0.0
 10
105.8161078294488
 20
-136.2046060857405
 30
0.0
  0
HATCH
  5
7B
330
75
100
AcDbEntity
  8
_U+30EC_U+30A4_U+30E4_U+30FC 1
 62
   179
420
  2234388
100
AcDbHatch
 10
0.0
 20
0.0
 30
0.0
210
0.0
220
0.0
230
1.0
  2
SOLID
 70
     1
 71
     0
 91
        2
 92
        1
 93
        1
 72
     4
 94
        3
 73
     0
 74
     1
 95
       29
 96
       25
 40
0.0
 40
0.0
 40
0.0
 40
0.0
 40
1.0
 40
1.0
 40
1.0
 40
2.0
 40
2.0
 40
2.0
 40
3.0
 40
3.0
 40
3.0
 40
4.0
 40
4.0
 40
4.0
 40
5.0
 40
5.0
 40
5.0
 40
6.0
 40
6.0
 40
6.0
 40
7.0
 40
7.0
 40
7.0
 40
8.0
 40
8.0
 40
8.0
 40
8.0
 10
107.0391167267125
 20
-135.8066975571942
 10
107.2485785322156
 20
-135.914873555431
 10
107.267182047836
 20
-136.0881618583391
 10
107.267182047836
 20
-136.2046060857405
 10
107.267182047836
 20
-136.3654920449017
 10
107.2210177683336
 20
-136.5070854693455
 10
107.0391167267125
 20
-136.6021701047383
 10
106.8441243222473
 20
-136.7058674788444
 10
106.6071017528621
 20
-136.7251600135618
 10
106.4444932459583
 20
-136.7251600135618
 10
106.3004882546749
 20
-136.7251600135618
 10
106.0489962842516
 20
-136.7079345361355
 10
105.8498697652042
 20
-136.6021701047383
 10
105.6472981506715
 20
-136.49433861605
 10
105.6238715013718
 20
-136.3334526568889
 10
105.6238715013718
 20
-136.2046060857405
 10
105.6238715013718
 20
-136.0457871838705
 10
105.667968723583
 20
-135.9021267021356
 10
105.8498697652042
 20
-135.8066975571942
 10
106.0427951123782
 20
-135.707478807219
 10
106.2708604335017
 20
-135.6840521579193
 10
106.4444932459583
 20
-135.6840521579193
 10
106.6160590011238
 20
-135.6840521579193
 10
106.8461913795385
 20
-135.7054117499278
 10
107.0391167267125
 20
-135.8066975571942
 97
        0
 97
        0
 92
        1
 93
        1
 72
     4
 94
        3
 73
     0
 74
     1
 95
       17
 96
       13
 40
0.0
 40
0.0
 40
0.0
 40
0.0
 40
1.0
 40
1.0
 40
1.0
 40
2.0
 40
2.0
 40
2.0
 40
3.0
 40
3.0
 40
3.0
 40
4.0
 40
4.0
 40
4.0
 40
4.0
 10
105.8161078294488
 20
-136.2046060857405
 10
105.8161078294488
 20
-136.4543755084211
 10
106.0999836974333
 20
-136.500884297472
 10
106.4444932459583
 20
-136.500884297472
 10
106.7641981069895
 20
-136.500884297472
 10
107.0728786624679
 20
-136.4647107948769
 10
107.0728786624679
 20
-136.2046060857405
 10
107.0728786624679
 20
-135.9569037203511
 10
106.7917588708715
 20
-135.908327874009
 10
106.4444932459583
 20
-135.908327874009
 10
106.1247883849271
 20
-135.908327874009
 10
105.8161078294488
 20
-135.9465684338953
 10
105.8161078294488
 20
-136.2046060857405
 97
        0
 97
        0
 75
     2
 76
     1
 98
        0
  0
POLYLINE
  5
7C
330
75
100
AcDbEntity
  8
_U+30EC_U+30A4_U+30E4_U+30FC 1
370
     0
100
AcDb2dPolyline
 66
     1
 10
0.0
 20
0.0
 30
0.0
  0
VERTEX
  5
7D
330
7C
100
AcDbEntity
  8
_U+30EC_U+30A4_U+30E4_U+30FC 1
370
     0
100
AcDbVertex
100
AcDb2dVertex
 10
107.2168836537513
 20
-135.4677001614456
 30
0.0
  0
VERTEX
  5
7E
330
7C
100
AcDbEntity
  8
_U+30EC_U+30A4_U+30E4_U+30FC 1
370
     0
100
AcDbVertex
100
AcDb2dVertex
 10
106.9647026642311
 20
-135.4677001614456
 30
0.0
  0
VERTEX
  5
7F
330
7C
100
AcDbEntity
  8
_U+30EC_U+30A4_U+30E4_U+30FC 1
370
     0
100
AcDbVertex
100
AcDb2dVertex
 10
106.9647026642311
 20
-135.2158636814738
 30
0.0
  0
VERTEX
  5
80
330
7C
100
AcDbEntity
  8
_U+30EC_U+30A4_U+30E4_U+30FC 1
370
     0
100
AcDbVertex
100
AcDb2dVertex
 10
107.2168836537513
 20
-135.2158636814738
 30
0.0
  0
VERTEX
  5
81
330
7C
100
AcDbEntity
  8
_U+30EC_U+30A4_U+30E4_U+30FC 1
370
     0
100
AcDbVertex
100
AcDb2dVertex
 10
107.2168836537513
 20
-135.4677001614456
 30
0.0
  0
SEQEND
  5
82
330
7C
100
AcDbEntity
  8
_U+30EC_U+30A4_U+30E4_U+30FC 1
370
     0
  0
HATCH
  5
83
330
75
100
AcDbEntity
  8
_U+30EC_U+30A4_U+30E4_U+30FC 1
 62
   179
420
  2234388
100
AcDbHatch
 10
0.0
 20
0.0
 30
0.0
210
0.0
220
0.0
230
1.0
  2
SOLID
 70
     1
 71
     0
 91
        1
 92
        1
 93
        4
 72
     1
 10
107.2168836537513
 20
-135.4677001614456
 11
106.9647026642311
 21
-135.4677001614456
 72
     1
 10
106.9647026642311
 20
-135.4677001614456
 11
106.9647026642311
 21
-135.2158636814738
 72
     1
 10
106.9647026642311
 20
-135.2158636814738
 11
107.2168836537513
 21
-135.2158636814738
 72
     1
 10
107.2168836537513
 20
-135.2158636814738
 11
107.2168836537513
 21
-135.4677001614456
 97
        0
 75
     2
 76
     1
 98
        0
  0
SPLINE
  5
84
330
75
100
AcDbEntity
  8
_U+30EC_U+30A4_U+30E4_U+30FC 1
370
     0
100
AcDbSpline
210
0.0
220
0.0
230
1.0
 70
    11
 71
     3
 72
    29
 73
    25
 74
     0
 42
0.0000000001
 43
0.0000000001
 12
1.0
 22
0.0
 32
0.0
 13
1.0
 23
0.0
 33
0.0
 40
0.0
 40
0.0
 40
0.0
 40
0.0
 40
1.0
 40
1.0
 40
1.0
 40
2.0
 40
2.0
 40
2.0
 40
3.0
 40
3.0
 40
3.0
 40
4.0
 40
4.0
 40
4.0
 40
5.0
 40
5.0
 40
5.0
 40
6.0
 40
6.0
 40
6.0
 40
7.0
 40
7.0
 40
7.0
 40
8.0
 40
8.0
 40
8.0
 40
8.0
 10
107.267182047836
 20
-134.4796467762759
 30
0.0
 10
107.267182047836
 20
-134.7462971668343
 30
0.0
 10
107.130067247523
 20
-134.9998561945486
 30
0.0
 10
106.7807345653187
 20
-134.9998561945486
 30
0.0
 10
106.5251084803132
 20
-134.9998561945486
 30
0.0
 10
106.4300238449203
 20
-134.8582627701049
 30
0.0
 10
106.3687011452828
 20
-134.7524983387077
 30
0.0
 10
106.3094455029365
 20
-134.8772107952738
 30
0.0
 10
106.1950683328262
 20
-134.9533474054978
 30
0.0
 10
106.0338378641165
 20
-134.9533474054978
 30
0.0
 10
105.7589192443936
 20
-134.9533474054978
 30
0.0
 10
105.6238715013718
 20
-134.7545653959989
 30
0.0
 10
105.6238715013718
 20
-134.4796467762759
 30
0.0
 10
105.6238715013718
 20
-134.1961154178399
 30
0.0
 10
105.7678764926553
 20
-134.0056016375055
 30
0.0
 10
106.0338378641165
 20
-134.0056016375055
 30
0.0
 10
106.1950683328262
 20
-134.0056016375055
 30
0.0
 10
106.3094455029365
 20
-134.0841498145693
 30
0.0
 10
106.3687011452828
 20
-134.2088622711353
 30
0.0
 10
106.4189995393675
 20
-134.1199788076158
 30
0.0
 10
106.5140841747604
 20
-133.9611599057458
 30
0.0
 10
106.7766004507364
 20
-133.9611599057458
 30
0.0
 10
107.1514268395316
 20
-133.9611599057458
 30
0.0
 10
107.267182047836
 20
-134.2405571495996
 30
0.0
 10
107.267182047836
 20
-134.4796467762759
 30
0.0
  0
SPLINE
  5
85
330
75
100
AcDbEntity
  8
_U+30EC_U+30A4_U+30E4_U+30FC 1
370
     0
100
AcDbSpline
210
0.0
220
0.0
230
1.0
 70
    11
 71
     3
 72
    17
 73
    13
 74
     0
 42
0.0000000001
 43
0.0000000001
 12
1.0
 22
0.0
 32
0.0
 13
1.0
 23
0.0
 33
0.0
 40
0.0
 40
0.0
 40
0.0
 40
0.0
 40
1.0
 40
1.0
 40
1.0
 40
2.0
 40
2.0
 40
2.0
 40
3.0
 40
3.0
 40
3.0
 40
4.0
 40
4.0
 40
4.0
 40
4.0
 10
105.8161078294488
 20
-134.4796467762759
 30
0.0
 10
105.8161078294488
 20
-134.6446668500194
 30
0.0
 10
105.9111924648416
 20
-134.729071689408
 30
0.0
 10
106.0469292269605
 20
-134.729071689408
 30
0.0
 10
106.1695746262354
 20
-134.729071689408
 30
0.0
 10
106.288085910928
 20
-134.6574137033148
 30
0.0
 10
106.288085910928
 20
-134.4796467762759
 30
0.0
 10
106.288085910928
 20
-134.301879849237
 30
0.0
 10
106.1695746262354
 20
-134.2298773535953
 30
0.0
 10
106.0469292269605
 20
-134.2298773535953
 30
0.0
 10
105.9111924648416
 20
-134.2298773535953
 30
0.0
 10
105.8161078294488
 20
-134.3166937598236
 30
0.0
 10
105.8161078294488
 20
-134.4796467762759
 30
0.0
  0
SPLINE
  5
86
330
75
100
AcDbEntity
  8
_U+30EC_U+30A4_U+30E4_U+30FC 1
370
     0
100
AcDbSpline
210
0.0
220
0.0
230
1.0
 70
    11
 71
     3
 72
    17
 73
    13
 74
     0
 42
0.0000000001
 43
0.0000000001
 12
1.0
 22
0.0
 32
0.0
 13
1.0
 23
0.0
 33
0.0
 40
0.0
 40
0.0
 40
0.0
 40
0.0
 40
1.0
 40
1.0
 40
1.0
 40
2.0
 40
2.0
 40
2.0
 40
3.0
 40
3.0
 40
3.0
 40
4.0
 40
4.0
 40
4.0
 40
4.0
 10
106.4761881244226
 20
-134.4796467762759
 30
0.0
 10
106.4761881244226
 20
-134.6233072580108
 30
0.0
 10
106.5630045306509
 20
-134.7759249880074
 30
0.0
 10
106.7662651642807
 20
-134.7759249880074
 30
0.0
 10
106.9715928552015
 20
-134.7759249880074
 30
0.0
 10
107.0728786624679
 20
-134.6488009646017
 30
0.0
 10
107.0728786624679
 20
-134.4796467762759
 30
0.0
 10
107.0728786624679
 20
-134.2936116200724
 30
0.0
 10
106.950233263193
 20
-134.1833685645445
 30
0.0
 10
106.7724663361541
 20
-134.1833685645445
 30
0.0
 10
106.550602186904
 20
-134.1833685645445
 30
0.0
 10
106.4761881244226
 20
-134.3463215809968
 30
0.0
 10
106.4761881244226
 20
-134.4796467762759
 30
0.0
  0
HATCH
  5
87
330
75
100
AcDbEntity
  8
_U+30EC_U+30A4_U+30E4_U+30FC 1
 62
   179
420
  2234388
100
AcDbHatch
 10
0.0
 20
0.0
 30
0.0
210
0.0
220
0.0
230
1.0
  2
SOLID
 70
     1
 71
     0
 91
        3
 92
        1
 93
        1
 72
     4
 94
        3
 73
     0
 74
     1
 95
       29
 96
       25
 40
0.0
 40
0.0
 40
0.0
 40
0.0
 40
1.0
 40
1.0
 40
1.0
 40
2.0
 40
2.0
 40
2.0
 40
3.0
 40
3.0
 40
3.0
 40
4.0
 40
4.0
 40
4.0
 40
5.0
 40
5.0
 40
5.0
 40
6.0
 40
6.0
 40
6.0
 40
7.0
 40
7.0
 40
7.0
 40
8.0
 40
8.0
 40
8.0
 40
8.0
 10
107.267182047836
 20
-134.4796467762759
 10
107.267182047836
 20
-134.7462971668343
 10
107.130067247523
 20
-134.9998561945486
 10
106.7807345653187
 20
-134.9998561945486
 10
106.5251084803132
 20
-134.9998561945486
 10
106.4300238449203
 20
-134.8582627701049
 10
106.3687011452828
 20
-134.7524983387077
 10
106.3094455029365
 20
-134.8772107952738
 10
106.1950683328262
 20
-134.9533474054978
 10
106.0338378641165
 20
-134.9533474054978
 10
105.7589192443936
 20
-134.9533474054978
 10
105.6238715013718
 20
-134.7545653959989
 10
105.6238715013718
 20
-134.4796467762759
 10
105.6238715013718
 20
-134.1961154178399
 10
105.7678764926553
 20
-134.0056016375055
 10
106.0338378641165
 20
-134.0056016375055
 10
106.1950683328262
 20
-134.0056016375055
 10
106.3094455029365
 20
-134.0841498145693
 10
106.3687011452828
 20
-134.2088622711353
 10
106.4189995393675
 20
-134.1199788076158
 10
106.5140841747604
 20
-133.9611599057458
 10
106.7766004507364
 20
-133.9611599057458
 10
107.1514268395316
 20
-133.9611599057458
 10
107.267182047836
 20
-134.2405571495996
 10
107.267182047836
 20
-134.4796467762759
 97
        0
 97
        0
 92
        1
 93
        1
 72
     4
 94
        3
 73
     0
 74
     1
 95
       17
 96
       13
 40
0.0
 40
0.0
 40
0.0
 40
0.0
 40
1.0
 40
1.0
 40
1.0
 40
2.0
 40
2.0
 40
2.0
 40
3.0
 40
3.0
 40
3.0
 40
4.0
 40
4.0
 40
4.0
 40
4.0
 10
105.8161078294488
 20
-134.4796467762759
 10
105.8161078294488
 20
-134.6446668500194
 10
105.9111924648416
 20
-134.729071689408
 10
106.0469292269605
 20
-134.729071689408
 10
106.1695746262354
 20
-134.729071689408
 10
106.288085910928
 20
-134.6574137033148
 10
106.288085910928
 20
-134.4796467762759
 10
106.288085910928
 20
-134.301879849237
 10
106.1695746262354
 20
-134.2298773535953
 10
106.0469292269605
 20
-134.2298773535953
 10
105.9111924648416
 20
-134.2298773535953
 10
105.8161078294488
 20
-134.3166937598236
 10
105.8161078294488
 20
-134.4796467762759
 97
        0
 97
        0
 92
        1
 93
        1
 72
     4
 94
        3
 73
     0
 74
     1
 95
       17
 96
       13
 40
0.0
 40
0.0
 40
0.0
 40
0.0
 40
1.0
 40
1.0
 40
1.0
 40
2.0
 40
2.0
 40
2.0
 40
3.0
 40
3.0
 40
3.0
 40
4.0
 40
4.0
 40
4.0
 40
4.0
 10
106.4761881244226
 20
-134.4796467762759
 10
106.4761881244226
 20
-134.6233072580108
 10
106.5630045306509
 20
-134.7759249880074
 10
106.7662651642807
 20
-134.7759249880074
 10
106.9715928552015
 20
-134.7759249880074
 10
107.0728786624679
 20
-134.6488009646017
 10
107.0728786624679
 20
-134.4796467762759
 10
107.0728786624679
 20
-134.2936116200724
 10
106.950233263193
 20
-134.1833685645445
 10
106.7724663361541
 20
-134.1833685645445
 10
106.550602186904
 20
-134.1833685645445
 10
106.4761881244226
 20
-134.3463215809968
 10
106.4761881244226
 20
-134.4796467762759
 97
        0
 97
        0
 75
     2
 76
     1
 98
        0
  0
ENDBLK
  5
78
330
75
100
AcDbEntity
  8
0
100
AcDbBlockEnd
  0
BLOCK
  5
96
330
94
100
AcDbEntity
  8
0
100
AcDbBlockBegin
  2
block 3
 70
     0
 10
0.0
 20
0.0
 30
0.0
  3
block 3
  1

  0
SPLINE
  5
98
330
94
100
AcDbEntity
  8
_U+30EC_U+30A4_U+30E4_U+30FC 1
370
     0
100
AcDbSpline
210
0.0
220
0.0
230
1.0
 70
    11
 71
     3
 72
    26
 73
    22
 74
     0
 42
0.0000000001
 43
0.0000000001
 12
1.0
 22
0.0
 32
0.0
 13
1.0
 23
0.0
 33
0.0
 40
0.0
 40
0.0
 40
0.0
 40
0.0
 40
1.0
 40
1.0
 40
1.0
 40
2.0
 40
2.0
 40
2.0
 40
3.0
 40
3.0
 40
3.0
 40
4.0
 40
4.0
 40
4.0
 40
5.0
 40
5.0
 40
5.0
 40
6.0
 40
6.0
 40
6.0
 40
7.0
 40
7.0
 40
7.0
 40
7.0
 10
89.7390529832076
 20
-138.8597411762226
 30
0.0
 10
89.7390529832076
 20
-138.8597411762226
 30
0.0
 10
89.7390529832076
 20
-137.7555880732
 30
0.0
 10
89.7390529832076
 20
-137.7555880732
 30
0.0
 10
89.7390529832076
 20
-137.7555880732
 30
0.0
 10
89.40901283572067
 20
-137.7555880732
 30
0.0
 10
89.40901283572067
 20
-137.7555880732
 30
0.0
 10
89.40901283572067
 20
-137.7555880732
 30
0.0
 10
89.40901283572067
 20
-137.6074489673342
 30
0.0
 10
89.40901283572067
 20
-137.6074489673342
 30
0.0
 10
89.74112004049876
 20
-137.5926350567477
 30
0.0
 10
89.78762882954962
 20
-137.4296820402954
 30
0.0
 10
89.81725665072277
 20
-137.3153048701851
 30
0.0
 10
89.81725665072277
 20
-137.3153048701851
 30
0.0
 10
89.96332869929736
 20
-137.3153048701851
 30
0.0
 10
89.96332869929736
 20
-137.3153048701851
 30
0.0
 10
89.96332869929736
 20
-137.3153048701851
 30
0.0
 10
89.96332869929736
 20
-138.8597411762226
 30
0.0
 10
89.96332869929736
 20
-138.8597411762226
 30
0.0
 10
89.96332869929736
 20
-138.8597411762226
 30
0.0
 10
89.7390529832076
 20
-138.8597411762226
 30
0.0
 10
89.7390529832076
 20
-138.8597411762226
 30
0.0
  0
HATCH
  5
99
330
94
100
AcDbEntity
  8
_U+30EC_U+30A4_U+30E4_U+30FC 1
 62
   179
420
  2234388
100
AcDbHatch
 10
0.0
 20
0.0
 30
0.0
210
0.0
220
0.0
230
1.0
  2
SOLID
 70
     1
 71
     0
 91
        1
 92
        1
 93
        1
 72
     4
 94
        3
 73
     0
 74
     1
 95
       26
 96
       22
 40
0.0
 40
0.0
 40
0.0
 40
0.0
 40
1.0
 40
1.0
 40
1.0
 40
2.0
 40
2.0
 40
2.0
 40
3.0
 40
3.0
 40
3.0
 40
4.0
 40
4.0
 40
4.0
 40
5.0
 40
5.0
 40
5.0
 40
6.0
 40
6.0
 40
6.0
 40
7.0
 40
7.0
 40
7.0
 40
7.0
 10
89.7390529832076
 20
-138.8597411762226
 10
89.7390529832076
 20
-138.8597411762226
 10
89.7390529832076
 20
-137.7555880732
 10
89.7390529832076
 20
-137.7555880732
 10
89.7390529832076
 20
-137.7555880732
 10
89.40901283572067
 20
-137.7555880732
 10
89.40901283572067
 20
-137.7555880732
 10
89.40901283572067
 20
-137.7555880732
 10
89.40901283572067
 20
-137.6074489673342
 10
89.40901283572067
 20
-137.6074489673342
 10
89.74112004049876
 20
-137.5926350567477
 10
89.78762882954962
 20
-137.4296820402954
 10
89.81725665072277
 20
-137.3153048701851
 10
89.81725665072277
 20
-137.3153048701851
 10
89.96332869929736
 20
-137.3153048701851
 10
89.96332869929736
 20
-137.3153048701851
 10
89.96332869929736
 20
-137.3153048701851
 10
89.96332869929736
 20
-138.8597411762226
 10
89.96332869929736
 20
-138.8597411762226
 10
89.96332869929736
 20
-138.8597411762226
 10
89.7390529832076
 20
-138.8597411762226
 10
89.7390529832076
 20
-138.8597411762226
 97
        0
 97
        0
 75
     2
 76
     1
 98
        0
  0
SPLINE
  5
9A
330
94
100
AcDbEntity
  8
_U+30EC_U+30A4_U+30E4_U+30FC 1
370
     0
100
AcDbSpline
210
0.0
220
0.0
230
1.0
 70
    11
 71
     3
 72
    32
 73
    28
 74
     0
 42
0.0000000001
 43
0.0000000001
 12
1.0
 22
0.0
 32
0.0
 13
1.0
 23
0.0
 33
0.0
 40
0.0
 40
0.0
 40
0.0
 40
0.0
 40
1.0
 40
1.0
 40
1.0
 40
2.0
 40
2.0
 40
2.0
 40
3.0
 40
3.0
 40
3.0
 40
4.0
 40
4.0
 40
4.0
 40
5.0
 40
5.0
 40
5.0
 40
6.0
 40
6.0
 40
6.0
 40
7.0
 40
7.0
 40
7.0
 40
8.0
 40
8.0
 40
8.0
 40
9.0
 40
9.0
 40
9.0
 40
9.0
 10
90.92209877284239
 20
-138.9103840798557
 30
0.0
 10
90.74881046993433
 20
-138.9103840798557
 30
0.0
 10
90.50317516183601
 20
-138.8407931510537
 30
0.0
 10
90.46527911149826
 20
-138.5086859462756
 30
0.0
 10
90.46527911149826
 20
-138.5086859462756
 30
0.0
 10
90.67887503158376
 20
-138.5086859462756
 30
0.0
 10
90.67887503158376
 20
-138.5086859462756
 30
0.0
 10
90.68955482758803
 20
-138.5679415886219
 30
0.0
 10
90.72124970605233
 20
-138.7157361849391
 30
0.0
 10
90.92416583013355
 20
-138.7157361849391
 30
0.0
 10
91.21630992728274
 20
-138.7157361849391
 30
0.0
 10
91.25420597762049
 20
-138.3860405470007
 30
0.0
 10
91.26695283091591
 20
-138.1807128560798
 30
0.0
 10
91.1760023101053
 20
-138.2609835808861
 30
0.0
 10
91.10847843859442
 20
-138.3181721659413
 30
0.0
 10
90.92657739697322
 20
-138.3181721659413
 30
0.0
 10
90.74674341264318
 20
-138.3181721659413
 30
0.0
 10
90.44391951948973
 20
-138.2124077345441
 30
0.0
 10
90.44391951948973
 20
-137.8062309768332
 30
0.0
 10
90.44391951948973
 20
-137.4868706253505
 30
0.0
 10
90.64304603853716
 20
-137.2667290238431
 30
0.0
 10
90.96033933272867
 20
-137.2667290238431
 30
0.0
 10
91.4745198339022
 20
-137.2667290238431
 30
0.0
 10
91.48519962990648
 20
-137.8210448874197
 30
0.0
 10
91.48519962990648
 20
-138.0346408075052
 30
0.0
 10
91.48519962990648
 20
-138.2651176954685
 30
0.0
 10
91.46590709518908
 20
-138.9103840798557
 30
0.0
 10
90.92209877284239
 20
-138.9103840798557
 30
0.0
  0
SPLINE
  5
9B
330
94
100
AcDbEntity
  8
_U+30EC_U+30A4_U+30E4_U+30FC 1
370
     0
100
AcDbSpline
210
0.0
220
0.0
230
1.0
 70
    11
 71
     3
 72
    17
 73
    13
 74
     0
 42
0.0000000001
 43
0.0000000001
 12
1.0
 22
0.0
 32
0.0
 13
1.0
 23
0.0
 33
0.0
 40
0.0
 40
0.0
 40
0.0
 40
0.0
 40
1.0
 40
1.0
 40
1.0
 40
2.0
 40
2.0
 40
2.0
 40
3.0
 40
3.0
 40
3.0
 40
4.0
 40
4.0
 40
4.0
 40
4.0
 10
90.96240639001982
 20
-137.4593098614685
 30
0.0
 10
90.84389510532722
 20
-137.4593098614685
 30
0.0
 10
90.66819523557949
 20
-137.5164984465237
 30
0.0
 10
90.66819523557949
 20
-137.8020968622509
 30
0.0
 10
90.66819523557949
 20
-138.0284396356318
 30
0.0
 10
90.80806611228063
 20
-138.1235242710247
 30
0.0
 10
90.94345836485094
 20
-138.1235242710247
 30
0.0
 10
91.20563013127845
 20
-138.1235242710247
 30
0.0
 10
91.24387069116473
 20
-137.9140624655215
 30
0.0
 10
91.24387069116473
 20
-137.79761823812
 30
0.0
 10
91.24387069116473
 20
-137.6222628779208
 30
0.0
 10
91.14844154622331
 20
-137.4593098614685
 30
0.0
 10
90.96240639001982
 20
-137.4593098614685
 30
0.0
  0
HATCH
  5
9C
330
94
100
AcDbEntity
  8
_U+30EC_U+30A4_U+30E4_U+30FC 1
 62
   179
420
  2234388
100
AcDbHatch
 10
0.0
 20
0.0
 30
0.0
210
0.0
220
0.0
230
1.0
  2
SOLID
 70
     1
 71
     0
 91
        2
 92
        1
 93
        1
 72
     4
 94
        3
 73
     0
 74
     1
 95
       32
 96
       28
 40
0.0
 40
0.0
 40
0.0
 40
0.0
 40
1.0
 40
1.0
 40
1.0
 40
2.0
 40
2.0
 40
2.0
 40
3.0
 40
3.0
 40
3.0
 40
4.0
 40
4.0
 40
4.0
 40
5.0
 40
5.0
 40
5.0
 40
6.0
 40
6.0
 40
6.0
 40
7.0
 40
7.0
 40
7.0
 40
8.0
 40
8.0
 40
8.0
 40
9.0
 40
9.0
 40
9.0
 40
9.0
 10
90.92209877284239
 20
-138.9103840798557
 10
90.74881046993433
 20
-138.9103840798557
 10
90.50317516183601
 20
-138.8407931510537
 10
90.46527911149826
 20
-138.5086859462756
 10
90.46527911149826
 20
-138.5086859462756
 10
90.67887503158376
 20
-138.5086859462756
 10
90.67887503158376
 20
-138.5086859462756
 10
90.68955482758803
 20
-138.5679415886219
 10
90.72124970605233
 20
-138.7157361849391
 10
90.92416583013355
 20
-138.7157361849391
 10
91.21630992728274
 20
-138.7157361849391
 10
91.25420597762049
 20
-138.3860405470007
 10
91.26695283091591
 20
-138.1807128560798
 10
91.1760023101053
 20
-138.2609835808861
 10
91.10847843859442
 20
-138.3181721659413
 10
90.92657739697322
 20
-138.3181721659413
 10
90.74674341264318
 20
-138.3181721659413
 10
90.44391951948973
 20
-138.2124077345441
 10
90.44391951948973
 20
-137.8062309768332
 10
90.44391951948973
 20
-137.4868706253505
 10
90.64304603853716
 20
-137.2667290238431
 10
90.96033933272867
 20
-137.2667290238431
 10
91.4745198339022
 20
-137.2667290238431
 10
91.48519962990648
 20
-137.8210448874197
 10
91.48519962990648
 20
-138.0346408075052
 10
91.48519962990648
 20
-138.2651176954685
 10
91.46590709518908
 20
-138.9103840798557
 10
90.92209877284239
 20
-138.9103840798557
 97
        0
 97
        0
 92
        1
 93
        1
 72
     4
 94
        3
 73
     0
 74
     1
 95
       17
 96
       13
 40
0.0
 40
0.0
 40
0.0
 40
0.0
 40
1.0
 40
1.0
 40
1.0
 40
2.0
 40
2.0
 40
2.0
 40
3.0
 40
3.0
 40
3.0
 40
4.0
 40
4.0
 40
4.0
 40
4.0
 10
90.96240639001982
 20
-137.4593098614685
 10
90.84389510532722
 20
-137.4593098614685
 10
90.66819523557949
 20
-137.5164984465237
 10
90.66819523557949
 20
-137.8020968622509
 10
90.66819523557949
 20
-138.0284396356318
 10
90.80806611228063
 20
-138.1235242710247
 10
90.94345836485094
 20
-138.1235242710247
 10
91.20563013127845
 20
-138.1235242710247
 10
91.24387069116473
 20
-137.9140624655215
 10
91.24387069116473
 20
-137.79761823812
 10
91.24387069116473
 20
-137.6222628779208
 10
91.14844154622331
 20
-137.4593098614685
 10
90.96240639001982
 20
-137.4593098614685
 97
        0
 97
        0
 75
     2
 76
     1
 98
        0
  0
ENDBLK
  5
97
330
94
100
AcDbEntity
  8
0
100
AcDbBlockEnd
  0
BLOCK
  5
AB
330
A9
100
AcDbEntity
  8
0
100
AcDbBlockBegin
  2
block 4
 70
     0
 10
0.0
 20
0.0
 30
0.0
  3
block 4
  1

  0
SPLINE
  5
AD
330
A9
100
AcDbEntity
  8
_U+30EC_U+30A4_U+30E4_U+30FC 1
370
     0
100
AcDbSpline
210
0.0
220
0.0
230
1.0
 70
    11
 71
     3
 72
    26
 73
    22
 74
     0
 42
0.0000000001
 43
0.0000000001
 12
1.0
 22
0.0
 32
0.0
 13
1.0
 23
0.0
 33
0.0
 40
0.0
 40
0.0
 40
0.0
 40
0.0
 40
1.0
 40
1.0
 40
1.0
 40
2.0
 40
2.0
 40
2.0
 40
3.0
 40
3.0
 40
3.0
 40
4.0
 40
4.0
 40
4.0
 40
5.0
 40
5.0
 40
5.0
 40
6.0
 40
6.0
 40
6.0
 40
7.0
 40
7.0
 40
7.0
 40
7.0
 10
76.3359089978431
 20
-126.6696153112145
 30
0.0
 10
76.3359089978431
 20
-126.6696153112145
 30
0.0
 10
75.23175589482054
 20
-126.6696153112145
 30
0.0
 10
75.23175589482054
 20
-126.6696153112145
 30
0.0
 10
75.23175589482054
 20
-126.6696153112145
 30
0.0
 10
75.23175589482054
 20
-126.9996554587015
 30
0.0
 10
75.23175589482054
 20
-126.9996554587015
 30
0.0
 10
75.23175589482054
 20
-126.9996554587015
 30
0.0
 10
75.0836167889548
 20
-126.9996554587015
 30
0.0
 10
75.0836167889548
 20
-126.9996554587015
 30
0.0
 10
75.06880287836822
 20
-126.6675482539234
 30
0.0
 10
74.9058498619159
 20
-126.6210394648725
 30
0.0
 10
74.79147269180561
 20
-126.5914116436994
 30
0.0
 10
74.79147269180561
 20
-126.5914116436994
 30
0.0
 10
74.79147269180561
 20
-126.4453395951248
 30
0.0
 10
74.79147269180561
 20
-126.4453395951248
 30
0.0
 10
74.79147269180561
 20
-126.4453395951248
 30
0.0
 10
76.3359089978431
 20
-126.4453395951248
 30
0.0
 10
76.3359089978431
 20
-126.4453395951248
 30
0.0
 10
76.3359089978431
 20
-126.4453395951248
 30
0.0
 10
76.3359089978431
 20
-126.6696153112145
 30
0.0
 10
76.3359089978431
 20
-126.6696153112145
 30
0.0
  0
HATCH
  5
AE
330
A9
100
AcDbEntity
  8
_U+30EC_U+30A4_U+30E4_U+30FC 1
 62
   179
420
  2234388
100
AcDbHatch
 10
0.0
 20
0.0
 30
0.0
210
0.0
220
0.0
230
1.0
  2
SOLID
 70
     1
 71
     0
 91
        1
 92
        1
 93
        1
 72
     4
 94
        3
 73
     0
 74
     1
 95
       26
 96
       22
 40
0.0
 40
0.0
 40
0.0
 40
0.0
 40
1.0
 40
1.0
 40
1.0
 40
2.0
 40
2.0
 40
2.0
 40
3.0
 40
3.0
 40
3.0
 40
4.0
 40
4.0
 40
4.0
 40
5.0
 40
5.0
 40
5.0
 40
6.0
 40
6.0
 40
6.0
 40
7.0
 40
7.0
 40
7.0
 40
7.0
 10
76.3359089978431
 20
-126.6696153112145
 10
76.3359089978431
 20
-126.6696153112145
 10
75.23175589482054
 20
-126.6696153112145
 10
75.23175589482054
 20
-126.6696153112145
 10
75.23175589482054
 20
-126.6696153112145
 10
75.23175589482054
 20
-126.9996554587015
 10
75.23175589482054
 20
-126.9996554587015
 10
75.23175589482054
 20
-126.9996554587015
 10
75.0836167889548
 20
-126.9996554587015
 10
75.0836167889548
 20
-126.9996554587015
 10
75.06880287836822
 20
-126.6675482539234
 10
74.9058498619159
 20
-126.6210394648725
 10
74.79147269180561
 20
-126.5914116436994
 10
74.79147269180561
 20
-126.5914116436994
 10
74.79147269180561
 20
-126.4453395951248
 10
74.79147269180561
 20
-126.4453395951248
 10
74.79147269180561
 20
-126.4453395951248
 10
76.3359089978431
 20
-126.4453395951248
 10
76.3359089978431
 20
-126.4453395951248
 10
76.3359089978431
 20
-126.4453395951248
 10
76.3359089978431
 20
-126.6696153112145
 10
76.3359089978431
 20
-126.6696153112145
 97
        0
 97
        0
 75
     2
 76
     1
 98
        0
  0
SPLINE
  5
AF
330
A9
100
AcDbEntity
  8
_U+30EC_U+30A4_U+30E4_U+30FC 1
370
     0
100
AcDbSpline
210
0.0
220
0.0
230
1.0
 70
    11
 71
     3
 72
    32
 73
    28
 74
     0
 42
0.0000000001
 43
0.0000000001
 12
1.0
 22
0.0
 32
0.0
 13
1.0
 23
0.0
 33
0.0
 40
0.0
 40
0.0
 40
0.0
 40
0.0
 40
1.0
 40
1.0
 40
1.0
 40
2.0
 40
2.0
 40
2.0
 40
3.0
 40
3.0
 40
3.0
 40
4.0
 40
4.0
 40
4.0
 40
5.0
 40
5.0
 40
5.0
 40
6.0
 40
6.0
 40
6.0
 40
7.0
 40
7.0
 40
7.0
 40
8.0
 40
8.0
 40
8.0
 40
9.0
 40
9.0
 40
9.0
 40
9.0
 10
76.38655190147628
 20
-125.4865695215798
 30
0.0
 10
76.38655190147628
 20
-125.6598578244878
 30
0.0
 10
76.31696097267424
 20
-125.9054931325861
 30
0.0
 10
75.98485376789615
 20
-125.9433891829239
 30
0.0
 10
75.98485376789615
 20
-125.9433891829239
 30
0.0
 10
75.98485376789615
 20
-125.7297932628384
 30
0.0
 10
75.98485376789615
 20
-125.7297932628384
 30
0.0
 10
76.04410941024244
 20
-125.7191134668341
 30
0.0
 10
76.19190400655967
 20
-125.6874185883698
 30
0.0
 10
76.19190400655967
 20
-125.4845024642886
 30
0.0
 10
76.19190400655967
 20
-125.1923583671394
 30
0.0
 10
75.86186385907273
 20
-125.1544623168017
 30
0.0
 10
75.65688067770037
 20
-125.1417154635062
 30
0.0
 10
75.73715140250668
 20
-125.2326659843168
 30
0.0
 10
75.79433998756184
 20
-125.3001898558277
 30
0.0
 10
75.79433998756184
 20
-125.4820908974489
 30
0.0
 10
75.79433998756184
 20
-125.661924881779
 30
0.0
 10
75.68857555616466
 20
-125.9647487749324
 30
0.0
 10
75.28239879845371
 20
-125.9647487749324
 30
0.0
 10
74.96303844697105
 20
-125.9647487749324
 30
0.0
 10
74.74289684546359
 20
-125.765622255885
 30
0.0
 10
74.74289684546359
 20
-125.4483289616935
 30
0.0
 10
74.74289684546359
 20
-124.9343207152942
 30
0.0
 10
75.29721270904028
 20
-124.9236409192899
 30
0.0
 10
75.51080862912578
 20
-124.9236409192899
 30
0.0
 10
75.74128551708898
 20
-124.9236409192899
 30
0.0
 10
76.38655190147628
 20
-124.9429334540073
 30
0.0
 10
76.38655190147628
 20
-125.4865695215798
 30
0.0
  0
SPLINE
  5
B0
330
A9
100
AcDbEntity
  8
_U+30EC_U+30A4_U+30E4_U+30FC 1
370
     0
100
AcDbSpline
210
0.0
220
0.0
230
1.0
 70
    11
 71
     3
 72
    17
 73
    13
 74
     0
 42
0.0000000001
 43
0.0000000001
 12
1.0
 22
0.0
 32
0.0
 13
1.0
 23
0.0
 33
0.0
 40
0.0
 40
0.0
 40
0.0
 40
0.0
 40
1.0
 40
1.0
 40
1.0
 40
2.0
 40
2.0
 40
2.0
 40
3.0
 40
3.0
 40
3.0
 40
4.0
 40
4.0
 40
4.0
 40
4.0
 10
74.93547768308905
 20
-125.4462619044023
 30
0.0
 10
74.93547768308905
 20
-125.5647731890949
 30
0.0
 10
74.99266626814419
 20
-125.7404730588427
 30
0.0
 10
75.27826468387141
 20
-125.7404730588427
 30
0.0
 10
75.50460745725232
 20
-125.7404730588427
 30
0.0
 10
75.59969209264521
 20
-125.6006021821415
 30
0.0
 10
75.59969209264521
 20
-125.4652099295712
 30
0.0
 10
75.59969209264521
 20
-125.2030381631437
 30
0.0
 10
75.39023028714203
 20
-125.1647976032574
 30
0.0
 10
75.27378605974059
 20
-125.1647976032574
 30
0.0
 10
75.09843069954137
 20
-125.1647976032574
 30
0.0
 10
74.93547768308905
 20
-125.2602267481988
 30
0.0
 10
74.93547768308905
 20
-125.4462619044023
 30
0.0
  0
HATCH
  5
B1
330
A9
100
AcDbEntity
  8
_U+30EC_U+30A4_U+30E4_U+30FC 1
 62
   179
420
  2234388
100
AcDbHatch
 10
0.0
 20
0.0
 30
0.0
210
0.0
220
0.0
230
1.0
  2
SOLID
 70
     1
 71
     0
 91
        2
 92
        1
 93
        1
 72
     4
 94
        3
 73
     0
 74
     1
 95
       32
 96
       28
 40
0.0
 40
0.0
 40
0.0
 40
0.0
 40
1.0
 40
1.0
 40
1.0
 40
2.0
 40
2.0
 40
2.0
 40
3.0
 40
3.0
 40
3.0
 40
4.0
 40
4.0
 40
4.0
 40
5.0
 40
5.0
 40
5.0
 40
6.0
 40
6.0
 40
6.0
 40
7.0
 40
7.0
 40
7.0
 40
8.0
 40
8.0
 40
8.0
 40
9.0
 40
9.0
 40
9.0
 40
9.0
 10
76.38655190147628
 20
-125.4865695215798
 10
76.38655190147628
 20
-125.6598578244878
 10
76.31696097267424
 20
-125.9054931325861
 10
75.98485376789615
 20
-125.9433891829239
 10
75.98485376789615
 20
-125.9433891829239
 10
75.98485376789615
 20
-125.7297932628384
 10
75.98485376789615
 20
-125.7297932628384
 10
76.04410941024244
 20
-125.7191134668341
 10
76.19190400655967
 20
-125.6874185883698
 10
76.19190400655967
 20
-125.4845024642886
 10
76.19190400655967
 20
-125.1923583671394
 10
75.86186385907273
 20
-125.1544623168017
 10
75.65688067770037
 20
-125.1417154635062
 10
75.73715140250668
 20
-125.2326659843168
 10
75.79433998756184
 20
-125.3001898558277
 10
75.79433998756184
 20
-125.4820908974489
 10
75.79433998756184
 20
-125.661924881779
 10
75.68857555616466
 20
-125.9647487749324
 10
75.28239879845371
 20
-125.9647487749324
 10
74.96303844697105
 20
-125.9647487749324
 10
74.74289684546359
 20
-125.765622255885
 10
74.74289684546359
 20
-125.4483289616935
 10
74.74289684546359
 20
-124.9343207152942
 10
75.29721270904028
 20
-124.9236409192899
 10
75.51080862912578
 20
-124.9236409192899
 10
75.74128551708898
 20
-124.9236409192899
 10
76.38655190147628
 20
-124.9429334540073
 10
76.38655190147628
 20
-125.4865695215798
 97
        0
 97
        0
 92
        1
 93
        1
 72
     4
 94
        3
 73
     0
 74
     1
 95
       17
 96
       13
 40
0.0
 40
0.0
 40
0.0
 40
0.0
 40
1.0
 40
1.0
 40
1.0
 40
2.0
 40
2.0
 40
2.0
 40
3.0
 40
3.0
 40
3.0
 40
4.0
 40
4.0
 40
4.0
 40
4.0
 10
74.93547768308905
 20
-125.4462619044023
 10
74.93547768308905
 20
-125.5647731890949
 10
74.99266626814419
 20
-125.7404730588427
 10
75.27826468387141
 20
-125.7404730588427
 10
75.50460745725232
 20
-125.7404730588427
 10
75.59969209264521
 20
-125.6006021821415
 10
75.59969209264521
 20
-125.4652099295712
 10
75.59969209264521
 20
-125.2030381631437
 10
75.39023028714203
 20
-125.1647976032574
 10
75.27378605974059
 20
-125.1647976032574
 10
75.09843069954137
 20
-125.1647976032574
 10
74.93547768308905
 20
-125.2602267481988
 10
74.93547768308905
 20
-125.4462619044023
 97
        0
 97
        0
 75
     2
 76
     1
 98
        0
  0
ENDBLK
  5
AC
330
A9
100
AcDbEntity
  8
0
100
AcDbBlockEnd
  0
BLOCK
  5
D6
330
D4
100
AcDbEntity
  8
0
100
AcDbBlockBegin
  2
block 5
 70
     0
 10
0.0
 20
0.0
 30
0.0
  3
block 5
  1

  0
SPLINE
  5
D8
330
D4
100
AcDbEntity
  8
_U+30EC_U+30A4_U+30E4_U+30FC 1
370
     0
100
AcDbSpline
210
0.0
220
0.0
230
1.0
 70
    11
 71
     3
 72
   242
 73
   238
 74
     0
 42
0.0000000001
 43
0.0000000001
 12
1.0
 22
0.0
 32
0.0
 13
1.0
 23
0.0
 33
0.0
 40
0.0
 40
0.0
 40
0.0
 40
0.0
 40
1.0
 40
1.0
 40
1.0
 40
2.0
 40
2.0
 40
2.0
 40
3.0
 40
3.0
 40
3.0
 40
4.0
 40
4.0
 40
4.0
 40
5.0
 40
5.0
 40
5.0
 40
6.0
 40
6.0
 40
6.0
 40
7.0
 40
7.0
 40
7.0
 40
8.0
 40
8.0
 40
8.0
 40
9.0
 40
9.0
 40
9.0
 40
10.0
 40
10.0
 40
10.0
 40
11.0
 40
11.0
 40
11.0
 40
12.0
 40
12.0
 40
12.0
 40
13.0
 40
13.0
 40
13.0
 40
14.0
 40
14.0
 40
14.0
 40
15.0
 40
15.0
 40
15.0
 40
16.0
 40
16.0
 40
16.0
 40
17.0
 40
17.0
 40
17.0
 40
18.0
 40
18.0
 40
18.0
 40
19.0
 40
19.0
 40
19.0
 40
20.0
 40
20.0
 40
20.0
 40
21.0
 40
21.0
 40
21.0
 40
22.0
 40
22.0
 40
22.0
 40
23.0
 40
23.0
 40
23.0
 40
24.0
 40
24.0
 40
24.0
 40
25.0
 40
25.0
 40
25.0
 40
26.0
 40
26.0
 40
26.0
 40
27.0
 40
27.0
 40
27.0
 40
28.0
 40
28.0
 40
28.0
 40
29.0
 40
29.0
 40
29.0
 40
30.0
 40
30.0
 40
30.0
 40
31.0
 40
31.0
 40
31.0
 40
32.0
 40
32.0
 40
32.0
 40
33.0
 40
33.0
 40
33.0
 40
34.0
 40
34.0
 40
34.0
 40
35.0
 40
35.0
 40
35.0
 40
36.0
 40
36.0
 40
36.0
 40
37.0
 40
37.0
 40
37.0
 40
38.0
 40
38.0
 40
38.0
 40
39.0
 40
39.0
 40
39.0
 40
40.0
 40
40.0
 40
40.0
 40
41.0
 40
41.0
 40
41.0
 40
42.0
 40
42.0
 40
42.0
 40
43.0
 40
43.0
 40
43.0
 40
44.0
 40
44.0
 40
44.0
 40
45.0
 40
45.0
 40
45.0
 40
46.0
 40
46.0
 40
46.0
 40
47.0
 40
47.0
 40
47.0
 40
48.0
 40
48.0
 40
48.0
 40
49.0
 40
49.0
 40
49.0
 40
50.0
 40
50.0
 40
50.0
 40
51.0
 40
51.0
 40
51.0
 40
52.0
 40
52.0
 40
52.0
 40
53.0
 40
53.0
 40
53.0
 40
54.0
 40
54.0
 40
54.0
 40
55.0
 40
55.0
 40
55.0
 40
56.0
 40
56.0
 40
56.0
 40
57.0
 40
57.0
 40
57.0
 40
58.0
 40
58.0
 40
58.0
 40
59.0
 40
59.0
 40
59.0
 40
60.0
 40
60.0
 40
60.0
 40
61.0
 40
61.0
 40
61.0
 40
62.0
 40
62.0
 40
62.0
 40
63.0
 40
63.0
 40
63.0
 40
64.0
 40
64.0
 40
64.0
 40
65.0
 40
65.0
 40
65.0
 40
66.0
 40
66.0
 40
66.0
 40
67.0
 40
67.0
 40
67.0
 40
68.0
 40
68.0
 40
68.0
 40
69.0
 40
69.0
 40
69.0
 40
70.0
 40
70.0
 40
70.0
 40
71.0
 40
71.0
 40
71.0
 40
72.0
 40
72.0
 40
72.0
 40
73.0
 40
73.0
 40
73.0
 40
74.0
 40
74.0
 40
74.0
 40
75.0
 40
75.0
 40
75.0
 40
76.0
 40
76.0
 40
76.0
 40
77.0
 40
77.0
 40
77.0
 40
78.0
 40
78.0
 40
78.0
 40
79.0
 40
79.0
 40
79.0
 40
79.0
 10
91.82178545881538
 20
-121.0928669944664
 30
0.0
 10
91.82178545881538
 20
-121.0928669944664
 30
0.0
 10
91.59923229046825
 20
-121.0928669944664
 30
0.0
 10
91.59923229046825
 20
-121.0928669944664
 30
0.0
 10
91.59923229046825
 20
-121.0928669944664
 30
0.0
 10
91.35669756830666
 20
-121.0928669944664
 30
0.0
 10
91.35669756830666
 20
-121.0928669944664
 30
0.0
 10
91.35669756830666
 20
-121.0928669944664
 30
0.0
 10
91.46797415248024
 20
-121.1352416689349
 30
0.0
 10
91.46797415248024
 20
-121.1352416689349
 30
0.0
 10
91.4772759102904
 20
-121.1395480382915
 30
0.0
 10
91.48830021584321
 20
-121.145749210165
 30
0.0
 10
91.48830021584321
 20
-121.1584960634604
 30
0.0
 10
91.48830021584321
 20
-121.1796834006947
 30
0.0
 10
91.46039494241268
 20
-121.1860568273424
 30
0.0
 10
91.44213593634086
 20
-121.1901909419247
 30
0.0
 10
91.43283417853068
 20
-121.2134453364501
 30
0.0
 10
91.4069959623913
 20
-121.2790744054441
 30
0.0
 10
91.39011499451358
 20
-121.3235161372039
 30
0.0
 10
91.39011499451358
 20
-121.3235161372039
 30
0.0
 10
91.62713756389877
 20
-121.3235161372039
 30
0.0
 10
91.62713756389877
 20
-121.3235161372039
 30
0.0
 10
91.70671926960804
 20
-121.3235161372039
 30
0.0
 10
91.87897404387054
 20
-121.3192097678473
 30
0.0
 10
92.00299748133953
 20
-121.3107692839084
 30
0.0
 10
92.00299748133953
 20
-121.3107692839084
 30
0.0
 10
92.00299748133953
 20
-121.4885362109473
 30
0.0
 10
92.00299748133953
 20
-121.4885362109473
 30
0.0
 10
91.93099498569781
 20
-121.4842298415908
 30
0.0
 10
91.91239147007747
 20
-121.4842298415908
 30
0.0
 10
91.75495060640155
 20
-121.4800957270085
 30
0.0
 10
91.72704533297102
 20
-121.6344360047476
 30
0.0
 10
91.6881157539877
 20
-121.7148789843282
 30
0.0
 10
91.6495306845529
 20
-121.7846421679045
 30
0.0
 10
91.75495060640155
 20
-121.8438978102508
 30
0.0
 10
91.84762367495476
 20
-121.911593936536
 30
0.0
 10
91.93822968621683
 20
-121.9941039734077
 30
0.0
 10
91.93822968621683
 20
-121.9941039734077
 30
0.0
 10
91.83453231211081
 20
-122.1611911044424
 30
0.0
 10
91.83453231211081
 20
-122.1611911044424
 30
0.0
 10
91.81420624874784
 20
-122.1422430792735
 30
0.0
 10
91.80318194319504
 20
-122.1338025953346
 30
0.0
 10
91.70499672186543
 20
-122.0490532463975
 30
0.0
 10
91.66227753784833
 20
-122.0109849412855
 30
0.0
 10
91.61060110556957
 20
-121.9751559482389
 30
0.0
 10
91.53997664812195
 20
-121.9307142164791
 30
0.0
 10
91.35497502056404
 20
-122.1169216274569
 30
0.0
 10
91.17548554578252
 20
-122.1401760219823
 30
0.0
 10
90.92158200851961
 20
-122.1698038431555
 30
0.0
 10
90.92158200851961
 20
-122.1698038431555
 30
0.0
 10
90.83097599725754
 20
-121.9899698588254
 30
0.0
 10
90.83097599725754
 20
-121.9899698588254
 30
0.0
 10
91.10865069336867
 20
-121.9856634894689
 30
0.0
 10
91.26230195201082
 20
-121.9603420376523
 30
0.0
 10
91.39562714728999
 20
-121.8502712368985
 30
0.0
 10
91.29192977318397
 20
-121.7994560784911
 30
0.0
 10
91.21407061521732
 20
-121.7720675693834
 30
0.0
 10
91.18272024630154
 20
-121.759320716088
 30
0.0
 10
91.16618378797234
 20
-121.7868814799699
 30
0.0
 10
91.15309242512839
 20
-121.8058295051388
 30
0.0
 10
91.12897675673165
 20
-121.8397636956685
 30
0.0
 10
91.12897675673165
 20
-121.8397636956685
 30
0.0
 10
90.95672198246916
 20
-121.7572536587968
 30
0.0
 10
90.95672198246916
 20
-121.7572536587968
 30
0.0
 10
91.0290689876594
 20
-121.6768106792162
 30
0.0
 10
91.0828124772293
 20
-121.5815537890491
 30
0.0
 10
91.13276636176542
 20
-121.4800957270085
 30
0.0
 10
90.96602374027933
 20
-121.4842298415908
 30
0.0
 10
90.94742022465898
 20
-121.4842298415908
 30
0.0
 10
90.87541772901726
 20
-121.4885362109473
 30
0.0
 10
90.87541772901726
 20
-121.4885362109473
 30
0.0
 10
90.87541772901726
 20
-121.3107692839084
 30
0.0
 10
90.87541772901726
 20
-121.3107692839084
 30
0.0
 10
90.99771861874363
 20
-121.3171427105561
 30
0.0
 10
91.18099769855893
 20
-121.3214490799127
 30
0.0
 10
91.20304630966451
 20
-121.3214490799127
 30
0.0
 10
91.2178602202511
 20
-121.287514889383
 30
0.0
 10
91.26609155704459
 20
-121.1669365473992
 30
0.0
 10
91.28262801537379
 20
-121.0928669944664
 30
0.0
 10
91.26609155704459
 20
-121.0928669944664
 30
0.0
 10
91.11071775065983
 20
-121.0992404211141
 30
0.0
 10
90.94018552413996
 20
-121.1119872744095
 30
0.0
 10
90.94018552413996
 20
-121.1119872744095
 30
0.0
 10
90.94018552413996
 20
-121.2453124696887
 30
0.0
 10
90.94018552413996
 20
-121.2453124696887
 30
0.0
 10
90.89746634012286
 20
-121.2706339215053
 30
0.0
 10
90.84578990784411
 20
-121.3023287999696
 30
0.0
 10
90.72900117089414
 20
-121.3679578689636
 30
0.0
 10
90.72900117089414
 20
-121.3679578689636
 30
0.0
 10
90.72900117089414
 20
-121.5138576627639
 30
0.0
 10
90.72900117089414
 20
-121.5138576627639
 30
0.0
 10
90.72900117089414
 20
-121.5138576627639
 30
0.0
 10
90.72900117089414
 20
-121.9815293748866
 30
0.0
 10
90.72900117089414
 20
-121.9815293748866
 30
0.0
 10
90.72900117089414
 20
-122.1083088887438
 30
0.0
 10
90.69765080197837
 20
-122.1675645310901
 30
0.0
 10
90.44960392704039
 20
-122.1591240471512
 30
0.0
 10
90.44960392704039
 20
-122.1591240471512
 30
0.0
 10
90.35865340622979
 20
-121.9519015537134
 30
0.0
 10
90.35865340622979
 20
-121.9519015537134
 30
0.0
 10
90.4141194435423
 20
-121.9644761522346
 30
0.0
 10
90.4568386275594
 20
-121.9687825215911
 30
0.0
 10
90.49197860150895
 20
-121.9687825215911
 30
0.0
 10
90.5588134539228
 20
-121.9687825215911
 30
0.0
 10
90.56811521173297
 20
-121.9455281270657
 30
0.0
 10
90.56811521173297
 20
-121.8798990580717
 30
0.0
 10
90.56811521173297
 20
-121.8798990580717
 30
0.0
 10
90.56811521173297
 20
-121.4504679058353
 30
0.0
 10
90.56811521173297
 20
-121.4504679058353
 30
0.0
 10
90.48267684369878
 20
-121.4906032682385
 30
0.0
 10
90.4678629331122
 20
-121.4969766948862
 30
0.0
 10
90.42721080638626
 20
-121.5160969748293
 30
0.0
 10
90.42342120135248
 20
-121.5371120572893
 30
0.0
 10
90.41997610586724
 20
-121.5667398784625
 30
0.0
 10
90.40309513798951
 20
-121.5667398784625
 30
0.0
 10
90.39586043747049
 20
-121.5667398784625
 30
0.0
 10
90.38655867966031
 20
-121.5626057638802
 30
0.0
 10
90.3810465268839
 20
-121.5393513693547
 30
0.0
 10
90.3810465268839
 20
-121.5393513693547
 30
0.0
 10
90.33453773783303
 20
-121.3467705317293
 30
0.0
 10
90.33453773783303
 20
-121.3467705317293
 30
0.0
 10
90.46235078033581
 20
-121.3002617426784
 30
0.0
 10
90.51988387493948
 20
-121.277007348153
 30
0.0
 10
90.56811521173297
 20
-121.2558200109187
 30
0.0
 10
90.56811521173297
 20
-121.2558200109187
 30
0.0
 10
90.56811521173297
 20
-120.84326982656
 30
0.0
 10
90.56811521173297
 20
-120.84326982656
 30
0.0
 10
90.56811521173297
 20
-120.84326982656
 30
0.0
 10
90.5216064226821
 20
-120.84326982656
 30
0.0
 10
90.5216064226821
 20
-120.84326982656
 30
0.0
 10
90.5216064226821
 20
-120.84326982656
 30
0.0
 10
90.45304902252563
 20
-120.84326982656
 30
0.0
 10
90.45304902252563
 20
-120.84326982656
 30
0.0
 10
90.39379338017933
 20
-120.84326982656
 30
0.0
 10
90.38655867966031
 20
-120.84326982656
 30
0.0
 10
90.354863801196
 20
-120.8496432532077
 30
0.0
 10
90.354863801196
 20
-120.8496432532077
 30
0.0
 10
90.354863801196
 20
-120.6549953582911
 30
0.0
 10
90.354863801196
 20
-120.6549953582911
 30
0.0
 10
90.37897946959276
 20
-120.6613687849388
 30
0.0
 10
90.38655867966031
 20
-120.6613687849388
 30
0.0
 10
90.44753686974923
 20
-120.6613687849388
 30
0.0
 10
90.44753686974923
 20
-120.6613687849388
 30
0.0
 10
90.5643256066992
 20
-120.6613687849388
 30
0.0
 10
90.5643256066992
 20
-120.6613687849388
 30
0.0
 10
90.5643256066992
 20
-120.5916056013625
 30
0.0
 10
90.5643256066992
 20
-120.5090955644908
 30
0.0
 10
90.56225854940806
 20
-120.5047891951342
 30
0.0
 10
90.55502384888902
 20
-120.3249552108042
 30
0.0
 10
90.55502384888902
 20
-120.3060071856353
 30
0.0
 10
90.5533013011464
 20
-120.2594983965844
 30
0.0
 10
90.5533013011464
 20
-120.2594983965844
 30
0.0
 10
90.74209253373809
 20
-120.2679388805233
 30
0.0
 10
90.74209253373809
 20
-120.2679388805233
 30
0.0
 10
90.75139429154827
 20
-120.2679388805233
 30
0.0
 10
90.7696532976201
 20
-120.2700059378144
 30
0.0
 10
90.7696532976201
 20
-120.2868869056922
 30
0.0
 10
90.7696532976201
 20
-120.3060071856353
 30
0.0
 10
90.75690644432467
 20
-120.3165147268653
 30
0.0
 10
90.73451332367054
 20
-120.3356350068085
 30
0.0
 10
90.73451332367054
 20
-120.3862779104416
 30
0.0
 10
90.72900117089414
 20
-120.614859995888
 30
0.0
 10
90.7310682281853
 20
-120.6613687849388
 30
0.0
 10
90.84406736010149
 20
-120.6613687849388
 30
0.0
 10
90.85509166565429
 20
-120.6613687849388
 30
0.0
 10
90.94018552413996
 20
-120.652928301
 30
0.0
 10
90.94018552413996
 20
-120.652928301
 30
0.0
 10
90.94018552413996
 20
-120.8475761959166
 30
0.0
 10
90.94018552413996
 20
-120.8475761959166
 30
0.0
 10
90.90676809793304
 20
-120.8453368838512
 30
0.0
 10
90.84751245558674
 20
-120.8412027692689
 30
0.0
 10
90.72900117089414
 20
-120.84326982656
 30
0.0
 10
90.72900117089414
 20
-120.84326982656
 30
0.0
 10
90.72900117089414
 20
-121.1817504579858
 30
0.0
 10
90.72900117089414
 20
-121.1817504579858
 30
0.0
 10
90.77723250768764
 20
-121.1584960634604
 30
0.0
 10
90.83476560229131
 20
-121.1309352995784
 30
0.0
 10
90.87714027675989
 20
-121.1076809050529
 30
0.0
 10
90.87714027675989
 20
-121.1076809050529
 30
0.0
 10
90.87714027675989
 20
-120.9300862327883
 30
0.0
 10
90.87714027675989
 20
-120.9300862327883
 30
0.0
 10
90.97704804583213
 20
-120.9426608313095
 30
0.0
 10
91.08108992948668
 20
-120.9426608313095
 30
0.0
 10
91.18272024630154
 20
-120.9426608313095
 30
0.0
 10
91.16239418293857
 20
-120.8475761959166
 30
0.0
 10
91.13827851454182
 20
-120.7650661590448
 30
0.0
 10
91.0828124772293
 20
-120.6317409637657
 30
0.0
 10
91.04388289824598
 20
-120.6338080210568
 30
0.0
 10
90.97153589305573
 20
-120.6381143904134
 30
0.0
 10
90.93846297639733
 20
-120.6401814477045
 30
0.0
 10
90.93846297639733
 20
-120.6401814477045
 30
0.0
 10
90.93846297639733
 20
-120.4603474633745
 30
0.0
 10
90.93846297639733
 20
-120.4603474633745
 30
0.0
 10
91.04767250327976
 20
-120.4687879473134
 30
0.0
 10
91.19960121417927
 20
-120.4730943166699
 30
0.0
 10
91.271603709821
 20
-120.4730943166699
 30
0.0
 10
91.271603709821
 20
-120.4730943166699
 30
0.0
 10
91.34395071501123
 20
-120.4730943166699
 30
0.0
 10
91.34395071501123
 20
-120.4730943166699
 30
0.0
 10
91.34395071501123
 20
-120.3101413002176
 30
0.0
 10
91.34395071501123
 20
-120.2996337589876
 30
0.0
 10
91.34188365772009
 20
-120.2446844859979
 30
0.0
 10
91.34188365772009
 20
-120.2446844859979
 30
0.0
 10
91.53825410037933
 20
-120.2700059378144
 30
0.0
 10
91.53825410037933
 20
-120.2700059378144
 30
0.0
 10
91.5420437054131
 20
-120.2700059378144
 30
0.0
 10
91.56064722103345
 20
-120.2720729951056
 30
0.0
 10
91.56064722103345
 20
-120.2889539629833
 30
0.0
 10
91.56064722103345
 20
-120.3037678735699
 30
0.0
 10
91.55134546322329
 20
-120.312380612283
 30
0.0
 10
91.52722979482652
 20
-120.3271945228696
 30
0.0
 10
91.52171764205013
 20
-120.3926513370893
 30
0.0
 10
91.51965058475898
 20
-120.4138386743236
 30
0.0
 10
91.51965058475898
 20
-120.4730943166699
 30
0.0
 10
91.51965058475898
 20
-120.4730943166699
 30
0.0
 10
91.60302189550202
 20
-120.4730943166699
 30
0.0
 10
91.60302189550202
 20
-120.4730943166699
 30
0.0
 10
91.67536890069228
 20
-120.4730943166699
 30
0.0
 10
91.82729761159179
 20
-120.4687879473134
 30
0.0
 10
91.93650713847421
 20
-120.4603474633745
 30
0.0
 10
91.93650713847421
 20
-120.4603474633745
 30
0.0
 10
91.93650713847421
 20
-120.6401814477045
 30
0.0
 10
91.93650713847421
 20
-120.6401814477045
 30
0.0
 10
91.91066892233484
 20
-120.6381143904134
 30
0.0
 10
91.80662703868029
 20
-120.6338080210568
 30
0.0
 10
91.77148706473075
 20
-120.6317409637657
 30
0.0
 10
91.75874021143532
 20
-120.6825561221731
 30
0.0
 10
91.72911239026217
 20
-120.794693980218
 30
0.0
 10
91.6715792956585
 20
-120.9342203473706
 30
0.0
 10
91.7087863268992
 20
-120.9342203473706
 30
0.0
 10
91.95132104906078
 20
-120.9152723222017
 30
0.0
 10
92.00506453863068
 20
-120.9130330101363
 30
0.0
 10
92.00506453863068
 20
-120.9130330101363
 30
0.0
 10
92.00506453863068
 20
-121.0971733638229
 30
0.0
 10
92.00506453863068
 20
-121.0971733638229
 30
0.0
 10
91.97888181294279
 20
-121.0971733638229
 30
0.0
 10
91.9640679023562
 20
-121.0928669944664
 30
0.0
 10
91.82178545881538
 20
-121.0928669944664
 30
0.0
  0
SPLINE
  5
D9
330
D4
100
AcDbEntity
  8
_U+30EC_U+30A4_U+30E4_U+30FC 1
370
     0
100
AcDbSpline
210
0.0
220
0.0
230
1.0
 70
    11
 71
     3
 72
    20
 73
    16
 74
     0
 42
0.0000000001
 43
0.0000000001
 12
1.0
 22
0.0
 32
0.0
 13
1.0
 23
0.0
 33
0.0
 40
0.0
 40
0.0
 40
0.0
 40
0.0
 40
1.0
 40
1.0
 40
1.0
 40
2.0
 40
2.0
 40
2.0
 40
3.0
 40
3.0
 40
3.0
 40
4.0
 40
4.0
 40
4.0
 40
5.0
 40
5.0
 40
5.0
 40
5.0
 10
91.271603709821
 20
-120.6276068491834
 30
0.0
 10
91.271603709821
 20
-120.6276068491834
 30
0.0
 10
91.24369843639047
 20
-120.6276068491834
 30
0.0
 10
91.24369843639047
 20
-120.6276068491834
 30
0.0
 10
91.28469507266495
 20
-120.7269978539328
 30
0.0
 10
91.31225583654694
 20
-120.8072685787392
 30
0.0
 10
91.34188365772009
 20
-120.9342203473706
 30
0.0
 10
91.34188365772009
 20
-120.9342203473706
 30
0.0
 10
91.52344018979275
 20
-120.9342203473706
 30
0.0
 10
91.52344018979275
 20
-120.9342203473706
 30
0.0
 10
91.55134546322329
 20
-120.8412027692689
 30
0.0
 10
91.57167152658626
 20
-120.756625675106
 30
0.0
 10
91.59199758994923
 20
-120.6276068491834
 30
0.0
 10
91.59199758994923
 20
-120.6276068491834
 30
0.0
 10
91.271603709821
 20
-120.6276068491834
 30
0.0
 10
91.271603709821
 20
-120.6276068491834
 30
0.0
  0
SPLINE
  5
DA
330
D4
100
AcDbEntity
  8
_U+30EC_U+30A4_U+30E4_U+30FC 1
370
     0
100
AcDbSpline
210
0.0
220
0.0
230
1.0
 70
    11
 71
     3
 72
    17
 73
    13
 74
     0
 42
0.0000000001
 43
0.0000000001
 12
1.0
 22
0.0
 32
0.0
 13
1.0
 23
0.0
 33
0.0
 40
0.0
 40
0.0
 40
0.0
 40
0.0
 40
1.0
 40
1.0
 40
1.0
 40
2.0
 40
2.0
 40
2.0
 40
3.0
 40
3.0
 40
3.0
 40
4.0
 40
4.0
 40
4.0
 40
4.0
 10
91.32706974713352
 20
-121.4780286697173
 30
0.0
 10
91.31225583654694
 20
-121.5074842361162
 30
0.0
 10
91.26781410478722
 20
-121.6006740689922
 30
0.0
 10
91.25885685652557
 20
-121.6196220941611
 30
0.0
 10
91.42525496846314
 20
-121.6788777365074
 30
0.0
 10
91.44385848408348
 20
-121.6852511631551
 30
0.0
 10
91.50690373146355
 20
-121.7128119270371
 30
0.0
 10
91.55513506825706
 20
-121.6259955208088
 30
0.0
 10
91.57546113162003
 20
-121.5519259678759
 30
0.0
 10
91.58820798491546
 20
-121.4780286697173
 30
0.0
 10
91.58820798491546
 20
-121.4780286697173
 30
0.0
 10
91.32706974713352
 20
-121.4780286697173
 30
0.0
 10
91.32706974713352
 20
-121.4780286697173
 30
0.0
  0
HATCH
  5
DB
330
D4
100
AcDbEntity
  8
_U+30EC_U+30A4_U+30E4_U+30FC 1
 62
   179
420
  2234388
100
AcDbHatch
 10
0.0
 20
0.0
 30
0.0
210
0.0
220
0.0
230
1.0
  2
SOLID
 70
     1
 71
     0
 91
        3
 92
        1
 93
        1
 72
     4
 94
        3
 73
     0
 74
     1
 95
      242
 96
      238
 40
0.0
 40
0.0
 40
0.0
 40
0.0
 40
1.0
 40
1.0
 40
1.0
 40
2.0
 40
2.0
 40
2.0
 40
3.0
 40
3.0
 40
3.0
 40
4.0
 40
4.0
 40
4.0
 40
5.0
 40
5.0
 40
5.0
 40
6.0
 40
6.0
 40
6.0
 40
7.0
 40
7.0
 40
7.0
 40
8.0
 40
8.0
 40
8.0
 40
9.0
 40
9.0
 40
9.0
 40
10.0
 40
10.0
 40
10.0
 40
11.0
 40
11.0
 40
11.0
 40
12.0
 40
12.0
 40
12.0
 40
13.0
 40
13.0
 40
13.0
 40
14.0
 40
14.0
 40
14.0
 40
15.0
 40
15.0
 40
15.0
 40
16.0
 40
16.0
 40
16.0
 40
17.0
 40
17.0
 40
17.0
 40
18.0
 40
18.0
 40
18.0
 40
19.0
 40
19.0
 40
19.0
 40
20.0
 40
20.0
 40
20.0
 40
21.0
 40
21.0
 40
21.0
 40
22.0
 40
22.0
 40
22.0
 40
23.0
 40
23.0
 40
23.0
 40
24.0
 40
24.0
 40
24.0
 40
25.0
 40
25.0
 40
25.0
 40
26.0
 40
26.0
 40
26.0
 40
27.0
 40
27.0
 40
27.0
 40
28.0
 40
28.0
 40
28.0
 40
29.0
 40
29.0
 40
29.0
 40
30.0
 40
30.0
 40
30.0
 40
31.0
 40
31.0
 40
31.0
 40
32.0
 40
32.0
 40
32.0
 40
33.0
 40
33.0
 40
33.0
 40
34.0
 40
34.0
 40
34.0
 40
35.0
 40
35.0
 40
35.0
 40
36.0
 40
36.0
 40
36.0
 40
37.0
 40
37.0
 40
37.0
 40
38.0
 40
38.0
 40
38.0
 40
39.0
 40
39.0
 40
39.0
 40
40.0
 40
40.0
 40
40.0
 40
41.0
 40
41.0
 40
41.0
 40
42.0
 40
42.0
 40
42.0
 40
43.0
 40
43.0
 40
43.0
 40
44.0
 40
44.0
 40
44.0
 40
45.0
 40
45.0
 40
45.0
 40
46.0
 40
46.0
 40
46.0
 40
47.0
 40
47.0
 40
47.0
 40
48.0
 40
48.0
 40
48.0
 40
49.0
 40
49.0
 40
49.0
 40
50.0
 40
50.0
 40
50.0
 40
51.0
 40
51.0
 40
51.0
 40
52.0
 40
52.0
 40
52.0
 40
53.0
 40
53.0
 40
53.0
 40
54.0
 40
54.0
 40
54.0
 40
55.0
 40
55.0
 40
55.0
 40
56.0
 40
56.0
 40
56.0
 40
57.0
 40
57.0
 40
57.0
 40
58.0
 40
58.0
 40
58.0
 40
59.0
 40
59.0
 40
59.0
 40
60.0
 40
60.0
 40
60.0
 40
61.0
 40
61.0
 40
61.0
 40
62.0
 40
62.0
 40
62.0
 40
63.0
 40
63.0
 40
63.0
 40
64.0
 40
64.0
 40
64.0
 40
65.0
 40
65.0
 40
65.0
 40
66.0
 40
66.0
 40
66.0
 40
67.0
 40
67.0
 40
67.0
 40
68.0
 40
68.0
 40
68.0
 40
69.0
 40
69.0
 40
69.0
 40
70.0
 40
70.0
 40
70.0
 40
71.0
 40
71.0
 40
71.0
 40
72.0
 40
72.0
 40
72.0
 40
73.0
 40
73.0
 40
73.0
 40
74.0
 40
74.0
 40
74.0
 40
75.0
 40
75.0
 40
75.0
 40
76.0
 40
76.0
 40
76.0
 40
77.0
 40
77.0
 40
77.0
 40
78.0
 40
78.0
 40
78.0
 40
79.0
 40
79.0
 40
79.0
 40
79.0
 10
91.82178545881538
 20
-121.0928669944664
 10
91.82178545881538
 20
-121.0928669944664
 10
91.59923229046825
 20
-121.0928669944664
 10
91.59923229046825
 20
-121.0928669944664
 10
91.59923229046825
 20
-121.0928669944664
 10
91.35669756830666
 20
-121.0928669944664
 10
91.35669756830666
 20
-121.0928669944664
 10
91.35669756830666
 20
-121.0928669944664
 10
91.46797415248024
 20
-121.1352416689349
 10
91.46797415248024
 20
-121.1352416689349
 10
91.4772759102904
 20
-121.1395480382915
 10
91.48830021584321
 20
-121.145749210165
 10
91.48830021584321
 20
-121.1584960634604
 10
91.48830021584321
 20
-121.1796834006947
 10
91.46039494241268
 20
-121.1860568273424
 10
91.44213593634086
 20
-121.1901909419247
 10
91.43283417853068
 20
-121.2134453364501
 10
91.4069959623913
 20
-121.2790744054441
 10
91.39011499451358
 20
-121.3235161372039
 10
91.39011499451358
 20
-121.3235161372039
 10
91.62713756389877
 20
-121.3235161372039
 10
91.62713756389877
 20
-121.3235161372039
 10
91.70671926960804
 20
-121.3235161372039
 10
91.87897404387054
 20
-121.3192097678473
 10
92.00299748133953
 20
-121.3107692839084
 10
92.00299748133953
 20
-121.3107692839084
 10
92.00299748133953
 20
-121.4885362109473
 10
92.00299748133953
 20
-121.4885362109473
 10
91.93099498569781
 20
-121.4842298415908
 10
91.91239147007747
 20
-121.4842298415908
 10
91.75495060640155
 20
-121.4800957270085
 10
91.72704533297102
 20
-121.6344360047476
 10
91.6881157539877
 20
-121.7148789843282
 10
91.6495306845529
 20
-121.7846421679045
 10
91.75495060640155
 20
-121.8438978102508
 10
91.84762367495476
 20
-121.911593936536
 10
91.93822968621683
 20
-121.9941039734077
 10
91.93822968621683
 20
-121.9941039734077
 10
91.83453231211081
 20
-122.1611911044424
 10
91.83453231211081
 20
-122.1611911044424
 10
91.81420624874784
 20
-122.1422430792735
 10
91.80318194319504
 20
-122.1338025953346
 10
91.70499672186543
 20
-122.0490532463975
 10
91.66227753784833
 20
-122.0109849412855
 10
91.61060110556957
 20
-121.9751559482389
 10
91.53997664812195
 20
-121.9307142164791
 10
91.35497502056404
 20
-122.1169216274569
 10
91.17548554578252
 20
-122.1401760219823
 10
90.92158200851961
 20
-122.1698038431555
 10
90.92158200851961
 20
-122.1698038431555
 10
90.83097599725754
 20
-121.9899698588254
 10
90.83097599725754
 20
-121.9899698588254
 10
91.10865069336867
 20
-121.9856634894689
 10
91.26230195201082
 20
-121.9603420376523
 10
91.39562714728999
 20
-121.8502712368985
 10
91.29192977318397
 20
-121.7994560784911
 10
91.21407061521732
 20
-121.7720675693834
 10
91.18272024630154
 20
-121.759320716088
 10
91.16618378797234
 20
-121.7868814799699
 10
91.15309242512839
 20
-121.8058295051388
 10
91.12897675673165
 20
-121.8397636956685
 10
91.12897675673165
 20
-121.8397636956685
 10
90.95672198246916
 20
-121.7572536587968
 10
90.95672198246916
 20
-121.7572536587968
 10
91.0290689876594
 20
-121.6768106792162
 10
91.0828124772293
 20
-121.5815537890491
 10
91.13276636176542
 20
-121.4800957270085
 10
90.96602374027933
 20
-121.4842298415908
 10
90.94742022465898
 20
-121.4842298415908
 10
90.87541772901726
 20
-121.4885362109473
 10
90.87541772901726
 20
-121.4885362109473
 10
90.87541772901726
 20
-121.3107692839084
 10
90.87541772901726
 20
-121.3107692839084
 10
90.99771861874363
 20
-121.3171427105561
 10
91.18099769855893
 20
-121.3214490799127
 10
91.20304630966451
 20
-121.3214490799127
 10
91.2178602202511
 20
-121.287514889383
 10
91.26609155704459
 20
-121.1669365473992
 10
91.28262801537379
 20
-121.0928669944664
 10
91.26609155704459
 20
-121.0928669944664
 10
91.11071775065983
 20
-121.0992404211141
 10
90.94018552413996
 20
-121.1119872744095
 10
90.94018552413996
 20
-121.1119872744095
 10
90.94018552413996
 20
-121.2453124696887
 10
90.94018552413996
 20
-121.2453124696887
 10
90.89746634012286
 20
-121.2706339215053
 10
90.84578990784411
 20
-121.3023287999696
 10
90.72900117089414
 20
-121.3679578689636
 10
90.72900117089414
 20
-121.3679578689636
 10
90.72900117089414
 20
-121.5138576627639
 10
90.72900117089414
 20
-121.5138576627639
 10
90.72900117089414
 20
-121.5138576627639
 10
90.72900117089414
 20
-121.9815293748866
 10
90.72900117089414
 20
-121.9815293748866
 10
90.72900117089414
 20
-122.1083088887438
 10
90.69765080197837
 20
-122.1675645310901
 10
90.44960392704039
 20
-122.1591240471512
 10
90.44960392704039
 20
-122.1591240471512
 10
90.35865340622979
 20
-121.9519015537134
 10
90.35865340622979
 20
-121.9519015537134
 10
90.4141194435423
 20
-121.9644761522346
 10
90.4568386275594
 20
-121.9687825215911
 10
90.49197860150895
 20
-121.9687825215911
 10
90.5588134539228
 20
-121.9687825215911
 10
90.56811521173297
 20
-121.9455281270657
 10
90.56811521173297
 20
-121.8798990580717
 10
90.56811521173297
 20
-121.8798990580717
 10
90.56811521173297
 20
-121.4504679058353
 10
90.56811521173297
 20
-121.4504679058353
 10
90.48267684369878
 20
-121.4906032682385
 10
90.4678629331122
 20
-121.4969766948862
 10
90.42721080638626
 20
-121.5160969748293
 10
90.42342120135248
 20
-121.5371120572893
 10
90.41997610586724
 20
-121.5667398784625
 10
90.40309513798951
 20
-121.5667398784625
 10
90.39586043747049
 20
-121.5667398784625
 10
90.38655867966031
 20
-121.5626057638802
 10
90.3810465268839
 20
-121.5393513693547
 10
90.3810465268839
 20
-121.5393513693547
 10
90.33453773783303
 20
-121.3467705317293
 10
90.33453773783303
 20
-121.3467705317293
 10
90.46235078033581
 20
-121.3002617426784
 10
90.51988387493948
 20
-121.277007348153
 10
90.56811521173297
 20
-121.2558200109187
 10
90.56811521173297
 20
-121.2558200109187
 10
90.56811521173297
 20
-120.84326982656
 10
90.56811521173297
 20
-120.84326982656
 10
90.56811521173297
 20
-120.84326982656
 10
90.5216064226821
 20
-120.84326982656
 10
90.5216064226821
 20
-120.84326982656
 10
90.5216064226821
 20
-120.84326982656
 10
90.45304902252563
 20
-120.84326982656
 10
90.45304902252563
 20
-120.84326982656
 10
90.39379338017933
 20
-120.84326982656
 10
90.38655867966031
 20
-120.84326982656
 10
90.354863801196
 20
-120.8496432532077
 10
90.354863801196
 20
-120.8496432532077
 10
90.354863801196
 20
-120.6549953582911
 10
90.354863801196
 20
-120.6549953582911
 10
90.37897946959276
 20
-120.6613687849388
 10
90.38655867966031
 20
-120.6613687849388
 10
90.44753686974923
 20
-120.6613687849388
 10
90.44753686974923
 20
-120.6613687849388
 10
90.5643256066992
 20
-120.6613687849388
 10
90.5643256066992
 20
-120.6613687849388
 10
90.5643256066992
 20
-120.5916056013625
 10
90.5643256066992
 20
-120.5090955644908
 10
90.56225854940806
 20
-120.5047891951342
 10
90.55502384888902
 20
-120.3249552108042
 10
90.55502384888902
 20
-120.3060071856353
 10
90.5533013011464
 20
-120.2594983965844
 10
90.5533013011464
 20
-120.2594983965844
 10
90.74209253373809
 20
-120.2679388805233
 10
90.74209253373809
 20
-120.2679388805233
 10
90.75139429154827
 20
-120.2679388805233
 10
90.7696532976201
 20
-120.2700059378144
 10
90.7696532976201
 20
-120.2868869056922
 10
90.7696532976201
 20
-120.3060071856353
 10
90.75690644432467
 20
-120.3165147268653
 10
90.73451332367054
 20
-120.3356350068085
 10
90.73451332367054
 20
-120.3862779104416
 10
90.72900117089414
 20
-120.614859995888
 10
90.7310682281853
 20
-120.6613687849388
 10
90.84406736010149
 20
-120.6613687849388
 10
90.85509166565429
 20
-120.6613687849388
 10
90.94018552413996
 20
-120.652928301
 10
90.94018552413996
 20
-120.652928301
 10
90.94018552413996
 20
-120.8475761959166
 10
90.94018552413996
 20
-120.8475761959166
 10
90.90676809793304
 20
-120.8453368838512
 10
90.84751245558674
 20
-120.8412027692689
 10
90.72900117089414
 20
-120.84326982656
 10
90.72900117089414
 20
-120.84326982656
 10
90.72900117089414
 20
-121.1817504579858
 10
90.72900117089414
 20
-121.1817504579858
 10
90.77723250768764
 20
-121.1584960634604
 10
90.83476560229131
 20
-121.1309352995784
 10
90.87714027675989
 20
-121.1076809050529
 10
90.87714027675989
 20
-121.1076809050529
 10
90.87714027675989
 20
-120.9300862327883
 10
90.87714027675989
 20
-120.9300862327883
 10
90.97704804583213
 20
-120.9426608313095
 10
91.08108992948668
 20
-120.9426608313095
 10
91.18272024630154
 20
-120.9426608313095
 10
91.16239418293857
 20
-120.8475761959166
 10
91.13827851454182
 20
-120.7650661590448
 10
91.0828124772293
 20
-120.6317409637657
 10
91.04388289824598
 20
-120.6338080210568
 10
90.97153589305573
 20
-120.6381143904134
 10
90.93846297639733
 20
-120.6401814477045
 10
90.93846297639733
 20
-120.6401814477045
 10
90.93846297639733
 20
-120.4603474633745
 10
90.93846297639733
 20
-120.4603474633745
 10
91.04767250327976
 20
-120.4687879473134
 10
91.19960121417927
 20
-120.4730943166699
 10
91.271603709821
 20
-120.4730943166699
 10
91.271603709821
 20
-120.4730943166699
 10
91.34395071501123
 20
-120.4730943166699
 10
91.34395071501123
 20
-120.4730943166699
 10
91.34395071501123
 20
-120.3101413002176
 10
91.34395071501123
 20
-120.2996337589876
 10
91.34188365772009
 20
-120.2446844859979
 10
91.34188365772009
 20
-120.2446844859979
 10
91.53825410037933
 20
-120.2700059378144
 10
91.53825410037933
 20
-120.2700059378144
 10
91.5420437054131
 20
-120.2700059378144
 10
91.56064722103345
 20
-120.2720729951056
 10
91.56064722103345
 20
-120.2889539629833
 10
91.56064722103345
 20
-120.3037678735699
 10
91.55134546322329
 20
-120.312380612283
 10
91.52722979482652
 20
-120.3271945228696
 10
91.52171764205013
 20
-120.3926513370893
 10
91.51965058475898
 20
-120.4138386743236
 10
91.51965058475898
 20
-120.4730943166699
 10
91.51965058475898
 20
-120.4730943166699
 10
91.60302189550202
 20
-120.4730943166699
 10
91.60302189550202
 20
-120.4730943166699
 10
91.67536890069228
 20
-120.4730943166699
 10
91.82729761159179
 20
-120.4687879473134
 10
91.93650713847421
 20
-120.4603474633745
 10
91.93650713847421
 20
-120.4603474633745
 10
91.93650713847421
 20
-120.6401814477045
 10
91.93650713847421
 20
-120.6401814477045
 10
91.91066892233484
 20
-120.6381143904134
 10
91.80662703868029
 20
-120.6338080210568
 10
91.77148706473075
 20
-120.6317409637657
 10
91.75874021143532
 20
-120.6825561221731
 10
91.72911239026217
 20
-120.794693980218
 10
91.6715792956585
 20
-120.9342203473706
 10
91.7087863268992
 20
-120.9342203473706
 10
91.95132104906078
 20
-120.9152723222017
 10
92.00506453863068
 20
-120.9130330101363
 10
92.00506453863068
 20
-120.9130330101363
 10
92.00506453863068
 20
-121.0971733638229
 10
92.00506453863068
 20
-121.0971733638229
 10
91.97888181294279
 20
-121.0971733638229
 10
91.9640679023562
 20
-121.0928669944664
 10
91.82178545881538
 20
-121.0928669944664
 97
        0
 97
        0
 92
        1
 93
        1
 72
     4
 94
        3
 73
     0
 74
     1
 95
       20
 96
       16
 40
0.0
 40
0.0
 40
0.0
 40
0.0
 40
1.0
 40
1.0
 40
1.0
 40
2.0
 40
2.0
 40
2.0
 40
3.0
 40
3.0
 40
3.0
 40
4.0
 40
4.0
 40
4.0
 40
5.0
 40
5.0
 40
5.0
 40
5.0
 10
91.271603709821
 20
-120.6276068491834
 10
91.271603709821
 20
-120.6276068491834
 10
91.24369843639047
 20
-120.6276068491834
 10
91.24369843639047
 20
-120.6276068491834
 10
91.28469507266495
 20
-120.7269978539328
 10
91.31225583654694
 20
-120.8072685787392
 10
91.34188365772009
 20
-120.9342203473706
 10
91.34188365772009
 20
-120.9342203473706
 10
91.52344018979275
 20
-120.9342203473706
 10
91.52344018979275
 20
-120.9342203473706
 10
91.55134546322329
 20
-120.8412027692689
 10
91.57167152658626
 20
-120.756625675106
 10
91.59199758994923
 20
-120.6276068491834
 10
91.59199758994923
 20
-120.6276068491834
 10
91.271603709821
 20
-120.6276068491834
 10
91.271603709821
 20
-120.6276068491834
 97
        0
 97
        0
 92
        1
 93
        1
 72
     4
 94
        3
 73
     0
 74
     1
 95
       17
 96
       13
 40
0.0
 40
0.0
 40
0.0
 40
0.0
 40
1.0
 40
1.0
 40
1.0
 40
2.0
 40
2.0
 40
2.0
 40
3.0
 40
3.0
 40
3.0
 40
4.0
 40
4.0
 40
4.0
 40
4.0
 10
91.32706974713352
 20
-121.4780286697173
 10
91.31225583654694
 20
-121.5074842361162
 10
91.26781410478722
 20
-121.6006740689922
 10
91.25885685652557
 20
-121.6196220941611
 10
91.42525496846314
 20
-121.6788777365074
 10
91.44385848408348
 20
-121.6852511631551
 10
91.50690373146355
 20
-121.7128119270371
 10
91.55513506825706
 20
-121.6259955208088
 10
91.57546113162003
 20
-121.5519259678759
 10
91.58820798491546
 20
-121.4780286697173
 10
91.58820798491546
 20
-121.4780286697173
 10
91.32706974713352
 20
-121.4780286697173
 10
91.32706974713352
 20
-121.4780286697173
 97
        0
 97
        0
 75
     2
 76
     1
 98
        0
  0
SPLINE
  5
DC
330
D4
100
AcDbEntity
  8
_U+30EC_U+30A4_U+30E4_U+30FC 1
370
     0
100
AcDbSpline
210
0.0
220
0.0
230
1.0
 70
    11
 71
     3
 72
   203
 73
   199
 74
     0
 42
0.0000000001
 43
0.0000000001
 12
1.0
 22
0.0
 32
0.0
 13
1.0
 23
0.0
 33
0.0
 40
0.0
 40
0.0
 40
0.0
 40
0.0
 40
1.0
 40
1.0
 40
1.0
 40
2.0
 40
2.0
 40
2.0
 40
3.0
 40
3.0
 40
3.0
 40
4.0
 40
4.0
 40
4.0
 40
5.0
 40
5.0
 40
5.0
 40
6.0
 40
6.0
 40
6.0
 40
7.0
 40
7.0
 40
7.0
 40
8.0
 40
8.0
 40
8.0
 40
9.0
 40
9.0
 40
9.0
 40
10.0
 40
10.0
 40
10.0
 40
11.0
 40
11.0
 40
11.0
 40
12.0
 40
12.0
 40
12.0
 40
13.0
 40
13.0
 40
13.0
 40
14.0
 40
14.0
 40
14.0
 40
15.0
 40
15.0
 40
15.0
 40
16.0
 40
16.0
 40
16.0
 40
17.0
 40
17.0
 40
17.0
 40
18.0
 40
18.0
 40
18.0
 40
19.0
 40
19.0
 40
19.0
 40
20.0
 40
20.0
 40
20.0
 40
21.0
 40
21.0
 40
21.0
 40
22.0
 40
22.0
 40
22.0
 40
23.0
 40
23.0
 40
23.0
 40
24.0
 40
24.0
 40
24.0
 40
25.0
 40
25.0
 40
25.0
 40
26.0
 40
26.0
 40
26.0
 40
27.0
 40
27.0
 40
27.0
 40
28.0
 40
28.0
 40
28.0
 40
29.0
 40
29.0
 40
29.0
 40
30.0
 40
30.0
 40
30.0
 40
31.0
 40
31.0
 40
31.0
 40
32.0
 40
32.0
 40
32.0
 40
33.0
 40
33.0
 40
33.0
 40
34.0
 40
34.0
 40
34.0
 40
35.0
 40
35.0
 40
35.0
 40
36.0
 40
36.0
 40
36.0
 40
37.0
 40
37.0
 40
37.0
 40
38.0
 40
38.0
 40
38.0
 40
39.0
 40
39.0
 40
39.0
 40
40.0
 40
40.0
 40
40.0
 40
41.0
 40
41.0
 40
41.0
 40
42.0
 40
42.0
 40
42.0
 40
43.0
 40
43.0
 40
43.0
 40
44.0
 40
44.0
 40
44.0
 40
45.0
 40
45.0
 40
45.0
 40
46.0
 40
46.0
 40
46.0
 40
47.0
 40
47.0
 40
47.0
 40
48.0
 40
48.0
 40
48.0
 40
49.0
 40
49.0
 40
49.0
 40
50.0
 40
50.0
 40
50.0
 40
51.0
 40
51.0
 40
51.0
 40
52.0
 40
52.0
 40
52.0
 40
53.0
 40
53.0
 40
53.0
 40
54.0
 40
54.0
 40
54.0
 40
55.0
 40
55.0
 40
55.0
 40
56.0
 40
56.0
 40
56.0
 40
57.0
 40
57.0
 40
57.0
 40
58.0
 40
58.0
 40
58.0
 40
59.0
 40
59.0
 40
59.0
 40
60.0
 40
60.0
 40
60.0
 40
61.0
 40
61.0
 40
61.0
 40
62.0
 40
62.0
 40
62.0
 40
63.0
 40
63.0
 40
63.0
 40
64.0
 40
64.0
 40
64.0
 40
65.0
 40
65.0
 40
65.0
 40
66.0
 40
66.0
 40
66.0
 40
66.0
 10
93.30352102702135
 20
-121.1605631207515
 30
0.0
 10
93.30352102702135
 20
-121.1605631207515
 30
0.0
 10
92.8146619776644
 20
-121.1605631207515
 30
0.0
 10
92.8146619776644
 20
-121.1605631207515
 30
0.0
 10
92.80536021985422
 20
-121.2050048525113
 30
0.0
 10
92.7981255193352
 20
-121.2366997309756
 30
0.0
 10
92.78710121378239
 20
-121.2749402908618
 30
0.0
 10
92.809149824888
 20
-121.2749402908618
 30
0.0
 10
92.82224118773195
 20
-121.277007348153
 30
0.0
 10
92.82775334050834
 20
-121.277007348153
 30
0.0
 10
92.82775334050834
 20
-121.277007348153
 30
0.0
 10
92.99242890470329
 20
-121.277007348153
 30
0.0
 10
92.99242890470329
 20
-121.277007348153
 30
0.0
 10
92.99242890470329
 20
-121.277007348153
 30
0.0
 10
93.32040199489907
 20
-121.277007348153
 30
0.0
 10
93.32040199489907
 20
-121.277007348153
 30
0.0
 10
93.36449921711026
 20
-121.277007348153
 30
0.0
 10
93.61289060159679
 20
-121.2642604948576
 30
0.0
 10
93.64045136547878
 20
-121.2642604948576
 30
0.0
 10
93.63872881773615
 20
-121.2918212587395
 30
0.0
 10
93.63700626999353
 20
-121.3107692839084
 30
0.0
 10
93.63700626999353
 20
-121.3403971050816
 30
0.0
 10
93.63493921270238
 20
-121.3720919835459
 30
0.0
 10
93.63493921270238
 20
-121.5074842361162
 30
0.0
 10
93.63493921270238
 20
-121.5350449999982
 30
0.0
 10
93.63493921270238
 20
-121.5350449999982
 30
0.0
 10
93.63493921270238
 20
-121.7805080533222
 30
0.0
 10
93.63493921270238
 20
-121.7805080533222
 30
0.0
 10
93.63493921270238
 20
-121.824949785082
 30
0.0
 10
93.63872881773615
 20
-122.0216647372897
 30
0.0
 10
93.64251842276992
 20
-122.1739379577378
 30
0.0
 10
93.64251842276992
 20
-122.1739379577378
 30
0.0
 10
93.44442543236806
 20
-122.1739379577378
 30
0.0
 10
93.44442543236806
 20
-122.1739379577378
 30
0.0
 10
93.44442543236806
 20
-122.1739379577378
 30
0.0
 10
93.4461479801107
 20
-122.1401760219823
 30
0.0
 10
93.4461479801107
 20
-122.1401760219823
 30
0.0
 10
93.4461479801107
 20
-122.1401760219823
 30
0.0
 10
92.8311984359936
 20
-122.1401760219823
 30
0.0
 10
92.8311984359936
 20
-122.1401760219823
 30
0.0
 10
92.8311984359936
 20
-122.1401760219823
 30
0.0
 10
92.83326549328474
 20
-122.1739379577378
 30
0.0
 10
92.83326549328474
 20
-122.1739379577378
 30
0.0
 10
92.83326549328474
 20
-122.1739379577378
 30
0.0
 10
92.6424072034019
 20
-122.1739379577378
 30
0.0
 10
92.6424072034019
 20
-122.1739379577378
 30
0.0
 10
92.64619680843568
 20
-122.118988684748
 30
0.0
 10
92.64619680843568
 20
-122.1062418314526
 30
0.0
 10
92.65170896121208
 20
-121.9920369161166
 30
0.0
 10
92.6534315089547
 20
-121.9644761522346
 30
0.0
 10
92.65549856624585
 20
-121.8313232117297
 30
0.0
 10
92.65549856624585
 20
-121.8122029317865
 30
0.0
 10
92.65549856624585
 20
-121.8122029317865
 30
0.0
 10
92.65549856624585
 20
-121.6091145529311
 30
0.0
 10
92.65549856624585
 20
-121.6091145529311
 30
0.0
 10
92.53319767651948
 20
-121.8587117208374
 30
0.0
 10
92.38505857065374
 20
-121.9899698588254
 30
0.0
 10
92.29238550210052
 20
-122.0554266730452
 30
0.0
 10
92.29238550210052
 20
-122.0554266730452
 30
0.0
 10
92.14080130074953
 20
-121.9159003058926
 30
0.0
 10
92.14080130074953
 20
-121.9159003058926
 30
0.0
 10
92.21831594916765
 20
-121.8650851474851
 30
0.0
 10
92.3444064439278
 20
-121.7782687412568
 30
0.0
 10
92.46464027636301
 20
-121.5837931011145
 30
0.0
 10
92.54422198207229
 20
-121.456841332483
 30
0.0
 10
92.60175507667596
 20
-121.3130085959738
 30
0.0
 10
92.63138289784911
 20
-121.1605631207515
 30
0.0
 10
92.43156735970462
 20
-121.1628024328169
 30
0.0
 10
92.2741264960287
 20
-121.1691758594647
 30
0.0
 10
92.19075518528565
 20
-121.1712429167558
 30
0.0
 10
92.19075518528565
 20
-121.1712429167558
 30
0.0
 10
92.19075518528565
 20
-120.9934759897169
 30
0.0
 10
92.19075518528565
 20
-120.9934759897169
 30
0.0
 10
92.36300995954814
 20
-120.9998494163646
 30
0.0
 10
92.61105683448613
 20
-121.0041557857212
 30
0.0
 10
92.74231497247415
 20
-121.0041557857212
 30
0.0
 10
92.74231497247415
 20
-121.0041557857212
 30
0.0
 10
92.92938365732321
 20
-121.0041557857212
 30
0.0
 10
92.92938365732321
 20
-121.0041557857212
 30
0.0
 10
92.92938365732321
 20
-121.0041557857212
 30
0.0
 10
92.92938365732321
 20
-120.8961520422586
 30
0.0
 10
92.92938365732321
 20
-120.8961520422586
 30
0.0
 10
92.92938365732321
 20
-120.8961520422586
 30
0.0
 10
92.80157061482045
 20
-120.8961520422586
 30
0.0
 10
92.80157061482045
 20
-120.8961520422586
 30
0.0
 10
92.6534315089547
 20
-120.8961520422586
 30
0.0
 10
92.50529240308896
 20
-120.9004584116152
 30
0.0
 10
92.35922035451436
 20
-120.9068318382629
 30
0.0
 10
92.35922035451436
 20
-120.9068318382629
 30
0.0
 10
92.35922035451436
 20
-120.7354383378717
 30
0.0
 10
92.35922035451436
 20
-120.7354383378717
 30
0.0
 10
92.49426809753616
 20
-120.7459458791017
 30
0.0
 10
92.65722111398847
 20
-120.7459458791017
 30
0.0
 10
92.80157061482045
 20
-120.7459458791017
 30
0.0
 10
92.80157061482045
 20
-120.7459458791017
 30
0.0
 10
92.92938365732321
 20
-120.7459458791017
 30
0.0
 10
92.92938365732321
 20
-120.7459458791017
 30
0.0
 10
92.92938365732321
 20
-120.7459458791017
 30
0.0
 10
92.92938365732321
 20
-120.6276068491834
 30
0.0
 10
92.92938365732321
 20
-120.6276068491834
 30
0.0
 10
92.92938365732321
 20
-120.6276068491834
 30
0.0
 10
92.8146619776644
 20
-120.6276068491834
 30
0.0
 10
92.8146619776644
 20
-120.6276068491834
 30
0.0
 10
92.77400985093844
 20
-120.6276068491834
 30
0.0
 10
92.59624292389955
 20
-120.6360473331222
 30
0.0
 10
92.55903589265886
 20
-120.6360473331222
 30
0.0
 10
92.38126896561997
 20
-120.6401814477045
 30
0.0
 10
92.31477862275464
 20
-120.6422485049957
 30
0.0
 10
92.24622122259817
 20
-120.6444878170611
 30
0.0
 10
92.24622122259817
 20
-120.6444878170611
 30
0.0
 10
92.24622122259817
 20
-120.4603474633745
 30
0.0
 10
92.24622122259817
 20
-120.4603474633745
 30
0.0
 10
92.34612899167041
 20
-120.4687879473134
 30
0.0
 10
92.38505857065374
 20
-120.4687879473134
 30
0.0
 10
92.72026636136854
 20
-120.4774006860265
 30
0.0
 10
92.66480032405603
 20
-120.3821437958593
 30
0.0
 10
92.64068465565927
 20
-120.3545830319773
 30
0.0
 10
92.6093342867435
 20
-120.3185817841565
 30
0.0
 10
92.6093342867435
 20
-120.3185817841565
 30
0.0
 10
92.76298554538565
 20
-120.2360717472847
 30
0.0
 10
92.76298554538565
 20
-120.2360717472847
 30
0.0
 10
92.7981255193352
 20
-120.2720729951056
 30
0.0
 10
92.83705509831852
 20
-120.3144476695742
 30
0.0
 10
92.90182289344122
 20
-120.4243462155536
 30
0.0
 10
92.90182289344122
 20
-120.4243462155536
 30
0.0
 10
92.80157061482045
 20
-120.4794677433176
 30
0.0
 10
92.80157061482045
 20
-120.4794677433176
 30
0.0
 10
92.80157061482045
 20
-120.4794677433176
 30
0.0
 10
92.81087237263061
 20
-120.4794677433176
 30
0.0
 10
92.81087237263061
 20
-120.4794677433176
 30
0.0
 10
92.81087237263061
 20
-120.4794677433176
 30
0.0
 10
93.26838105307179
 20
-120.4794677433176
 30
0.0
 10
93.26838105307179
 20
-120.4794677433176
 30
0.0
 10
93.26838105307179
 20
-120.4794677433176
 30
0.0
 10
93.18500974232875
 20
-120.4350260115579
 30
0.0
 10
93.18500974232875
 20
-120.4350260115579
 30
0.0
 10
93.2091254107255
 20
-120.3969577064459
 30
0.0
 10
93.25907929526163
 20
-120.3165147268653
 30
0.0
 10
93.27217065810557
 20
-120.2424451739325
 30
0.0
 10
93.27217065810557
 20
-120.2424451739325
 30
0.0
 10
93.45923934295463
 20
-120.3060071856353
 30
0.0
 10
93.45923934295463
 20
-120.3060071856353
 30
0.0
 10
93.46647404347367
 20
-120.3080742429265
 30
0.0
 10
93.48507755909401
 20
-120.3185817841565
 30
0.0
 10
93.48507755909401
 20
-120.3397691213908
 30
0.0
 10
93.48507755909401
 20
-120.3778374265028
 30
0.0
 10
93.42754446449034
 20
-120.3778374265028
 30
0.0
 10
93.41100800616114
 20
-120.3778374265028
 30
0.0
 10
93.40170624835096
 20
-120.3969577064459
 30
0.0
 10
93.38138018498799
 20
-120.4370930688491
 30
0.0
 10
93.35554196884861
 20
-120.4774006860265
 30
0.0
 10
93.70556367015
 20
-120.4710272593788
 30
0.0
 10
93.73140188628938
 20
-120.4687879473134
 30
0.0
 10
93.7978922291547
 20
-120.4625867754399
 30
0.0
 10
93.7978922291547
 20
-120.4625867754399
 30
0.0
 10
93.7978922291547
 20
-120.6444878170611
 30
0.0
 10
93.7978922291547
 20
-120.6444878170611
 30
0.0
 10
93.7813557708255
 20
-120.6444878170611
 30
0.0
 10
93.75896265017137
 20
-120.6422485049957
 30
0.0
 10
93.56638181254591
 20
-120.6338080210568
 30
0.0
 10
93.52194008078618
 20
-120.6317409637657
 30
0.0
 10
93.32935924316072
 20
-120.6276068491834
 30
0.0
 10
93.29077417372592
 20
-120.6276068491834
 30
0.0
 10
93.29077417372592
 20
-120.6276068491834
 30
0.0
 10
93.10163843158571
 20
-120.6276068491834
 30
0.0
 10
93.10163843158571
 20
-120.6276068491834
 30
0.0
 10
93.10163843158571
 20
-120.6276068491834
 30
0.0
 10
93.10163843158571
 20
-120.7459458791017
 30
0.0
 10
93.10163843158571
 20
-120.7459458791017
 30
0.0
 10
93.10163843158571
 20
-120.7459458791017
 30
0.0
 10
93.25356714248522
 20
-120.7459458791017
 30
0.0
 10
93.25356714248522
 20
-120.7459458791017
 30
0.0
 10
93.39619409557457
 20
-120.7459458791017
 30
0.0
 10
93.56293671706067
 20
-120.7459458791017
 30
0.0
 10
93.69970700782508
 20
-120.7354383378717
 30
0.0
 10
93.69970700782508
 20
-120.7354383378717
 30
0.0
 10
93.69970700782508
 20
-120.9068318382629
 30
0.0
 10
93.69970700782508
 20
-120.9068318382629
 30
0.0
 10
93.51642792800979
 20
-120.898391354324
 30
0.0
 10
93.34417315374729
 20
-120.8961520422586
 30
0.0
 10
93.25356714248522
 20
-120.8961520422586
 30
0.0
 10
93.25356714248522
 20
-120.8961520422586
 30
0.0
 10
93.10163843158571
 20
-120.8961520422586
 30
0.0
 10
93.10163843158571
 20
-120.8961520422586
 30
0.0
 10
93.10163843158571
 20
-120.8961520422586
 30
0.0
 10
93.10163843158571
 20
-121.0041557857212
 30
0.0
 10
93.10163843158571
 20
-121.0041557857212
 30
0.0
 10
93.10163843158571
 20
-121.0041557857212
 30
0.0
 10
93.30352102702135
 20
-121.0041557857212
 30
0.0
 10
93.30352102702135
 20
-121.0041557857212
 30
0.0
 10
93.42030976397132
 20
-121.0041557857212
 30
0.0
 10
93.67214624394308
 20
-120.9998494163646
 30
0.0
 10
93.85542532375837
 20
-120.9934759897169
 30
0.0
 10
93.85542532375837
 20
-120.9934759897169
 30
0.0
 10
93.85542532375837
 20
-121.1712429167558
 30
0.0
 10
93.85542532375837
 20
-121.1712429167558
 30
0.0
 10
93.68696015452966
 20
-121.1648694901081
 30
0.0
 10
93.41273055390377
 20
-121.1605631207515
 30
0.0
 10
93.30352102702135
 20
-121.1605631207515
 30
0.0
  0
POLYLINE
  5
DD
330
D4
100
AcDbEntity
  8
_U+30EC_U+30A4_U+30E4_U+30FC 1
370
     0
100
AcDb2dPolyline
 66
     1
 10
0.0
 20
0.0
 30
0.0
  0
VERTEX
  5
DE
330
DD
100
AcDbEntity
  8
_U+30EC_U+30A4_U+30E4_U+30FC 1
370
     0
100
AcDbVertex
100
AcDb2dVertex
 10
93.44787052785331
 20
-121.4165337153056
 30
0.0
  0
VERTEX
  5
DF
330
DD
100
AcDbEntity
  8
_U+30EC_U+30A4_U+30E4_U+30FC 1
370
     0
100
AcDbVertex
100
AcDb2dVertex
 10
92.82947588825097
 20
-121.4165337153056
 30
0.0
  0
VERTEX
  5
E0
330
DD
100
AcDbEntity
  8
_U+30EC_U+30A4_U+30E4_U+30FC 1
370
     0
100
AcDbVertex
100
AcDb2dVertex
 10
92.82947588825097
 20
-121.5245374587682
 30
0.0
  0
VERTEX
  5
E1
330
DD
100
AcDbEntity
  8
_U+30EC_U+30A4_U+30E4_U+30FC 1
370
     0
100
AcDbVertex
100
AcDb2dVertex
 10
93.44787052785331
 20
-121.5245374587682
 30
0.0
  0
VERTEX
  5
E2
330
DD
100
AcDbEntity
  8
_U+30EC_U+30A4_U+30E4_U+30FC 1
370
     0
100
AcDbVertex
100
AcDb2dVertex
 10
93.44787052785331
 20
-121.4165337153056
 30
0.0
  0
SEQEND
  5
E3
330
DD
100
AcDbEntity
  8
_U+30EC_U+30A4_U+30E4_U+30FC 1
370
     0
  0
POLYLINE
  5
E4
330
D4
100
AcDbEntity
  8
_U+30EC_U+30A4_U+30E4_U+30FC 1
370
     0
100
AcDb2dPolyline
 66
     1
 10
0.0
 20
0.0
 30
0.0
  0
VERTEX
  5
E5
330
E4
100
AcDbEntity
  8
_U+30EC_U+30A4_U+30E4_U+30FC 1
370
     0
100
AcDbVertex
100
AcDb2dVertex
 10
93.44787052785331
 20
-121.6492499153342
 30
0.0
  0
VERTEX
  5
E6
330
E4
100
AcDbEntity
  8
_U+30EC_U+30A4_U+30E4_U+30FC 1
370
     0
100
AcDbVertex
100
AcDb2dVertex
 10
92.82947588825097
 20
-121.6492499153342
 30
0.0
  0
VERTEX
  5
E7
330
E4
100
AcDbEntity
  8
_U+30EC_U+30A4_U+30E4_U+30FC 1
370
     0
100
AcDbVertex
100
AcDb2dVertex
 10
92.82947588825097
 20
-121.7636270854445
 30
0.0
  0
VERTEX
  5
E8
330
E4
100
AcDbEntity
  8
_U+30EC_U+30A4_U+30E4_U+30FC 1
370
     0
100
AcDbVertex
100
AcDb2dVertex
 10
93.44787052785331
 20
-121.7636270854445
 30
0.0
  0
VERTEX
  5
E9
330
E4
100
AcDbEntity
  8
_U+30EC_U+30A4_U+30E4_U+30FC 1
370
     0
100
AcDbVertex
100
AcDb2dVertex
 10
93.44787052785331
 20
-121.6492499153342
 30
0.0
  0
SEQEND
  5
EA
330
E4
100
AcDbEntity
  8
_U+30EC_U+30A4_U+30E4_U+30FC 1
370
     0
  0
POLYLINE
  5
EB
330
D4
100
AcDbEntity
  8
_U+30EC_U+30A4_U+30E4_U+30FC 1
370
     0
100
AcDb2dPolyline
 66
     1
 10
0.0
 20
0.0
 30
0.0
  0
VERTEX
  5
EC
330
EB
100
AcDbEntity
  8
_U+30EC_U+30A4_U+30E4_U+30FC 1
370
     0
100
AcDbVertex
100
AcDb2dVertex
 10
93.44787052785331
 20
-121.8926459113671
 30
0.0
  0
VERTEX
  5
ED
330
EB
100
AcDbEntity
  8
_U+30EC_U+30A4_U+30E4_U+30FC 1
370
     0
100
AcDbVertex
100
AcDb2dVertex
 10
92.82947588825097
 20
-121.8926459113671
 30
0.0
  0
VERTEX
  5
EE
330
EB
100
AcDbEntity
  8
_U+30EC_U+30A4_U+30E4_U+30FC 1
370
     0
100
AcDbVertex
100
AcDb2dVertex
 10
92.82947588825097
 20
-122.0068508267032
 30
0.0
  0
VERTEX
  5
EF
330
EB
100
AcDbEntity
  8
_U+30EC_U+30A4_U+30E4_U+30FC 1
370
     0
100
AcDbVertex
100
AcDb2dVertex
 10
93.44787052785331
 20
-122.0068508267032
 30
0.0
  0
VERTEX
  5
F0
330
EB
100
AcDbEntity
  8
_U+30EC_U+30A4_U+30E4_U+30FC 1
370
     0
100
AcDbVertex
100
AcDb2dVertex
 10
93.44787052785331
 20
-121.8926459113671
 30
0.0
  0
SEQEND
  5
F1
330
EB
100
AcDbEntity
  8
_U+30EC_U+30A4_U+30E4_U+30FC 1
370
     0
  0
HATCH
  5
F2
330
D4
100
AcDbEntity
  8
_U+30EC_U+30A4_U+30E4_U+30FC 1
 62
   179
420
  2234388
100
AcDbHatch
 10
0.0
 20
0.0
 30
0.0
210
0.0
220
0.0
230
1.0
  2
SOLID
 70
     1
 71
     0
 91
        4
 92
        1
 93
        1
 72
     4
 94
        3
 73
     0
 74
     1
 95
      203
 96
      199
 40
0.0
 40
0.0
 40
0.0
 40
0.0
 40
1.0
 40
1.0
 40
1.0
 40
2.0
 40
2.0
 40
2.0
 40
3.0
 40
3.0
 40
3.0
 40
4.0
 40
4.0
 40
4.0
 40
5.0
 40
5.0
 40
5.0
 40
6.0
 40
6.0
 40
6.0
 40
7.0
 40
7.0
 40
7.0
 40
8.0
 40
8.0
 40
8.0
 40
9.0
 40
9.0
 40
9.0
 40
10.0
 40
10.0
 40
10.0
 40
11.0
 40
11.0
 40
11.0
 40
12.0
 40
12.0
 40
12.0
 40
13.0
 40
13.0
 40
13.0
 40
14.0
 40
14.0
 40
14.0
 40
15.0
 40
15.0
 40
15.0
 40
16.0
 40
16.0
 40
16.0
 40
17.0
 40
17.0
 40
17.0
 40
18.0
 40
18.0
 40
18.0
 40
19.0
 40
19.0
 40
19.0
 40
20.0
 40
20.0
 40
20.0
 40
21.0
 40
21.0
 40
21.0
 40
22.0
 40
22.0
 40
22.0
 40
23.0
 40
23.0
 40
23.0
 40
24.0
 40
24.0
 40
24.0
 40
25.0
 40
25.0
 40
25.0
 40
26.0
 40
26.0
 40
26.0
 40
27.0
 40
27.0
 40
27.0
 40
28.0
 40
28.0
 40
28.0
 40
29.0
 40
29.0
 40
29.0
 40
30.0
 40
30.0
 40
30.0
 40
31.0
 40
31.0
 40
31.0
 40
32.0
 40
32.0
 40
32.0
 40
33.0
 40
33.0
 40
33.0
 40
34.0
 40
34.0
 40
34.0
 40
35.0
 40
35.0
 40
35.0
 40
36.0
 40
36.0
 40
36.0
 40
37.0
 40
37.0
 40
37.0
 40
38.0
 40
38.0
 40
38.0
 40
39.0
 40
39.0
 40
39.0
 40
40.0
 40
40.0
 40
40.0
 40
41.0
 40
41.0
 40
41.0
 40
42.0
 40
42.0
 40
42.0
 40
43.0
 40
43.0
 40
43.0
 40
44.0
 40
44.0
 40
44.0
 40
45.0
 40
45.0
 40
45.0
 40
46.0
 40
46.0
 40
46.0
 40
47.0
 40
47.0
 40
47.0
 40
48.0
 40
48.0
 40
48.0
 40
49.0
 40
49.0
 40
49.0
 40
50.0
 40
50.0
 40
50.0
 40
51.0
 40
51.0
 40
51.0
 40
52.0
 40
52.0
 40
52.0
 40
53.0
 40
53.0
 40
53.0
 40
54.0
 40
54.0
 40
54.0
 40
55.0
 40
55.0
 40
55.0
 40
56.0
 40
56.0
 40
56.0
 40
57.0
 40
57.0
 40
57.0
 40
58.0
 40
58.0
 40
58.0
 40
59.0
 40
59.0
 40
59.0
 40
60.0
 40
60.0
 40
60.0
 40
61.0
 40
61.0
 40
61.0
 40
62.0
 40
62.0
 40
62.0
 40
63.0
 40
63.0
 40
63.0
 40
64.0
 40
64.0
 40
64.0
 40
65.0
 40
65.0
 40
65.0
 40
66.0
 40
66.0
 40
66.0
 40
66.0
 10
93.30352102702135
 20
-121.1605631207515
 10
93.30352102702135
 20
-121.1605631207515
 10
92.8146619776644
 20
-121.1605631207515
 10
92.8146619776644
 20
-121.1605631207515
 10
92.80536021985422
 20
-121.2050048525113
 10
92.7981255193352
 20
-121.2366997309756
 10
92.78710121378239
 20
-121.2749402908618
 10
92.809149824888
 20
-121.2749402908618
 10
92.82224118773195
 20
-121.277007348153
 10
92.82775334050834
 20
-121.277007348153
 10
92.82775334050834
 20
-121.277007348153
 10
92.99242890470329
 20
-121.277007348153
 10
92.99242890470329
 20
-121.277007348153
 10
92.99242890470329
 20
-121.277007348153
 10
93.32040199489907
 20
-121.277007348153
 10
93.32040199489907
 20
-121.277007348153
 10
93.36449921711026
 20
-121.277007348153
 10
93.61289060159679
 20
-121.2642604948576
 10
93.64045136547878
 20
-121.2642604948576
 10
93.63872881773615
 20
-121.2918212587395
 10
93.63700626999353
 20
-121.3107692839084
 10
93.63700626999353
 20
-121.3403971050816
 10
93.63493921270238
 20
-121.3720919835459
 10
93.63493921270238
 20
-121.5074842361162
 10
93.63493921270238
 20
-121.5350449999982
 10
93.63493921270238
 20
-121.5350449999982
 10
93.63493921270238
 20
-121.7805080533222
 10
93.63493921270238
 20
-121.7805080533222
 10
93.63493921270238
 20
-121.824949785082
 10
93.63872881773615
 20
-122.0216647372897
 10
93.64251842276992
 20
-122.1739379577378
 10
93.64251842276992
 20
-122.1739379577378
 10
93.44442543236806
 20
-122.1739379577378
 10
93.44442543236806
 20
-122.1739379577378
 10
93.44442543236806
 20
-122.1739379577378
 10
93.4461479801107
 20
-122.1401760219823
 10
93.4461479801107
 20
-122.1401760219823
 10
93.4461479801107
 20
-122.1401760219823
 10
92.8311984359936
 20
-122.1401760219823
 10
92.8311984359936
 20
-122.1401760219823
 10
92.8311984359936
 20
-122.1401760219823
 10
92.83326549328474
 20
-122.1739379577378
 10
92.83326549328474
 20
-122.1739379577378
 10
92.83326549328474
 20
-122.1739379577378
 10
92.6424072034019
 20
-122.1739379577378
 10
92.6424072034019
 20
-122.1739379577378
 10
92.64619680843568
 20
-122.118988684748
 10
92.64619680843568
 20
-122.1062418314526
 10
92.65170896121208
 20
-121.9920369161166
 10
92.6534315089547
 20
-121.9644761522346
 10
92.65549856624585
 20
-121.8313232117297
 10
92.65549856624585
 20
-121.8122029317865
 10
92.65549856624585
 20
-121.8122029317865
 10
92.65549856624585
 20
-121.6091145529311
 10
92.65549856624585
 20
-121.6091145529311
 10
92.53319767651948
 20
-121.8587117208374
 10
92.38505857065374
 20
-121.9899698588254
 10
92.29238550210052
 20
-122.0554266730452
 10
92.29238550210052
 20
-122.0554266730452
 10
92.14080130074953
 20
-121.9159003058926
 10
92.14080130074953
 20
-121.9159003058926
 10
92.21831594916765
 20
-121.8650851474851
 10
92.3444064439278
 20
-121.7782687412568
 10
92.46464027636301
 20
-121.5837931011145
 10
92.54422198207229
 20
-121.456841332483
 10
92.60175507667596
 20
-121.3130085959738
 10
92.63138289784911
 20
-121.1605631207515
 10
92.43156735970462
 20
-121.1628024328169
 10
92.2741264960287
 20
-121.1691758594647
 10
92.19075518528565
 20
-121.1712429167558
 10
92.19075518528565
 20
-121.1712429167558
 10
92.19075518528565
 20
-120.9934759897169
 10
92.19075518528565
 20
-120.9934759897169
 10
92.36300995954814
 20
-120.9998494163646
 10
92.61105683448613
 20
-121.0041557857212
 10
92.74231497247415
 20
-121.0041557857212
 10
92.74231497247415
 20
-121.0041557857212
 10
92.92938365732321
 20
-121.0041557857212
 10
92.92938365732321
 20
-121.0041557857212
 10
92.92938365732321
 20
-121.0041557857212
 10
92.92938365732321
 20
-120.8961520422586
 10
92.92938365732321
 20
-120.8961520422586
 10
92.92938365732321
 20
-120.8961520422586
 10
92.80157061482045
 20
-120.8961520422586
 10
92.80157061482045
 20
-120.8961520422586
 10
92.6534315089547
 20
-120.8961520422586
 10
92.50529240308896
 20
-120.9004584116152
 10
92.35922035451436
 20
-120.9068318382629
 10
92.35922035451436
 20
-120.9068318382629
 10
92.35922035451436
 20
-120.7354383378717
 10
92.35922035451436
 20
-120.7354383378717
 10
92.49426809753616
 20
-120.7459458791017
 10
92.65722111398847
 20
-120.7459458791017
 10
92.80157061482045
 20
-120.7459458791017
 10
92.80157061482045
 20
-120.7459458791017
 10
92.92938365732321
 20
-120.7459458791017
 10
92.92938365732321
 20
-120.7459458791017
 10
92.92938365732321
 20
-120.7459458791017
 10
92.92938365732321
 20
-120.6276068491834
 10
92.92938365732321
 20
-120.6276068491834
 10
92.92938365732321
 20
-120.6276068491834
 10
92.8146619776644
 20
-120.6276068491834
 10
92.8146619776644
 20
-120.6276068491834
 10
92.77400985093844
 20
-120.6276068491834
 10
92.59624292389955
 20
-120.6360473331222
 10
92.55903589265886
 20
-120.6360473331222
 10
92.38126896561997
 20
-120.6401814477045
 10
92.31477862275464
 20
-120.6422485049957
 10
92.24622122259817
 20
-120.6444878170611
 10
92.24622122259817
 20
-120.6444878170611
 10
92.24622122259817
 20
-120.4603474633745
 10
92.24622122259817
 20
-120.4603474633745
 10
92.34612899167041
 20
-120.4687879473134
 10
92.38505857065374
 20
-120.4687879473134
 10
92.72026636136854
 20
-120.4774006860265
 10
92.66480032405603
 20
-120.3821437958593
 10
92.64068465565927
 20
-120.3545830319773
 10
92.6093342867435
 20
-120.3185817841565
 10
92.6093342867435
 20
-120.3185817841565
 10
92.76298554538565
 20
-120.2360717472847
 10
92.76298554538565
 20
-120.2360717472847
 10
92.7981255193352
 20
-120.2720729951056
 10
92.83705509831852
 20
-120.3144476695742
 10
92.90182289344122
 20
-120.4243462155536
 10
92.90182289344122
 20
-120.4243462155536
 10
92.80157061482045
 20
-120.4794677433176
 10
92.80157061482045
 20
-120.4794677433176
 10
92.80157061482045
 20
-120.4794677433176
 10
92.81087237263061
 20
-120.4794677433176
 10
92.81087237263061
 20
-120.4794677433176
 10
92.81087237263061
 20
-120.4794677433176
 10
93.26838105307179
 20
-120.4794677433176
 10
93.26838105307179
 20
-120.4794677433176
 10
93.26838105307179
 20
-120.4794677433176
 10
93.18500974232875
 20
-120.4350260115579
 10
93.18500974232875
 20
-120.4350260115579
 10
93.2091254107255
 20
-120.3969577064459
 10
93.25907929526163
 20
-120.3165147268653
 10
93.27217065810557
 20
-120.2424451739325
 10
93.27217065810557
 20
-120.2424451739325
 10
93.45923934295463
 20
-120.3060071856353
 10
93.45923934295463
 20
-120.3060071856353
 10
93.46647404347367
 20
-120.3080742429265
 10
93.48507755909401
 20
-120.3185817841565
 10
93.48507755909401
 20
-120.3397691213908
 10
93.48507755909401
 20
-120.3778374265028
 10
93.42754446449034
 20
-120.3778374265028
 10
93.41100800616114
 20
-120.3778374265028
 10
93.40170624835096
 20
-120.3969577064459
 10
93.38138018498799
 20
-120.4370930688491
 10
93.35554196884861
 20
-120.4774006860265
 10
93.70556367015
 20
-120.4710272593788
 10
93.73140188628938
 20
-120.4687879473134
 10
93.7978922291547
 20
-120.4625867754399
 10
93.7978922291547
 20
-120.4625867754399
 10
93.7978922291547
 20
-120.6444878170611
 10
93.7978922291547
 20
-120.6444878170611
 10
93.7813557708255
 20
-120.6444878170611
 10
93.75896265017137
 20
-120.6422485049957
 10
93.56638181254591
 20
-120.6338080210568
 10
93.52194008078618
 20
-120.6317409637657
 10
93.32935924316072
 20
-120.6276068491834
 10
93.29077417372592
 20
-120.6276068491834
 10
93.29077417372592
 20
-120.6276068491834
 10
93.10163843158571
 20
-120.6276068491834
 10
93.10163843158571
 20
-120.6276068491834
 10
93.10163843158571
 20
-120.6276068491834
 10
93.10163843158571
 20
-120.7459458791017
 10
93.10163843158571
 20
-120.7459458791017
 10
93.10163843158571
 20
-120.7459458791017
 10
93.25356714248522
 20
-120.7459458791017
 10
93.25356714248522
 20
-120.7459458791017
 10
93.39619409557457
 20
-120.7459458791017
 10
93.56293671706067
 20
-120.7459458791017
 10
93.69970700782508
 20
-120.7354383378717
 10
93.69970700782508
 20
-120.7354383378717
 10
93.69970700782508
 20
-120.9068318382629
 10
93.69970700782508
 20
-120.9068318382629
 10
93.51642792800979
 20
-120.898391354324
 10
93.34417315374729
 20
-120.8961520422586
 10
93.25356714248522
 20
-120.8961520422586
 10
93.25356714248522
 20
-120.8961520422586
 10
93.10163843158571
 20
-120.8961520422586
 10
93.10163843158571
 20
-120.8961520422586
 10
93.10163843158571
 20
-120.8961520422586
 10
93.10163843158571
 20
-121.0041557857212
 10
93.10163843158571
 20
-121.0041557857212
 10
93.10163843158571
 20
-121.0041557857212
 10
93.30352102702135
 20
-121.0041557857212
 10
93.30352102702135
 20
-121.0041557857212
 10
93.42030976397132
 20
-121.0041557857212
 10
93.67214624394308
 20
-120.9998494163646
 10
93.85542532375837
 20
-120.9934759897169
 10
93.85542532375837
 20
-120.9934759897169
 10
93.85542532375837
 20
-121.1712429167558
 10
93.85542532375837
 20
-121.1712429167558
 10
93.68696015452966
 20
-121.1648694901081
 10
93.41273055390377
 20
-121.1605631207515
 10
93.30352102702135
 20
-121.1605631207515
 97
        0
 97
        0
 92
        1
 93
        4
 72
     1
 10
93.44787052785331
 20
-121.4165337153056
 11
92.82947588825097
 21
-121.4165337153056
 72
     1
 10
92.82947588825097
 20
-121.4165337153056
 11
92.82947588825097
 21
-121.5245374587682
 72
     1
 10
92.82947588825097
 20
-121.5245374587682
 11
93.44787052785331
 21
-121.5245374587682
 72
     1
 10
93.44787052785331
 20
-121.5245374587682
 11
93.44787052785331
 21
-121.4165337153056
 97
        0
 92
        1
 93
        4
 72
     1
 10
93.44787052785331
 20
-121.6492499153342
 11
92.82947588825097
 21
-121.6492499153342
 72
     1
 10
92.82947588825097
 20
-121.6492499153342
 11
92.82947588825097
 21
-121.7636270854445
 72
     1
 10
92.82947588825097
 20
-121.7636270854445
 11
93.44787052785331
 21
-121.7636270854445
 72
     1
 10
93.44787052785331
 20
-121.7636270854445
 11
93.44787052785331
 21
-121.6492499153342
 97
        0
 92
        1
 93
        4
 72
     1
 10
93.44787052785331
 20
-121.8926459113671
 11
92.82947588825097
 21
-121.8926459113671
 72
     1
 10
92.82947588825097
 20
-121.8926459113671
 11
92.82947588825097
 21
-122.0068508267032
 72
     1
 10
92.82947588825097
 20
-122.0068508267032
 11
93.44787052785331
 21
-122.0068508267032
 72
     1
 10
93.44787052785331
 20
-122.0068508267032
 11
93.44787052785331
 21
-121.8926459113671
 97
        0
 75
     2
 76
     1
 98
        0
  0
SPLINE
  5
F3
330
D4
100
AcDbEntity
  8
_U+30EC_U+30A4_U+30E4_U+30FC 1
370
     0
100
AcDbSpline
210
0.0
220
0.0
230
1.0
 70
    11
 71
     3
 72
    47
 73
    43
 74
     0
 42
0.0000000001
 43
0.0000000001
 12
1.0
 22
0.0
 32
0.0
 13
1.0
 23
0.0
 33
0.0
 40
0.0
 40
0.0
 40
0.0
 40
0.0
 40
1.0
 40
1.0
 40
1.0
 40
2.0
 40
2.0
 40
2.0
 40
3.0
 40
3.0
 40
3.0
 40
4.0
 40
4.0
 40
4.0
 40
5.0
 40
5.0
 40
5.0
 40
6.0
 40
6.0
 40
6.0
 40
7.0
 40
7.0
 40
7.0
 40
8.0
 40
8.0
 40
8.0
 40
9.0
 40
9.0
 40
9.0
 40
10.0
 40
10.0
 40
10.0
 40
11.0
 40
11.0
 40
11.0
 40
12.0
 40
12.0
 40
12.0
 40
13.0
 40
13.0
 40
13.0
 40
14.0
 40
14.0
 40
14.0
 40
14.0
 10
95.03537052745644
 20
-121.1373087262261
 30
0.0
 10
95.03537052745644
 20
-121.1373087262261
 30
0.0
 10
94.946487063937
 20
-121.1373087262261
 30
0.0
 10
94.946487063937
 20
-121.1373087262261
 30
0.0
 10
94.946487063937
 20
-121.2241251324544
 30
0.0
 10
94.92788354831664
 20
-121.6134209222876
 30
0.0
 10
94.75562877405416
 20
-121.8333902690208
 30
0.0
 10
94.62230357877499
 20
-122.0025444573466
 30
0.0
 10
94.44074704670231
 20
-122.0724798956972
 30
0.0
 10
94.36667749376944
 20
-122.0998684048049
 30
0.0
 10
94.36667749376944
 20
-122.0998684048049
 30
0.0
 10
94.1964897767981
 20
-121.9327812737703
 30
0.0
 10
94.1964897767981
 20
-121.9327812737703
 30
0.0
 10
94.28158363528378
 20
-121.9200344204749
 30
0.0
 10
94.43523489392592
 20
-121.8967800259494
 30
0.0
 10
94.59991045812086
 20
-121.7085055576805
 30
0.0
 10
94.66502276279208
 20
-121.6366753168131
 30
0.0
 10
94.75562877405416
 20
-121.4969766948862
 30
0.0
 10
94.75562877405416
 20
-121.1373087262261
 30
0.0
 10
94.75562877405416
 20
-121.1373087262261
 30
0.0
 10
94.55374617861851
 20
-121.1373087262261
 30
0.0
 10
94.55374617861851
 20
-121.1373087262261
 30
0.0
 10
94.39079316216619
 20
-121.1373087262261
 30
0.0
 10
94.22784014571388
 20
-121.1416150955827
 30
0.0
 10
94.06488712926156
 20
-121.1564290061692
 30
0.0
 10
94.06488712926156
 20
-121.1564290061692
 30
0.0
 10
94.06488712926156
 20
-120.936459659436
 30
0.0
 10
94.06488712926156
 20
-120.936459659436
 30
0.0
 10
94.22990720300503
 20
-120.9512735700226
 30
0.0
 10
94.47967662568564
 20
-120.9554076846049
 30
0.0
 10
94.55374617861851
 20
-120.9554076846049
 30
0.0
 10
94.55374617861851
 20
-120.9554076846049
 30
0.0
 10
95.03537052745644
 20
-120.9554076846049
 30
0.0
 10
95.03537052745644
 20
-120.9554076846049
 30
0.0
 10
95.05190698578564
 20
-120.9554076846049
 30
0.0
 10
95.32958168189677
 20
-120.9554076846049
 30
0.0
 10
95.52974172958979
 20
-120.936459659436
 30
0.0
 10
95.52974172958979
 20
-120.936459659436
 30
0.0
 10
95.52974172958979
 20
-121.1564290061692
 30
0.0
 10
95.52974172958979
 20
-121.1564290061692
 30
0.0
 10
95.36472165584632
 20
-121.1416150955827
 30
0.0
 10
95.20004609165139
 20
-121.1373087262261
 30
0.0
 10
95.03537052745644
 20
-121.1373087262261
 30
0.0
  0
SPLINE
  5
F4
330
D4
100
AcDbEntity
  8
_U+30EC_U+30A4_U+30E4_U+30FC 1
370
     0
100
AcDbSpline
210
0.0
220
0.0
230
1.0
 70
    11
 71
     3
 72
    29
 73
    25
 74
     0
 42
0.0000000001
 43
0.0000000001
 12
1.0
 22
0.0
 32
0.0
 13
1.0
 23
0.0
 33
0.0
 40
0.0
 40
0.0
 40
0.0
 40
0.0
 40
1.0
 40
1.0
 40
1.0
 40
2.0
 40
2.0
 40
2.0
 40
3.0
 40
3.0
 40
3.0
 40
4.0
 40
4.0
 40
4.0
 40
5.0
 40
5.0
 40
5.0
 40
6.0
 40
6.0
 40
6.0
 40
7.0
 40
7.0
 40
7.0
 40
8.0
 40
8.0
 40
8.0
 40
8.0
 10
94.946487063937
 20
-120.6084865692402
 30
0.0
 10
94.946487063937
 20
-120.6084865692402
 30
0.0
 10
94.63711748936156
 20
-120.6084865692402
 30
0.0
 10
94.63711748936156
 20
-120.6084865692402
 30
0.0
 10
94.53893226803194
 20
-120.6084865692402
 30
0.0
 10
94.41663137830557
 20
-120.614859995888
 30
0.0
 10
94.32223576200973
 20
-120.6276068491834
 30
0.0
 10
94.32223576200973
 20
-120.6276068491834
 30
0.0
 10
94.32223576200973
 20
-120.3926513370893
 30
0.0
 10
94.32223576200973
 20
-120.3926513370893
 30
0.0
 10
94.42593313611575
 20
-120.4074652476759
 30
0.0
 10
94.58716360482543
 20
-120.4117716170325
 30
0.0
 10
94.63711748936156
 20
-120.4117716170325
 30
0.0
 10
94.63711748936156
 20
-120.4117716170325
 30
0.0
 10
94.946487063937
 20
-120.4117716170325
 30
0.0
 10
94.946487063937
 20
-120.4117716170325
 30
0.0
 10
94.9630235222662
 20
-120.4117716170325
 30
0.0
 10
95.14079044930509
 20
-120.4117716170325
 30
0.0
 10
95.26481388677408
 20
-120.3926513370893
 30
0.0
 10
95.26481388677408
 20
-120.3926513370893
 30
0.0
 10
95.26481388677408
 20
-120.6276068491834
 30
0.0
 10
95.26481388677408
 20
-120.6276068491834
 30
0.0
 10
95.12769908646113
 20
-120.6084865692402
 30
0.0
 10
94.96130097452357
 20
-120.6084865692402
 30
0.0
 10
94.946487063937
 20
-120.6084865692402
 30
0.0
  0
HATCH
  5
F5
330
D4
100
AcDbEntity
  8
_U+30EC_U+30A4_U+30E4_U+30FC 1
 62
   179
420
  2234388
100
AcDbHatch
 10
0.0
 20
0.0
 30
0.0
210
0.0
220
0.0
230
1.0
  2
SOLID
 70
     1
 71
     0
 91
        2
 92
        1
 93
        1
 72
     4
 94
        3
 73
     0
 74
     1
 95
       47
 96
       43
 40
0.0
 40
0.0
 40
0.0
 40
0.0
 40
1.0
 40
1.0
 40
1.0
 40
2.0
 40
2.0
 40
2.0
 40
3.0
 40
3.0
 40
3.0
 40
4.0
 40
4.0
 40
4.0
 40
5.0
 40
5.0
 40
5.0
 40
6.0
 40
6.0
 40
6.0
 40
7.0
 40
7.0
 40
7.0
 40
8.0
 40
8.0
 40
8.0
 40
9.0
 40
9.0
 40
9.0
 40
10.0
 40
10.0
 40
10.0
 40
11.0
 40
11.0
 40
11.0
 40
12.0
 40
12.0
 40
12.0
 40
13.0
 40
13.0
 40
13.0
 40
14.0
 40
14.0
 40
14.0
 40
14.0
 10
95.03537052745644
 20
-121.1373087262261
 10
95.03537052745644
 20
-121.1373087262261
 10
94.946487063937
 20
-121.1373087262261
 10
94.946487063937
 20
-121.1373087262261
 10
94.946487063937
 20
-121.2241251324544
 10
94.92788354831664
 20
-121.6134209222876
 10
94.75562877405416
 20
-121.8333902690208
 10
94.62230357877499
 20
-122.0025444573466
 10
94.44074704670231
 20
-122.0724798956972
 10
94.36667749376944
 20
-122.0998684048049
 10
94.36667749376944
 20
-122.0998684048049
 10
94.1964897767981
 20
-121.9327812737703
 10
94.1964897767981
 20
-121.9327812737703
 10
94.28158363528378
 20
-121.9200344204749
 10
94.43523489392592
 20
-121.8967800259494
 10
94.59991045812086
 20
-121.7085055576805
 10
94.66502276279208
 20
-121.6366753168131
 10
94.75562877405416
 20
-121.4969766948862
 10
94.75562877405416
 20
-121.1373087262261
 10
94.75562877405416
 20
-121.1373087262261
 10
94.55374617861851
 20
-121.1373087262261
 10
94.55374617861851
 20
-121.1373087262261
 10
94.39079316216619
 20
-121.1373087262261
 10
94.22784014571388
 20
-121.1416150955827
 10
94.06488712926156
 20
-121.1564290061692
 10
94.06488712926156
 20
-121.1564290061692
 10
94.06488712926156
 20
-120.936459659436
 10
94.06488712926156
 20
-120.936459659436
 10
94.22990720300503
 20
-120.9512735700226
 10
94.47967662568564
 20
-120.9554076846049
 10
94.55374617861851
 20
-120.9554076846049
 10
94.55374617861851
 20
-120.9554076846049
 10
95.03537052745644
 20
-120.9554076846049
 10
95.03537052745644
 20
-120.9554076846049
 10
95.05190698578564
 20
-120.9554076846049
 10
95.32958168189677
 20
-120.9554076846049
 10
95.52974172958979
 20
-120.936459659436
 10
95.52974172958979
 20
-120.936459659436
 10
95.52974172958979
 20
-121.1564290061692
 10
95.52974172958979
 20
-121.1564290061692
 10
95.36472165584632
 20
-121.1416150955827
 10
95.20004609165139
 20
-121.1373087262261
 10
95.03537052745644
 20
-121.1373087262261
 97
        0
 97
        0
 92
        1
 93
        1
 72
     4
 94
        3
 73
     0
 74
     1
 95
       29
 96
       25
 40
0.0
 40
0.0
 40
0.0
 40
0.0
 40
1.0
 40
1.0
 40
1.0
 40
2.0
 40
2.0
 40
2.0
 40
3.0
 40
3.0
 40
3.0
 40
4.0
 40
4.0
 40
4.0
 40
5.0
 40
5.0
 40
5.0
 40
6.0
 40
6.0
 40
6.0
 40
7.0
 40
7.0
 40
7.0
 40
8.0
 40
8.0
 40
8.0
 40
8.0
 10
94.946487063937
 20
-120.6084865692402
 10
94.946487063937
 20
-120.6084865692402
 10
94.63711748936156
 20
-120.6084865692402
 10
94.63711748936156
 20
-120.6084865692402
 10
94.53893226803194
 20
-120.6084865692402
 10
94.41663137830557
 20
-120.614859995888
 10
94.32223576200973
 20
-120.6276068491834
 10
94.32223576200973
 20
-120.6276068491834
 10
94.32223576200973
 20
-120.3926513370893
 10
94.32223576200973
 20
-120.3926513370893
 10
94.42593313611575
 20
-120.4074652476759
 10
94.58716360482543
 20
-120.4117716170325
 10
94.63711748936156
 20
-120.4117716170325
 10
94.63711748936156
 20
-120.4117716170325
 10
94.946487063937
 20
-120.4117716170325
 10
94.946487063937
 20
-120.4117716170325
 10
94.9630235222662
 20
-120.4117716170325
 10
95.14079044930509
 20
-120.4117716170325
 10
95.26481388677408
 20
-120.3926513370893
 10
95.26481388677408
 20
-120.3926513370893
 10
95.26481388677408
 20
-120.6276068491834
 10
95.26481388677408
 20
-120.6276068491834
 10
95.12769908646113
 20
-120.6084865692402
 10
94.96130097452357
 20
-120.6084865692402
 10
94.946487063937
 20
-120.6084865692402
 97
        0
 97
        0
 75
     2
 76
     1
 98
        0
  0
SPLINE
  5
F6
330
D4
100
AcDbEntity
  8
_U+30EC_U+30A4_U+30E4_U+30FC 1
370
     0
100
AcDbSpline
210
0.0
220
0.0
230
1.0
 70
    11
 71
     3
 72
    29
 73
    25
 74
     0
 42
0.0000000001
 43
0.0000000001
 12
1.0
 22
0.0
 32
0.0
 13
1.0
 23
0.0
 33
0.0
 40
0.0
 40
0.0
 40
0.0
 40
0.0
 40
1.0
 40
1.0
 40
1.0
 40
2.0
 40
2.0
 40
2.0
 40
3.0
 40
3.0
 40
3.0
 40
4.0
 40
4.0
 40
4.0
 40
5.0
 40
5.0
 40
5.0
 40
6.0
 40
6.0
 40
6.0
 40
7.0
 40
7.0
 40
7.0
 40
8.0
 40
8.0
 40
8.0
 40
8.0
 10
96.65180932913566
 20
-121.3002617426784
 30
0.0
 10
96.65180932913566
 20
-121.3002617426784
 30
0.0
 10
96.22806258444993
 20
-121.3002617426784
 30
0.0
 10
96.22806258444993
 20
-121.3002617426784
 30
0.0
 10
96.20394691605318
 20
-121.3002617426784
 30
0.0
 10
95.92627221994205
 20
-121.3002617426784
 30
0.0
 10
95.7409260828356
 20
-121.325583194495
 30
0.0
 10
95.7409260828356
 20
-121.325583194495
 30
0.0
 10
95.7409260828356
 20
-121.0951063065318
 30
0.0
 10
95.7409260828356
 20
-121.0951063065318
 30
0.0
 10
95.87976343089117
 20
-121.1183607010572
 30
0.0
 10
96.04650605237727
 20
-121.1204277583484
 30
0.0
 10
96.22806258444993
 20
-121.1204277583484
 30
0.0
 10
96.22806258444993
 20
-121.1204277583484
 30
0.0
 10
96.65180932913566
 20
-121.1204277583484
 30
0.0
 10
96.65180932913566
 20
-121.1204277583484
 30
0.0
 10
96.8151068551365
 20
-121.1204277583484
 30
0.0
 10
96.9777153620403
 20
-121.1183607010572
 30
0.0
 10
97.13894583074999
 20
-121.0951063065318
 30
0.0
 10
97.13894583074999
 20
-121.0951063065318
 30
0.0
 10
97.13894583074999
 20
-121.325583194495
 30
0.0
 10
97.13894583074999
 20
-121.325583194495
 30
0.0
 10
96.9777153620403
 20
-121.3023287999696
 30
0.0
 10
96.76136336556661
 20
-121.3002617426784
 30
0.0
 10
96.65180932913566
 20
-121.3002617426784
 30
0.0
  0
HATCH
  5
F7
330
D4
100
AcDbEntity
  8
_U+30EC_U+30A4_U+30E4_U+30FC 1
 62
   179
420
  2234388
100
AcDbHatch
 10
0.0
 20
0.0
 30
0.0
210
0.0
220
0.0
230
1.0
  2
SOLID
 70
     1
 71
     0
 91
        1
 92
        1
 93
        1
 72
     4
 94
        3
 73
     0
 74
     1
 95
       29
 96
       25
 40
0.0
 40
0.0
 40
0.0
 40
0.0
 40
1.0
 40
1.0
 40
1.0
 40
2.0
 40
2.0
 40
2.0
 40
3.0
 40
3.0
 40
3.0
 40
4.0
 40
4.0
 40
4.0
 40
5.0
 40
5.0
 40
5.0
 40
6.0
 40
6.0
 40
6.0
 40
7.0
 40
7.0
 40
7.0
 40
8.0
 40
8.0
 40
8.0
 40
8.0
 10
96.65180932913566
 20
-121.3002617426784
 10
96.65180932913566
 20
-121.3002617426784
 10
96.22806258444993
 20
-121.3002617426784
 10
96.22806258444993
 20
-121.3002617426784
 10
96.20394691605318
 20
-121.3002617426784
 10
95.92627221994205
 20
-121.3002617426784
 10
95.7409260828356
 20
-121.325583194495
 10
95.7409260828356
 20
-121.325583194495
 10
95.7409260828356
 20
-121.0951063065318
 10
95.7409260828356
 20
-121.0951063065318
 10
95.87976343089117
 20
-121.1183607010572
 10
96.04650605237727
 20
-121.1204277583484
 10
96.22806258444993
 20
-121.1204277583484
 10
96.22806258444993
 20
-121.1204277583484
 10
96.65180932913566
 20
-121.1204277583484
 10
96.65180932913566
 20
-121.1204277583484
 10
96.8151068551365
 20
-121.1204277583484
 10
96.9777153620403
 20
-121.1183607010572
 10
97.13894583074999
 20
-121.0951063065318
 10
97.13894583074999
 20
-121.0951063065318
 10
97.13894583074999
 20
-121.325583194495
 10
97.13894583074999
 20
-121.325583194495
 10
96.9777153620403
 20
-121.3023287999696
 10
96.76136336556661
 20
-121.3002617426784
 10
96.65180932913566
 20
-121.3002617426784
 97
        0
 97
        0
 75
     2
 76
     1
 98
        0
  0
SPLINE
  5
F8
330
D4
100
AcDbEntity
  8
_U+30EC_U+30A4_U+30E4_U+30FC 1
370
     0
100
AcDbSpline
210
0.0
220
0.0
230
1.0
 70
    11
 71
     3
 72
    44
 73
    40
 74
     0
 42
0.0000000001
 43
0.0000000001
 12
1.0
 22
0.0
 32
0.0
 13
1.0
 23
0.0
 33
0.0
 40
0.0
 40
0.0
 40
0.0
 40
0.0
 40
1.0
 40
1.0
 40
1.0
 40
2.0
 40
2.0
 40
2.0
 40
3.0
 40
3.0
 40
3.0
 40
4.0
 40
4.0
 40
4.0
 40
5.0
 40
5.0
 40
5.0
 40
6.0
 40
6.0
 40
6.0
 40
7.0
 40
7.0
 40
7.0
 40
8.0
 40
8.0
 40
8.0
 40
9.0
 40
9.0
 40
9.0
 40
10.0
 40
10.0
 40
10.0
 40
11.0
 40
11.0
 40
11.0
 40
12.0
 40
12.0
 40
12.0
 40
13.0
 40
13.0
 40
13.0
 40
13.0
 10
98.58898652049164
 20
-120.8623901065032
 30
0.0
 10
98.49080129916203
 20
-121.2304985591021
 30
0.0
 10
98.4463595674023
 20
-121.3891452061979
 30
0.0
 10
98.27410479313981
 20
-121.6387423741042
 30
0.0
 10
98.11321883397865
 20
-121.8693915168417
 30
0.0
 10
97.90582408576661
 20
-122.0554266730452
 30
0.0
 10
97.66122230631386
 20
-122.1486165059212
 30
0.0
 10
97.66122230631386
 20
-122.1486165059212
 30
0.0
 10
97.49275713708515
 20
-121.9687825215911
 30
0.0
 10
97.49275713708515
 20
-121.9687825215911
 30
0.0
 10
98.05396319163235
 20
-121.8165093011431
 30
0.0
 10
98.34266219329628
 20
-121.2601263802753
 30
0.0
 10
98.39847274015733
 20
-120.8200154320346
 30
0.0
 10
98.39847274015733
 20
-120.8200154320346
 30
0.0
 10
97.72805715872771
 20
-120.8200154320346
 30
0.0
 10
97.72805715872771
 20
-120.8200154320346
 30
0.0
 10
97.64640839572729
 20
-120.8200154320346
 30
0.0
 10
97.48552243656613
 20
-120.8243218013912
 30
0.0
 10
97.34840763625319
 20
-120.84326982656
 30
0.0
 10
97.34840763625319
 20
-120.84326982656
 30
0.0
 10
97.34840763625319
 20
-120.6233004798268
 30
0.0
 10
97.34840763625319
 20
-120.6233004798268
 30
0.0
 10
97.42419973692867
 20
-120.6444878170611
 30
0.0
 10
97.64468584798466
 20
-120.6444878170611
 30
0.0
 10
97.73150225421296
 20
-120.6444878170611
 30
0.0
 10
97.73150225421296
 20
-120.6444878170611
 30
0.0
 10
98.10942922894488
 20
-120.6444878170611
 30
0.0
 10
98.10942922894488
 20
-120.6444878170611
 30
0.0
 10
98.14629175063705
 20
-120.6444878170611
 30
0.0
 10
98.35196395110646
 20
-120.6422485049957
 30
0.0
 10
98.38538137731338
 20
-120.6360473331222
 30
0.0
 10
98.42224389900555
 20
-120.6296739064745
 30
0.0
 10
98.42431095629671
 20
-120.6276068491834
 30
0.0
 10
98.4780544458666
 20
-120.587299232006
 30
0.0
 10
98.4780544458666
 20
-120.587299232006
 30
0.0
 10
98.64273001006154
 20
-120.7418117645194
 30
0.0
 10
98.64273001006154
 20
-120.7418117645194
 30
0.0
 10
98.61689179392216
 20
-120.7714395856926
 30
0.0
 10
98.60380043107823
 20
-120.8031344641569
 30
0.0
 10
98.58898652049164
 20
-120.8623901065032
 30
0.0
  0
SPLINE
  5
F9
330
D4
100
AcDbEntity
  8
_U+30EC_U+30A4_U+30E4_U+30FC 1
370
     0
100
AcDbSpline
210
0.0
220
0.0
230
1.0
 70
    11
 71
     3
 72
    17
 73
    13
 74
     0
 42
0.0000000001
 43
0.0000000001
 12
1.0
 22
0.0
 32
0.0
 13
1.0
 23
0.0
 33
0.0
 40
0.0
 40
0.0
 40
0.0
 40
0.0
 40
1.0
 40
1.0
 40
1.0
 40
2.0
 40
2.0
 40
2.0
 40
3.0
 40
3.0
 40
3.0
 40
4.0
 40
4.0
 40
4.0
 40
4.0
 10
98.77226560030694
 20
-120.66343584223
 30
0.0
 10
98.6613335256819
 20
-120.66343584223
 30
0.0
 10
98.57245006216245
 20
-120.5619777801894
 30
0.0
 10
98.57245006216245
 20
-120.4350260115579
 30
0.0
 10
98.57245006216245
 20
-120.3080742429265
 30
0.0
 10
98.6613335256819
 20
-120.2043768688204
 30
0.0
 10
98.77226560030694
 20
-120.2043768688204
 30
0.0
 10
98.8835421844805
 20
-120.2043768688204
 30
0.0
 10
98.97414819574257
 20
-120.3080742429265
 30
0.0
 10
98.97414819574257
 20
-120.4350260115579
 30
0.0
 10
98.97414819574257
 20
-120.5619777801894
 30
0.0
 10
98.8835421844805
 20
-120.66343584223
 30
0.0
 10
98.77226560030694
 20
-120.66343584223
 30
0.0
  0
SPLINE
  5
FA
330
D4
100
AcDbEntity
  8
_U+30EC_U+30A4_U+30E4_U+30FC 1
370
     0
100
AcDbSpline
210
0.0
220
0.0
230
1.0
 70
    11
 71
     3
 72
    17
 73
    13
 74
     0
 42
0.0000000001
 43
0.0000000001
 12
1.0
 22
0.0
 32
0.0
 13
1.0
 23
0.0
 33
0.0
 40
0.0
 40
0.0
 40
0.0
 40
0.0
 40
1.0
 40
1.0
 40
1.0
 40
2.0
 40
2.0
 40
2.0
 40
3.0
 40
3.0
 40
3.0
 40
4.0
 40
4.0
 40
4.0
 40
4.0
 10
98.7705430525643
 20
-120.333395694743
 30
0.0
 10
98.72231171577081
 20
-120.333395694743
 30
0.0
 10
98.68338213678749
 20
-120.3778374265028
 30
0.0
 10
98.68338213678749
 20
-120.4329589542668
 30
0.0
 10
98.68338213678749
 20
-120.4899752845477
 30
0.0
 10
98.72231171577081
 20
-120.5387233856639
 30
0.0
 10
98.7743326575981
 20
-120.5387233856639
 30
0.0
 10
98.82600908987683
 20
-120.5387233856639
 30
0.0
 10
98.86114906382639
 20
-120.4879082272565
 30
0.0
 10
98.86114906382639
 20
-120.4350260115579
 30
0.0
 10
98.86114906382639
 20
-120.3778374265028
 30
0.0
 10
98.82049693710043
 20
-120.333395694743
 30
0.0
 10
98.7705430525643
 20
-120.333395694743
 30
0.0
  0
HATCH
  5
FB
330
D4
100
AcDbEntity
  8
_U+30EC_U+30A4_U+30E4_U+30FC 1
 62
   179
420
  2234388
100
AcDbHatch
 10
0.0
 20
0.0
 30
0.0
210
0.0
220
0.0
230
1.0
  2
SOLID
 70
     1
 71
     0
 91
        3
 92
        1
 93
        1
 72
     4
 94
        3
 73
     0
 74
     1
 95
       44
 96
       40
 40
0.0
 40
0.0
 40
0.0
 40
0.0
 40
1.0
 40
1.0
 40
1.0
 40
2.0
 40
2.0
 40
2.0
 40
3.0
 40
3.0
 40
3.0
 40
4.0
 40
4.0
 40
4.0
 40
5.0
 40
5.0
 40
5.0
 40
6.0
 40
6.0
 40
6.0
 40
7.0
 40
7.0
 40
7.0
 40
8.0
 40
8.0
 40
8.0
 40
9.0
 40
9.0
 40
9.0
 40
10.0
 40
10.0
 40
10.0
 40
11.0
 40
11.0
 40
11.0
 40
12.0
 40
12.0
 40
12.0
 40
13.0
 40
13.0
 40
13.0
 40
13.0
 10
98.58898652049164
 20
-120.8623901065032
 10
98.49080129916203
 20
-121.2304985591021
 10
98.4463595674023
 20
-121.3891452061979
 10
98.27410479313981
 20
-121.6387423741042
 10
98.11321883397865
 20
-121.8693915168417
 10
97.90582408576661
 20
-122.0554266730452
 10
97.66122230631386
 20
-122.1486165059212
 10
97.66122230631386
 20
-122.1486165059212
 10
97.49275713708515
 20
-121.9687825215911
 10
97.49275713708515
 20
-121.9687825215911
 10
98.05396319163235
 20
-121.8165093011431
 10
98.34266219329628
 20
-121.2601263802753
 10
98.39847274015733
 20
-120.8200154320346
 10
98.39847274015733
 20
-120.8200154320346
 10
97.72805715872771
 20
-120.8200154320346
 10
97.72805715872771
 20
-120.8200154320346
 10
97.64640839572729
 20
-120.8200154320346
 10
97.48552243656613
 20
-120.8243218013912
 10
97.34840763625319
 20
-120.84326982656
 10
97.34840763625319
 20
-120.84326982656
 10
97.34840763625319
 20
-120.6233004798268
 10
97.34840763625319
 20
-120.6233004798268
 10
97.42419973692867
 20
-120.6444878170611
 10
97.64468584798466
 20
-120.6444878170611
 10
97.73150225421296
 20
-120.6444878170611
 10
97.73150225421296
 20
-120.6444878170611
 10
98.10942922894488
 20
-120.6444878170611
 10
98.10942922894488
 20
-120.6444878170611
 10
98.14629175063705
 20
-120.6444878170611
 10
98.35196395110646
 20
-120.6422485049957
 10
98.38538137731338
 20
-120.6360473331222
 10
98.42224389900555
 20
-120.6296739064745
 10
98.42431095629671
 20
-120.6276068491834
 10
98.4780544458666
 20
-120.587299232006
 10
98.4780544458666
 20
-120.587299232006
 10
98.64273001006154
 20
-120.7418117645194
 10
98.64273001006154
 20
-120.7418117645194
 10
98.61689179392216
 20
-120.7714395856926
 10
98.60380043107823
 20
-120.8031344641569
 10
98.58898652049164
 20
-120.8623901065032
 97
        0
 97
        0
 92
        1
 93
        1
 72
     4
 94
        3
 73
     0
 74
     1
 95
       17
 96
       13
 40
0.0
 40
0.0
 40
0.0
 40
0.0
 40
1.0
 40
1.0
 40
1.0
 40
2.0
 40
2.0
 40
2.0
 40
3.0
 40
3.0
 40
3.0
 40
4.0
 40
4.0
 40
4.0
 40
4.0
 10
98.77226560030694
 20
-120.66343584223
 10
98.6613335256819
 20
-120.66343584223
 10
98.57245006216245
 20
-120.5619777801894
 10
98.57245006216245
 20
-120.4350260115579
 10
98.57245006216245
 20
-120.3080742429265
 10
98.6613335256819
 20
-120.2043768688204
 10
98.77226560030694
 20
-120.2043768688204
 10
98.8835421844805
 20
-120.2043768688204
 10
98.97414819574257
 20
-120.3080742429265
 10
98.97414819574257
 20
-120.4350260115579
 10
98.97414819574257
 20
-120.5619777801894
 10
98.8835421844805
 20
-120.66343584223
 10
98.77226560030694
 20
-120.66343584223
 97
        0
 97
        0
 92
        1
 93
        1
 72
     4
 94
        3
 73
     0
 74
     1
 95
       17
 96
       13
 40
0.0
 40
0.0
 40
0.0
 40
0.0
 40
1.0
 40
1.0
 40
1.0
 40
2.0
 40
2.0
 40
2.0
 40
3.0
 40
3.0
 40
3.0
 40
4.0
 40
4.0
 40
4.0
 40
4.0
 10
98.7705430525643
 20
-120.333395694743
 10
98.72231171577081
 20
-120.333395694743
 10
98.68338213678749
 20
-120.3778374265028
 10
98.68338213678749
 20
-120.4329589542668
 10
98.68338213678749
 20
-120.4899752845477
 10
98.72231171577081
 20
-120.5387233856639
 10
98.7743326575981
 20
-120.5387233856639
 10
98.82600908987683
 20
-120.5387233856639
 10
98.86114906382639
 20
-120.4879082272565
 10
98.86114906382639
 20
-120.4350260115579
 10
98.86114906382639
 20
-120.3778374265028
 10
98.82049693710043
 20
-120.333395694743
 10
98.7705430525643
 20
-120.333395694743
 97
        0
 97
        0
 75
     2
 76
     1
 98
        0
  0
ENDBLK
  5
D7
330
D4
100
AcDbEntity
  8
0
100
AcDbBlockEnd
  0
ENDSEC
  0
SECTION
  2
ENTITIES
  0
POLYLINE
  5
41
330
1F
100
AcDbEntity
  8
_U+30EC_U+30A4_U+30E4_U+30FC 1
370
     0
100
AcDb2dPolyline
 66
     1
 10
0.0
 20
0.0
 30
0.0
  0
VERTEX
  5
42
330
41
100
AcDbEntity
  8
_U+30EC_U+30A4_U+30E4_U+30FC 1
370
     0
100
AcDbVertex
100
AcDb2dVertex
 10
81.83202457895779
 20
-116.4538846931086
 30
0.0
  0
VERTEX
  5
43
330
41
100
AcDbEntity
  8
_U+30EC_U+30A4_U+30E4_U+30FC 1
370
     0
100
AcDbVertex
100
AcDb2dVertex
 10
80.93219432413659
 20
-116.4538846931086
 30
0.0
  0
VERTEX
  5
44
330
41
100
AcDbEntity
  8
_U+30EC_U+30A4_U+30E4_U+30FC 1
370
     0
100
AcDbVertex
100
AcDb2dVertex
 10
80.93219432413659
 20
-135.4542488550252
 30
0.0
  0
VERTEX
  5
45
330
41
100
AcDbEntity
  8
_U+30EC_U+30A4_U+30E4_U+30FC 1
370
     0
100
AcDbVertex
100
AcDb2dVertex
 10
99.9325580060636
 20
-135.4542488550252
 30
0.0
  0
VERTEX
  5
46
330
41
100
AcDbEntity
  8
_U+30EC_U+30A4_U+30E4_U+30FC 1
370
     0
100
AcDbVertex
100
AcDb2dVertex
 10
99.9325580060636
 20
-134.5544185774725
 30
0.0
  0
VERTEX
  5
47
330
41
100
AcDbEntity
  8
_U+30EC_U+30A4_U+30E4_U+30FC 1
370
     0
100
AcDbVertex
100
AcDb2dVertex
 10
81.83202457895779
 20
-134.5544185774725
 30
0.0
  0
VERTEX
  5
48
330
41
100
AcDbEntity
  8
_U+30EC_U+30A4_U+30E4_U+30FC 1
370
     0
100
AcDbVertex
100
AcDb2dVertex
 10
81.83202457895779
 20
-116.4538846931086
 30
0.0
  0
SEQEND
  5
4A
330
41
100
AcDbEntity
  8
_U+30EC_U+30A4_U+30E4_U+30FC 1
370
     0
  0
HATCH
  5
49
330
1F
100
AcDbEntity
  8
_U+30EC_U+30A4_U+30E4_U+30FC 1
 62
   253
420
 11711154
100
AcDbHatch
 10
0.0
 20
0.0
 30
0.0
210
0.0
220
0.0
230
1.0
  2
SOLID
 70
     1
 71
     0
 91
        1
 92
        1
 93
        6
 72
     1
 10
81.83202457895779
 20
-116.4538846931086
 11
80.93219432413659
 21
-116.4538846931086
 72
     1
 10
80.93219432413659
 20
-116.4538846931086
 11
80.93219432413659
 21
-135.4542488550252
 72
     1
 10
80.93219432413659
 20
-135.4542488550252
 11
99.9325580060636
 21
-135.4542488550252
 72
     1
 10
99.9325580060636
 20
-135.4542488550252
 11
99.9325580060636
 21
-134.5544185774725
 72
     1
 10
99.9325580060636
 20
-134.5544185774725
 11
81.83202457895779
 21
-134.5544185774725
 72
     1
 10
81.83202457895779
 20
-134.5544185774725
 11
81.83202457895779
 21
-116.4538846931086
 97
        0
 75
     2
 76
     1
 98
        0
  0
POLYLINE
  5
4B
330
1F
100
AcDbEntity
  8
_U+30EC_U+30A4_U+30E4_U+30FC 1
 62
   179
420
  2234388
370
    25
100
AcDb2dPolyline
 66
     1
 10
0.0
 20
0.0
 30
0.0
  0
VERTEX
  5
4C
330
4B
100
AcDbEntity
  8
_U+30EC_U+30A4_U+30E4_U+30FC 1
 62
   179
420
  2234388
370
    25
100
AcDbVertex
100
AcDb2dVertex
 10
80.93219432413659
 20
-116.4538846931086
 30
0.0
  0
VERTEX
  5
4D
330
4B
100
AcDbEntity
  8
_U+30EC_U+30A4_U+30E4_U+30FC 1
 62
   179
420
  2234388
370
    25
100
AcDbVertex
100
AcDb2dVertex
 10
80.93219432413659
 20
-135.4542488550252
 30
0.0
  0
SEQEND
  5
4E
330
4B
100
AcDbEntity
  8
_U+30EC_U+30A4_U+30E4_U+30FC 1
 62
   179
420
  2234388
370
    25
  0
POLYLINE
  5
4F
330
1F
100
AcDbEntity
  8
_U+30EC_U+30A4_U+30E4_U+30FC 1
 62
   179
420
  2234388
370
    25
100
AcDb2dPolyline
 66
     1
 10
0.0
 20
0.0
 30
0.0
  0
VERTEX
  5
50
330
4F
100
AcDbEntity
  8
_U+30EC_U+30A4_U+30E4_U+30FC 1
 62
   179
420
  2234388
370
    25
100
AcDbVertex
100
AcDb2dVertex
 10
80.93219432413659
 20
-135.4542488550252
 30
0.0
  0
VERTEX
  5
51
330
4F
100
AcDbEntity
  8
_U+30EC_U+30A4_U+30E4_U+30FC 1
 62
   179
420
  2234388
370
    25
100
AcDbVertex
100
AcDb2dVertex
 10
99.9325580060636
 20
-135.4542488550252
 30
0.0
  0
SEQEND
  5
52
330
4F
100
AcDbEntity
  8
_U+30EC_U+30A4_U+30E4_U+30FC 1
 62
   179
420
  2234388
370
    25
  0
POLYLINE
  5
53
330
1F
100
AcDbEntity
  8
_U+30EC_U+30A4_U+30E4_U+30FC 1
 62
   179
420
  2234388
370
    25
100
AcDb2dPolyline
 66
     1
 10
0.0
 20
0.0
 30
0.0
  0
VERTEX
  5
54
330
53
100
AcDbEntity
  8
_U+30EC_U+30A4_U+30E4_U+30FC 1
 62
   179
420
  2234388
370
    25
100
AcDbVertex
100
AcDb2dVertex
 10
81.83202457895779
 20
-134.5544185774725
 30
0.0
  0
VERTEX
  5
55
330
53
100
AcDbEntity
  8
_U+30EC_U+30A4_U+30E4_U+30FC 1
 62
   179
420
  2234388
370
    25
100
AcDbVertex
100
AcDb2dVertex
 10
99.9325580060636
 20
-134.5544185774725
 30
0.0
  0
SEQEND
  5
56
330
53
100
AcDbEntity
  8
_U+30EC_U+30A4_U+30E4_U+30FC 1
 62
   179
420
  2234388
370
    25
  0
POLYLINE
  5
57
330
1F
100
AcDbEntity
  8
_U+30EC_U+30A4_U+30E4_U+30FC 1
 62
   179
420
  2234388
370
    25
100
AcDb2dPolyline
 66
     1
 10
0.0
 20
0.0
 30
0.0
  0
VERTEX
  5
58
330
57
100
AcDbEntity
  8
_U+30EC_U+30A4_U+30E4_U+30FC 1
 62
   179
420
  2234388
370
    25
100
AcDbVertex
100
AcDb2dVertex
 10
81.83202457895779
 20
-116.4538846931086
 30
0.0
  0
VERTEX
  5
59
330
57
100
AcDbEntity
  8
_U+30EC_U+30A4_U+30E4_U+30FC 1
 62
   179
420
  2234388
370
    25
100
AcDbVertex
100
AcDb2dVertex
 10
81.83202457895779
 20
-134.5544185774725
 30
0.0
  0
SEQEND
  5
5A
330
57
100
AcDbEntity
  8
_U+30EC_U+30A4_U+30E4_U+30FC 1
 62
   179
420
  2234388
370
    25
  0
POLYLINE
  5
5B
330
1F
100
AcDbEntity
  8
_U+30EC_U+30A4_U+30E4_U+30FC 1
 62
   179
420
  2234388
370
    25
100
AcDb2dPolyline
 66
     1
 10
0.0
 20
0.0
 30
0.0
  0
VERTEX
  5
5C
330
5B
100
AcDbEntity
  8
_U+30EC_U+30A4_U+30E4_U+30FC 1
 62
   179
420
  2234388
370
    25
100
AcDbVertex
100
AcDb2dVertex
 10
80.93219432413659
 20
-116.4538846931086
 30
0.0
  0
VERTEX
  5
5D
330
5B
100
AcDbEntity
  8
_U+30EC_U+30A4_U+30E4_U+30FC 1
 62
   179
420
  2234388
370
    25
100
AcDbVertex
100
AcDb2dVertex
 10
81.83202457895779
 20
-116.4538846931086
 30
0.0
  0
SEQEND
  5
5E
330
5B
100
AcDbEntity
  8
_U+30EC_U+30A4_U+30E4_U+30FC 1
 62
   179
420
  2234388
370
    25
  0
POLYLINE
  5
5F
330
1F
100
AcDbEntity
  8
_U+30EC_U+30A4_U+30E4_U+30FC 1
 62
   179
420
  2234388
370
    25
100
AcDb2dPolyline
 66
     1
 10
0.0
 20
0.0
 30
0.0
  0
VERTEX
  5
60
330
5F
100
AcDbEntity
  8
_U+30EC_U+30A4_U+30E4_U+30FC 1
 62
   179
420
  2234388
370
    25
100
AcDbVertex
100
AcDb2dVertex
 10
99.9325580060636
 20
-134.5544185774725
 30
0.0
  0
VERTEX
  5
61
330
5F
100
AcDbEntity
  8
_U+30EC_U+30A4_U+30E4_U+30FC 1
 62
   179
420
  2234388
370
    25
100
AcDbVertex
100
AcDb2dVertex
 10
99.9325580060636
 20
-135.4542488550252
 30
0.0
  0
SEQEND
  5
62
330
5F
100
AcDbEntity
  8
_U+30EC_U+30A4_U+30E4_U+30FC 1
 62
   179
420
  2234388
370
    25
  0
SPLINE
  5
63
330
1F
100
AcDbEntity
  8
_U+30EC_U+30A4_U+30E4_U+30FC 1
 62
   179
420
  2234388
370
     9
100
AcDbSpline
210
0.0
220
0.0
230
1.0
 70
    11
 71
     3
 72
    17
 73
    13
 74
     0
 42
0.0000000001
 43
0.0000000001
 12
1.0
 22
0.0
 32
0.0
 13
1.0
 23
0.0
 33
0.0
 40
0.0
 40
0.0
 40
0.0
 40
0.0
 40
1.0
 40
1.0
 40
1.0
 40
2.0
 40
2.0
 40
2.0
 40
3.0
 40
3.0
 40
3.0
 40
4.0
 40
4.0
 40
4.0
 40
4.0
 10
104.0322237348058
 20
-134.5544185774725
 30
0.0
 10
104.0322237348058
 20
-134.4986091330421
 30
0.0
 10
103.9874562359479
 20
-134.4538063552753
 30
0.0
 10
103.9323170706879
 20
-134.4538063552753
 30
0.0
 10
103.8772131832048
 20
-134.4538063552753
 30
0.0
 10
103.8324104065701
 20
-134.4986091330421
 30
0.0
 10
103.8324104065701
 20
-134.5544185774725
 30
0.0
 10
103.8324104065701
 20
-134.6095224663474
 30
0.0
 10
103.8772131832048
 20
-134.6543252441141
 30
0.0
 10
103.9323170706879
 20
-134.6543252441141
 30
0.0
 10
103.9874562359479
 20
-134.6543252441141
 30
0.0
 10
104.0322237348058
 20
-134.6095224663474
 30
0.0
 10
104.0322237348058
 20
-134.5544185774725
 30
0.0
  0
SPLINE
  5
64
330
1F
100
AcDbEntity
  8
_U+30EC_U+30A4_U+30E4_U+30FC 1
 62
   179
420
  2234388
370
     9
100
AcDbSpline
210
0.0
220
0.0
230
1.0
 70
    11
 71
     3
 72
    17
 73
    13
 74
     0
 42
0.0000000001
 43
0.0000000001
 12
1.0
 22
0.0
 32
0.0
 13
1.0
 23
0.0
 33
0.0
 40
0.0
 40
0.0
 40
0.0
 40
0.0
 40
1.0
 40
1.0
 40
1.0
 40
2.0
 40
2.0
 40
2.0
 40
3.0
 40
3.0
 40
3.0
 40
4.0
 40
4.0
 40
4.0
 40
4.0
 10
104.0322237348058
 20
-135.4542488550252
 30
0.0
 10
104.0322237348058
 20
-135.3991449661503
 30
0.0
 10
103.9874562359479
 20
-135.3543421883836
 30
0.0
 10
103.9323170706879
 20
-135.3543421883836
 30
0.0
 10
103.8772131832048
 20
-135.3543421883836
 30
0.0
 10
103.8324104065701
 20
-135.3991449661503
 30
0.0
 10
103.8324104065701
 20
-135.4542488550252
 30
0.0
 10
103.8324104065701
 20
-135.5093880216783
 30
0.0
 10
103.8772131832048
 20
-135.5541555216669
 30
0.0
 10
103.9323170706879
 20
-135.5541555216669
 30
0.0
 10
103.9874562359479
 20
-135.5541555216669
 30
0.0
 10
104.0322237348058
 20
-135.5093880216783
 30
0.0
 10
104.0322237348058
 20
-135.4542488550252
 30
0.0
  0
SPLINE
  5
65
330
1F
100
AcDbEntity
  8
_U+30EC_U+30A4_U+30E4_U+30FC 1
 62
   179
420
  2234388
370
     9
100
AcDbSpline
210
0.0
220
0.0
230
1.0
 70
    11
 71
     3
 72
    17
 73
    13
 74
     0
 42
0.0000000001
 43
0.0000000001
 12
1.0
 22
0.0
 32
0.0
 13
1.0
 23
0.0
 33
0.0
 40
0.0
 40
0.0
 40
0.0
 40
0.0
 40
1.0
 40
1.0
 40
1.0
 40
2.0
 40
2.0
 40
2.0
 40
3.0
 40
3.0
 40
3.0
 40
4.0
 40
4.0
 40
4.0
 40
4.0
 10
100.0521143919024
 20
-139.4536905206919
 30
0.0
 10
100.0521143919024
 20
-139.3985513540395
 30
0.0
 10
100.0073468930445
 20
-139.3537838540502
 30
0.0
 10
99.95220772778451
 20
-139.3537838540502
 30
0.0
 10
99.89710384030144
 20
-139.3537838540502
 30
0.0
 10
99.85230106366669
 20
-139.3985513540395
 30
0.0
 10
99.85230106366669
 20
-139.4536905206919
 30
0.0
 10
99.85230106366669
 20
-139.5087944095674
 30
0.0
 10
99.89710384030144
 20
-139.5535971873335
 30
0.0
 10
99.95220772778451
 20
-139.5535971873335
 30
0.0
 10
100.0073468930445
 20
-139.5535971873335
 30
0.0
 10
100.0521143919024
 20
-139.5087944095674
 30
0.0
 10
100.0521143919024
 20
-139.4536905206919
 30
0.0
  0
SPLINE
  5
66
330
1F
100
AcDbEntity
  8
_U+30EC_U+30A4_U+30E4_U+30FC 1
 62
   179
420
  2234388
370
     9
100
AcDbSpline
210
0.0
220
0.0
230
1.0
 70
    11
 71
     3
 72
    17
 73
    13
 74
     0
 42
0.0000000001
 43
0.0000000001
 12
1.0
 22
0.0
 32
0.0
 13
1.0
 23
0.0
 33
0.0
 40
0.0
 40
0.0
 40
0.0
 40
0.0
 40
1.0
 40
1.0
 40
1.0
 40
2.0
 40
2.0
 40
2.0
 40
3.0
 40
3.0
 40
3.0
 40
4.0
 40
4.0
 40
4.0
 40
4.0
 10
81.05171543219846
 20
-139.4536905206919
 30
0.0
 10
81.05171543219846
 20
-139.3985513540395
 30
0.0
 10
81.00694997974834
 20
-139.3537838540502
 30
0.0
 10
80.95180876808064
 20
-139.3537838540502
 30
0.0
 10
80.89670488059757
 20
-139.3537838540502
 30
0.0
 10
80.8519021039628
 20
-139.3985513540395
 30
0.0
 10
80.8519021039628
 20
-139.4536905206919
 30
0.0
 10
80.8519021039628
 20
-139.5087944095674
 30
0.0
 10
80.89670488059757
 20
-139.5535971873335
 30
0.0
 10
80.95180876808064
 20
-139.5535971873335
 30
0.0
 10
81.00694997974834
 20
-139.5535971873335
 30
0.0
 10
81.05171543219846
 20
-139.5087944095674
 30
0.0
 10
81.05171543219846
 20
-139.4536905206919
 30
0.0
  0
SPLINE
  5
67
330
1F
100
AcDbEntity
  8
_U+30EC_U+30A4_U+30E4_U+30FC 1
 62
   179
420
  2234388
370
     9
100
AcDbSpline
210
0.0
220
0.0
230
1.0
 70
    11
 71
     3
 72
    17
 73
    13
 74
     0
 42
0.0000000001
 43
0.0000000001
 12
1.0
 22
0.0
 32
0.0
 13
1.0
 23
0.0
 33
0.0
 40
0.0
 40
0.0
 40
0.0
 40
0.0
 40
1.0
 40
1.0
 40
1.0
 40
2.0
 40
2.0
 40
2.0
 40
3.0
 40
3.0
 40
3.0
 40
4.0
 40
4.0
 40
4.0
 40
4.0
 10
77.03234192363011
 20
-135.4542488550252
 30
0.0
 10
77.03234192363011
 20
-135.3991449661503
 30
0.0
 10
76.98753914699536
 20
-135.3543421883836
 30
0.0
 10
76.93243525951229
 20
-135.3543421883836
 30
0.0
 10
76.87729609425233
 20
-135.3543421883836
 30
0.0
 10
76.8325305363473
 20
-135.3991449661503
 30
0.0
 10
76.8325305363473
 20
-135.4542488550252
 30
0.0
 10
76.8325305363473
 20
-135.5093880216783
 30
0.0
 10
76.87729609425233
 20
-135.5541555216669
 30
0.0
 10
76.93243525951229
 20
-135.5541555216669
 30
0.0
 10
76.98753914699536
 20
-135.5541555216669
 30
0.0
 10
77.03234192363011
 20
-135.5093880216783
 30
0.0
 10
77.03234192363011
 20
-135.4542488550252
 30
0.0
  0
SPLINE
  5
68
330
1F
100
AcDbEntity
  8
_U+30EC_U+30A4_U+30E4_U+30FC 1
 62
   179
420
  2234388
370
     9
100
AcDbSpline
210
0.0
220
0.0
230
1.0
 70
    11
 71
     3
 72
    17
 73
    13
 74
     0
 42
0.0000000001
 43
0.0000000001
 12
1.0
 22
0.0
 32
0.0
 13
1.0
 23
0.0
 33
0.0
 40
0.0
 40
0.0
 40
0.0
 40
0.0
 40
1.0
 40
1.0
 40
1.0
 40
2.0
 40
2.0
 40
2.0
 40
3.0
 40
3.0
 40
3.0
 40
4.0
 40
4.0
 40
4.0
 40
4.0
 10
77.03234192363011
 20
-116.4538846931086
 30
0.0
 10
77.03234192363011
 20
-116.3987455264559
 30
0.0
 10
76.98753914699536
 20
-116.353978026467
 30
0.0
 10
76.93243525951229
 20
-116.353978026467
 30
0.0
 10
76.87729609425233
 20
-116.353978026467
 30
0.0
 10
76.8325305363473
 20
-116.3987455264559
 30
0.0
 10
76.8325305363473
 20
-116.4538846931086
 30
0.0
 10
76.8325305363473
 20
-116.5096941375394
 30
0.0
 10
76.87729609425233
 20
-116.554461637528
 30
0.0
 10
76.93243525951229
 20
-116.554461637528
 30
0.0
 10
76.98753914699536
 20
-116.554461637528
 30
0.0
 10
77.03234192363011
 20
-116.5096941375394
 30
0.0
 10
77.03234192363011
 20
-116.4538846931086
 30
0.0
  0
POLYLINE
  5
69
330
1F
100
AcDbEntity
  8
_U+30EC_U+30A4_U+30E4_U+30FC 1
 62
   179
420
  2234388
370
     9
100
AcDb2dPolyline
 66
     1
 10
0.0
 20
0.0
 30
0.0
  0
VERTEX
  5
6A
330
69
100
AcDbEntity
  8
_U+30EC_U+30A4_U+30E4_U+30FC 1
 62
   179
420
  2234388
370
     9
100
AcDbVertex
100
AcDb2dVertex
 10
103.9323170706879
 20
-134.5544185774725
 30
0.0
  0
VERTEX
  5
6B
330
69
100
AcDbEntity
  8
_U+30EC_U+30A4_U+30E4_U+30FC 1
 62
   179
420
  2234388
370
     9
100
AcDbVertex
100
AcDb2dVertex
 10
103.9323170706879
 20
-136.4540210769978
 30
0.0
  0
SEQEND
  5
6C
330
69
100
AcDbEntity
  8
_U+30EC_U+30A4_U+30E4_U+30FC 1
 62
   179
420
  2234388
370
     9
  0
POLYLINE
  5
6D
330
1F
100
AcDbEntity
  8
_U+30EC_U+30A4_U+30E4_U+30FC 1
 62
   179
420
  2234388
370
     9
100
AcDb2dPolyline
 66
     1
 10
0.0
 20
0.0
 30
0.0
  0
VERTEX
  5
6E
330
6D
100
AcDbEntity
  8
_U+30EC_U+30A4_U+30E4_U+30FC 1
 62
   179
420
  2234388
370
     9
100
AcDbVertex
100
AcDb2dVertex
 10
102.4723109968247
 20
-134.5544185774725
 30
0.0
  0
VERTEX
  5
6F
330
6D
100
AcDbEntity
  8
_U+30EC_U+30A4_U+30E4_U+30FC 1
 62
   179
420
  2234388
370
     9
100
AcDbVertex
100
AcDb2dVertex
 10
104.9320892674038
 20
-134.5544185774725
 30
0.0
  0
SEQEND
  5
70
330
6D
100
AcDbEntity
  8
_U+30EC_U+30A4_U+30E4_U+30FC 1
 62
   179
420
  2234388
370
     9
  0
POLYLINE
  5
71
330
1F
100
AcDbEntity
  8
_U+30EC_U+30A4_U+30E4_U+30FC 1
 62
   179
420
  2234388
370
     9
100
AcDb2dPolyline
 66
     1
 10
0.0
 20
0.0
 30
0.0
  0
VERTEX
  5
72
330
71
100
AcDbEntity
  8
_U+30EC_U+30A4_U+30E4_U+30FC 1
 62
   179
420
  2234388
370
     9
100
AcDbVertex
100
AcDb2dVertex
 10
102.4723109968247
 20
-135.4542488550252
 30
0.0
  0
VERTEX
  5
73
330
71
100
AcDbEntity
  8
_U+30EC_U+30A4_U+30E4_U+30FC 1
 62
   179
420
  2234388
370
     9
100
AcDbVertex
100
AcDb2dVertex
 10
104.9320892674038
 20
-135.4542488550252
 30
0.0
  0
SEQEND
  5
74
330
71
100
AcDbEntity
  8
_U+30EC_U+30A4_U+30E4_U+30FC 1
 62
   179
420
  2234388
370
     9
  0
INSERT
  5
76
330
1F
100
AcDbEntity
  8
_U+30EC_U+30A4_U+30E4_U+30FC 1
100
AcDbBlockReference
  2
block 2
 10
0.0
 20
0.0
 30
0.0
  0
POLYLINE
  5
88
330
1F
100
AcDbEntity
  8
_U+30EC_U+30A4_U+30E4_U+30FC 1
 62
   179
420
  2234388
370
     9
100
AcDb2dPolyline
 66
     1
 10
0.0
 20
0.0
 30
0.0
  0
VERTEX
  5
89
330
88
100
AcDbEntity
  8
_U+30EC_U+30A4_U+30E4_U+30FC 1
 62
   179
420
  2234388
370
     9
100
AcDbVertex
100
AcDb2dVertex
 10
80.95180876808064
 20
-139.4536905206919
 30
0.0
  0
VERTEX
  5
8A
330
88
100
AcDbEntity
  8
_U+30EC_U+30A4_U+30E4_U+30FC 1
 62
   179
420
  2234388
370
     9
100
AcDbVertex
100
AcDb2dVertex
 10
99.95220772778451
 20
-139.4536905206919
 30
0.0
  0
SEQEND
  5
8B
330
88
100
AcDbEntity
  8
_U+30EC_U+30A4_U+30E4_U+30FC 1
 62
   179
420
  2234388
370
     9
  0
POLYLINE
  5
8C
330
1F
100
AcDbEntity
  8
_U+30EC_U+30A4_U+30E4_U+30FC 1
 62
   179
420
  2234388
370
     9
100
AcDb2dPolyline
 66
     1
 10
0.0
 20
0.0
 30
0.0
  0
VERTEX
  5
8D
330
8C
100
AcDbEntity
  8
_U+30EC_U+30A4_U+30E4_U+30FC 1
 62
   179
420
  2234388
370
     9
100
AcDbVertex
100
AcDb2dVertex
 10
80.95180876808064
 20
-137.9936491321682
 30
0.0
  0
VERTEX
  5
8E
330
8C
100
AcDbEntity
  8
_U+30EC_U+30A4_U+30E4_U+30FC 1
 62
   179
420
  2234388
370
     9
100
AcDbVertex
100
AcDb2dVertex
 10
80.95180876808064
 20
-140.4534274648869
 30
0.0
  0
SEQEND
  5
8F
330
8C
100
AcDbEntity
  8
_U+30EC_U+30A4_U+30E4_U+30FC 1
 62
   179
420
  2234388
370
     9
  0
POLYLINE
  5
90
330
1F
100
AcDbEntity
  8
_U+30EC_U+30A4_U+30E4_U+30FC 1
 62
   179
420
  2234388
370
     9
100
AcDb2dPolyline
 66
     1
 10
0.0
 20
0.0
 30
0.0
  0
VERTEX
  5
91
330
90
100
AcDbEntity
  8
_U+30EC_U+30A4_U+30E4_U+30FC 1
 62
   179
420
  2234388
370
     9
100
AcDbVertex
100
AcDb2dVertex
 10
99.95220772778451
 20
-137.9936491321682
 30
0.0
  0
VERTEX
  5
92
330
90
100
AcDbEntity
  8
_U+30EC_U+30A4_U+30E4_U+30FC 1
 62
   179
420
  2234388
370
     9
100
AcDbVertex
100
AcDb2dVertex
 10
99.95220772778451
 20
-140.4534274648869
 30
0.0
  0
SEQEND
  5
93
330
90
100
AcDbEntity
  8
_U+30EC_U+30A4_U+30E4_U+30FC 1
 62
   179
420
  2234388
370
     9
  0
INSERT
  5
95
330
1F
100
AcDbEntity
  8
_U+30EC_U+30A4_U+30E4_U+30FC 1
100
AcDbBlockReference
  2
block 3
 10
0.0
 20
0.0
 30
0.0
  0
POLYLINE
  5
9D
330
1F
100
AcDbEntity
  8
_U+30EC_U+30A4_U+30E4_U+30FC 1
 62
   179
420
  2234388
370
     9
100
AcDb2dPolyline
 66
     1
 10
0.0
 20
0.0
 30
0.0
  0
VERTEX
  5
9E
330
9D
100
AcDbEntity
  8
_U+30EC_U+30A4_U+30E4_U+30FC 1
 62
   179
420
  2234388
370
     9
100
AcDbVertex
100
AcDb2dVertex
 10
76.93243525951229
 20
-116.4538846931086
 30
0.0
  0
VERTEX
  5
9F
330
9D
100
AcDbEntity
  8
_U+30EC_U+30A4_U+30E4_U+30FC 1
 62
   179
420
  2234388
370
     9
100
AcDbVertex
100
AcDb2dVertex
 10
76.93243525951229
 20
-135.4542488550252
 30
0.0
  0
SEQEND
  5
A0
330
9D
100
AcDbEntity
  8
_U+30EC_U+30A4_U+30E4_U+30FC 1
 62
   179
420
  2234388
370
     9
  0
POLYLINE
  5
A1
330
1F
100
AcDbEntity
  8
_U+30EC_U+30A4_U+30E4_U+30FC 1
 62
   179
420
  2234388
370
     9
100
AcDb2dPolyline
 66
     1
 10
0.0
 20
0.0
 30
0.0
  0
VERTEX
  5
A2
330
A1
100
AcDbEntity
  8
_U+30EC_U+30A4_U+30E4_U+30FC 1
 62
   179
420
  2234388
370
     9
100
AcDbVertex
100
AcDb2dVertex
 10
78.39244133337554
 20
-116.4538846931086
 30
0.0
  0
VERTEX
  5
A3
330
A1
100
AcDbEntity
  8
_U+30EC_U+30A4_U+30E4_U+30FC 1
 62
   179
420
  2234388
370
     9
100
AcDbVertex
100
AcDb2dVertex
 10
75.93266306279638
 20
-116.4538846931086
 30
0.0
  0
SEQEND
  5
A4
330
A1
100
AcDbEntity
  8
_U+30EC_U+30A4_U+30E4_U+30FC 1
 62
   179
420
  2234388
370
     9
  0
POLYLINE
  5
A5
330
1F
100
AcDbEntity
  8
_U+30EC_U+30A4_U+30E4_U+30FC 1
 62
   179
420
  2234388
370
     9
100
AcDb2dPolyline
 66
     1
 10
0.0
 20
0.0
 30
0.0
  0
VERTEX
  5
A6
330
A5
100
AcDbEntity
  8
_U+30EC_U+30A4_U+30E4_U+30FC 1
 62
   179
420
  2234388
370
     9
100
AcDbVertex
100
AcDb2dVertex
 10
78.39244133337554
 20
-135.4542488550252
 30
0.0
  0
VERTEX
  5
A7
330
A5
100
AcDbEntity
  8
_U+30EC_U+30A4_U+30E4_U+30FC 1
 62
   179
420
  2234388
370
     9
100
AcDbVertex
100
AcDb2dVertex
 10
75.93266306279638
 20
-135.4542488550252
 30
0.0
  0
SEQEND
  5
A8
330
A5
100
AcDbEntity
  8
_U+30EC_U+30A4_U+30E4_U+30FC 1
 62
   179
420
  2234388
370
     9
  0
INSERT
  5
AA
330
1F
100
AcDbEntity
  8
_U+30EC_U+30A4_U+30E4_U+30FC 1
100
AcDbBlockReference
  2
block 4
 10
0.0
 20
0.0
 30
0.0
  0
POLYLINE
  5
B2
330
1F
100
AcDbEntity
  8
_U+30EC_U+30A4_U+30E4_U+30FC 1
  6
AI-Linetype-1
 62
   154
420
    23468
370
    25
100
AcDb2dPolyline
 66
     1
 10
0.0
 20
0.0
 30
0.0
  0
VERTEX
  5
B3
330
B2
100
AcDbEntity
  8
_U+30EC_U+30A4_U+30E4_U+30FC 1
  6
AI-Linetype-1
 62
   154
420
    23468
370
    25
100
AcDbVertex
100
AcDb2dVertex
 10
80.21630239795607
 20
-116.4538846931086
 30
0.0
  0
VERTEX
  5
B4
330
B2
100
AcDbEntity
  8
_U+30EC_U+30A4_U+30E4_U+30FC 1
  6
AI-Linetype-1
 62
   154
420
    23468
370
    25
100
AcDbVertex
100
AcDb2dVertex
 10
80.21630239795607
 20
-131.453819411581
 30
0.0
  0
SEQEND
  5
B6
330
B2
100
AcDbEntity
  8
_U+30EC_U+30A4_U+30E4_U+30FC 1
  6
AI-Linetype-1
 62
   154
420
    23468
370
    25
  0
POLYLINE
  5
B7
330
1F
100
AcDbEntity
  8
_U+30EC_U+30A4_U+30E4_U+30FC 1
  6
AI-Linetype-2
 62
   154
420
    23468
370
    25
100
AcDb2dPolyline
 66
     1
 10
0.0
 20
0.0
 30
0.0
  0
VERTEX
  5
B8
330
B7
100
AcDbEntity
  8
_U+30EC_U+30A4_U+30E4_U+30FC 1
  6
AI-Linetype-2
 62
   154
420
    23468
370
    25
100
AcDbVertex
100
AcDb2dVertex
 10
84.83204672464308
 20
-136.0654363548725
 30
0.0
  0
VERTEX
  5
B9
330
B7
100
AcDbEntity
  8
_U+30EC_U+30A4_U+30E4_U+30FC 1
  6
AI-Linetype-2
 62
   154
420
    23468
370
    25
100
AcDbVertex
100
AcDb2dVertex
 10
99.83265134194576
 20
-136.0654363548725
 30
0.0
  0
SEQEND
  5
BB
330
B7
100
AcDbEntity
  8
_U+30EC_U+30A4_U+30E4_U+30FC 1
  6
AI-Linetype-2
 62
   154
420
    23468
370
    25
  0
POLYLINE
  5
BC
330
1F
100
AcDbEntity
  8
_U+30EC_U+30A4_U+30E4_U+30FC 1
 62
   179
420
  2234388
370
     9
100
AcDb2dPolyline
 66
     1
 10
0.0
 20
0.0
 30
0.0
  0
VERTEX
  5
BD
330
BC
100
AcDbEntity
  8
_U+30EC_U+30A4_U+30E4_U+30FC 1
 62
   179
420
  2234388
370
     9
100
AcDbVertex
100
AcDb2dVertex
 10
80.08263490136622
 20
-121.4726777474097
 30
0.0
  0
VERTEX
  5
BE
330
BC
100
AcDbEntity
  8
_U+30EC_U+30A4_U+30E4_U+30FC 1
 62
   179
420
  2234388
370
     9
100
AcDbVertex
100
AcDb2dVertex
 10
89.96383437149804
 20
-121.4726777474097
 30
0.0
  0
SEQEND
  5
BF
330
BC
100
AcDbEntity
  8
_U+30EC_U+30A4_U+30E4_U+30FC 1
 62
   179
420
  2234388
370
     9
  0
POLYLINE
  5
C0
330
1F
100
AcDbEntity
  8
_U+30EC_U+30A4_U+30E4_U+30FC 1
 62
   179
420
  2234388
370
     9
100
AcDb2dPolyline
 66
     1
 10
0.0
 20
0.0
 30
0.0
  0
VERTEX
  5
C1
330
C0
100
AcDbEntity
  8
_U+30EC_U+30A4_U+30E4_U+30FC 1
 62
   179
420
  2234388
370
     9
100
AcDbVertex
100
AcDb2dVertex
 10
80.08263490136622
 20
-121.4726777474097
 30
0.0
  0
VERTEX
  5
C2
330
C0
100
AcDbEntity
  8
_U+30EC_U+30A4_U+30E4_U+30FC 1
 62
   179
420
  2234388
370
     9
100
AcDbVertex
100
AcDb2dVertex
 10
81.04861098783323
 20
-121.2136330252522
 30
0.0
  0
SEQEND
  5
C3
330
C0
100
AcDbEntity
  8
_U+30EC_U+30A4_U+30E4_U+30FC 1
 62
   179
420
  2234388
370
     9
  0
POLYLINE
  5
C4
330
1F
100
AcDbEntity
  8
_U+30EC_U+30A4_U+30E4_U+30FC 1
 62
   179
420
  2234388
370
     9
100
AcDb2dPolyline
 66
     1
 10
0.0
 20
0.0
 30
0.0
  0
VERTEX
  5
C5
330
C4
100
AcDbEntity
  8
_U+30EC_U+30A4_U+30E4_U+30FC 1
 62
   179
420
  2234388
370
     9
100
AcDbVertex
100
AcDb2dVertex
 10
80.08263490136622
 20
-121.4726777474097
 30
0.0
  0
VERTEX
  5
C6
330
C4
100
AcDbEntity
  8
_U+30EC_U+30A4_U+30E4_U+30FC 1
 62
   179
420
  2234388
370
     9
100
AcDbVertex
100
AcDb2dVertex
 10
81.04861098783323
 20
-121.7314049695673
 30
0.0
  0
SEQEND
  5
C7
330
C4
100
AcDbEntity
  8
_U+30EC_U+30A4_U+30E4_U+30FC 1
 62
   179
420
  2234388
370
     9
  0
POLYLINE
  5
C8
330
1F
100
AcDbEntity
  8
_U+30EC_U+30A4_U+30E4_U+30FC 1
 62
   179
420
  2234388
370
     9
100
AcDb2dPolyline
 66
     1
 10
0.0
 20
0.0
 30
0.0
  0
VERTEX
  5
C9
330
C8
100
AcDbEntity
  8
_U+30EC_U+30A4_U+30E4_U+30FC 1
 62
   179
420
  2234388
370
     9
100
AcDbVertex
100
AcDb2dVertex
 10
94.60956480853113
 20
-135.8201499660451
 30
0.0
  0
VERTEX
  5
CA
330
C8
100
AcDbEntity
  8
_U+30EC_U+30A4_U+30E4_U+30FC 1
 62
   179
420
  2234388
370
     9
100
AcDbVertex
100
AcDb2dVertex
 10
94.86860952414457
 20
-134.8541385773974
 30
0.0
  0
SEQEND
  5
CB
330
C8
100
AcDbEntity
  8
_U+30EC_U+30A4_U+30E4_U+30FC 1
 62
   179
420
  2234388
370
     9
  0
POLYLINE
  5
CC
330
1F
100
AcDbEntity
  8
_U+30EC_U+30A4_U+30E4_U+30FC 1
 62
   179
420
  2234388
370
     9
100
AcDb2dPolyline
 66
     1
 10
0.0
 20
0.0
 30
0.0
  0
VERTEX
  5
CD
330
CC
100
AcDbEntity
  8
_U+30EC_U+30A4_U+30E4_U+30FC 1
 62
   179
420
  2234388
370
     9
100
AcDbVertex
100
AcDb2dVertex
 10
94.60956480853113
 20
-135.8201499660451
 30
0.0
  0
VERTEX
  5
CE
330
CC
100
AcDbEntity
  8
_U+30EC_U+30A4_U+30E4_U+30FC 1
 62
   179
420
  2234388
370
     9
100
AcDbVertex
100
AcDb2dVertex
 10
94.60956480853113
 20
-122.4717796916043
 30
0.0
  0
SEQEND
  5
CF
330
CC
100
AcDbEntity
  8
_U+30EC_U+30A4_U+30E4_U+30FC 1
 62
   179
420
  2234388
370
     9
  0
POLYLINE
  5
D0
330
1F
100
AcDbEntity
  8
_U+30EC_U+30A4_U+30E4_U+30FC 1
 62
   179
420
  2234388
370
     9
100
AcDb2dPolyline
 66
     1
 10
0.0
 20
0.0
 30
0.0
  0
VERTEX
  5
D1
330
D0
100
AcDbEntity
  8
_U+30EC_U+30A4_U+30E4_U+30FC 1
 62
   179
420
  2234388
370
     9
100
AcDbVertex
100
AcDb2dVertex
 10
94.60956480853113
 20
-135.8201499660451
 30
0.0
  0
VERTEX
  5
D2
330
D0
100
AcDbEntity
  8
_U+30EC_U+30A4_U+30E4_U+30FC 1
 62
   179
420
  2234388
370
     9
100
AcDbVertex
100
AcDb2dVertex
 10
94.3511550929015
 20
-134.8541385773974
 30
0.0
  0
SEQEND
  5
D3
330
D0
100
AcDbEntity
  8
_U+30EC_U+30A4_U+30E4_U+30FC 1
 62
   179
420
  2234388
370
     9
  0
INSERT
  5
D5
330
1F
100
AcDbEntity
  8
_U+30EC_U+30A4_U+30E4_U+30FC 1
100
AcDbBlockReference
  2
block 5
 10
0.0
 20
0.0
 30
0.0
  0
ENDSEC
  0
SECTION
  2
OBJECTS
  0
DICTIONARY
  5
C
330
0
100
AcDbDictionary
281
     1
  3
ACAD_GROUP
350
D
  3
ACAD_LAYOUT
350
1A
  3
ACAD_MATERIAL
350
3B
  3
ACAD_MLEADERSTYLE
350
FD
  3
ACAD_MLINESTYLE
350
17
  3
ACAD_PLOTSETTINGS
350
19
  3
ACAD_PLOTSTYLENAME
350
E
  3
ACAD_TABLESTYLE
350
FC
  3
ACAD_VISUALSTYLE
350
2A
  0
SUN
  5
3F
330
29
100
AcDbSun
 90
        1
290
     0
 63
     7
421
 16777215
 40
1.0
291
     1
 91
  2455826
 92
 54000000
292
     0
 70
     2
 71
   256
280
     1
  0
DICTIONARY
  5
D
102
{ACAD_REACTORS
330
C
102
}
330
C
100
AcDbDictionary
281
     1
  0
DICTIONARY
  5
1A
102
{ACAD_REACTORS
330
C
102
}
330
C
100
AcDbDictionary
281
     1
  3
Layout1
350
1E
  3
Layout2
350
26
  3
Model
350
22
  0
DICTIONARY
  5
3B
102
{ACAD_REACTORS
330
C
102
}
330
C
100
AcDbDictionary
281
     1
  3
ByBlock
350
3D
  3
ByLayer
350
3C
  3
Global
350
3E
  0
DICTIONARY
  5
FD
102
{ACAD_REACTORS
330
C
102
}
330
C
100
AcDbDictionary
281
     1
  0
DICTIONARY
  5
17
102
{ACAD_REACTORS
330
C
102
}
330
C
100
AcDbDictionary
281
     1
  3
Standard
350
18
  0
DICTIONARY
  5
19
102
{ACAD_REACTORS
330
C
102
}
330
C
100
AcDbDictionary
281
     1
  0
ACDBDICTIONARYWDFLT
  5
E
102
{ACAD_REACTORS
330
C
102
}
330
C
100
AcDbDictionary
281
     1
  3
Normal
350
F
100
AcDbDictionaryWithDefault
340
F
  0
DICTIONARY
  5
FC
102
{ACAD_REACTORS
330
C
102
}
330
C
100
AcDbDictionary
281
     1
  0
DICTIONARY
  5
2A
102
{ACAD_REACTORS
330
C
102
}
330
C
100
AcDbDictionary
281
     1
  3
2dWireframe
350
2F
  3
3D Hidden
350
31
  3
3dWireframe
350
30
  3
Basic
350
32
  3
Brighten
350
36
  3
ColorChange
350
3A
  3
Conceptual
350
34
  3
Dim
350
35
  3
Facepattern
350
39
  3
Flat
350
2B
  3
FlatWithEdges
350
2C
  3
Gouraud
350
2D
  3
GouraudWithEdges
350
2E
  3
Linepattern
350
38
  3
Realistic
350
33
  3
Thicken
350
37
  0
LAYOUT
  5
1E
102
{ACAD_REACTORS
330
1A
102
}
330
1A
100
AcDbPlotSettings
  1

  2
none_device
  4

  6

 40
0.0
 41
0.0
 42
0.0
 43
0.0
 44
0.0
 45
0.0
 46
0.0
 47
0.0
 48
0.0
 49
0.0
140
0.0
141
0.0
142
1.0
143
1.0
 70
   688
 72
     0
 73
     0
 74
     5
  7

 75
    16
 76
     0
 77
     2
 78
   300
147
1.0
148
0.0
149
0.0
100
AcDbLayout
  1
Layout1
 70
     1
 71
     1
 10
0.0
 20
0.0
 11
12.0
 21
9.0
 12
0.0
 22
0.0
 32
0.0
 14
1.000000000000000E+20
 24
1.000000000000000E+20
 34
1.000000000000000E+20
 15
-1.000000000000000E+20
 25
-1.000000000000000E+20
 35
-1.000000000000000E+20
146
0.0
 13
0.0
 23
0.0
 33
0.0
 16
1.0
 26
0.0
 36
0.0
 17
0.0
 27
1.0
 37
0.0
 76
     0
330
1B
  0
LAYOUT
  5
26
102
{ACAD_REACTORS
330
1A
102
}
330
1A
100
AcDbPlotSettings
  1

  2
none_device
  4

  6

 40
0.0
 41
0.0
 42
0.0
 43
0.0
 44
0.0
 45
0.0
 46
0.0
 47
0.0
 48
0.0
 49
0.0
140
0.0
141
0.0
142
1.0
143
1.0
 70
   688
 72
     0
 73
     0
 74
     5
  7

 75
    16
 76
     0
 77
     2
 78
   300
147
1.0
148
0.0
149
0.0
100
AcDbLayout
  1
Layout2
 70
     1
 71
     2
 10
0.0
 20
0.0
 11
0.0
 21
0.0
 12
0.0
 22
0.0
 32
0.0
 14
0.0
 24
0.0
 34
0.0
 15
0.0
 25
0.0
 35
0.0
146
0.0
 13
0.0
 23
0.0
 33
0.0
 16
1.0
 26
0.0
 36
0.0
 17
0.0
 27
1.0
 37
0.0
 76
     0
330
23
  0
LAYOUT
  5
22
102
{ACAD_REACTORS
330
1A
102
}
330
1A
100
AcDbPlotSettings
  1

  2
none_device
  4

  6

 40
0.0
 41
0.0
 42
0.0
 43
0.0
 44
0.0
 45
0.0
 46
0.0
 47
0.0
 48
0.0
 49
0.0
140
0.0
141
0.0
142
1.0
143
1.0
 70
  1712
 72
     0
 73
     0
 74
     0
  7

 75
     0
 76
     0
 77
     2
 78
   300
147
1.0
148
0.0
149
0.0
100
AcDbLayout
  1
Model
 70
     1
 71
     0
 10
0.0
 20
0.0
 11
12.0
 21
9.0
 12
0.0
 22
0.0
 32
0.0
 14
1.000000000000000E+20
 24
1.000000000000000E+20
 34
1.000000000000000E+20
 15
-1.000000000000000E+20
 25
-1.000000000000000E+20
 35
-1.000000000000000E+20
146
0.0
 13
0.0
 23
0.0
 33
0.0
 16
1.0
 26
0.0
 36
0.0
 17
0.0
 27
1.0
 37
0.0
 76
     0
330
1F
331
29
  0
MATERIAL
  5
3D
102
{ACAD_REACTORS
330
3B
102
}
330
3B
100
AcDbMaterial
  1
ByBlock
 72
     1
 94
      127
  0
MATERIAL
  5
3C
102
{ACAD_REACTORS
330
3B
102
}
330
3B
100
AcDbMaterial
  1
ByLayer
 72
     1
 94
      127
  0
MATERIAL
  5
3E
102
{ACAD_REACTORS
330
3B
102
}
330
3B
100
AcDbMaterial
  1
Global
 72
     1
 94
      127
  0
MLINESTYLE
  5
18
102
{ACAD_REACTORS
330
17
102
}
330
17
100
AcDbMlineStyle
  2
Standard
 70
     0
  3

 62
   256
 51
90.0
 52
90.0
 71
     2
 49
0.5
 62
   256
  6
BYLAYER
 49
-0.5
 62
   256
  6
BYLAYER
  0
ACDBPLACEHOLDER
  5
F
102
{ACAD_REACTORS
330
E
102
}
330
E
  0
VISUALSTYLE
  5
2F
102
{ACAD_REACTORS
330
2A
102
}
330
2A
100
AcDbVisualStyle
  2
2dWireframe
 70
     4
177
     2
291
     0
 71
     0
176
     1
 72
     2
176
     1
 73
     0
176
     1
 90
        0
176
     1
 40
-0.6
176
     1
 41
-30.0
176
     1
 62
     5
 63
     7
421
 16777215
176
     1
 74
     1
176
     1
 91
        4
176
     1
 64
     7
176
     1
 65
   257
176
     1
 75
     1
176
     1
175
     1
176
     1
 42
1.0
176
     1
 92
        0
176
     1
 66
   257
176
     1
 43
1.0
176
     1
 76
     1
176
     1
 77
     6
176
     1
 78
     2
176
     1
 67
     7
176
     1
 79
     5
176
     1
170
     0
176
     1
171
     0
176
     1
290
     0
176
     1
 93
        1
176
     1
 44
0.0
176
     1
173
     0
176
     1
  0
VISUALSTYLE
  5
31
102
{ACAD_REACTORS
330
2A
102
}
330
2A
100
AcDbVisualStyle
  2
3D Hidden
 70
     6
177
     2
291
     0
 71
     1
176
     1
 72
     2
176
     1
 73
     2
176
     1
 90
        0
176
     1
 40
-0.6
176
     1
 41
-30.0
176
     1
 62
     5
 63
     7
421
 16777215
176
     1
 74
     2
176
     1
 91
        2
176
     1
 64
     7
176
     1
 65
   257
176
     1
 75
     2
176
     1
175
     1
176
     1
 42
40.0
176
     1
 92
        0
176
     1
 66
   257
176
     1
 43
1.0
176
     1
 76
     1
176
     1
 77
     6
176
     1
 78
     2
176
     1
 67
     7
176
     1
 79
     3
176
     1
170
     0
176
     1
171
     0
176
     1
290
     0
176
     1
 93
        1
176
     1
 44
0.0
176
     1
173
     0
176
     1
  0
VISUALSTYLE
  5
30
102
{ACAD_REACTORS
330
2A
102
}
330
2A
100
AcDbVisualStyle
  2
3dWireframe
 70
     5
177
     2
291
     0
 71
     0
176
     1
 72
     2
176
     1
 73
     0
176
     1
 90
        0
176
     1
 40
-0.6
176
     1
 41
-30.0
176
     1
 62
     5
 63
     7
421
 16777215
176
     1
 74
     1
176
     1
 91
        4
176
     1
 64
     7
176
     1
 65
   257
176
     1
 75
     1
176
     1
175
     1
176
     1
 42
1.0
176
     1
 92
        0
176
     1
 66
   257
176
     1
 43
1.0
176
     1
 76
     1
176
     1
 77
     6
176
     1
 78
     2
176
     1
 67
     7
176
     1
 79
     5
176
     1
170
     0
176
     1
171
     0
176
     1
290
     0
176
     1
 93
        1
176
     1
 44
0.0
176
     1
173
     0
176
     1
  0
VISUALSTYLE
  5
32
102
{ACAD_REACTORS
330
2A
102
}
330
2A
100
AcDbVisualStyle
  2
Basic
 70
     7
177
     2
291
     1
 71
     1
176
     1
 72
     0
176
     1
 73
     1
176
     1
 90
        0
176
     1
 40
-0.6
176
     1
 41
-30.0
176
     1
 62
     5
 63
     7
421
 16777215
176
     1
 74
     0
176
     1
 91
        4
176
     1
 64
     7
176
     1
 65
   257
176
     1
 75
     1
176
     1
175
     1
176
     1
 42
1.0
176
     1
 92
        8
176
     1
 66
     7
176
     1
 43
1.0
176
     1
 76
     1
176
     1
 77
     6
176
     1
 78
     2
176
     1
 67
     7
176
     1
 79
     5
176
     1
170
     0
176
     1
171
     0
176
     1
290
     0
176
     1
 93
        1
176
     1
 44
0.0
176
     1
173
     0
176
     1
  0
VISUALSTYLE
  5
36
102
{ACAD_REACTORS
330
2A
102
}
330
2A
100
AcDbVisualStyle
  2
Brighten
 70
    12
177
     2
291
     1
 71
     2
176
     1
 72
     2
176
     1
 73
     0
176
     1
 90
        0
176
     1
 40
-0.6
176
     1
 41
-30.0
176
     1
 62
     5
 63
     7
421
 16777215
176
     1
 74
     1
176
     1
 91
        4
176
     1
 64
     7
176
     1
 65
   257
176
     1
 75
     1
176
     1
175
     1
176
     1
 42
1.0
176
     1
 92
        8
176
     1
 66
     7
176
     1
 43
1.0
176
     1
 76
     1
176
     1
 77
     6
176
     1
 78
     2
176
     1
 67
     7
176
     1
 79
     5
176
     1
170
     0
176
     1
171
     0
176
     1
290
     0
176
     1
 93
        1
176
     1
 44
50.0
176
     1
173
     0
176
     1
  0
VISUALSTYLE
  5
3A
102
{ACAD_REACTORS
330
2A
102
}
330
2A
100
AcDbVisualStyle
  2
ColorChange
 70
    16
177
     2
291
     1
 71
     2
176
     1
 72
     2
176
     1
 73
     3
176
     1
 90
        0
176
     1
 40
-0.6
176
     1
 41
-30.0
176
     1
 62
     5
 63
     8
421
  8421504
176
     1
 74
     1
176
     1
 91
        4
176
     1
 64
     7
176
     1
 65
   257
176
     1
 75
     1
176
     1
175
     1
176
     1
 42
1.0
176
     1
 92
        8
176
     1
 66
     8
424
  8421504
176
     1
 43
1.0
176
     1
 76
     1
176
     1
 77
     6
176
     1
 78
     2
176
     1
 67
     7
176
     1
 79
     5
176
     1
170
     0
176
     1
171
     0
176
     1
290
     0
176
     1
 93
        1
176
     1
 44
0.0
176
     1
173
     0
176
     1
  0
VISUALSTYLE
  5
34
102
{ACAD_REACTORS
330
2A
102
}
330
2A
100
AcDbVisualStyle
  2
Conceptual
 70
     9
177
     2
291
     0
 71
     3
176
     1
 72
     2
176
     1
 73
     0
176
     1
 90
        0
176
     1
 40
-0.6
176
     1
 41
-30.0
176
     1
 62
     5
 63
     7
421
 16777215
176
     1
 74
     2
176
     1
 91
        2
176
     1
 64
     7
176
     1
 65
   257
176
     1
 75
     1
176
     1
175
     1
176
     1
 42
40.0
176
     1
 92
        8
176
     1
 66
     7
176
     1
 43
1.0
176
     1
 76
     1
176
     1
 77
     6
176
     1
 78
     2
176
     1
 67
     7
176
     1
 79
     3
176
     1
170
     0
176
     1
171
     0
176
     1
290
     0
176
     1
 93
        1
176
     1
 44
0.0
176
     1
173
     0
176
     1
  0
VISUALSTYLE
  5
35
102
{ACAD_REACTORS
330
2A
102
}
330
2A
100
AcDbVisualStyle
  2
Dim
 70
    11
177
     2
291
     1
 71
     2
176
     1
 72
     2
176
     1
 73
     0
176
     1
 90
        0
176
     1
 40
-0.6
176
     1
 41
-30.0
176
     1
 62
     5
 63
     7
421
 16777215
176
     1
 74
     1
176
     1
 91
        4
176
     1
 64
     7
176
     1
 65
   257
176
     1
 75
     1
176
     1
175
     1
176
     1
 42
1.0
176
     1
 92
        8
176
     1
 66
     7
176
     1
 43
1.0
176
     1
 76
     1
176
     1
 77
     6
176
     1
 78
     2
176
     1
 67
     7
176
     1
 79
     5
176
     1
170
     0
176
     1
171
     0
176
     1
290
     0
176
     1
 93
        1
176
     1
 44
-50.0
176
     1
173
     0
176
     1
  0
VISUALSTYLE
  5
39
102
{ACAD_REACTORS
330
2A
102
}
330
2A
100
AcDbVisualStyle
  2
Facepattern
 70
    15
177
     2
291
     1
 71
     2
176
     1
 72
     2
176
     1
 73
     0
176
     1
 90
        0
176
     1
 40
-0.6
176
     1
 41
-30.0
176
     1
 62
     5
 63
     7
421
 16777215
176
     1
 74
     1
176
     1
 91
        4
176
     1
 64
     7
176
     1
 65
   257
176
     1
 75
     1
176
     1
175
     1
176
     1
 42
1.0
176
     1
 92
        8
176
     1
 66
     7
176
     1
 43
1.0
176
     1
 76
     1
176
     1
 77
     6
176
     1
 78
     2
176
     1
 67
     7
176
     1
 79
     5
176
     1
170
     0
176
     1
171
     0
176
     1
290
     0
176
     1
 93
        1
176
     1
 44
0.0
176
     1
173
     0
176
     1
  0
VISUALSTYLE
  5
2B
102
{ACAD_REACTORS
330
2A
102
}
330
2A
100
AcDbVisualStyle
  2
Flat
 70
     0
177
     2
291
     1
 71
     2
176
     1
 72
     1
176
     1
 73
     1
176
     1
 90
        2
176
     1
 40
-0.6
176
     1
 41
30.0
176
     1
 62
     5
 63
     7
421
 16777215
176
     1
 74
     0
176
     1
 91
        4
176
     1
 64
     7
176
     1
 65
   257
176
     1
 75
     1
176
     1
175
     1
176
     1
 42
1.0
176
     1
 92
        8
176
     1
 66
     7
176
     1
 43
1.0
176
     1
 76
     1
176
     1
 77
     6
176
     1
 78
     2
176
     1
 67
     7
176
     1
 79
     5
176
     1
170
     0
176
     1
171
     0
176
     1
290
     0
176
     1
 93
       13
176
     1
 44
0.0
176
     1
173
     0
176
     1
  0
VISUALSTYLE
  5
2C
102
{ACAD_REACTORS
330
2A
102
}
330
2A
100
AcDbVisualStyle
  2
FlatWithEdges
 70
     1
177
     2
291
     1
 71
     2
176
     1
 72
     1
176
     1
 73
     1
176
     1
 90
        2
176
     1
 40
-0.6
176
     1
 41
30.0
176
     1
 62
     5
 63
     7
421
 16777215
176
     1
 74
     1
176
     1
 91
        4
176
     1
 64
     7
176
     1
 65
   257
176
     1
 75
     1
176
     1
175
     1
176
     1
 42
1.0
176
     1
 92
        0
176
     1
 66
   257
176
     1
 43
1.0
176
     1
 76
     1
176
     1
 77
     6
176
     1
 78
     2
176
     1
 67
     7
176
     1
 79
     5
176
     1
170
     0
176
     1
171
     0
176
     1
290
     0
176
     1
 93
       13
176
     1
 44
0.0
176
     1
173
     0
176
     1
  0
VISUALSTYLE
  5
2D
102
{ACAD_REACTORS
330
2A
102
}
330
2A
100
AcDbVisualStyle
  2
Gouraud
 70
     2
177
     2
291
     1
 71
     2
176
     1
 72
     2
176
     1
 73
     1
176
     1
 90
        2
176
     1
 40
-0.6
176
     1
 41
30.0
176
     1
 62
     5
 63
     7
421
 16777215
176
     1
 74
     0
176
     1
 91
        4
176
     1
 64
     7
176
     1
 65
   257
176
     1
 75
     1
176
     1
175
     1
176
     1
 42
1.0
176
     1
 92
        0
176
     1
 66
     7
176
     1
 43
1.0
176
     1
 76
     1
176
     1
 77
     6
176
     1
 78
     2
176
     1
 67
     7
176
     1
 79
     5
176
     1
170
     0
176
     1
171
     0
176
     1
290
     0
176
     1
 93
       13
176
     1
 44
0.0
176
     1
173
     0
176
     1
  0
VISUALSTYLE
  5
2E
102
{ACAD_REACTORS
330
2A
102
}
330
2A
100
AcDbVisualStyle
  2
GouraudWithEdges
 70
     3
177
     2
291
     1
 71
     2
176
     1
 72
     2
176
     1
 73
     1
176
     1
 90
        2
176
     1
 40
-0.6
176
     1
 41
30.0
176
     1
 62
     5
 63
     7
421
 16777215
176
     1
 74
     1
176
     1
 91
        4
176
     1
 64
     7
176
     1
 65
   257
176
     1
 75
     1
176
     1
175
     1
176
     1
 42
1.0
176
     1
 92
        0
176
     1
 66
   257
176
     1
 43
1.0
176
     1
 76
     1
176
     1
 77
     6
176
     1
 78
     2
176
     1
 67
     7
176
     1
 79
     5
176
     1
170
     0
176
     1
171
     0
176
     1
290
     0
176
     1
 93
       13
176
     1
 44
0.0
176
     1
173
     0
176
     1
  0
VISUALSTYLE
  5
38
102
{ACAD_REACTORS
330
2A
102
}
330
2A
100
AcDbVisualStyle
  2
Linepattern
 70
    14
177
     2
291
     1
 71
     2
176
     1
 72
     2
176
     1
 73
     0
176
     1
 90
        0
176
     1
 40
-0.6
176
     1
 41
-30.0
176
     1
 62
     5
 63
     7
421
 16777215
176
     1
 74
     1
176
     1
 91
        4
176
     1
 64
     7
176
     1
 65
   257
176
     1
 75
     7
176
     1
175
     7
176
     1
 42
1.0
176
     1
 92
        8
176
     1
 66
     7
176
     1
 43
1.0
176
     1
 76
     1
176
     1
 77
     6
176
     1
 78
     2
176
     1
 67
     7
176
     1
 79
     5
176
     1
170
     0
176
     1
171
     0
176
     1
290
     0
176
     1
 93
        1
176
     1
 44
0.0
176
     1
173
     0
176
     1
  0
VISUALSTYLE
  5
33
102
{ACAD_REACTORS
330
2A
102
}
330
2A
100
AcDbVisualStyle
  2
Realistic
 70
     8
177
     2
291
     0
 71
     2
176
     1
 72
     2
176
     1
 73
     0
176
     1
 90
        0
176
     1
 40
-0.6
176
     1
 41
-30.0
176
     1
 62
     5
 63
     7
421
 16777215
176
     1
 74
     1
176
     1
 91
        0
176
     1
 64
     7
176
     1
 65
   257
176
     1
 75
     1
176
     1
175
     1
176
     1
 42
1.0
176
     1
 92
        8
176
     1
 66
     8
424
  7895160
176
     1
 43
1.0
176
     1
 76
     1
176
     1
 77
     6
176
     1
 78
     2
176
     1
 67
     7
176
     1
 79
     5
176
     1
170
     0
176
     1
171
     0
176
     1
290
     0
176
     1
 93
       13
176
     1
 44
0.0
176
     1
173
     0
176
     1
  0
VISUALSTYLE
  5
37
102
{ACAD_REACTORS
330
2A
102
}
330
2A
100
AcDbVisualStyle
  2
Thicken
 70
    13
177
     2
291
     1
 71
     2
176
     1
 72
     2
176
     1
 73
     0
176
     1
 90
        0
176
     1
 40
-0.6
176
     1
 41
-30.0
176
     1
 62
     5
 63
     7
421
 16777215
176
     1
 74
     1
176
     1
 91
        4
176
     1
 64
     7
176
     1
 65
   257
176
     1
 75
     1
176
     1
175
     1
176
     1
 42
1.0
176
     1
 92
       12
176
     1
 66
     7
176
     1
 43
1.0
176
     1
 76
     1
176
     1
 77
     6
176
     1
 78
     2
176
     1
 67
     7
176
     1
 79
     5
176
     1
170
     0
176
     1
171
     0
176
     1
290
     0
176
     1
 93
        1
176
     1
 44
0.0
176
     1
173
     0
176
     1
  0
ENDSEC
  0
EOF
