  0
SECTION
  2
HEADER
  9
$ACADVER
  1
AC1024
  9
$ACADMAINTVER
 70
     6
  9
$DWGCODEPAGE
  3
UNDEFINED
  9
$INSBASE
 10
0.0
 20
0.0
 30
0.0
  9
$EXTMIN
 10
1.000000000000000E+20
 20
1.000000000000000E+20
 30
1.000000000000000E+20
  9
$EXTMAX
 10
-1.000000000000000E+20
 20
-1.000000000000000E+20
 30
-1.000000000000000E+20
  9
$LIMMIN
 10
0.0
 20
0.0
  9
$LIMMAX
 10
12.0
 20
9.0
  9
$ORTHOMODE
 70
     0
  9
$REGENMODE
 70
     1
  9
$FILLMODE
 70
     1
  9
$QTEXTMODE
 70
     0
  9
$MIRRTEXT
 70
     1
  9
$LTSCALE
 40
1.0
  9
$ATTMODE
 70
     1
  9
$TEXTSIZE
 40
0.2
  9
$TRACEWID
 40
0.05
  9
$TEXTSTYLE
  7
Standard
  9
$CLAYER
  8
0
  9
$CELTYPE
  6
ByLayer
  9
$CECOLOR
 62
   256
  9
$CELTSCALE
 40
1.0
  9
$DISPSILH
 70
     0
  9
$DIMSCALE
 40
1.0
  9
$DIMASZ
 40
0.18
  9
$DIMEXO
 40
0.0625
  9
$DIMDLI
 40
0.38
  9
$DIMRND
 40
0.0
  9
$DIMDLE
 40
0.0
  9
$DIMEXE
 40
0.18
  9
$DIMTP
 40
0.0
  9
$DIMTM
 40
0.0
  9
$DIMTXT
 40
0.18
  9
$DIMCEN
 40
0.09
  9
$DIMTSZ
 40
0.0
  9
$DIMTOL
 70
     0
  9
$DIMLIM
 70
     0
  9
$DIMTIH
 70
     1
  9
$DIMTOH
 70
     1
  9
$DIMSE1
 70
     0
  9
$DIMSE2
 70
     0
  9
$DIMTAD
 70
     0
  9
$DIMZIN
 70
     0
  9
$DIMBLK
  1

  9
$DIMASO
 70
     1
  9
$DIMSHO
 70
     1
  9
$DIMPOST
  1

  9
$DIMAPOST
  1

  9
$DIMALT
 70
     0
  9
$DIMALTD
 70
     2
  9
$DIMALTF
 40
25.4
  9
$DIMLFAC
 40
1.0
  9
$DIMTOFL
 70
     0
  9
$DIMTVP
 40
0.0
  9
$DIMTIX
 70
     0
  9
$DIMSOXD
 70
     0
  9
$DIMSAH
 70
     0
  9
$DIMBLK1
  1

  9
$DIMBLK2
  1

  9
$DIMSTYLE
  2
Standard
  9
$DIMCLRD
 70
     0
  9
$DIMCLRE
 70
     0
  9
$DIMCLRT
 70
     0
  9
$DIMTFAC
 40
1.0
  9
$DIMGAP
 40
0.09
  9
$DIMJUST
 70
     0
  9
$DIMSD1
 70
     0
  9
$DIMSD2
 70
     0
  9
$DIMTOLJ
 70
     1
  9
$DIMTZIN
 70
     0
  9
$DIMALTZ
 70
     0
  9
$DIMALTTZ
 70
     0
  9
$DIMUPT
 70
     0
  9
$DIMDEC
 70
     4
  9
$DIMTDEC
 70
     4
  9
$DIMALTU
 70
     2
  9
$DIMALTTD
 70
     2
  9
$DIMTXSTY
  7
Standard
  9
$DIMAUNIT
 70
     0
  9
$DIMADEC
 70
     0
  9
$DIMALTRND
 40
0.0
  9
$DIMAZIN
 70
     0
  9
$DIMDSEP
 70
    46
  9
$DIMATFIT
 70
     3
  9
$DIMFRAC
 70
     0
  9
$DIMLDRBLK
  1

  9
$DIMLUNIT
 70
     2
  9
$DIMLWD
 70
    -2
  9
$DIMLWE
 70
    -2
  9
$DIMTMOVE
 70
     0
  9
$DIMFXL
 40
1.0
  9
$DIMFXLON
 70
     0
  9
$DIMJOGANG
 40
0.7853981633974483
  9
$DIMTFILL
 70
     0
  9
$DIMTFILLCLR
 70
     0
  9
$DIMARCSYM
 70
     0
  9
$DIMLTYPE
  6

  9
$DIMLTEX1
  6

  9
$DIMLTEX2
  6

  9
$DIMTXTDIRECTION
 70
     0
  9
$LUNITS
 70
     2
  9
$LUPREC
 70
     4
  9
$SKETCHINC
 40
0.1
  9
$FILLETRAD
 40
0.5
  9
$AUNITS
 70
     0
  9
$AUPREC
 70
     0
  9
$MENU
  1
.
  9
$ELEVATION
 40
0.0
  9
$PELEVATION
 40
0.0
  9
$THICKNESS
 40
0.0
  9
$LIMCHECK
 70
     0
  9
$CHAMFERA
 40
0.5
  9
$CHAMFERB
 40
0.5
  9
$CHAMFERC
 40
1.0
  9
$CHAMFERD
 40
0.0
  9
$SKPOLY
 70
     0
  9
$TDCREATE
 40
2457917.620324074
  9
$TDUCREATE
 40
2457917.245324074
  9
$TDUPDATE
 40
2457917.620324074
  9
$TDUUPDATE
 40
2457917.245324074
  9
$TDINDWG
 40
0.0000000116
  9
$TDUSRTIMER
 40
0.0000000116
  9
$USRTIMER
 70
     1
  9
$ANGBASE
 50
0.0
  9
$ANGDIR
 70
     0
  9
$PDMODE
 70
     0
  9
$PDSIZE
 40
0.0
  9
$PLINEWID
 40
0.0
  9
$SPLFRAME
 70
     0
  9
$SPLINETYPE
 70
     6
  9
$SPLINESEGS
 70
     8
  9
$HANDSEED
  5
DD
  9
$SURFTAB1
 70
     6
  9
$SURFTAB2
 70
     6
  9
$SURFTYPE
 70
     6
  9
$SURFU
 70
     6
  9
$SURFV
 70
     6
  9
$UCSBASE
  2

  9
$UCSNAME
  2

  9
$UCSORG
 10
0.0
 20
0.0
 30
0.0
  9
$UCSXDIR
 10
1.0
 20
0.0
 30
0.0
  9
$UCSYDIR
 10
0.0
 20
1.0
 30
0.0
  9
$UCSORTHOREF
  2

  9
$UCSORTHOVIEW
 70
     0
  9
$UCSORGTOP
 10
0.0
 20
0.0
 30
0.0
  9
$UCSORGBOTTOM
 10
0.0
 20
0.0
 30
0.0
  9
$UCSORGLEFT
 10
0.0
 20
0.0
 30
0.0
  9
$UCSORGRIGHT
 10
0.0
 20
0.0
 30
0.0
  9
$UCSORGFRONT
 10
0.0
 20
0.0
 30
0.0
  9
$UCSORGBACK
 10
0.0
 20
0.0
 30
0.0
  9
$PUCSBASE
  2

  9
$PUCSNAME
  2

  9
$PUCSORG
 10
0.0
 20
0.0
 30
0.0
  9
$PUCSXDIR
 10
1.0
 20
0.0
 30
0.0
  9
$PUCSYDIR
 10
0.0
 20
1.0
 30
0.0
  9
$PUCSORTHOREF
  2

  9
$PUCSORTHOVIEW
 70
     0
  9
$PUCSORGTOP
 10
0.0
 20
0.0
 30
0.0
  9
$PUCSORGBOTTOM
 10
0.0
 20
0.0
 30
0.0
  9
$PUCSORGLEFT
 10
0.0
 20
0.0
 30
0.0
  9
$PUCSORGRIGHT
 10
0.0
 20
0.0
 30
0.0
  9
$PUCSORGFRONT
 10
0.0
 20
0.0
 30
0.0
  9
$PUCSORGBACK
 10
0.0
 20
0.0
 30
0.0
  9
$USERI1
 70
     0
  9
$USERI2
 70
     0
  9
$USERI3
 70
     0
  9
$USERI4
 70
     0
  9
$USERI5
 70
     0
  9
$USERR1
 40
0.0
  9
$USERR2
 40
0.0
  9
$USERR3
 40
0.0
  9
$USERR4
 40
0.0
  9
$USERR5
 40
0.0
  9
$WORLDVIEW
 70
     1
  9
$SHADEDGE
 70
     3
  9
$SHADEDIF
 70
    70
  9
$TILEMODE
 70
     1
  9
$MAXACTVP
 70
    64
  9
$PINSBASE
 10
0.0
 20
0.0
 30
0.0
  9
$PLIMCHECK
 70
     0
  9
$PEXTMIN
 10
1.000000000000000E+20
 20
1.000000000000000E+20
 30
1.000000000000000E+20
  9
$PEXTMAX
 10
-1.000000000000000E+20
 20
-1.000000000000000E+20
 30
-1.000000000000000E+20
  9
$PLIMMIN
 10
0.0
 20
0.0
  9
$PLIMMAX
 10
12.0
 20
9.0
  9
$UNITMODE
 70
     0
  9
$VISRETAIN
 70
     1
  9
$PLINEGEN
 70
     0
  9
$PSLTSCALE
 70
     1
  9
$TREEDEPTH
 70
  3020
  9
$CMLSTYLE
  2
Standard
  9
$CMLJUST
 70
     0
  9
$CMLSCALE
 40
1.0
  9
$PROXYGRAPHICS
 70
     1
  9
$MEASUREMENT
 70
     0
  9
$CELWEIGHT
370
    -1
  9
$ENDCAPS
280
     0
  9
$JOINSTYLE
280
     0
  9
$LWDISPLAY
290
     1
  9
$INSUNITS
 70
     1
  9
$HYPERLINKBASE
  1

  9
$STYLESHEET
  1

  9
$XEDIT
290
     1
  9
$CEPSNTYPE
380
     0
  9
$PSTYLEMODE
290
     1
  9
$FINGERPRINTGUID
  2
{B94E784B-5AC5-1152-7AFA-B470EBBFF115}
  9
$VERSIONGUID
  2
{FAEB1C32-E019-11D5-929B-00C0DF256EC4}
  9
$EXTNAMES
290
     1
  9
$PSVPSCALE
 40
0.0
  9
$OLESTARTUP
290
     0
  9
$SORTENTS
280
   127
  9
$INDEXCTL
280
     0
  9
$HIDETEXT
280
     1
  9
$XCLIPFRAME
280
     2
  9
$HALOGAP
280
     0
  9
$OBSCOLOR
 70
   257
  9
$OBSLTYPE
280
     0
  9
$INTERSECTIONDISPLAY
280
     0
  9
$INTERSECTIONCOLOR
 70
   257
  9
$DIMASSOC
280
     2
  9
$PROJECTNAME
  1

  9
$CAMERADISPLAY
290
     0
  9
$LENSLENGTH
 40
50.0
  9
$CAMERAHEIGHT
 40
0.0
  9
$STEPSPERSEC
 40
2.0
  9
$STEPSIZE
 40
6.0
  9
$3DDWFPREC
 40
2.0
  9
$PSOLWIDTH
 40
0.25
  9
$PSOLHEIGHT
 40
4.0
  9
$LOFTANG1
 40
1.570796326794897
  9
$LOFTANG2
 40
1.570796326794897
  9
$LOFTMAG1
 40
0.0
  9
$LOFTMAG2
 40
0.0
  9
$LOFTPARAM
 70
     7
  9
$LOFTNORMALS
280
     1
  9
$LATITUDE
 40
37.795
  9
$LONGITUDE
 40
-122.394
  9
$NORTHDIRECTION
 40
0.0
  9
$TIMEZONE
 70
 -8000
  9
$LIGHTGLYPHDISPLAY
280
     1
  9
$TILEMODELIGHTSYNCH
280
     1
  9
$CMATERIAL
347
3C
  9
$SOLIDHIST
280
     1
  9
$SHOWHIST
280
     1
  9
$DWFFRAME
280
     2
  9
$DGNFRAME
280
     2
  9
$REALWORLDSCALE
290
     1
  9
$INTERFERECOLOR
 62
   256
  9
$CSHADOW
280
     0
  9
$SHADOWPLANELOCATION
 40
0.0
  0
ENDSEC
  0
SECTION
  2
CLASSES
  0
CLASS
  1
ACDBDICTIONARYWDFLT
  2
AcDbDictionaryWithDefault
  3
ObjectDBX Classes
 90
        0
 91
        4
280
     0
281
     0
  0
CLASS
  1
VISUALSTYLE
  2
AcDbVisualStyle
  3
ObjectDBX Classes
 90
     4095
 91
        4
280
     0
281
     0
  0
CLASS
  1
MATERIAL
  2
AcDbMaterial
  3
ObjectDBX Classes
 90
     1153
 91
        4
280
     0
281
     0
  0
CLASS
  1
SUN
  2
AcDbSun
  3
SCENEOE
 90
     1024
 91
        4
280
     0
281
     0
  0
ENDSEC
  0
SECTION
  2
TABLES
  0
TABLE
  2
VPORT
  5
8
330
0
100
AcDbSymbolTable
 70
     1
  0
VPORT
  5
29
330
8
100
AcDbSymbolTableRecord
100
AcDbViewportTableRecord
  2
*Active
 70
     0
 10
0.0
 20
0.0
 11
1.0
 21
1.0
 12
0.0
 22
0.0
 13
0.0
 23
0.0
 14
0.5
 24
0.5
 15
0.5
 25
0.5
 16
0.0
 26
0.0
 36
1.0
 17
91.00082462281999
 27
-128.4993055234307
 37
0.0
 40
256.9986110468615
 41
0.7081814508812795
 42
50.0
 43
0.0
 44
0.0
 50
0.0
 51
0.0
 71
     0
 72
   100
 73
     1
 74
     3
 75
     0
 76
     0
 77
     0
 78
     0
281
     0
 65
     1
110
0.0
120
0.0
130
0.0
111
1.0
121
0.0
131
0.0
112
0.0
122
1.0
132
0.0
 79
     0
146
0.0
 60
     3
 61
     5
292
     1
282
     1
141
0.0
142
0.0
 63
   250
361
3F
  0
ENDTAB
  0
TABLE
  2
LTYPE
  5
5
330
0
100
AcDbSymbolTable
 70
     2
  0
LTYPE
  5
14
330
5
100
AcDbSymbolTableRecord
100
AcDbLinetypeTableRecord
  2
ByBlock
 70
     0
  3

 72
    65
 73
     0
 40
0.0
  0
LTYPE
  5
15
330
5
100
AcDbSymbolTableRecord
100
AcDbLinetypeTableRecord
  2
ByLayer
 70
     0
  3

 72
    65
 73
     0
 40
0.0
  0
LTYPE
  5
16
330
5
100
AcDbSymbolTableRecord
100
AcDbLinetypeTableRecord
  2
Continuous
 70
     0
  3
Solid line
 72
    65
 73
     0
 40
0.0
  0
LTYPE
  5
CF
330
5
100
AcDbSymbolTableRecord
100
AcDbLinetypeTableRecord
  2
AI-Linetype-1
 70
     0
  3
Adobe Illustrator Linetype No. 1
 72
    65
 73
     2
 40
1.411111110758333
 49
0.7055555553791667
 74
     0
 49
-0.7055555553791667
 74
     0
  0
ENDTAB
  0
TABLE
  2
LAYER
  5
2
330
0
100
AcDbSymbolTable
 70
     2
  0
LAYER
  5
10
330
2
100
AcDbSymbolTableRecord
100
AcDbLayerTableRecord
  2
0
 70
     0
 62
     7
  6
Continuous
370
    -3
390
F
347
3E
  0
LAYER
  5
40
330
2
100
AcDbSymbolTableRecord
100
AcDbLayerTableRecord
  2
_U+30EC_U+30A4_U+30E4_U+30FC 1
 70
     0
 62
     7
  6
Continuous
370
    -3
390
F
347
3E
  0
ENDTAB
  0
TABLE
  2
STYLE
  5
3
330
0
100
AcDbSymbolTable
 70
     1
  0
STYLE
  5
11
330
3
100
AcDbSymbolTableRecord
100
AcDbTextStyleTableRecord
  2
Standard
 70
     0
 40
0.0
 41
1.0
 50
0.0
 71
     0
 42
0.2
  3
txt
  4

  0
ENDTAB
  0
TABLE
  2
VIEW
  5
6
330
0
100
AcDbSymbolTable
 70
     0
  0
ENDTAB
  0
TABLE
  2
UCS
  5
7
330
0
100
AcDbSymbolTable
 70
     0
  0
ENDTAB
  0
TABLE
  2
APPID
  5
9
330
0
100
AcDbSymbolTable
 70
     1
  0
APPID
  5
12
330
9
100
AcDbSymbolTableRecord
100
AcDbRegAppTableRecord
  2
ACAD
 70
     0
  0
ENDTAB
  0
TABLE
  2
DIMSTYLE
  5
A
330
0
100
AcDbSymbolTable
 70
     1
100
AcDbDimStyleTable
  0
DIMSTYLE
105
27
330
A
100
AcDbSymbolTableRecord
100
AcDbDimStyleTableRecord
  2
Standard
 70
     0
178
     0
340
11
  0
ENDTAB
  0
TABLE
  2
BLOCK_RECORD
  5
1
330
0
100
AcDbSymbolTable
 70
     6
  0
BLOCK_RECORD
  5
1F
330
1
100
AcDbSymbolTableRecord
100
AcDbBlockTableRecord
  2
*Model_Space
340
22
 70
     0
280
     1
281
     0
  0
BLOCK_RECORD
  5
1B
330
1
100
AcDbSymbolTableRecord
100
AcDbBlockTableRecord
  2
*Paper_Space
340
1E
 70
     0
280
     1
281
     0
  0
BLOCK_RECORD
  5
23
330
1
100
AcDbSymbolTableRecord
100
AcDbBlockTableRecord
  2
*Paper_Space0
340
26
 70
     0
280
     1
281
     0
  0
BLOCK_RECORD
  5
4F
330
1
100
AcDbSymbolTableRecord
100
AcDbBlockTableRecord
  2
block 2
340
0
102
{BLKREFS
331
50
102
}
 70
     0
280
     1
281
     0
  0
BLOCK_RECORD
  5
6A
330
1
100
AcDbSymbolTableRecord
100
AcDbBlockTableRecord
  2
block 3
340
0
102
{BLKREFS
331
6B
102
}
 70
     0
280
     1
281
     0
  0
BLOCK_RECORD
  5
AA
330
1
100
AcDbSymbolTableRecord
100
AcDbBlockTableRecord
  2
block 4
340
0
102
{BLKREFS
331
AB
102
}
 70
     0
280
     1
281
     0
  0
BLOCK_RECORD
  5
BE
330
1
100
AcDbSymbolTableRecord
100
AcDbBlockTableRecord
  2
block 5
340
0
102
{BLKREFS
331
BF
102
}
 70
     0
280
     1
281
     0
  0
BLOCK_RECORD
  5
D1
330
1
100
AcDbSymbolTableRecord
100
AcDbBlockTableRecord
  2
block 6
340
0
102
{BLKREFS
331
D2
102
}
 70
     0
280
     1
281
     0
  0
ENDTAB
  0
ENDSEC
  0
SECTION
  2
BLOCKS
  0
BLOCK
  5
20
330
1F
100
AcDbEntity
  8
0
100
AcDbBlockBegin
  2
*Model_Space
 70
     0
 10
0.0
 20
0.0
 30
0.0
  3
*Model_Space
  1

  0
ENDBLK
  5
21
330
1F
100
AcDbEntity
  8
0
100
AcDbBlockEnd
  0
BLOCK
  5
1C
330
1B
100
AcDbEntity
 67
     1
  8
0
100
AcDbBlockBegin
  2
*Paper_Space
 70
     0
 10
0.0
 20
0.0
 30
0.0
  3
*Paper_Space
  1

  0
ENDBLK
  5
1D
330
1B
100
AcDbEntity
 67
     1
  8
0
100
AcDbBlockEnd
  0
BLOCK
  5
24
330
23
100
AcDbEntity
  8
0
100
AcDbBlockBegin
  2
*Paper_Space0
 70
     0
 10
0.0
 20
0.0
 30
0.0
  3
*Paper_Space0
  1

  0
ENDBLK
  5
25
330
23
100
AcDbEntity
  8
0
100
AcDbBlockEnd
  0
BLOCK
  5
51
330
4F
100
AcDbEntity
  8
0
100
AcDbBlockBegin
  2
block 2
 70
     0
 10
0.0
 20
0.0
 30
0.0
  3
block 2
  1

  0
SPLINE
  5
53
330
4F
100
AcDbEntity
  8
_U+30EC_U+30A4_U+30E4_U+30FC 1
370
     0
100
AcDbSpline
210
0.0
220
0.0
230
1.0
 70
    11
 71
     3
 72
    26
 73
    22
 74
     0
 42
0.0000000001
 43
0.0000000001
 12
1.0
 22
0.0
 32
0.0
 13
1.0
 23
0.0
 33
0.0
 40
0.0
 40
0.0
 40
0.0
 40
0.0
 40
1.0
 40
1.0
 40
1.0
 40
2.0
 40
2.0
 40
2.0
 40
3.0
 40
3.0
 40
3.0
 40
4.0
 40
4.0
 40
4.0
 40
5.0
 40
5.0
 40
5.0
 40
6.0
 40
6.0
 40
6.0
 40
7.0
 40
7.0
 40
7.0
 40
7.0
 10
101.1979573314713
 20
-130.9308539169201
 30
0.0
 10
101.1979573314713
 20
-130.9308539169201
 30
0.0
 10
100.0938042284488
 20
-130.9308539169201
 30
0.0
 10
100.0938042284488
 20
-130.9308539169201
 30
0.0
 10
100.0938042284488
 20
-130.9308539169201
 30
0.0
 10
100.0938042284488
 20
-131.2832871850611
 30
0.0
 10
100.0938042284488
 20
-131.2832871850611
 30
0.0
 10
100.0938042284488
 20
-131.2832871850611
 30
0.0
 10
99.94566512258304
 20
-131.2832871850611
 30
0.0
 10
99.94566512258304
 20
-131.2832871850611
 30
0.0
 10
99.93085121199645
 20
-130.9284423500804
 30
0.0
 10
99.76789819554413
 20
-130.8788329750928
 30
0.0
 10
99.65352102543385
 20
-130.8471380966285
 30
0.0
 10
99.65352102543385
 20
-130.8471380966285
 30
0.0
 10
99.65352102543385
 20
-130.6910752711467
 30
0.0
 10
99.65352102543385
 20
-130.6910752711467
 30
0.0
 10
99.65352102543385
 20
-130.6910752711467
 30
0.0
 10
101.1979573314713
 20
-130.6910752711467
 30
0.0
 10
101.1979573314713
 20
-130.6910752711467
 30
0.0
 10
101.1979573314713
 20
-130.6910752711467
 30
0.0
 10
101.1979573314713
 20
-130.9308539169201
 30
0.0
 10
101.1979573314713
 20
-130.9308539169201
 30
0.0
  0
HATCH
  5
54
330
4F
100
AcDbEntity
  8
_U+30EC_U+30A4_U+30E4_U+30FC 1
 62
     7
420
 16777215
100
AcDbHatch
 10
0.0
 20
0.0
 30
0.0
210
0.0
220
0.0
230
1.0
  2
SOLID
 70
     1
 71
     0
 91
        1
 92
        1
 93
        1
 72
     4
 94
        3
 73
     0
 74
     1
 95
       26
 96
       22
 40
0.0
 40
0.0
 40
0.0
 40
0.0
 40
1.0
 40
1.0
 40
1.0
 40
2.0
 40
2.0
 40
2.0
 40
3.0
 40
3.0
 40
3.0
 40
4.0
 40
4.0
 40
4.0
 40
5.0
 40
5.0
 40
5.0
 40
6.0
 40
6.0
 40
6.0
 40
7.0
 40
7.0
 40
7.0
 40
7.0
 10
101.1979573314713
 20
-130.9308539169201
 10
101.1979573314713
 20
-130.9308539169201
 10
100.0938042284488
 20
-130.9308539169201
 10
100.0938042284488
 20
-130.9308539169201
 10
100.0938042284488
 20
-130.9308539169201
 10
100.0938042284488
 20
-131.2832871850611
 10
100.0938042284488
 20
-131.2832871850611
 10
100.0938042284488
 20
-131.2832871850611
 10
99.94566512258304
 20
-131.2832871850611
 10
99.94566512258304
 20
-131.2832871850611
 10
99.93085121199645
 20
-130.9284423500804
 10
99.76789819554413
 20
-130.8788329750928
 10
99.65352102543385
 20
-130.8471380966285
 10
99.65352102543385
 20
-130.8471380966285
 10
99.65352102543385
 20
-130.6910752711467
 10
99.65352102543385
 20
-130.6910752711467
 10
99.65352102543385
 20
-130.6910752711467
 10
101.1979573314713
 20
-130.6910752711467
 10
101.1979573314713
 20
-130.6910752711467
 10
101.1979573314713
 20
-130.6910752711467
 10
101.1979573314713
 20
-130.9308539169201
 10
101.1979573314713
 20
-130.9308539169201
 97
        0
 97
        0
 75
     2
 76
     1
 98
        0
  0
SPLINE
  5
55
330
4F
100
AcDbEntity
  8
_U+30EC_U+30A4_U+30E4_U+30FC 1
370
     0
100
AcDbSpline
210
0.0
220
0.0
230
1.0
 70
    11
 71
     3
 72
    53
 73
    49
 74
     0
 42
0.0000000001
 43
0.0000000001
 12
1.0
 22
0.0
 32
0.0
 13
1.0
 23
0.0
 33
0.0
 40
0.0
 40
0.0
 40
0.0
 40
0.0
 40
1.0
 40
1.0
 40
1.0
 40
2.0
 40
2.0
 40
2.0
 40
3.0
 40
3.0
 40
3.0
 40
4.0
 40
4.0
 40
4.0
 40
5.0
 40
5.0
 40
5.0
 40
6.0
 40
6.0
 40
6.0
 40
7.0
 40
7.0
 40
7.0
 40
8.0
 40
8.0
 40
8.0
 40
9.0
 40
9.0
 40
9.0
 40
10.0
 40
10.0
 40
10.0
 40
11.0
 40
11.0
 40
11.0
 40
12.0
 40
12.0
 40
12.0
 40
13.0
 40
13.0
 40
13.0
 40
14.0
 40
14.0
 40
14.0
 40
15.0
 40
15.0
 40
15.0
 40
16.0
 40
16.0
 40
16.0
 40
16.0
 10
101.2486002351045
 20
-129.6413546767911
 30
0.0
 10
101.2486002351045
 20
-129.7247259875341
 30
0.0
 10
101.2317192672268
 20
-129.833591004868
 30
0.0
 10
101.1683295102982
 20
-129.9417670031048
 30
0.0
 10
101.0584309643187
 20
-130.1274576497598
 30
0.0
 10
100.9271728263307
 20
-130.1498507704139
 30
0.0
 10
100.8193413376424
 20
-130.1701768337769
 30
0.0
 10
100.8193413376424
 20
-130.1701768337769
 30
0.0
 10
100.8193413376424
 20
-129.9328097548432
 30
0.0
 10
100.8193413376424
 20
-129.9328097548432
 30
0.0
 10
101.0181233471413
 20
-129.8742431315939
 30
0.0
 10
101.0477511683145
 20
-129.7385063694751
 30
0.0
 10
101.0477511683145
 20
-129.6389431099514
 30
0.0
 10
101.0477511683145
 20
-129.4897704754401
 30
0.0
 10
100.9481879087907
 20
-129.3271619685363
 30
0.0
 10
100.7156439635364
 20
-129.3271619685363
 30
0.0
 10
100.4596733689823
 20
-129.3271619685363
 30
0.0
 10
100.3897379306317
 20
-129.5190537870647
 30
0.0
 10
100.3897379306317
 20
-129.647900358213
 30
0.0
 10
100.3897379306317
 20
-129.682006803517
 30
0.0
 10
100.3897379306317
 20
-129.833591004868
 30
0.0
 10
100.5189290113286
 20
-129.9283311307124
 30
0.0
 10
100.5189290113286
 20
-129.9283311307124
 30
0.0
 10
100.4999809861597
 20
-130.1160888346585
 30
0.0
 10
100.4999809861597
 20
-130.1160888346585
 30
0.0
 10
100.4999809861597
 20
-130.1160888346585
 30
0.0
 10
99.65352102543385
 20
-129.9872422635101
 30
0.0
 10
99.65352102543385
 20
-129.9872422635101
 30
0.0
 10
99.65352102543385
 20
-129.9872422635101
 30
0.0
 10
99.65352102543385
 20
-129.1552517038223
 30
0.0
 10
99.65352102543385
 20
-129.1552517038223
 30
0.0
 10
99.65352102543385
 20
-129.1552517038223
 30
0.0
 10
99.84816892035046
 20
-129.1552517038223
 30
0.0
 10
99.84816892035046
 20
-129.1552517038223
 30
0.0
 10
99.84816892035046
 20
-129.1552517038223
 30
0.0
 10
99.84816892035046
 20
-129.8129204319565
 30
0.0
 10
99.84816892035046
 20
-129.8129204319565
 30
0.0
 10
99.84816892035046
 20
-129.8129204319565
 30
0.0
 10
100.2712266459391
 20
-129.8832003798556
 30
0.0
 10
100.2712266459391
 20
-129.8832003798556
 30
0.0
 10
100.2374647101837
 20
-129.8177435656359
 30
0.0
 10
100.1971570930063
 20
-129.7295491212134
 30
0.0
 10
100.1971570930063
 20
-129.6027696073563
 30
0.0
 10
100.1971570930063
 20
-129.3316405926671
 30
0.0
 10
100.3835367587583
 20
-129.0784260745012
 30
0.0
 10
100.6966959383675
 20
-129.0784260745012
 30
0.0
 10
101.013989232559
 20
-129.0784260745012
 30
0.0
 10
101.2486002351045
 20
-129.3178602107261
 30
0.0
 10
101.2486002351045
 20
-129.6413546767911
 30
0.0
  0
HATCH
  5
56
330
4F
100
AcDbEntity
  8
_U+30EC_U+30A4_U+30E4_U+30FC 1
 62
     7
420
 16777215
100
AcDbHatch
 10
0.0
 20
0.0
 30
0.0
210
0.0
220
0.0
230
1.0
  2
SOLID
 70
     1
 71
     0
 91
        1
 92
        1
 93
        1
 72
     4
 94
        3
 73
     0
 74
     1
 95
       53
 96
       49
 40
0.0
 40
0.0
 40
0.0
 40
0.0
 40
1.0
 40
1.0
 40
1.0
 40
2.0
 40
2.0
 40
2.0
 40
3.0
 40
3.0
 40
3.0
 40
4.0
 40
4.0
 40
4.0
 40
5.0
 40
5.0
 40
5.0
 40
6.0
 40
6.0
 40
6.0
 40
7.0
 40
7.0
 40
7.0
 40
8.0
 40
8.0
 40
8.0
 40
9.0
 40
9.0
 40
9.0
 40
10.0
 40
10.0
 40
10.0
 40
11.0
 40
11.0
 40
11.0
 40
12.0
 40
12.0
 40
12.0
 40
13.0
 40
13.0
 40
13.0
 40
14.0
 40
14.0
 40
14.0
 40
15.0
 40
15.0
 40
15.0
 40
16.0
 40
16.0
 40
16.0
 40
16.0
 10
101.2486002351045
 20
-129.6413546767911
 10
101.2486002351045
 20
-129.7247259875341
 10
101.2317192672268
 20
-129.833591004868
 10
101.1683295102982
 20
-129.9417670031048
 10
101.0584309643187
 20
-130.1274576497598
 10
100.9271728263307
 20
-130.1498507704139
 10
100.8193413376424
 20
-130.1701768337769
 10
100.8193413376424
 20
-130.1701768337769
 10
100.8193413376424
 20
-129.9328097548432
 10
100.8193413376424
 20
-129.9328097548432
 10
101.0181233471413
 20
-129.8742431315939
 10
101.0477511683145
 20
-129.7385063694751
 10
101.0477511683145
 20
-129.6389431099514
 10
101.0477511683145
 20
-129.4897704754401
 10
100.9481879087907
 20
-129.3271619685363
 10
100.7156439635364
 20
-129.3271619685363
 10
100.4596733689823
 20
-129.3271619685363
 10
100.3897379306317
 20
-129.5190537870647
 10
100.3897379306317
 20
-129.647900358213
 10
100.3897379306317
 20
-129.682006803517
 10
100.3897379306317
 20
-129.833591004868
 10
100.5189290113286
 20
-129.9283311307124
 10
100.5189290113286
 20
-129.9283311307124
 10
100.4999809861597
 20
-130.1160888346585
 10
100.4999809861597
 20
-130.1160888346585
 10
100.4999809861597
 20
-130.1160888346585
 10
99.65352102543385
 20
-129.9872422635101
 10
99.65352102543385
 20
-129.9872422635101
 10
99.65352102543385
 20
-129.9872422635101
 10
99.65352102543385
 20
-129.1552517038223
 10
99.65352102543385
 20
-129.1552517038223
 10
99.65352102543385
 20
-129.1552517038223
 10
99.84816892035046
 20
-129.1552517038223
 10
99.84816892035046
 20
-129.1552517038223
 10
99.84816892035046
 20
-129.1552517038223
 10
99.84816892035046
 20
-129.8129204319565
 10
99.84816892035046
 20
-129.8129204319565
 10
99.84816892035046
 20
-129.8129204319565
 10
100.2712266459391
 20
-129.8832003798556
 10
100.2712266459391
 20
-129.8832003798556
 10
100.2374647101837
 20
-129.8177435656359
 10
100.1971570930063
 20
-129.7295491212134
 10
100.1971570930063
 20
-129.6027696073563
 10
100.1971570930063
 20
-129.3316405926671
 10
100.3835367587583
 20
-129.0784260745012
 10
100.6966959383675
 20
-129.0784260745012
 10
101.013989232559
 20
-129.0784260745012
 10
101.2486002351045
 20
-129.3178602107261
 10
101.2486002351045
 20
-129.6413546767911
 97
        0
 97
        0
 75
     2
 76
     1
 98
        0
  0
POLYLINE
  5
57
330
4F
100
AcDbEntity
  8
_U+30EC_U+30A4_U+30E4_U+30FC 1
370
     0
100
AcDb2dPolyline
 66
     1
 10
0.0
 20
0.0
 30
0.0
  0
VERTEX
  5
58
330
57
100
AcDbEntity
  8
_U+30EC_U+30A4_U+30E4_U+30FC 1
370
     0
100
AcDbVertex
100
AcDb2dVertex
 10
101.1979573314713
 20
-128.8334797855
 30
0.0
  0
VERTEX
  5
59
330
57
100
AcDbEntity
  8
_U+30EC_U+30A4_U+30E4_U+30FC 1
370
     0
100
AcDbVertex
100
AcDb2dVertex
 10
100.9461208514996
 20
-128.8334797855
 30
0.0
  0
VERTEX
  5
5A
330
57
100
AcDbEntity
  8
_U+30EC_U+30A4_U+30E4_U+30FC 1
370
     0
100
AcDbVertex
100
AcDb2dVertex
 10
100.9461208514996
 20
-128.564417828102
 30
0.0
  0
VERTEX
  5
5B
330
57
100
AcDbEntity
  8
_U+30EC_U+30A4_U+30E4_U+30FC 1
370
     0
100
AcDbVertex
100
AcDb2dVertex
 10
101.1979573314713
 20
-128.564417828102
 30
0.0
  0
VERTEX
  5
5C
330
57
100
AcDbEntity
  8
_U+30EC_U+30A4_U+30E4_U+30FC 1
370
     0
100
AcDbVertex
100
AcDb2dVertex
 10
101.1979573314713
 20
-128.8334797855
 30
0.0
  0
SEQEND
  5
5D
330
57
100
AcDbEntity
  8
_U+30EC_U+30A4_U+30E4_U+30FC 1
370
     0
  0
HATCH
  5
5E
330
4F
100
AcDbEntity
  8
_U+30EC_U+30A4_U+30E4_U+30FC 1
 62
     7
420
 16777215
100
AcDbHatch
 10
0.0
 20
0.0
 30
0.0
210
0.0
220
0.0
230
1.0
  2
SOLID
 70
     1
 71
     0
 91
        1
 92
        1
 93
        4
 72
     1
 10
101.1979573314713
 20
-128.8334797855
 11
100.9461208514996
 21
-128.8334797855
 72
     1
 10
100.9461208514996
 20
-128.8334797855
 11
100.9461208514996
 21
-128.564417828102
 72
     1
 10
100.9461208514996
 20
-128.564417828102
 11
101.1979573314713
 21
-128.564417828102
 72
     1
 10
101.1979573314713
 20
-128.564417828102
 11
101.1979573314713
 21
-128.8334797855
 97
        0
 75
     2
 76
     1
 98
        0
  0
SPLINE
  5
5F
330
4F
100
AcDbEntity
  8
_U+30EC_U+30A4_U+30E4_U+30FC 1
370
     0
100
AcDbSpline
210
0.0
220
0.0
230
1.0
 70
    11
 71
     3
 72
    53
 73
    49
 74
     0
 42
0.0000000001
 43
0.0000000001
 12
1.0
 22
0.0
 32
0.0
 13
1.0
 23
0.0
 33
0.0
 40
0.0
 40
0.0
 40
0.0
 40
0.0
 40
1.0
 40
1.0
 40
1.0
 40
2.0
 40
2.0
 40
2.0
 40
3.0
 40
3.0
 40
3.0
 40
4.0
 40
4.0
 40
4.0
 40
5.0
 40
5.0
 40
5.0
 40
6.0
 40
6.0
 40
6.0
 40
7.0
 40
7.0
 40
7.0
 40
8.0
 40
8.0
 40
8.0
 40
9.0
 40
9.0
 40
9.0
 40
10.0
 40
10.0
 40
10.0
 40
11.0
 40
11.0
 40
11.0
 40
12.0
 40
12.0
 40
12.0
 40
13.0
 40
13.0
 40
13.0
 40
14.0
 40
14.0
 40
14.0
 40
15.0
 40
15.0
 40
15.0
 40
16.0
 40
16.0
 40
16.0
 40
16.0
 10
101.2486002351045
 20
-127.7978840826339
 30
0.0
 10
101.2486002351045
 20
-127.8815999029254
 30
0.0
 10
101.2317192672268
 20
-127.9897759011623
 30
0.0
 10
101.1683295102982
 20
-128.0986409184962
 30
0.0
 10
101.0584309643187
 20
-128.2839870556026
 30
0.0
 10
100.9271728263307
 20
-128.3063801762567
 30
0.0
 10
100.8193413376424
 20
-128.3267062396197
 30
0.0
 10
100.8193413376424
 20
-128.3267062396197
 30
0.0
 10
100.8193413376424
 20
-128.089339160686
 30
0.0
 10
100.8193413376424
 20
-128.089339160686
 30
0.0
 10
101.0181233471413
 20
-128.0307725374367
 30
0.0
 10
101.0477511683145
 20
-127.8950357753179
 30
0.0
 10
101.0477511683145
 20
-127.7954725157942
 30
0.0
 10
101.0477511683145
 20
-127.6462998812829
 30
0.0
 10
100.9481879087907
 20
-127.4833468648306
 30
0.0
 10
100.7156439635364
 20
-127.4833468648306
 30
0.0
 10
100.4596733689823
 20
-127.4833468648306
 30
0.0
 10
100.3897379306317
 20
-127.6755831929075
 30
0.0
 10
100.3897379306317
 20
-127.8044297640558
 30
0.0
 10
100.3897379306317
 20
-127.8385362093598
 30
0.0
 10
100.3897379306317
 20
-127.9897759011623
 30
0.0
 10
100.5189290113286
 20
-128.0848605365552
 30
0.0
 10
100.5189290113286
 20
-128.0848605365552
 30
0.0
 10
100.4999809861597
 20
-128.2726182405013
 30
0.0
 10
100.4999809861597
 20
-128.2726182405013
 30
0.0
 10
100.4999809861597
 20
-128.2726182405013
 30
0.0
 10
99.65352102543385
 20
-128.143771669353
 30
0.0
 10
99.65352102543385
 20
-128.143771669353
 30
0.0
 10
99.65352102543385
 20
-128.143771669353
 30
0.0
 10
99.65352102543385
 20
-127.3117811096651
 30
0.0
 10
99.65352102543385
 20
-127.3117811096651
 30
0.0
 10
99.65352102543385
 20
-127.3117811096651
 30
0.0
 10
99.84816892035046
 20
-127.3117811096651
 30
0.0
 10
99.84816892035046
 20
-127.3117811096651
 30
0.0
 10
99.84816892035046
 20
-127.3117811096651
 30
0.0
 10
99.84816892035046
 20
-127.9694498377993
 30
0.0
 10
99.84816892035046
 20
-127.9694498377993
 30
0.0
 10
99.84816892035046
 20
-127.9694498377993
 30
0.0
 10
100.2712266459391
 20
-128.0397297856984
 30
0.0
 10
100.2712266459391
 20
-128.0397297856984
 30
0.0
 10
100.2374647101837
 20
-127.9742729714787
 30
0.0
 10
100.1971570930063
 20
-127.8860785270563
 30
0.0
 10
100.1971570930063
 20
-127.7592990131991
 30
0.0
 10
100.1971570930063
 20
-127.4881699985099
 30
0.0
 10
100.3835367587583
 20
-127.234955480344
 30
0.0
 10
100.6966959383675
 20
-127.234955480344
 30
0.0
 10
101.013989232559
 20
-127.234955480344
 30
0.0
 10
101.2486002351045
 20
-127.4743896165689
 30
0.0
 10
101.2486002351045
 20
-127.7978840826339
 30
0.0
  0
HATCH
  5
60
330
4F
100
AcDbEntity
  8
_U+30EC_U+30A4_U+30E4_U+30FC 1
 62
     7
420
 16777215
100
AcDbHatch
 10
0.0
 20
0.0
 30
0.0
210
0.0
220
0.0
230
1.0
  2
SOLID
 70
     1
 71
     0
 91
        1
 92
        1
 93
        1
 72
     4
 94
        3
 73
     0
 74
     1
 95
       53
 96
       49
 40
0.0
 40
0.0
 40
0.0
 40
0.0
 40
1.0
 40
1.0
 40
1.0
 40
2.0
 40
2.0
 40
2.0
 40
3.0
 40
3.0
 40
3.0
 40
4.0
 40
4.0
 40
4.0
 40
5.0
 40
5.0
 40
5.0
 40
6.0
 40
6.0
 40
6.0
 40
7.0
 40
7.0
 40
7.0
 40
8.0
 40
8.0
 40
8.0
 40
9.0
 40
9.0
 40
9.0
 40
10.0
 40
10.0
 40
10.0
 40
11.0
 40
11.0
 40
11.0
 40
12.0
 40
12.0
 40
12.0
 40
13.0
 40
13.0
 40
13.0
 40
14.0
 40
14.0
 40
14.0
 40
15.0
 40
15.0
 40
15.0
 40
16.0
 40
16.0
 40
16.0
 40
16.0
 10
101.2486002351045
 20
-127.7978840826339
 10
101.2486002351045
 20
-127.8815999029254
 10
101.2317192672268
 20
-127.9897759011623
 10
101.1683295102982
 20
-128.0986409184962
 10
101.0584309643187
 20
-128.2839870556026
 10
100.9271728263307
 20
-128.3063801762567
 10
100.8193413376424
 20
-128.3267062396197
 10
100.8193413376424
 20
-128.3267062396197
 10
100.8193413376424
 20
-128.089339160686
 10
100.8193413376424
 20
-128.089339160686
 10
101.0181233471413
 20
-128.0307725374367
 10
101.0477511683145
 20
-127.8950357753179
 10
101.0477511683145
 20
-127.7954725157942
 10
101.0477511683145
 20
-127.6462998812829
 10
100.9481879087907
 20
-127.4833468648306
 10
100.7156439635364
 20
-127.4833468648306
 10
100.4596733689823
 20
-127.4833468648306
 10
100.3897379306317
 20
-127.6755831929075
 10
100.3897379306317
 20
-127.8044297640558
 10
100.3897379306317
 20
-127.8385362093598
 10
100.3897379306317
 20
-127.9897759011623
 10
100.5189290113286
 20
-128.0848605365552
 10
100.5189290113286
 20
-128.0848605365552
 10
100.4999809861597
 20
-128.2726182405013
 10
100.4999809861597
 20
-128.2726182405013
 10
100.4999809861597
 20
-128.2726182405013
 10
99.65352102543385
 20
-128.143771669353
 10
99.65352102543385
 20
-128.143771669353
 10
99.65352102543385
 20
-128.143771669353
 10
99.65352102543385
 20
-127.3117811096651
 10
99.65352102543385
 20
-127.3117811096651
 10
99.65352102543385
 20
-127.3117811096651
 10
99.84816892035046
 20
-127.3117811096651
 10
99.84816892035046
 20
-127.3117811096651
 10
99.84816892035046
 20
-127.3117811096651
 10
99.84816892035046
 20
-127.9694498377993
 10
99.84816892035046
 20
-127.9694498377993
 10
99.84816892035046
 20
-127.9694498377993
 10
100.2712266459391
 20
-128.0397297856984
 10
100.2712266459391
 20
-128.0397297856984
 10
100.2374647101837
 20
-127.9742729714787
 10
100.1971570930063
 20
-127.8860785270563
 10
100.1971570930063
 20
-127.7592990131991
 10
100.1971570930063
 20
-127.4881699985099
 10
100.3835367587583
 20
-127.234955480344
 10
100.6966959383675
 20
-127.234955480344
 10
101.013989232559
 20
-127.234955480344
 10
101.2486002351045
 20
-127.4743896165689
 10
101.2486002351045
 20
-127.7978840826339
 97
        0
 97
        0
 75
     2
 76
     1
 98
        0
  0
ENDBLK
  5
52
330
4F
100
AcDbEntity
  8
0
100
AcDbBlockEnd
  0
BLOCK
  5
6C
330
6A
100
AcDbEntity
  8
0
100
AcDbBlockBegin
  2
block 3
 70
     0
 10
0.0
 20
0.0
 30
0.0
  3
block 3
  1

  0
SPLINE
  5
6E
330
6A
100
AcDbEntity
  8
_U+30EC_U+30A4_U+30E4_U+30FC 1
370
     0
100
AcDbSpline
210
0.0
220
0.0
230
1.0
 70
    11
 71
     3
 72
    26
 73
    22
 74
     0
 42
0.0000000001
 43
0.0000000001
 12
1.0
 22
0.0
 32
0.0
 13
1.0
 23
0.0
 33
0.0
 40
0.0
 40
0.0
 40
0.0
 40
0.0
 40
1.0
 40
1.0
 40
1.0
 40
2.0
 40
2.0
 40
2.0
 40
3.0
 40
3.0
 40
3.0
 40
4.0
 40
4.0
 40
4.0
 40
5.0
 40
5.0
 40
5.0
 40
6.0
 40
6.0
 40
6.0
 40
7.0
 40
7.0
 40
7.0
 40
7.0
 10
101.1979573314713
 20
-137.6012477954608
 30
0.0
 10
101.1979573314713
 20
-137.6012477954608
 30
0.0
 10
100.0938042284488
 20
-137.6012477954608
 30
0.0
 10
100.0938042284488
 20
-137.6012477954608
 30
0.0
 10
100.0938042284488
 20
-137.6012477954608
 30
0.0
 10
100.0938042284488
 20
-137.9536810636019
 30
0.0
 10
100.0938042284488
 20
-137.9536810636019
 30
0.0
 10
100.0938042284488
 20
-137.9536810636019
 30
0.0
 10
99.94566512258304
 20
-137.9536810636019
 30
0.0
 10
99.94566512258304
 20
-137.9536810636019
 30
0.0
 10
99.93085121199645
 20
-137.5988362286211
 30
0.0
 10
99.76789819554413
 20
-137.5492268536335
 30
0.0
 10
99.65352102543385
 20
-137.5175319751692
 30
0.0
 10
99.65352102543385
 20
-137.5175319751692
 30
0.0
 10
99.65352102543385
 20
-137.3614691496874
 30
0.0
 10
99.65352102543385
 20
-137.3614691496874
 30
0.0
 10
99.65352102543385
 20
-137.3614691496874
 30
0.0
 10
101.1979573314713
 20
-137.3614691496874
 30
0.0
 10
101.1979573314713
 20
-137.3614691496874
 30
0.0
 10
101.1979573314713
 20
-137.3614691496874
 30
0.0
 10
101.1979573314713
 20
-137.6012477954608
 30
0.0
 10
101.1979573314713
 20
-137.6012477954608
 30
0.0
  0
HATCH
  5
6F
330
6A
100
AcDbEntity
  8
_U+30EC_U+30A4_U+30E4_U+30FC 1
 62
   179
420
  2234388
100
AcDbHatch
 10
0.0
 20
0.0
 30
0.0
210
0.0
220
0.0
230
1.0
  2
SOLID
 70
     1
 71
     0
 91
        1
 92
        1
 93
        1
 72
     4
 94
        3
 73
     0
 74
     1
 95
       26
 96
       22
 40
0.0
 40
0.0
 40
0.0
 40
0.0
 40
1.0
 40
1.0
 40
1.0
 40
2.0
 40
2.0
 40
2.0
 40
3.0
 40
3.0
 40
3.0
 40
4.0
 40
4.0
 40
4.0
 40
5.0
 40
5.0
 40
5.0
 40
6.0
 40
6.0
 40
6.0
 40
7.0
 40
7.0
 40
7.0
 40
7.0
 10
101.1979573314713
 20
-137.6012477954608
 10
101.1979573314713
 20
-137.6012477954608
 10
100.0938042284488
 20
-137.6012477954608
 10
100.0938042284488
 20
-137.6012477954608
 10
100.0938042284488
 20
-137.6012477954608
 10
100.0938042284488
 20
-137.9536810636019
 10
100.0938042284488
 20
-137.9536810636019
 10
100.0938042284488
 20
-137.9536810636019
 10
99.94566512258304
 20
-137.9536810636019
 10
99.94566512258304
 20
-137.9536810636019
 10
99.93085121199645
 20
-137.5988362286211
 10
99.76789819554413
 20
-137.5492268536335
 10
99.65352102543385
 20
-137.5175319751692
 10
99.65352102543385
 20
-137.5175319751692
 10
99.65352102543385
 20
-137.3614691496874
 10
99.65352102543385
 20
-137.3614691496874
 10
99.65352102543385
 20
-137.3614691496874
 10
101.1979573314713
 20
-137.3614691496874
 10
101.1979573314713
 20
-137.3614691496874
 10
101.1979573314713
 20
-137.3614691496874
 10
101.1979573314713
 20
-137.6012477954608
 10
101.1979573314713
 20
-137.6012477954608
 97
        0
 97
        0
 75
     2
 76
     1
 98
        0
  0
ENDBLK
  5
6D
330
6A
100
AcDbEntity
  8
0
100
AcDbBlockEnd
  0
BLOCK
  5
AC
330
AA
100
AcDbEntity
  8
0
100
AcDbBlockBegin
  2
block 4
 70
     0
 10
0.0
 20
0.0
 30
0.0
  3
block 4
  1

  0
SPLINE
  5
AE
330
AA
100
AcDbEntity
  8
_U+30EC_U+30A4_U+30E4_U+30FC 1
370
     0
100
AcDbSpline
210
0.0
220
0.0
230
1.0
 70
    11
 71
     3
 72
    29
 73
    25
 74
     0
 42
0.0000000001
 43
0.0000000001
 12
1.0
 22
0.0
 32
0.0
 13
1.0
 23
0.0
 33
0.0
 40
0.0
 40
0.0
 40
0.0
 40
0.0
 40
1.0
 40
1.0
 40
1.0
 40
2.0
 40
2.0
 40
2.0
 40
3.0
 40
3.0
 40
3.0
 40
4.0
 40
4.0
 40
4.0
 40
5.0
 40
5.0
 40
5.0
 40
6.0
 40
6.0
 40
6.0
 40
7.0
 40
7.0
 40
7.0
 40
8.0
 40
8.0
 40
8.0
 40
8.0
 10
84.85752493538284
 20
-116.0569986689024
 30
0.0
 10
84.57261553875269
 20
-116.0569986689024
 30
0.0
 10
84.30131426928926
 20
-115.9193671042667
 30
0.0
 10
84.30131426928926
 20
-115.5703789316109
 30
0.0
 10
84.30131426928926
 20
-115.3144083370568
 30
0.0
 10
84.452726215866
 20
-115.2191514468897
 30
0.0
 10
84.56589760255645
 20
-115.1578287472522
 30
0.0
 10
84.43240015250302
 20
-115.0985731049059
 30
0.0
 10
84.35109589905112
 20
-114.9843681895699
 30
0.0
 10
84.35109589905112
 20
-114.823654485183
 30
0.0
 10
84.35109589905112
 20
-114.5485636106858
 30
0.0
 10
84.56365829049103
 20
-114.4131713581155
 30
0.0
 10
84.85752493538284
 20
-114.4131713581155
 30
0.0
 10
85.1603488285363
 20
-114.4131713581155
 30
0.0
 10
85.36395397171457
 20
-114.5570040946246
 30
0.0
 10
85.36395397171457
 20
-114.823654485183
 30
0.0
 10
85.36395397171457
 20
-114.9843681895699
 30
0.0
 10
85.280238151423
 20
-115.0985731049059
 30
0.0
 10
85.14691295614384
 20
-115.1578287472522
 30
0.0
 10
85.24182533676246
 20
-115.2086439056597
 30
0.0
 10
85.41132403463676
 20
-115.3039007958268
 30
0.0
 10
85.41132403463676
 20
-115.5660725622543
 30
0.0
 10
85.41132403463676
 20
-115.940554441501
 30
0.0
 10
85.11297876561412
 20
-116.0569986689024
 30
0.0
 10
84.85752493538284
 20
-116.0569986689024
 30
0.0
  0
SPLINE
  5
AF
330
AA
100
AcDbEntity
  8
_U+30EC_U+30A4_U+30E4_U+30FC 1
370
     0
100
AcDbSpline
210
0.0
220
0.0
230
1.0
 70
    11
 71
     3
 72
    17
 73
    13
 74
     0
 42
0.0000000001
 43
0.0000000001
 12
1.0
 22
0.0
 32
0.0
 13
1.0
 23
0.0
 33
0.0
 40
0.0
 40
0.0
 40
0.0
 40
0.0
 40
1.0
 40
1.0
 40
1.0
 40
2.0
 40
2.0
 40
2.0
 40
3.0
 40
3.0
 40
3.0
 40
4.0
 40
4.0
 40
4.0
 40
4.0
 10
84.85752493538284
 20
-115.2658324907148
 30
0.0
 10
84.70370142196644
 20
-115.2658324907148
 30
0.0
 10
84.54092066028838
 20
-115.3524766421688
 30
0.0
 10
84.54092066028838
 20
-115.5555650210243
 30
0.0
 10
84.54092066028838
 20
-115.7607204571709
 30
0.0
 10
84.67665742240723
 20
-115.8623507739858
 30
0.0
 10
84.85752493538284
 20
-115.8623507739858
 30
0.0
 10
85.05647919965602
 20
-115.8623507739858
 30
0.0
 10
85.17395695570305
 20
-115.7397053747109
 30
0.0
 10
85.17395695570305
 20
-115.561938447672
 30
0.0
 10
85.17395695570305
 20
-115.3397297888734
 30
0.0
 10
84.99997963369792
 20
-115.2658324907148
 30
0.0
 10
84.85752493538284
 20
-115.2658324907148
 30
0.0
  0
SPLINE
  5
B0
330
AA
100
AcDbEntity
  8
_U+30EC_U+30A4_U+30E4_U+30FC 1
370
     0
100
AcDbSpline
210
0.0
220
0.0
230
1.0
 70
    11
 71
     3
 72
    17
 73
    13
 74
     0
 42
0.0000000001
 43
0.0000000001
 12
1.0
 22
0.0
 32
0.0
 13
1.0
 23
0.0
 33
0.0
 40
0.0
 40
0.0
 40
0.0
 40
0.0
 40
1.0
 40
1.0
 40
1.0
 40
2.0
 40
2.0
 40
2.0
 40
3.0
 40
3.0
 40
3.0
 40
4.0
 40
4.0
 40
4.0
 40
4.0
 10
84.85752493538284
 20
-114.6057521957409
 30
0.0
 10
84.68113604653806
 20
-114.6057521957409
 30
0.0
 10
84.59070229005025
 20
-114.7008368311338
 30
0.0
 10
84.59070229005025
 20
-114.8362290837041
 30
0.0
 10
84.59070229005025
 20
-114.9590467377533
 30
0.0
 10
84.66752791937131
 20
-115.0775580224459
 30
0.0
 10
84.85752493538284
 20
-115.0775580224459
 30
0.0
 10
85.04734969662012
 20
-115.0775580224459
 30
0.0
 10
85.12417532594118
 20
-114.9590467377533
 30
0.0
 10
85.12417532594118
 20
-114.8362290837041
 30
0.0
 10
85.12417532594118
 20
-114.7008368311338
 30
0.0
 10
85.03150225738796
 20
-114.6057521957409
 30
0.0
 10
84.85752493538284
 20
-114.6057521957409
 30
0.0
  0
HATCH
  5
B1
330
AA
100
AcDbEntity
  8
_U+30EC_U+30A4_U+30E4_U+30FC 1
 62
   179
420
  2234388
100
AcDbHatch
 10
0.0
 20
0.0
 30
0.0
210
0.0
220
0.0
230
1.0
  2
SOLID
 70
     1
 71
     0
 91
        3
 92
        1
 93
        1
 72
     4
 94
        3
 73
     0
 74
     1
 95
       29
 96
       25
 40
0.0
 40
0.0
 40
0.0
 40
0.0
 40
1.0
 40
1.0
 40
1.0
 40
2.0
 40
2.0
 40
2.0
 40
3.0
 40
3.0
 40
3.0
 40
4.0
 40
4.0
 40
4.0
 40
5.0
 40
5.0
 40
5.0
 40
6.0
 40
6.0
 40
6.0
 40
7.0
 40
7.0
 40
7.0
 40
8.0
 40
8.0
 40
8.0
 40
8.0
 10
84.85752493538284
 20
-116.0569986689024
 10
84.57261553875269
 20
-116.0569986689024
 10
84.30131426928926
 20
-115.9193671042667
 10
84.30131426928926
 20
-115.5703789316109
 10
84.30131426928926
 20
-115.3144083370568
 10
84.452726215866
 20
-115.2191514468897
 10
84.56589760255645
 20
-115.1578287472522
 10
84.43240015250302
 20
-115.0985731049059
 10
84.35109589905112
 20
-114.9843681895699
 10
84.35109589905112
 20
-114.823654485183
 10
84.35109589905112
 20
-114.5485636106858
 10
84.56365829049103
 20
-114.4131713581155
 10
84.85752493538284
 20
-114.4131713581155
 10
85.1603488285363
 20
-114.4131713581155
 10
85.36395397171457
 20
-114.5570040946246
 10
85.36395397171457
 20
-114.823654485183
 10
85.36395397171457
 20
-114.9843681895699
 10
85.280238151423
 20
-115.0985731049059
 10
85.14691295614384
 20
-115.1578287472522
 10
85.24182533676246
 20
-115.2086439056597
 10
85.41132403463676
 20
-115.3039007958268
 10
85.41132403463676
 20
-115.5660725622543
 10
85.41132403463676
 20
-115.940554441501
 10
85.11297876561412
 20
-116.0569986689024
 10
84.85752493538284
 20
-116.0569986689024
 97
        0
 97
        0
 92
        1
 93
        1
 72
     4
 94
        3
 73
     0
 74
     1
 95
       17
 96
       13
 40
0.0
 40
0.0
 40
0.0
 40
0.0
 40
1.0
 40
1.0
 40
1.0
 40
2.0
 40
2.0
 40
2.0
 40
3.0
 40
3.0
 40
3.0
 40
4.0
 40
4.0
 40
4.0
 40
4.0
 10
84.85752493538284
 20
-115.2658324907148
 10
84.70370142196644
 20
-115.2658324907148
 10
84.54092066028838
 20
-115.3524766421688
 10
84.54092066028838
 20
-115.5555650210243
 10
84.54092066028838
 20
-115.7607204571709
 10
84.67665742240723
 20
-115.8623507739858
 10
84.85752493538284
 20
-115.8623507739858
 10
85.05647919965602
 20
-115.8623507739858
 10
85.17395695570305
 20
-115.7397053747109
 10
85.17395695570305
 20
-115.561938447672
 10
85.17395695570305
 20
-115.3397297888734
 10
84.99997963369792
 20
-115.2658324907148
 10
84.85752493538284
 20
-115.2658324907148
 97
        0
 97
        0
 92
        1
 93
        1
 72
     4
 94
        3
 73
     0
 74
     1
 95
       17
 96
       13
 40
0.0
 40
0.0
 40
0.0
 40
0.0
 40
1.0
 40
1.0
 40
1.0
 40
2.0
 40
2.0
 40
2.0
 40
3.0
 40
3.0
 40
3.0
 40
4.0
 40
4.0
 40
4.0
 40
4.0
 10
84.85752493538284
 20
-114.6057521957409
 10
84.68113604653806
 20
-114.6057521957409
 10
84.59070229005025
 20
-114.7008368311338
 10
84.59070229005025
 20
-114.8362290837041
 10
84.59070229005025
 20
-114.9590467377533
 10
84.66752791937131
 20
-115.0775580224459
 10
84.85752493538284
 20
-115.0775580224459
 10
85.04734969662012
 20
-115.0775580224459
 10
85.12417532594118
 20
-114.9590467377533
 10
85.12417532594118
 20
-114.8362290837041
 10
85.12417532594118
 20
-114.7008368311338
 10
85.03150225738796
 20
-114.6057521957409
 10
84.85752493538284
 20
-114.6057521957409
 97
        0
 97
        0
 75
     2
 76
     1
 98
        0
  0
ENDBLK
  5
AD
330
AA
100
AcDbEntity
  8
0
100
AcDbBlockEnd
  0
BLOCK
  5
C0
330
BE
100
AcDbEntity
  8
0
100
AcDbBlockBegin
  2
block 5
 70
     0
 10
0.0
 20
0.0
 30
0.0
  3
block 5
  1

  0
SPLINE
  5
C2
330
BE
100
AcDbEntity
  8
_U+30EC_U+30A4_U+30E4_U+30FC 1
370
     0
100
AcDbSpline
210
0.0
220
0.0
230
1.0
 70
    11
 71
     3
 72
    26
 73
    22
 74
     0
 42
0.0000000001
 43
0.0000000001
 12
1.0
 22
0.0
 32
0.0
 13
1.0
 23
0.0
 33
0.0
 40
0.0
 40
0.0
 40
0.0
 40
0.0
 40
1.0
 40
1.0
 40
1.0
 40
2.0
 40
2.0
 40
2.0
 40
3.0
 40
3.0
 40
3.0
 40
4.0
 40
4.0
 40
4.0
 40
5.0
 40
5.0
 40
5.0
 40
6.0
 40
6.0
 40
6.0
 40
7.0
 40
7.0
 40
7.0
 40
7.0
 10
89.14132891651676
 20
-141.5476046738145
 30
0.0
 10
89.14132891651676
 20
-141.5476046738145
 30
0.0
 10
89.14132891651676
 20
-140.4434515707919
 30
0.0
 10
89.14132891651676
 20
-140.4434515707919
 30
0.0
 10
89.14132891651676
 20
-140.4434515707919
 30
0.0
 10
88.7888956483757
 20
-140.4434515707919
 30
0.0
 10
88.7888956483757
 20
-140.4434515707919
 30
0.0
 10
88.7888956483757
 20
-140.4434515707919
 30
0.0
 10
88.7888956483757
 20
-140.2953124649262
 30
0.0
 10
88.7888956483757
 20
-140.2953124649262
 30
0.0
 10
89.14374048335642
 20
-140.2804985543396
 30
0.0
 10
89.19334985834402
 20
-140.1175455378873
 30
0.0
 10
89.22504473680833
 20
-140.003168367777
 30
0.0
 10
89.22504473680833
 20
-140.003168367777
 30
0.0
 10
89.38110756229014
 20
-140.003168367777
 30
0.0
 10
89.38110756229014
 20
-140.003168367777
 30
0.0
 10
89.38110756229014
 20
-140.003168367777
 30
0.0
 10
89.38110756229014
 20
-141.5476046738145
 30
0.0
 10
89.38110756229014
 20
-141.5476046738145
 30
0.0
 10
89.38110756229014
 20
-141.5476046738145
 30
0.0
 10
89.14132891651676
 20
-141.5476046738145
 30
0.0
 10
89.14132891651676
 20
-141.5476046738145
 30
0.0
  0
HATCH
  5
C3
330
BE
100
AcDbEntity
  8
_U+30EC_U+30A4_U+30E4_U+30FC 1
 62
   179
420
  2234388
100
AcDbHatch
 10
0.0
 20
0.0
 30
0.0
210
0.0
220
0.0
230
1.0
  2
SOLID
 70
     1
 71
     0
 91
        1
 92
        1
 93
        1
 72
     4
 94
        3
 73
     0
 74
     1
 95
       26
 96
       22
 40
0.0
 40
0.0
 40
0.0
 40
0.0
 40
1.0
 40
1.0
 40
1.0
 40
2.0
 40
2.0
 40
2.0
 40
3.0
 40
3.0
 40
3.0
 40
4.0
 40
4.0
 40
4.0
 40
5.0
 40
5.0
 40
5.0
 40
6.0
 40
6.0
 40
6.0
 40
7.0
 40
7.0
 40
7.0
 40
7.0
 10
89.14132891651676
 20
-141.5476046738145
 10
89.14132891651676
 20
-141.5476046738145
 10
89.14132891651676
 20
-140.4434515707919
 10
89.14132891651676
 20
-140.4434515707919
 10
89.14132891651676
 20
-140.4434515707919
 10
88.7888956483757
 20
-140.4434515707919
 10
88.7888956483757
 20
-140.4434515707919
 10
88.7888956483757
 20
-140.4434515707919
 10
88.7888956483757
 20
-140.2953124649262
 10
88.7888956483757
 20
-140.2953124649262
 10
89.14374048335642
 20
-140.2804985543396
 10
89.19334985834402
 20
-140.1175455378873
 10
89.22504473680833
 20
-140.003168367777
 10
89.22504473680833
 20
-140.003168367777
 10
89.38110756229014
 20
-140.003168367777
 10
89.38110756229014
 20
-140.003168367777
 10
89.38110756229014
 20
-140.003168367777
 10
89.38110756229014
 20
-141.5476046738145
 10
89.38110756229014
 20
-141.5476046738145
 10
89.38110756229014
 20
-141.5476046738145
 10
89.14132891651676
 20
-141.5476046738145
 10
89.14132891651676
 20
-141.5476046738145
 97
        0
 97
        0
 75
     2
 76
     1
 98
        0
  0
SPLINE
  5
C4
330
BE
100
AcDbEntity
  8
_U+30EC_U+30A4_U+30E4_U+30FC 1
370
     0
100
AcDbSpline
210
0.0
220
0.0
230
1.0
 70
    11
 71
     3
 72
    29
 73
    25
 74
     0
 42
0.0000000001
 43
0.0000000001
 12
1.0
 22
0.0
 32
0.0
 13
1.0
 23
0.0
 33
0.0
 40
0.0
 40
0.0
 40
0.0
 40
0.0
 40
1.0
 40
1.0
 40
1.0
 40
2.0
 40
2.0
 40
2.0
 40
3.0
 40
3.0
 40
3.0
 40
4.0
 40
4.0
 40
4.0
 40
5.0
 40
5.0
 40
5.0
 40
6.0
 40
6.0
 40
6.0
 40
7.0
 40
7.0
 40
7.0
 40
8.0
 40
8.0
 40
8.0
 40
8.0
 10
90.45115422000875
 20
-141.5982475774477
 30
0.0
 10
90.16624482337858
 20
-141.5982475774477
 30
0.0
 10
89.89511580868943
 20
-141.4607882675862
 30
0.0
 10
89.89511580868943
 20
-141.1118000949304
 30
0.0
 10
89.89511580868943
 20
-140.8558295003763
 30
0.0
 10
90.04670001004041
 20
-140.7607448649834
 30
0.0
 10
90.15969914195661
 20
-140.699422165346
 30
0.0
 10
90.02637394667744
 20
-140.6401665229997
 30
0.0
 10
89.94472518367702
 20
-140.5257893528894
 30
0.0
 10
89.94472518367702
 20
-140.3649033937282
 30
0.0
 10
89.94472518367702
 20
-140.0899847740053
 30
0.0
 10
90.15728757511694
 20
-139.954592521435
 30
0.0
 10
90.45115422000875
 20
-139.954592521435
 30
0.0
 10
90.75432262271073
 20
-139.954592521435
 30
0.0
 10
90.95758325634047
 20
-140.0985975127184
 30
0.0
 10
90.95758325634047
 20
-140.3649033937282
 30
0.0
 10
90.95758325634047
 20
-140.5257893528894
 30
0.0
 10
90.87421194559742
 20
-140.6401665229997
 30
0.0
 10
90.74054224076973
 20
-140.699422165346
 30
0.0
 10
90.83562687616262
 20
-140.7500650689792
 30
0.0
 10
91.00512557403692
 20
-140.8451497043721
 30
0.0
 10
91.00512557403692
 20
-141.1076659803481
 30
0.0
 10
91.00512557403692
 20
-141.4821478595948
 30
0.0
 10
90.70678030501428
 20
-141.5982475774477
 30
0.0
 10
90.45115422000875
 20
-141.5982475774477
 30
0.0
  0
SPLINE
  5
C5
330
BE
100
AcDbEntity
  8
_U+30EC_U+30A4_U+30E4_U+30FC 1
370
     0
100
AcDbSpline
210
0.0
220
0.0
230
1.0
 70
    11
 71
     3
 72
    17
 73
    13
 74
     0
 42
0.0000000001
 43
0.0000000001
 12
1.0
 22
0.0
 32
0.0
 13
1.0
 23
0.0
 33
0.0
 40
0.0
 40
0.0
 40
0.0
 40
0.0
 40
1.0
 40
1.0
 40
1.0
 40
2.0
 40
2.0
 40
2.0
 40
3.0
 40
3.0
 40
3.0
 40
4.0
 40
4.0
 40
4.0
 40
4.0
 10
90.45115422000875
 20
-140.8072536540343
 30
0.0
 10
90.2975029613666
 20
-140.8072536540343
 30
0.0
 10
90.13489445446281
 20
-140.8940700602626
 30
0.0
 10
90.13489445446281
 20
-141.0969861843438
 30
0.0
 10
90.13489445446281
 20
-141.3023138752647
 30
0.0
 10
90.27028670703312
 20
-141.4035996825311
 30
0.0
 10
90.45115422000875
 20
-141.4035996825311
 30
0.0
 10
90.65028073905619
 20
-141.4035996825311
 30
0.0
 10
90.76775849510321
 20
-141.2809542832562
 30
0.0
 10
90.76775849510321
 20
-141.1031873562173
 30
0.0
 10
90.76775849510321
 20
-140.8813232069672
 30
0.0
 10
90.59378117309808
 20
-140.8072536540343
 30
0.0
 10
90.45115422000875
 20
-140.8072536540343
 30
0.0
  0
SPLINE
  5
C6
330
BE
100
AcDbEntity
  8
_U+30EC_U+30A4_U+30E4_U+30FC 1
370
     0
100
AcDbSpline
210
0.0
220
0.0
230
1.0
 70
    11
 71
     3
 72
    17
 73
    13
 74
     0
 42
0.0000000001
 43
0.0000000001
 12
1.0
 22
0.0
 32
0.0
 13
1.0
 23
0.0
 33
0.0
 40
0.0
 40
0.0
 40
0.0
 40
0.0
 40
1.0
 40
1.0
 40
1.0
 40
2.0
 40
2.0
 40
2.0
 40
3.0
 40
3.0
 40
3.0
 40
4.0
 40
4.0
 40
4.0
 40
4.0
 10
90.45115422000875
 20
-140.1471733590604
 30
0.0
 10
90.27510984071247
 20
-140.1471733590604
 30
0.0
 10
90.1845038294504
 20
-140.2422579944533
 30
0.0
 10
90.1845038294504
 20
-140.3776502470236
 30
0.0
 10
90.1845038294504
 20
-140.5002956462986
 30
0.0
 10
90.26132945877147
 20
-140.6188069309911
 30
0.0
 10
90.45115422000875
 20
-140.6188069309911
 30
0.0
 10
90.64132349079453
 20
-140.6188069309911
 30
0.0
 10
90.71814912011561
 20
-140.5002956462986
 30
0.0
 10
90.71814912011561
 20
-140.3776502470236
 30
0.0
 10
90.71814912011561
 20
-140.2422579944533
 30
0.0
 10
90.62547605156239
 20
-140.1471733590604
 30
0.0
 10
90.45115422000875
 20
-140.1471733590604
 30
0.0
  0
HATCH
  5
C7
330
BE
100
AcDbEntity
  8
_U+30EC_U+30A4_U+30E4_U+30FC 1
 62
   179
420
  2234388
100
AcDbHatch
 10
0.0
 20
0.0
 30
0.0
210
0.0
220
0.0
230
1.0
  2
SOLID
 70
     1
 71
     0
 91
        3
 92
        1
 93
        1
 72
     4
 94
        3
 73
     0
 74
     1
 95
       29
 96
       25
 40
0.0
 40
0.0
 40
0.0
 40
0.0
 40
1.0
 40
1.0
 40
1.0
 40
2.0
 40
2.0
 40
2.0
 40
3.0
 40
3.0
 40
3.0
 40
4.0
 40
4.0
 40
4.0
 40
5.0
 40
5.0
 40
5.0
 40
6.0
 40
6.0
 40
6.0
 40
7.0
 40
7.0
 40
7.0
 40
8.0
 40
8.0
 40
8.0
 40
8.0
 10
90.45115422000875
 20
-141.5982475774477
 10
90.16624482337858
 20
-141.5982475774477
 10
89.89511580868943
 20
-141.4607882675862
 10
89.89511580868943
 20
-141.1118000949304
 10
89.89511580868943
 20
-140.8558295003763
 10
90.04670001004041
 20
-140.7607448649834
 10
90.15969914195661
 20
-140.699422165346
 10
90.02637394667744
 20
-140.6401665229997
 10
89.94472518367702
 20
-140.5257893528894
 10
89.94472518367702
 20
-140.3649033937282
 10
89.94472518367702
 20
-140.0899847740053
 10
90.15728757511694
 20
-139.954592521435
 10
90.45115422000875
 20
-139.954592521435
 10
90.75432262271073
 20
-139.954592521435
 10
90.95758325634047
 20
-140.0985975127184
 10
90.95758325634047
 20
-140.3649033937282
 10
90.95758325634047
 20
-140.5257893528894
 10
90.87421194559742
 20
-140.6401665229997
 10
90.74054224076973
 20
-140.699422165346
 10
90.83562687616262
 20
-140.7500650689792
 10
91.00512557403692
 20
-140.8451497043721
 10
91.00512557403692
 20
-141.1076659803481
 10
91.00512557403692
 20
-141.4821478595948
 10
90.70678030501428
 20
-141.5982475774477
 10
90.45115422000875
 20
-141.5982475774477
 97
        0
 97
        0
 92
        1
 93
        1
 72
     4
 94
        3
 73
     0
 74
     1
 95
       17
 96
       13
 40
0.0
 40
0.0
 40
0.0
 40
0.0
 40
1.0
 40
1.0
 40
1.0
 40
2.0
 40
2.0
 40
2.0
 40
3.0
 40
3.0
 40
3.0
 40
4.0
 40
4.0
 40
4.0
 40
4.0
 10
90.45115422000875
 20
-140.8072536540343
 10
90.2975029613666
 20
-140.8072536540343
 10
90.13489445446281
 20
-140.8940700602626
 10
90.13489445446281
 20
-141.0969861843438
 10
90.13489445446281
 20
-141.3023138752647
 10
90.27028670703312
 20
-141.4035996825311
 10
90.45115422000875
 20
-141.4035996825311
 10
90.65028073905619
 20
-141.4035996825311
 10
90.76775849510321
 20
-141.2809542832562
 10
90.76775849510321
 20
-141.1031873562173
 10
90.76775849510321
 20
-140.8813232069672
 10
90.59378117309808
 20
-140.8072536540343
 10
90.45115422000875
 20
-140.8072536540343
 97
        0
 97
        0
 92
        1
 93
        1
 72
     4
 94
        3
 73
     0
 74
     1
 95
       17
 96
       13
 40
0.0
 40
0.0
 40
0.0
 40
0.0
 40
1.0
 40
1.0
 40
1.0
 40
2.0
 40
2.0
 40
2.0
 40
3.0
 40
3.0
 40
3.0
 40
4.0
 40
4.0
 40
4.0
 40
4.0
 10
90.45115422000875
 20
-140.1471733590604
 10
90.27510984071247
 20
-140.1471733590604
 10
90.1845038294504
 20
-140.2422579944533
 10
90.1845038294504
 20
-140.3776502470236
 10
90.1845038294504
 20
-140.5002956462986
 10
90.26132945877147
 20
-140.6188069309911
 10
90.45115422000875
 20
-140.6188069309911
 10
90.64132349079453
 20
-140.6188069309911
 10
90.71814912011561
 20
-140.5002956462986
 10
90.71814912011561
 20
-140.3776502470236
 10
90.71814912011561
 20
-140.2422579944533
 10
90.62547605156239
 20
-140.1471733590604
 10
90.45115422000875
 20
-140.1471733590604
 97
        0
 97
        0
 75
     2
 76
     1
 98
        0
  0
ENDBLK
  5
C1
330
BE
100
AcDbEntity
  8
0
100
AcDbBlockEnd
  0
BLOCK
  5
D3
330
D1
100
AcDbEntity
  8
0
100
AcDbBlockBegin
  2
block 6
 70
     0
 10
0.0
 20
0.0
 30
0.0
  3
block 6
  1

  0
SPLINE
  5
D5
330
D1
100
AcDbEntity
  8
_U+30EC_U+30A4_U+30E4_U+30FC 1
370
     0
100
AcDbSpline
210
0.0
220
0.0
230
1.0
 70
    11
 71
     3
 72
    26
 73
    22
 74
     0
 42
0.0000000001
 43
0.0000000001
 12
1.0
 22
0.0
 32
0.0
 13
1.0
 23
0.0
 33
0.0
 40
0.0
 40
0.0
 40
0.0
 40
0.0
 40
1.0
 40
1.0
 40
1.0
 40
2.0
 40
2.0
 40
2.0
 40
3.0
 40
3.0
 40
3.0
 40
4.0
 40
4.0
 40
4.0
 40
5.0
 40
5.0
 40
5.0
 40
6.0
 40
6.0
 40
6.0
 40
7.0
 40
7.0
 40
7.0
 40
7.0
 10
78.89216984789849
 20
-128.72719858978
 30
0.0
 10
78.89216984789849
 20
-128.72719858978
 30
0.0
 10
78.89216984789849
 20
-127.6228732319832
 30
0.0
 10
78.89216984789849
 20
-127.6228732319832
 30
0.0
 10
78.89216984789849
 20
-127.6228732319832
 30
0.0
 10
78.56212970041156
 20
-127.6228732319832
 30
0.0
 10
78.56212970041156
 20
-127.6228732319832
 30
0.0
 10
78.56212970041156
 20
-127.6228732319832
 30
0.0
 10
78.56212970041156
 20
-127.4747341261174
 30
0.0
 10
78.56212970041156
 20
-127.4747341261174
 30
0.0
 10
78.89423690518964
 20
-127.4600924703051
 30
0.0
 10
78.9407456942405
 20
-127.2971394538528
 30
0.0
 10
78.97037351541366
 20
-127.1829345385168
 30
0.0
 10
78.97037351541366
 20
-127.1829345385168
 30
0.0
 10
79.11644556398825
 20
-127.1829345385168
 30
0.0
 10
79.11644556398825
 20
-127.1829345385168
 30
0.0
 10
79.11644556398825
 20
-127.1829345385168
 30
0.0
 10
79.11644556398825
 20
-128.72719858978
 30
0.0
 10
79.11644556398825
 20
-128.72719858978
 30
0.0
 10
79.11644556398825
 20
-128.72719858978
 30
0.0
 10
78.89216984789849
 20
-128.72719858978
 30
0.0
 10
78.89216984789849
 20
-128.72719858978
 30
0.0
  0
HATCH
  5
D6
330
D1
100
AcDbEntity
  8
_U+30EC_U+30A4_U+30E4_U+30FC 1
 62
   179
420
  2234388
100
AcDbHatch
 10
0.0
 20
0.0
 30
0.0
210
0.0
220
0.0
230
1.0
  2
SOLID
 70
     1
 71
     0
 91
        1
 92
        1
 93
        1
 72
     4
 94
        3
 73
     0
 74
     1
 95
       26
 96
       22
 40
0.0
 40
0.0
 40
0.0
 40
0.0
 40
1.0
 40
1.0
 40
1.0
 40
2.0
 40
2.0
 40
2.0
 40
3.0
 40
3.0
 40
3.0
 40
4.0
 40
4.0
 40
4.0
 40
5.0
 40
5.0
 40
5.0
 40
6.0
 40
6.0
 40
6.0
 40
7.0
 40
7.0
 40
7.0
 40
7.0
 10
78.89216984789849
 20
-128.72719858978
 10
78.89216984789849
 20
-128.72719858978
 10
78.89216984789849
 20
-127.6228732319832
 10
78.89216984789849
 20
-127.6228732319832
 10
78.89216984789849
 20
-127.6228732319832
 10
78.56212970041156
 20
-127.6228732319832
 10
78.56212970041156
 20
-127.6228732319832
 10
78.56212970041156
 20
-127.6228732319832
 10
78.56212970041156
 20
-127.4747341261174
 10
78.56212970041156
 20
-127.4747341261174
 10
78.89423690518964
 20
-127.4600924703051
 10
78.9407456942405
 20
-127.2971394538528
 10
78.97037351541366
 20
-127.1829345385168
 10
78.97037351541366
 20
-127.1829345385168
 10
79.11644556398825
 20
-127.1829345385168
 10
79.11644556398825
 20
-127.1829345385168
 10
79.11644556398825
 20
-127.1829345385168
 10
79.11644556398825
 20
-128.72719858978
 10
79.11644556398825
 20
-128.72719858978
 10
79.11644556398825
 20
-128.72719858978
 10
78.89216984789849
 20
-128.72719858978
 10
78.89216984789849
 20
-128.72719858978
 97
        0
 97
        0
 75
     2
 76
     1
 98
        0
  0
ENDBLK
  5
D4
330
D1
100
AcDbEntity
  8
0
100
AcDbBlockEnd
  0
ENDSEC
  0
SECTION
  2
ENTITIES
  0
SPLINE
  5
41
330
1F
100
AcDbEntity
  8
_U+30EC_U+30A4_U+30E4_U+30FC 1
 62
     7
420
 16777215
370
     9
100
AcDbSpline
210
0.0
220
0.0
230
1.0
 70
    11
 71
     3
 72
    17
 73
    13
 74
     0
 42
0.0000000001
 43
0.0000000001
 12
1.0
 22
0.0
 32
0.0
 13
1.0
 23
0.0
 33
0.0
 40
0.0
 40
0.0
 40
0.0
 40
0.0
 40
1.0
 40
1.0
 40
1.0
 40
2.0
 40
2.0
 40
2.0
 40
3.0
 40
3.0
 40
3.0
 40
4.0
 40
4.0
 40
4.0
 40
4.0
 10
102.8643555298397
 20
-121.5777702473833
 30
0.0
 10
102.8643555298397
 20
-121.5226310807305
 30
0.0
 10
102.819552752073
 20
-121.4778635807417
 30
0.0
 10
102.7644462671495
 20
-121.4778635807417
 30
0.0
 10
102.7093071018895
 20
-121.4778635807417
 30
0.0
 10
102.6645396030316
 20
-121.5226310807305
 30
0.0
 10
102.6645396030316
 20
-121.5777702473833
 30
0.0
 10
102.6645396030316
 20
-121.6328741362586
 30
0.0
 10
102.7093071018895
 20
-121.6776769140249
 30
0.0
 10
102.7644462671495
 20
-121.6776769140249
 30
0.0
 10
102.819552752073
 20
-121.6776769140249
 30
0.0
 10
102.8643555298397
 20
-121.6328741362586
 30
0.0
 10
102.8643555298397
 20
-121.5777702473833
 30
0.0
  0
SPLINE
  5
42
330
1F
100
AcDbEntity
  8
_U+30EC_U+30A4_U+30E4_U+30FC 1
 62
     7
420
 16777215
370
     9
100
AcDbSpline
210
0.0
220
0.0
230
1.0
 70
    11
 71
     3
 72
    17
 73
    13
 74
     0
 42
0.0000000001
 43
0.0000000001
 12
1.0
 22
0.0
 32
0.0
 13
1.0
 23
0.0
 33
0.0
 40
0.0
 40
0.0
 40
0.0
 40
0.0
 40
1.0
 40
1.0
 40
1.0
 40
2.0
 40
2.0
 40
2.0
 40
3.0
 40
3.0
 40
3.0
 40
4.0
 40
4.0
 40
4.0
 40
4.0
 10
102.8643555298397
 20
-137.0779438546194
 30
0.0
 10
102.8643555298397
 20
-137.0221344101889
 30
0.0
 10
102.819552752073
 20
-136.9773316324222
 30
0.0
 10
102.7644462671495
 20
-136.9773316324222
 30
0.0
 10
102.7093071018895
 20
-136.9773316324222
 30
0.0
 10
102.6645396030316
 20
-137.0221344101889
 30
0.0
 10
102.6645396030316
 20
-137.0779438546194
 30
0.0
 10
102.6645396030316
 20
-137.1330477434943
 30
0.0
 10
102.7093071018895
 20
-137.177850521261
 30
0.0
 10
102.7644462671495
 20
-137.177850521261
 30
0.0
 10
102.819552752073
 20
-137.177850521261
 30
0.0
 10
102.8643555298397
 20
-137.1330477434943
 30
0.0
 10
102.8643555298397
 20
-137.0779438546194
 30
0.0
  0
POLYLINE
  5
43
330
1F
100
AcDbEntity
  8
_U+30EC_U+30A4_U+30E4_U+30FC 1
 62
     7
420
 16777215
370
     9
100
AcDb2dPolyline
 66
     1
 10
0.0
 20
0.0
 30
0.0
  0
VERTEX
  5
44
330
43
100
AcDbEntity
  8
_U+30EC_U+30A4_U+30E4_U+30FC 1
 62
     7
420
 16777215
370
     9
100
AcDbVertex
100
AcDb2dVertex
 10
102.7644462671495
 20
-137.0779438546194
 30
0.0
  0
VERTEX
  5
45
330
43
100
AcDbEntity
  8
_U+30EC_U+30A4_U+30E4_U+30FC 1
 62
     7
420
 16777215
370
     9
100
AcDbVertex
100
AcDb2dVertex
 10
102.7644462671495
 20
-121.5777702473833
 30
0.0
  0
SEQEND
  5
46
330
43
100
AcDbEntity
  8
_U+30EC_U+30A4_U+30E4_U+30FC 1
 62
     7
420
 16777215
370
     9
  0
POLYLINE
  5
47
330
1F
100
AcDbEntity
  8
_U+30EC_U+30A4_U+30E4_U+30FC 1
 62
     7
420
 16777215
370
     9
100
AcDb2dPolyline
 66
     1
 10
0.0
 20
0.0
 30
0.0
  0
VERTEX
  5
48
330
47
100
AcDbEntity
  8
_U+30EC_U+30A4_U+30E4_U+30FC 1
 62
     7
420
 16777215
370
     9
100
AcDbVertex
100
AcDb2dVertex
 10
101.2465166413549
 20
-137.0741338546203
 30
0.0
  0
VERTEX
  5
49
330
47
100
AcDbEntity
  8
_U+30EC_U+30A4_U+30E4_U+30FC 1
 62
     7
420
 16777215
370
     9
100
AcDbVertex
100
AcDb2dVertex
 10
103.764888741626
 20
-137.0779438546194
 30
0.0
  0
SEQEND
  5
4A
330
47
100
AcDbEntity
  8
_U+30EC_U+30A4_U+30E4_U+30FC 1
 62
     7
420
 16777215
370
     9
  0
POLYLINE
  5
4B
330
1F
100
AcDbEntity
  8
_U+30EC_U+30A4_U+30E4_U+30FC 1
 62
     7
420
 16777215
370
     9
100
AcDb2dPolyline
 66
     1
 10
0.0
 20
0.0
 30
0.0
  0
VERTEX
  5
4C
330
4B
100
AcDbEntity
  8
_U+30EC_U+30A4_U+30E4_U+30FC 1
 62
     7
420
 16777215
370
     9
100
AcDbVertex
100
AcDb2dVertex
 10
101.3044049155093
 20
-121.5777702473833
 30
0.0
  0
VERTEX
  5
4D
330
4B
100
AcDbEntity
  8
_U+30EC_U+30A4_U+30E4_U+30FC 1
 62
     7
420
 16777215
370
     9
100
AcDbVertex
100
AcDb2dVertex
 10
103.764888741626
 20
-121.5777702473833
 30
0.0
  0
SEQEND
  5
4E
330
4B
100
AcDbEntity
  8
_U+30EC_U+30A4_U+30E4_U+30FC 1
 62
     7
420
 16777215
370
     9
  0
INSERT
  5
50
330
1F
100
AcDbEntity
  8
_U+30EC_U+30A4_U+30E4_U+30FC 1
100
AcDbBlockReference
  2
block 2
 10
0.0
 20
0.0
 30
0.0
  0
SPLINE
  5
61
330
1F
100
AcDbEntity
  8
_U+30EC_U+30A4_U+30E4_U+30FC 1
 62
   179
420
  2234388
370
     9
100
AcDbSpline
210
0.0
220
0.0
230
1.0
 70
    11
 71
     3
 72
    17
 73
    13
 74
     0
 42
0.0000000001
 43
0.0000000001
 12
1.0
 22
0.0
 32
0.0
 13
1.0
 23
0.0
 33
0.0
 40
0.0
 40
0.0
 40
0.0
 40
0.0
 40
1.0
 40
1.0
 40
1.0
 40
2.0
 40
2.0
 40
2.0
 40
3.0
 40
3.0
 40
3.0
 40
4.0
 40
4.0
 40
4.0
 40
4.0
 10
102.8657287645655
 20
-138.0777160765919
 30
0.0
 10
102.8657287645655
 20
-138.0219066321615
 30
0.0
 10
102.8209259879307
 20
-137.9771038543948
 30
0.0
 10
102.7658221004477
 20
-137.9771038543948
 30
0.0
 10
102.7106829351877
 20
-137.9771038543948
 30
0.0
 10
102.6659154363298
 20
-138.0219066321615
 30
0.0
 10
102.6659154363298
 20
-138.0777160765919
 30
0.0
 10
102.6659154363298
 20
-138.1328199654668
 30
0.0
 10
102.7106829351877
 20
-138.1776227432335
 30
0.0
 10
102.7658221004477
 20
-138.1776227432335
 30
0.0
 10
102.8209259879307
 20
-138.1776227432335
 30
0.0
 10
102.8657287645655
 20
-138.1328199654668
 30
0.0
 10
102.8657287645655
 20
-138.0777160765919
 30
0.0
  0
POLYLINE
  5
62
330
1F
100
AcDbEntity
  8
_U+30EC_U+30A4_U+30E4_U+30FC 1
 62
   179
420
  2234388
370
     9
100
AcDb2dPolyline
 66
     1
 10
0.0
 20
0.0
 30
0.0
  0
VERTEX
  5
63
330
62
100
AcDbEntity
  8
_U+30EC_U+30A4_U+30E4_U+30FC 1
 62
   179
420
  2234388
370
     9
100
AcDbVertex
100
AcDb2dVertex
 10
102.7658221004477
 20
-138.0773632988142
 30
0.0
  0
VERTEX
  5
64
330
62
100
AcDbEntity
  8
_U+30EC_U+30A4_U+30E4_U+30FC 1
 62
   179
420
  2234388
370
     9
100
AcDbVertex
100
AcDb2dVertex
 10
102.7658221004477
 20
-137.0772382990639
 30
0.0
  0
SEQEND
  5
65
330
62
100
AcDbEntity
  8
_U+30EC_U+30A4_U+30E4_U+30FC 1
 62
   179
420
  2234388
370
     9
  0
POLYLINE
  5
66
330
1F
100
AcDbEntity
  8
_U+30EC_U+30A4_U+30E4_U+30FC 1
 62
   179
420
  2234388
370
     9
100
AcDb2dPolyline
 66
     1
 10
0.0
 20
0.0
 30
0.0
  0
VERTEX
  5
67
330
66
100
AcDbEntity
  8
_U+30EC_U+30A4_U+30E4_U+30FC 1
 62
   179
420
  2234388
370
     9
100
AcDbVertex
100
AcDb2dVertex
 10
101.2851079715572
 20
-138.0773632988142
 30
0.0
  0
VERTEX
  5
68
330
66
100
AcDbEntity
  8
_U+30EC_U+30A4_U+30E4_U+30FC 1
 62
   179
420
  2234388
370
     9
100
AcDbVertex
100
AcDb2dVertex
 10
103.7655942971636
 20
-138.0773632988142
 30
0.0
  0
SEQEND
  5
69
330
66
100
AcDbEntity
  8
_U+30EC_U+30A4_U+30E4_U+30FC 1
 62
   179
420
  2234388
370
     9
  0
INSERT
  5
6B
330
1F
100
AcDbEntity
  8
_U+30EC_U+30A4_U+30E4_U+30FC 1
100
AcDbBlockReference
  2
block 3
 10
0.0
 20
0.0
 30
0.0
  0
SPLINE
  5
70
330
1F
100
AcDbEntity
  8
_U+30EC_U+30A4_U+30E4_U+30FC 1
 62
   253
420
 11711154
370
     9
100
AcDbSpline
210
0.0
220
0.0
230
1.0
 70
    11
 71
     3
 72
    44
 73
    40
 74
     0
 42
0.0000000001
 43
0.0000000001
 12
1.0
 22
0.0
 32
0.0
 13
1.0
 23
0.0
 33
0.0
 40
0.0
 40
0.0
 40
0.0
 40
0.0
 40
1.0
 40
1.0
 40
1.0
 40
2.0
 40
2.0
 40
2.0
 40
3.0
 40
3.0
 40
3.0
 40
4.0
 40
4.0
 40
4.0
 40
5.0
 40
5.0
 40
5.0
 40
6.0
 40
6.0
 40
6.0
 40
7.0
 40
7.0
 40
7.0
 40
8.0
 40
8.0
 40
8.0
 40
9.0
 40
9.0
 40
9.0
 40
10.0
 40
10.0
 40
10.0
 40
11.0
 40
11.0
 40
11.0
 40
12.0
 40
12.0
 40
12.0
 40
13.0
 40
13.0
 40
13.0
 40
13.0
 10
80.76321377289209
 20
-120.586253025409
 30
0.0
 10
80.76321377289209
 20
-120.586253025409
 30
0.0
 10
83.32223053472511
 20
-120.586253025409
 30
0.0
 10
83.32223053472511
 20
-120.586253025409
 30
0.0
 10
83.32223053472511
 20
-120.586253025409
 30
0.0
 10
88.71792912550595
 20
-121.0341396919636
 30
0.0
 10
88.71792912550595
 20
-121.0341396919636
 30
0.0
 10
88.71792912550595
 20
-121.0341396919636
 30
0.0
 10
88.78199356831598
 20
-121.6101552473753
 30
0.0
 10
88.78199356831598
 20
-121.6101552473753
 30
0.0
 10
88.78199356831598
 20
-121.6101552473753
 30
0.0
 10
81.82909652347693
 20
-121.6528766362536
 30
0.0
 10
81.82909652347693
 20
-121.6528766362536
 30
0.0
 10
81.82909652347693
 20
-121.6528766362536
 30
0.0
 10
81.82909652347693
 20
-137.1354819101605
 30
0.0
 10
81.82909652347693
 20
-137.1354819101605
 30
0.0
 10
81.82909652347693
 20
-137.1354819101605
 30
0.0
 10
87.99237108846093
 20
-137.1141035768329
 30
0.0
 10
87.99237108846093
 20
-137.1141035768329
 30
0.0
 10
87.99237108846093
 20
-137.1141035768329
 30
0.0
 10
88.84538773336533
 20
-137.4344963545305
 30
0.0
 10
88.84538773336533
 20
-137.6473977433659
 30
0.0
 10
88.84538773336533
 20
-137.6473977433659
 30
0.0
 10
98.35747582402507
 20
-137.6473977433659
 30
0.0
 10
98.35747582402507
 20
-137.6473977433659
 30
0.0
 10
98.35747582402507
 20
-137.6473977433659
 30
0.0
 10
98.93282108712457
 20
-137.7755619100008
 30
0.0
 10
98.78398414647727
 20
-138.1593488543488
 30
0.0
 10
98.78398414647727
 20
-138.1593488543488
 30
0.0
 10
81.44534486660059
 20
-138.2020702432272
 30
0.0
 10
81.44534486660059
 20
-138.2020702432272
 30
0.0
 10
81.44534486660059
 20
-138.2020702432272
 30
0.0
 10
80.93339376855045
 20
-137.7969402433284
 30
0.0
 10
80.93339376855045
 20
-137.7969402433284
 30
0.0
 10
80.93339376855045
 20
-137.7969402433284
 30
0.0
 10
80.84795099295249
 20
-137.5619902433874
 30
0.0
 10
80.84795099295249
 20
-137.5619902433874
 30
0.0
 10
80.84795099295249
 20
-137.5619902433874
 30
0.0
 10
80.76321377289209
 20
-120.586253025409
 30
0.0
 10
80.76321377289209
 20
-120.586253025409
 30
0.0
  0
HATCH
  5
71
330
1F
100
AcDbEntity
  8
_U+30EC_U+30A4_U+30E4_U+30FC 1
 62
   253
420
 11711154
100
AcDbHatch
 10
0.0
 20
0.0
 30
0.0
210
0.0
220
0.0
230
1.0
  2
SOLID
 70
     1
 71
     0
 91
        1
 92
        1
 93
        1
 72
     4
 94
        3
 73
     0
 74
     1
 95
       44
 96
       40
 40
0.0
 40
0.0
 40
0.0
 40
0.0
 40
1.0
 40
1.0
 40
1.0
 40
2.0
 40
2.0
 40
2.0
 40
3.0
 40
3.0
 40
3.0
 40
4.0
 40
4.0
 40
4.0
 40
5.0
 40
5.0
 40
5.0
 40
6.0
 40
6.0
 40
6.0
 40
7.0
 40
7.0
 40
7.0
 40
8.0
 40
8.0
 40
8.0
 40
9.0
 40
9.0
 40
9.0
 40
10.0
 40
10.0
 40
10.0
 40
11.0
 40
11.0
 40
11.0
 40
12.0
 40
12.0
 40
12.0
 40
13.0
 40
13.0
 40
13.0
 40
13.0
 10
80.76321377289209
 20
-120.586253025409
 10
80.76321377289209
 20
-120.586253025409
 10
83.32223053472511
 20
-120.586253025409
 10
83.32223053472511
 20
-120.586253025409
 10
83.32223053472511
 20
-120.586253025409
 10
88.71792912550595
 20
-121.0341396919636
 10
88.71792912550595
 20
-121.0341396919636
 10
88.71792912550595
 20
-121.0341396919636
 10
88.78199356831598
 20
-121.6101552473753
 10
88.78199356831598
 20
-121.6101552473753
 10
88.78199356831598
 20
-121.6101552473753
 10
81.82909652347693
 20
-121.6528766362536
 10
81.82909652347693
 20
-121.6528766362536
 10
81.82909652347693
 20
-121.6528766362536
 10
81.82909652347693
 20
-137.1354819101605
 10
81.82909652347693
 20
-137.1354819101605
 10
81.82909652347693
 20
-137.1354819101605
 10
87.99237108846093
 20
-137.1141035768329
 10
87.99237108846093
 20
-137.1141035768329
 10
87.99237108846093
 20
-137.1141035768329
 10
88.84538773336533
 20
-137.4344963545305
 10
88.84538773336533
 20
-137.6473977433659
 10
88.84538773336533
 20
-137.6473977433659
 10
98.35747582402507
 20
-137.6473977433659
 10
98.35747582402507
 20
-137.6473977433659
 10
98.35747582402507
 20
-137.6473977433659
 10
98.93282108712457
 20
-137.7755619100008
 10
98.78398414647727
 20
-138.1593488543488
 10
98.78398414647727
 20
-138.1593488543488
 10
81.44534486660059
 20
-138.2020702432272
 10
81.44534486660059
 20
-138.2020702432272
 10
81.44534486660059
 20
-138.2020702432272
 10
80.93339376855045
 20
-137.7969402433284
 10
80.93339376855045
 20
-137.7969402433284
 10
80.93339376855045
 20
-137.7969402433284
 10
80.84795099295249
 20
-137.5619902433874
 10
80.84795099295249
 20
-137.5619902433874
 10
80.84795099295249
 20
-137.5619902433874
 10
80.76321377289209
 20
-120.586253025409
 10
80.76321377289209
 20
-120.586253025409
 97
        0
 97
        0
 75
     2
 76
     1
 98
        0
  0
POLYLINE
  5
72
330
1F
100
AcDbEntity
  8
_U+30EC_U+30A4_U+30E4_U+30FC 1
 62
   179
420
  2234388
370
    25
100
AcDb2dPolyline
 66
     1
 10
0.0
 20
0.0
 30
0.0
  0
VERTEX
  5
73
330
72
100
AcDbEntity
  8
_U+30EC_U+30A4_U+30E4_U+30FC 1
 62
   179
420
  2234388
370
    25
100
AcDbVertex
100
AcDb2dVertex
 10
81.81463263495705
 20
-121.602570525155
 30
0.0
  0
VERTEX
  5
74
330
72
100
AcDbEntity
  8
_U+30EC_U+30A4_U+30E4_U+30FC 1
 62
   179
420
  2234388
370
    25
100
AcDbVertex
100
AcDb2dVertex
 10
88.81508412302732
 20
-121.602570525155
 30
0.0
  0
SEQEND
  5
75
330
72
100
AcDbEntity
  8
_U+30EC_U+30A4_U+30E4_U+30FC 1
 62
   179
420
  2234388
370
    25
  0
POLYLINE
  5
76
330
1F
100
AcDbEntity
  8
_U+30EC_U+30A4_U+30E4_U+30FC 1
 62
   179
420
  2234388
370
    25
100
AcDb2dPolyline
 66
     1
 10
0.0
 20
0.0
 30
0.0
  0
VERTEX
  5
77
330
76
100
AcDbEntity
  8
_U+30EC_U+30A4_U+30E4_U+30FC 1
 62
   179
420
  2234388
370
    25
100
AcDbVertex
100
AcDb2dVertex
 10
80.81486043824114
 20
-120.6027983031828
 30
0.0
  0
VERTEX
  5
78
330
76
100
AcDbEntity
  8
_U+30EC_U+30A4_U+30E4_U+30FC 1
 62
   179
420
  2234388
370
    25
100
AcDbVertex
100
AcDb2dVertex
 10
82.81511038721051
 20
-120.6027983031828
 30
0.0
  0
SEQEND
  5
79
330
76
100
AcDbEntity
  8
_U+30EC_U+30A4_U+30E4_U+30FC 1
 62
   179
420
  2234388
370
    25
  0
POLYLINE
  5
7A
330
1F
100
AcDbEntity
  8
_U+30EC_U+30A4_U+30E4_U+30FC 1
 62
   179
420
  2234388
370
    25
100
AcDb2dPolyline
 66
     1
 10
0.0
 20
0.0
 30
0.0
  0
VERTEX
  5
7B
330
7A
100
AcDbEntity
  8
_U+30EC_U+30A4_U+30E4_U+30FC 1
 62
   179
420
  2234388
370
    25
100
AcDbVertex
100
AcDb2dVertex
 10
81.81463263495705
 20
-137.1444424657139
 30
0.0
  0
VERTEX
  5
7C
330
7A
100
AcDbEntity
  8
_U+30EC_U+30A4_U+30E4_U+30FC 1
 62
   179
420
  2234388
370
    25
100
AcDbVertex
100
AcDb2dVertex
 10
87.94897942290127
 20
-137.1444424657139
 30
0.0
  0
SEQEND
  5
7D
330
7A
100
AcDbEntity
  8
_U+30EC_U+30A4_U+30E4_U+30FC 1
 62
   179
420
  2234388
370
    25
  0
POLYLINE
  5
7E
330
1F
100
AcDbEntity
  8
_U+30EC_U+30A4_U+30E4_U+30FC 1
 62
   179
420
  2234388
370
    25
100
AcDb2dPolyline
 66
     1
 10
0.0
 20
0.0
 30
0.0
  0
VERTEX
  5
7F
330
7E
100
AcDbEntity
  8
_U+30EC_U+30A4_U+30E4_U+30FC 1
 62
   179
420
  2234388
370
    25
100
AcDbVertex
100
AcDb2dVertex
 10
81.61481930672139
 20
-138.1441794099083
 30
0.0
  0
VERTEX
  5
80
330
7E
100
AcDbEntity
  8
_U+30EC_U+30A4_U+30E4_U+30FC 1
 62
   179
420
  2234388
370
    25
100
AcDbVertex
100
AcDb2dVertex
 10
98.81499331235283
 20
-138.1441794099083
 30
0.0
  0
SEQEND
  5
81
330
7E
100
AcDbEntity
  8
_U+30EC_U+30A4_U+30E4_U+30FC 1
 62
   179
420
  2234388
370
    25
  0
POLYLINE
  5
82
330
1F
100
AcDbEntity
  8
_U+30EC_U+30A4_U+30E4_U+30FC 1
 62
   179
420
  2234388
370
    25
100
AcDb2dPolyline
 66
     1
 10
0.0
 20
0.0
 30
0.0
  0
VERTEX
  5
83
330
82
100
AcDbEntity
  8
_U+30EC_U+30A4_U+30E4_U+30FC 1
 62
   179
420
  2234388
370
    25
100
AcDbVertex
100
AcDb2dVertex
 10
88.81508412302732
 20
-121.0024249697493
 30
0.0
  0
VERTEX
  5
84
330
82
100
AcDbEntity
  8
_U+30EC_U+30A4_U+30E4_U+30FC 1
 62
   179
420
  2234388
370
    25
100
AcDbVertex
100
AcDb2dVertex
 10
88.81508412302732
 20
-121.602570525155
 30
0.0
  0
SEQEND
  5
85
330
82
100
AcDbEntity
  8
_U+30EC_U+30A4_U+30E4_U+30FC 1
 62
   179
420
  2234388
370
    25
  0
POLYLINE
  5
86
330
1F
100
AcDbEntity
  8
_U+30EC_U+30A4_U+30E4_U+30FC 1
 62
   179
420
  2234388
370
    25
100
AcDb2dPolyline
 66
     1
 10
0.0
 20
0.0
 30
0.0
  0
VERTEX
  5
87
330
86
100
AcDbEntity
  8
_U+30EC_U+30A4_U+30E4_U+30FC 1
 62
   179
420
  2234388
370
    25
100
AcDbVertex
100
AcDb2dVertex
 10
80.81486043824114
 20
-120.6441438587279
 30
0.0
  0
VERTEX
  5
88
330
86
100
AcDbEntity
  8
_U+30EC_U+30A4_U+30E4_U+30FC 1
 62
   179
420
  2234388
370
    25
100
AcDbVertex
100
AcDb2dVertex
 10
80.81486043824114
 20
-137.3442557989972
 30
0.0
  0
SEQEND
  5
89
330
86
100
AcDbEntity
  8
_U+30EC_U+30A4_U+30E4_U+30FC 1
 62
   179
420
  2234388
370
    25
  0
POLYLINE
  5
8A
330
1F
100
AcDbEntity
  8
_U+30EC_U+30A4_U+30E4_U+30FC 1
 62
   179
420
  2234388
370
    25
100
AcDb2dPolyline
 66
     1
 10
0.0
 20
0.0
 30
0.0
  0
VERTEX
  5
8B
330
8A
100
AcDbEntity
  8
_U+30EC_U+30A4_U+30E4_U+30FC 1
 62
   179
420
  2234388
370
    25
100
AcDbVertex
100
AcDb2dVertex
 10
81.81463263495705
 20
-121.6439160807001
 30
0.0
  0
VERTEX
  5
8C
330
8A
100
AcDbEntity
  8
_U+30EC_U+30A4_U+30E4_U+30FC 1
 62
   179
420
  2234388
370
    25
100
AcDbVertex
100
AcDb2dVertex
 10
81.81463263495705
 20
-137.1444424657139
 30
0.0
  0
SEQEND
  5
8D
330
8A
100
AcDbEntity
  8
_U+30EC_U+30A4_U+30E4_U+30FC 1
 62
   179
420
  2234388
370
    25
  0
POLYLINE
  5
8E
330
1F
100
AcDbEntity
  8
_U+30EC_U+30A4_U+30E4_U+30FC 1
 62
   179
420
  2234388
370
    25
100
AcDb2dPolyline
 66
     1
 10
0.0
 20
0.0
 30
0.0
  0
VERTEX
  5
8F
330
8E
100
AcDbEntity
  8
_U+30EC_U+30A4_U+30E4_U+30FC 1
 62
   179
420
  2234388
370
    25
100
AcDbVertex
100
AcDb2dVertex
 10
86.80520553385422
 20
-120.8019413586884
 30
0.0
  0
VERTEX
  5
90
330
8E
100
AcDbEntity
  8
_U+30EC_U+30A4_U+30E4_U+30FC 1
 62
   179
420
  2234388
370
    25
100
AcDbVertex
100
AcDb2dVertex
 10
88.81508412302732
 20
-121.0024249697493
 30
0.0
  0
SEQEND
  5
91
330
8E
100
AcDbEntity
  8
_U+30EC_U+30A4_U+30E4_U+30FC 1
 62
   179
420
  2234388
370
    25
  0
POLYLINE
  5
92
330
1F
100
AcDbEntity
  8
_U+30EC_U+30A4_U+30E4_U+30FC 1
 62
   179
420
  2234388
370
    25
100
AcDb2dPolyline
 66
     1
 10
0.0
 20
0.0
 30
0.0
  0
VERTEX
  5
93
330
92
100
AcDbEntity
  8
_U+30EC_U+30A4_U+30E4_U+30FC 1
 62
   179
420
  2234388
370
    25
100
AcDbVertex
100
AcDb2dVertex
 10
88.81508412302732
 20
-137.6439757989221
 30
0.0
  0
VERTEX
  5
94
330
92
100
AcDbEntity
  8
_U+30EC_U+30A4_U+30E4_U+30FC 1
 62
   179
420
  2234388
370
    25
100
AcDbVertex
100
AcDb2dVertex
 10
98.31545999176365
 20
-137.6439757989221
 30
0.0
  0
SEQEND
  5
95
330
92
100
AcDbEntity
  8
_U+30EC_U+30A4_U+30E4_U+30FC 1
 62
   179
420
  2234388
370
    25
  0
SPLINE
  5
96
330
1F
100
AcDbEntity
  8
_U+30EC_U+30A4_U+30E4_U+30FC 1
 62
   179
420
  2234388
370
    25
100
AcDbSpline
210
0.0
220
0.0
230
1.0
 70
     8
 71
     3
 72
     8
 73
     4
 74
     0
 42
0.0000000001
 43
0.0000000001
 12
1.0
 22
0.0
 32
0.0
 13
1.0
 23
0.0
 33
0.0
 40
0.0
 40
0.0
 40
0.0
 40
0.0
 40
1.0
 40
1.0
 40
1.0
 40
1.0
 10
80.81486043824114
 20
-137.3442557989972
 30
0.0
 10
80.81486043824114
 20
-137.7858982988866
 30
0.0
 10
81.17317681798862
 20
-138.1441794099083
 30
0.0
 10
81.61481930672139
 20
-138.1441794099083
 30
0.0
  0
SPLINE
  5
97
330
1F
100
AcDbEntity
  8
_U+30EC_U+30A4_U+30E4_U+30FC 1
 62
   179
420
  2234388
370
    25
100
AcDbSpline
210
0.0
220
0.0
230
1.0
 70
     8
 71
     3
 72
     8
 73
     4
 74
     0
 42
0.0000000001
 43
0.0000000001
 12
1.0
 22
0.0
 32
0.0
 13
1.0
 23
0.0
 33
0.0
 40
0.0
 40
0.0
 40
0.0
 40
0.0
 40
1.0
 40
1.0
 40
1.0
 40
1.0
 10
98.81499331235283
 20
-138.1441794099083
 30
0.0
 10
98.81499331235283
 20
-137.8678838544219
 30
0.0
 10
98.59104998473276
 20
-137.6439757989221
 30
0.0
 10
98.31545999176365
 20
-137.6439757989221
 30
0.0
  0
SPLINE
  5
98
330
1F
100
AcDbEntity
  8
_U+30EC_U+30A4_U+30E4_U+30FC 1
 62
   179
420
  2234388
370
    25
100
AcDbSpline
210
0.0
220
0.0
230
1.0
 70
     8
 71
     3
 72
     8
 73
     4
 74
     0
 42
0.0000000001
 43
0.0000000001
 12
1.0
 22
0.0
 32
0.0
 13
1.0
 23
0.0
 33
0.0
 40
0.0
 40
0.0
 40
0.0
 40
0.0
 40
1.0
 40
1.0
 40
1.0
 40
1.0
 10
88.81508412302732
 20
-137.6439757989221
 30
0.0
 10
88.6366138498027
 20
-137.3345896878889
 30
0.0
 10
88.30659024711119
 20
-137.1444424657139
 30
0.0
 10
87.94897942290127
 20
-137.1444424657139
 30
0.0
  0
SPLINE
  5
99
330
1F
100
AcDbEntity
  8
_U+30EC_U+30A4_U+30E4_U+30FC 1
 62
   179
420
  2234388
370
    25
100
AcDbSpline
210
0.0
220
0.0
230
1.0
 70
     8
 71
     3
 72
     8
 73
     4
 74
     0
 42
0.0000000001
 43
0.0000000001
 12
1.0
 22
0.0
 32
0.0
 13
1.0
 23
0.0
 33
0.0
 40
0.0
 40
0.0
 40
0.0
 40
0.0
 40
1.0
 40
1.0
 40
1.0
 40
1.0
 10
86.80520553385422
 20
-120.8019413586884
 30
0.0
 10
85.47882948592004
 20
-120.6689441364996
 30
0.0
 10
84.1476578532144
 20
-120.6027983031828
 30
0.0
 10
82.81511038721051
 20
-120.6027983031828
 30
0.0
  0
SPLINE
  5
9A
330
1F
100
AcDbEntity
  8
_U+30EC_U+30A4_U+30E4_U+30FC 1
 62
   179
420
  2234388
370
     9
100
AcDbSpline
210
0.0
220
0.0
230
1.0
 70
    11
 71
     3
 72
    17
 73
    13
 74
     0
 42
0.0000000001
 43
0.0000000001
 12
1.0
 22
0.0
 32
0.0
 13
1.0
 23
0.0
 33
0.0
 40
0.0
 40
0.0
 40
0.0
 40
0.0
 40
1.0
 40
1.0
 40
1.0
 40
2.0
 40
2.0
 40
2.0
 40
3.0
 40
3.0
 40
3.0
 40
4.0
 40
4.0
 40
4.0
 40
4.0
 10
80.91476710235898
 20
-116.6023688597382
 30
0.0
 10
80.91476710235898
 20
-116.5472296930855
 30
0.0
 10
80.8699996035011
 20
-116.5024621930966
 30
0.0
 10
80.81486043824114
 20
-116.5024621930966
 30
0.0
 10
80.75975655075807
 20
-116.5024621930966
 30
0.0
 10
80.7149537741233
 20
-116.5472296930855
 30
0.0
 10
80.7149537741233
 20
-116.6023688597382
 30
0.0
 10
80.7149537741233
 20
-116.6581783041686
 30
0.0
 10
80.75975655075807
 20
-116.7029458041575
 30
0.0
 10
80.81486043824114
 20
-116.7029458041575
 30
0.0
 10
80.8699996035011
 20
-116.7029458041575
 30
0.0
 10
80.91476710235898
 20
-116.6581783041686
 30
0.0
 10
80.91476710235898
 20
-116.6023688597382
 30
0.0
  0
SPLINE
  5
9B
330
1F
100
AcDbEntity
  8
_U+30EC_U+30A4_U+30E4_U+30FC 1
 62
   179
420
  2234388
370
     9
100
AcDbSpline
210
0.0
220
0.0
230
1.0
 70
    11
 71
     3
 72
    17
 73
    13
 74
     0
 42
0.0000000001
 43
0.0000000001
 12
1.0
 22
0.0
 32
0.0
 13
1.0
 23
0.0
 33
0.0
 40
0.0
 40
0.0
 40
0.0
 40
0.0
 40
1.0
 40
1.0
 40
1.0
 40
2.0
 40
2.0
 40
2.0
 40
3.0
 40
3.0
 40
3.0
 40
4.0
 40
4.0
 40
4.0
 40
4.0
 10
88.91499078714516
 20
-116.6023688597382
 30
0.0
 10
88.91499078714516
 20
-116.5472296930855
 30
0.0
 10
88.87018801051039
 20
-116.5024621930966
 30
0.0
 10
88.81508412302732
 20
-116.5024621930966
 30
0.0
 10
88.75994720003226
 20
-116.5024621930966
 30
0.0
 10
88.71517745890948
 20
-116.5472296930855
 30
0.0
 10
88.71517745890948
 20
-116.6023688597382
 30
0.0
 10
88.71517745890948
 20
-116.6581783041686
 30
0.0
 10
88.75994720003226
 20
-116.7029458041575
 30
0.0
 10
88.81508412302732
 20
-116.7029458041575
 30
0.0
 10
88.87018801051039
 20
-116.7029458041575
 30
0.0
 10
88.91499078714516
 20
-116.6581783041686
 30
0.0
 10
88.91499078714516
 20
-116.6023688597382
 30
0.0
  0
SPLINE
  5
9C
330
1F
100
AcDbEntity
  8
_U+30EC_U+30A4_U+30E4_U+30FC 1
 62
   179
420
  2234388
370
     9
100
AcDbSpline
210
0.0
220
0.0
230
1.0
 70
    11
 71
     3
 72
    17
 73
    13
 74
     0
 42
0.0000000001
 43
0.0000000001
 12
1.0
 22
0.0
 32
0.0
 13
1.0
 23
0.0
 33
0.0
 40
0.0
 40
0.0
 40
0.0
 40
0.0
 40
1.0
 40
1.0
 40
1.0
 40
2.0
 40
2.0
 40
2.0
 40
3.0
 40
3.0
 40
3.0
 40
4.0
 40
4.0
 40
4.0
 40
4.0
 10
80.91476710235898
 20
-142.143621075575
 30
0.0
 10
80.91476710235898
 20
-142.0884819089225
 30
0.0
 10
80.8699996035011
 20
-142.0437144089333
 30
0.0
 10
80.81486043824114
 20
-142.0437144089333
 30
0.0
 10
80.75975655075807
 20
-142.0437144089333
 30
0.0
 10
80.7149537741233
 20
-142.0884819089225
 30
0.0
 10
80.7149537741233
 20
-142.143621075575
 30
0.0
 10
80.7149537741233
 20
-142.1987249644505
 30
0.0
 10
80.75975655075807
 20
-142.2435277422166
 30
0.0
 10
80.81486043824114
 20
-142.2435277422166
 30
0.0
 10
80.8699996035011
 20
-142.2435277422166
 30
0.0
 10
80.91476710235898
 20
-142.1987249644505
 30
0.0
 10
80.91476710235898
 20
-142.143621075575
 30
0.0
  0
SPLINE
  5
9D
330
1F
100
AcDbEntity
  8
_U+30EC_U+30A4_U+30E4_U+30FC 1
 62
   179
420
  2234388
370
     9
100
AcDbSpline
210
0.0
220
0.0
230
1.0
 70
    11
 71
     3
 72
    17
 73
    13
 74
     0
 42
0.0000000001
 43
0.0000000001
 12
1.0
 22
0.0
 32
0.0
 13
1.0
 23
0.0
 33
0.0
 40
0.0
 40
0.0
 40
0.0
 40
0.0
 40
1.0
 40
1.0
 40
1.0
 40
2.0
 40
2.0
 40
2.0
 40
3.0
 40
3.0
 40
3.0
 40
4.0
 40
4.0
 40
4.0
 40
4.0
 10
98.91489997647066
 20
-142.143621075575
 30
0.0
 10
98.91489997647066
 20
-142.0884819089225
 30
0.0
 10
98.8700971998359
 20
-142.0437144089333
 30
0.0
 10
98.81499331235283
 20
-142.0437144089333
 30
0.0
 10
98.75985414709288
 20
-142.0437144089333
 30
0.0
 10
98.71508664823499
 20
-142.0884819089225
 30
0.0
 10
98.71508664823499
 20
-142.143621075575
 30
0.0
 10
98.71508664823499
 20
-142.1987249644505
 30
0.0
 10
98.75985414709288
 20
-142.2435277422166
 30
0.0
 10
98.81499331235283
 20
-142.2435277422166
 30
0.0
 10
98.8700971998359
 20
-142.2435277422166
 30
0.0
 10
98.91489997647066
 20
-142.1987249644505
 30
0.0
 10
98.91489997647066
 20
-142.143621075575
 30
0.0
  0
POLYLINE
  5
9E
330
1F
100
AcDbEntity
  8
_U+30EC_U+30A4_U+30E4_U+30FC 1
 62
   179
420
  2234388
370
     9
100
AcDb2dPolyline
 66
     1
 10
0.0
 20
0.0
 30
0.0
  0
VERTEX
  5
9F
330
9E
100
AcDbEntity
  8
_U+30EC_U+30A4_U+30E4_U+30FC 1
 62
   179
420
  2234388
370
     9
100
AcDbVertex
100
AcDb2dVertex
 10
80.81486043824114
 20
-116.6023688597382
 30
0.0
  0
VERTEX
  5
A0
330
9E
100
AcDbEntity
  8
_U+30EC_U+30A4_U+30E4_U+30FC 1
 62
   179
420
  2234388
370
     9
100
AcDbVertex
100
AcDb2dVertex
 10
88.81508412302732
 20
-116.6023688597382
 30
0.0
  0
SEQEND
  5
A1
330
9E
100
AcDbEntity
  8
_U+30EC_U+30A4_U+30E4_U+30FC 1
 62
   179
420
  2234388
370
     9
  0
POLYLINE
  5
A2
330
1F
100
AcDbEntity
  8
_U+30EC_U+30A4_U+30E4_U+30FC 1
 62
   179
420
  2234388
370
     9
100
AcDb2dPolyline
 66
     1
 10
0.0
 20
0.0
 30
0.0
  0
VERTEX
  5
A3
330
A2
100
AcDbEntity
  8
_U+30EC_U+30A4_U+30E4_U+30FC 1
 62
   179
420
  2234388
370
     9
100
AcDbVertex
100
AcDb2dVertex
 10
80.81486043824114
 20
-118.0623749704844
 30
0.0
  0
VERTEX
  5
A4
330
A2
100
AcDbEntity
  8
_U+30EC_U+30A4_U+30E4_U+30FC 1
 62
   179
420
  2234388
370
     9
100
AcDbVertex
100
AcDb2dVertex
 10
80.81486043824114
 20
-115.602596637766
 30
0.0
  0
SEQEND
  5
A5
330
A2
100
AcDbEntity
  8
_U+30EC_U+30A4_U+30E4_U+30FC 1
 62
   179
420
  2234388
370
     9
  0
POLYLINE
  5
A6
330
1F
100
AcDbEntity
  8
_U+30EC_U+30A4_U+30E4_U+30FC 1
 62
   179
420
  2234388
370
     9
100
AcDb2dPolyline
 66
     1
 10
0.0
 20
0.0
 30
0.0
  0
VERTEX
  5
A7
330
A6
100
AcDbEntity
  8
_U+30EC_U+30A4_U+30E4_U+30FC 1
 62
   179
420
  2234388
370
     9
100
AcDbVertex
100
AcDb2dVertex
 10
88.81508412302732
 20
-118.4627071926065
 30
0.0
  0
VERTEX
  5
A8
330
A6
100
AcDbEntity
  8
_U+30EC_U+30A4_U+30E4_U+30FC 1
 62
   179
420
  2234388
370
     9
100
AcDbVertex
100
AcDb2dVertex
 10
88.81508412302732
 20
-115.602596637766
 30
0.0
  0
SEQEND
  5
A9
330
A6
100
AcDbEntity
  8
_U+30EC_U+30A4_U+30E4_U+30FC 1
 62
   179
420
  2234388
370
     9
  0
INSERT
  5
AB
330
1F
100
AcDbEntity
  8
_U+30EC_U+30A4_U+30E4_U+30FC 1
100
AcDbBlockReference
  2
block 4
 10
0.0
 20
0.0
 30
0.0
  0
POLYLINE
  5
B2
330
1F
100
AcDbEntity
  8
_U+30EC_U+30A4_U+30E4_U+30FC 1
 62
   179
420
  2234388
370
     9
100
AcDb2dPolyline
 66
     1
 10
0.0
 20
0.0
 30
0.0
  0
VERTEX
  5
B3
330
B2
100
AcDbEntity
  8
_U+30EC_U+30A4_U+30E4_U+30FC 1
 62
   179
420
  2234388
370
     9
100
AcDbVertex
100
AcDb2dVertex
 10
80.81486043824114
 20
-142.143621075575
 30
0.0
  0
VERTEX
  5
B4
330
B2
100
AcDbEntity
  8
_U+30EC_U+30A4_U+30E4_U+30FC 1
 62
   179
420
  2234388
370
     9
100
AcDbVertex
100
AcDb2dVertex
 10
98.81499331235283
 20
-142.143621075575
 30
0.0
  0
SEQEND
  5
B5
330
B2
100
AcDbEntity
  8
_U+30EC_U+30A4_U+30E4_U+30FC 1
 62
   179
420
  2234388
370
     9
  0
POLYLINE
  5
B6
330
1F
100
AcDbEntity
  8
_U+30EC_U+30A4_U+30E4_U+30FC 1
 62
   179
420
  2234388
370
     9
100
AcDb2dPolyline
 66
     1
 10
0.0
 20
0.0
 30
0.0
  0
VERTEX
  5
B7
330
B6
100
AcDbEntity
  8
_U+30EC_U+30A4_U+30E4_U+30FC 1
 62
   179
420
  2234388
370
     9
100
AcDbVertex
100
AcDb2dVertex
 10
80.81486043824114
 20
-139.8839735761404
 30
0.0
  0
VERTEX
  5
B8
330
B6
100
AcDbEntity
  8
_U+30EC_U+30A4_U+30E4_U+30FC 1
 62
   179
420
  2234388
370
     9
100
AcDbVertex
100
AcDb2dVertex
 10
80.81486043824114
 20
-143.14335801977
 30
0.0
  0
SEQEND
  5
B9
330
B6
100
AcDbEntity
  8
_U+30EC_U+30A4_U+30E4_U+30FC 1
 62
   179
420
  2234388
370
     9
  0
POLYLINE
  5
BA
330
1F
100
AcDbEntity
  8
_U+30EC_U+30A4_U+30E4_U+30FC 1
 62
   179
420
  2234388
370
     9
100
AcDb2dPolyline
 66
     1
 10
0.0
 20
0.0
 30
0.0
  0
VERTEX
  5
BB
330
BA
100
AcDbEntity
  8
_U+30EC_U+30A4_U+30E4_U+30FC 1
 62
   179
420
  2234388
370
     9
100
AcDbVertex
100
AcDb2dVertex
 10
98.81499331235283
 20
-140.6835796870512
 30
0.0
  0
VERTEX
  5
BC
330
BA
100
AcDbEntity
  8
_U+30EC_U+30A4_U+30E4_U+30FC 1
 62
   179
420
  2234388
370
     9
100
AcDbVertex
100
AcDb2dVertex
 10
98.81499331235283
 20
-143.14335801977
 30
0.0
  0
SEQEND
  5
BD
330
BA
100
AcDbEntity
  8
_U+30EC_U+30A4_U+30E4_U+30FC 1
 62
   179
420
  2234388
370
     9
  0
INSERT
  5
BF
330
1F
100
AcDbEntity
  8
_U+30EC_U+30A4_U+30E4_U+30FC 1
100
AcDbBlockReference
  2
block 5
 10
0.0
 20
0.0
 30
0.0
  0
SPLINE
  5
C8
330
1F
100
AcDbEntity
  8
_U+30EC_U+30A4_U+30E4_U+30FC 1
 62
   179
420
  2234388
370
     9
100
AcDbSpline
210
0.0
220
0.0
230
1.0
 70
    11
 71
     3
 72
    17
 73
    13
 74
     0
 42
0.0000000001
 43
0.0000000001
 12
1.0
 22
0.0
 32
0.0
 13
1.0
 23
0.0
 33
0.0
 40
0.0
 40
0.0
 40
0.0
 40
0.0
 40
1.0
 40
1.0
 40
1.0
 40
2.0
 40
2.0
 40
2.0
 40
3.0
 40
3.0
 40
3.0
 40
4.0
 40
4.0
 40
4.0
 40
4.0
 10
80.92443321322348
 20
-129.3071666343402
 30
0.0
 10
80.92443321322348
 20
-129.2520627454646
 30
0.0
 10
80.87963043658873
 20
-129.2072599676979
 30
0.0
 10
80.82452654910566
 20
-129.2072599676979
 30
0.0
 10
80.7693873838457
 20
-129.2072599676979
 30
0.0
 10
80.72461988498782
 20
-129.2520627454646
 30
0.0
 10
80.72461988498782
 20
-129.3071666343402
 30
0.0
 10
80.72461988498782
 20
-129.3623058009926
 30
0.0
 10
80.7693873838457
 20
-129.4070733009818
 30
0.0
 10
80.82452654910566
 20
-129.4070733009818
 30
0.0
 10
80.87963043658873
 20
-129.4070733009818
 30
0.0
 10
80.92443321322348
 20
-129.3623058009926
 30
0.0
 10
80.92443321322348
 20
-129.3071666343402
 30
0.0
  0
SPLINE
  5
C9
330
1F
100
AcDbEntity
  8
_U+30EC_U+30A4_U+30E4_U+30FC 1
 62
   179
420
  2234388
370
     9
100
AcDbSpline
210
0.0
220
0.0
230
1.0
 70
    11
 71
     3
 72
    17
 73
    13
 74
     0
 42
0.0000000001
 43
0.0000000001
 12
1.0
 22
0.0
 32
0.0
 13
1.0
 23
0.0
 33
0.0
 40
0.0
 40
0.0
 40
0.0
 40
0.0
 40
1.0
 40
1.0
 40
1.0
 40
2.0
 40
2.0
 40
2.0
 40
3.0
 40
3.0
 40
3.0
 40
4.0
 40
4.0
 40
4.0
 40
4.0
 10
81.92420540993939
 20
-129.3071666343402
 30
0.0
 10
81.92420540993939
 20
-129.2520627454646
 30
0.0
 10
81.87940263330464
 20
-129.2072599676979
 30
0.0
 10
81.82429874582157
 20
-129.2072599676979
 30
0.0
 10
81.7691595805616
 20
-129.2072599676979
 30
0.0
 10
81.72439208170373
 20
-129.2520627454646
 30
0.0
 10
81.72439208170373
 20
-129.3071666343402
 30
0.0
 10
81.72439208170373
 20
-129.3623058009926
 30
0.0
 10
81.7691595805616
 20
-129.4070733009818
 30
0.0
 10
81.82429874582157
 20
-129.4070733009818
 30
0.0
 10
81.87940263330464
 20
-129.4070733009818
 30
0.0
 10
81.92420540993939
 20
-129.3623058009926
 30
0.0
 10
81.92420540993939
 20
-129.3071666343402
 30
0.0
  0
POLYLINE
  5
CA
330
1F
100
AcDbEntity
  8
_U+30EC_U+30A4_U+30E4_U+30FC 1
  6
AI-Linetype-1
 62
   251
420
  5855577
370
    25
100
AcDb2dPolyline
 66
     1
 10
0.0
 20
0.0
 30
0.0
  0
VERTEX
  5
CB
330
CA
100
AcDbEntity
  8
_U+30EC_U+30A4_U+30E4_U+30FC 1
  6
AI-Linetype-1
 62
   251
420
  5855577
370
    25
100
AcDbVertex
100
AcDb2dVertex
 10
89.3349374430981
 20
-121.6184102473732
 30
0.0
  0
VERTEX
  5
CC
330
CA
100
AcDbEntity
  8
_U+30EC_U+30A4_U+30E4_U+30FC 1
  6
AI-Linetype-1
 62
   251
420
  5855577
370
    25
100
AcDbVertex
100
AcDb2dVertex
 10
89.3349374430981
 20
-119.9868130255589
 30
0.0
  0
VERTEX
  5
CD
330
CA
100
AcDbEntity
  8
_U+30EC_U+30A4_U+30E4_U+30FC 1
  6
AI-Linetype-1
 62
   251
420
  5855577
370
    25
100
AcDbVertex
100
AcDb2dVertex
 10
80.16271545487875
 20
-119.9868130255589
 30
0.0
  0
VERTEX
  5
CE
330
CA
100
AcDbEntity
  8
_U+30EC_U+30A4_U+30E4_U+30FC 1
  6
AI-Linetype-1
 62
   251
420
  5855577
370
    25
100
AcDbVertex
100
AcDb2dVertex
 10
80.16271545487875
 20
-138.2399585765513
 30
0.0
  0
SEQEND
  5
D0
330
CA
100
AcDbEntity
  8
_U+30EC_U+30A4_U+30E4_U+30FC 1
  6
AI-Linetype-1
 62
   251
420
  5855577
370
    25
  0
INSERT
  5
D2
330
1F
100
AcDbEntity
  8
_U+30EC_U+30A4_U+30E4_U+30FC 1
100
AcDbBlockReference
  2
block 6
 10
0.0
 20
0.0
 30
0.0
  0
POLYLINE
  5
D7
330
1F
100
AcDbEntity
  8
_U+30EC_U+30A4_U+30E4_U+30FC 1
 62
   179
420
  2234388
370
     9
100
AcDb2dPolyline
 66
     1
 10
0.0
 20
0.0
 30
0.0
  0
VERTEX
  5
D8
330
D7
100
AcDbEntity
  8
_U+30EC_U+30A4_U+30E4_U+30FC 1
 62
   179
420
  2234388
370
     9
100
AcDbVertex
100
AcDb2dVertex
 10
82.67833844625541
 20
-129.3158096898934
 30
0.0
  0
VERTEX
  5
D9
330
D7
100
AcDbEntity
  8
_U+30EC_U+30A4_U+30E4_U+30FC 1
 62
   179
420
  2234388
370
     9
100
AcDbVertex
100
AcDb2dVertex
 10
78.08947775825533
 20
-129.3158096898934
 30
0.0
  0
SEQEND
  5
DA
330
D7
100
AcDbEntity
  8
_U+30EC_U+30A4_U+30E4_U+30FC 1
 62
   179
420
  2234388
370
     9
  0
ENDSEC
  0
SECTION
  2
OBJECTS
  0
DICTIONARY
  5
C
330
0
100
AcDbDictionary
281
     1
  3
ACAD_GROUP
350
D
  3
ACAD_LAYOUT
350
1A
  3
ACAD_MATERIAL
350
3B
  3
ACAD_MLEADERSTYLE
350
DC
  3
ACAD_MLINESTYLE
350
17
  3
ACAD_PLOTSETTINGS
350
19
  3
ACAD_PLOTSTYLENAME
350
E
  3
ACAD_TABLESTYLE
350
DB
  3
ACAD_VISUALSTYLE
350
2A
  0
SUN
  5
3F
330
29
100
AcDbSun
 90
        1
290
     0
 63
     7
421
 16777215
 40
1.0
291
     1
 91
  2455826
 92
 54000000
292
     0
 70
     2
 71
   256
280
     1
  0
DICTIONARY
  5
D
102
{ACAD_REACTORS
330
C
102
}
330
C
100
AcDbDictionary
281
     1
  0
DICTIONARY
  5
1A
102
{ACAD_REACTORS
330
C
102
}
330
C
100
AcDbDictionary
281
     1
  3
Layout1
350
1E
  3
Layout2
350
26
  3
Model
350
22
  0
DICTIONARY
  5
3B
102
{ACAD_REACTORS
330
C
102
}
330
C
100
AcDbDictionary
281
     1
  3
ByBlock
350
3D
  3
ByLayer
350
3C
  3
Global
350
3E
  0
DICTIONARY
  5
DC
102
{ACAD_REACTORS
330
C
102
}
330
C
100
AcDbDictionary
281
     1
  0
DICTIONARY
  5
17
102
{ACAD_REACTORS
330
C
102
}
330
C
100
AcDbDictionary
281
     1
  3
Standard
350
18
  0
DICTIONARY
  5
19
102
{ACAD_REACTORS
330
C
102
}
330
C
100
AcDbDictionary
281
     1
  0
ACDBDICTIONARYWDFLT
  5
E
102
{ACAD_REACTORS
330
C
102
}
330
C
100
AcDbDictionary
281
     1
  3
Normal
350
F
100
AcDbDictionaryWithDefault
340
F
  0
DICTIONARY
  5
DB
102
{ACAD_REACTORS
330
C
102
}
330
C
100
AcDbDictionary
281
     1
  0
DICTIONARY
  5
2A
102
{ACAD_REACTORS
330
C
102
}
330
C
100
AcDbDictionary
281
     1
  3
2dWireframe
350
2F
  3
3D Hidden
350
31
  3
3dWireframe
350
30
  3
Basic
350
32
  3
Brighten
350
36
  3
ColorChange
350
3A
  3
Conceptual
350
34
  3
Dim
350
35
  3
Facepattern
350
39
  3
Flat
350
2B
  3
FlatWithEdges
350
2C
  3
Gouraud
350
2D
  3
GouraudWithEdges
350
2E
  3
Linepattern
350
38
  3
Realistic
350
33
  3
Thicken
350
37
  0
LAYOUT
  5
1E
102
{ACAD_REACTORS
330
1A
102
}
330
1A
100
AcDbPlotSettings
  1

  2
none_device
  4

  6

 40
0.0
 41
0.0
 42
0.0
 43
0.0
 44
0.0
 45
0.0
 46
0.0
 47
0.0
 48
0.0
 49
0.0
140
0.0
141
0.0
142
1.0
143
1.0
 70
   688
 72
     0
 73
     0
 74
     5
  7

 75
    16
 76
     0
 77
     2
 78
   300
147
1.0
148
0.0
149
0.0
100
AcDbLayout
  1
Layout1
 70
     1
 71
     1
 10
0.0
 20
0.0
 11
12.0
 21
9.0
 12
0.0
 22
0.0
 32
0.0
 14
1.000000000000000E+20
 24
1.000000000000000E+20
 34
1.000000000000000E+20
 15
-1.000000000000000E+20
 25
-1.000000000000000E+20
 35
-1.000000000000000E+20
146
0.0
 13
0.0
 23
0.0
 33
0.0
 16
1.0
 26
0.0
 36
0.0
 17
0.0
 27
1.0
 37
0.0
 76
     0
330
1B
  0
LAYOUT
  5
26
102
{ACAD_REACTORS
330
1A
102
}
330
1A
100
AcDbPlotSettings
  1

  2
none_device
  4

  6

 40
0.0
 41
0.0
 42
0.0
 43
0.0
 44
0.0
 45
0.0
 46
0.0
 47
0.0
 48
0.0
 49
0.0
140
0.0
141
0.0
142
1.0
143
1.0
 70
   688
 72
     0
 73
     0
 74
     5
  7

 75
    16
 76
     0
 77
     2
 78
   300
147
1.0
148
0.0
149
0.0
100
AcDbLayout
  1
Layout2
 70
     1
 71
     2
 10
0.0
 20
0.0
 11
0.0
 21
0.0
 12
0.0
 22
0.0
 32
0.0
 14
0.0
 24
0.0
 34
0.0
 15
0.0
 25
0.0
 35
0.0
146
0.0
 13
0.0
 23
0.0
 33
0.0
 16
1.0
 26
0.0
 36
0.0
 17
0.0
 27
1.0
 37
0.0
 76
     0
330
23
  0
LAYOUT
  5
22
102
{ACAD_REACTORS
330
1A
102
}
330
1A
100
AcDbPlotSettings
  1

  2
none_device
  4

  6

 40
0.0
 41
0.0
 42
0.0
 43
0.0
 44
0.0
 45
0.0
 46
0.0
 47
0.0
 48
0.0
 49
0.0
140
0.0
141
0.0
142
1.0
143
1.0
 70
  1712
 72
     0
 73
     0
 74
     0
  7

 75
     0
 76
     0
 77
     2
 78
   300
147
1.0
148
0.0
149
0.0
100
AcDbLayout
  1
Model
 70
     1
 71
     0
 10
0.0
 20
0.0
 11
12.0
 21
9.0
 12
0.0
 22
0.0
 32
0.0
 14
1.000000000000000E+20
 24
1.000000000000000E+20
 34
1.000000000000000E+20
 15
-1.000000000000000E+20
 25
-1.000000000000000E+20
 35
-1.000000000000000E+20
146
0.0
 13
0.0
 23
0.0
 33
0.0
 16
1.0
 26
0.0
 36
0.0
 17
0.0
 27
1.0
 37
0.0
 76
     0
330
1F
331
29
  0
MATERIAL
  5
3D
102
{ACAD_REACTORS
330
3B
102
}
330
3B
100
AcDbMaterial
  1
ByBlock
 72
     1
 94
      127
  0
MATERIAL
  5
3C
102
{ACAD_REACTORS
330
3B
102
}
330
3B
100
AcDbMaterial
  1
ByLayer
 72
     1
 94
      127
  0
MATERIAL
  5
3E
102
{ACAD_REACTORS
330
3B
102
}
330
3B
100
AcDbMaterial
  1
Global
 72
     1
 94
      127
  0
MLINESTYLE
  5
18
102
{ACAD_REACTORS
330
17
102
}
330
17
100
AcDbMlineStyle
  2
Standard
 70
     0
  3

 62
   256
 51
90.0
 52
90.0
 71
     2
 49
0.5
 62
   256
  6
BYLAYER
 49
-0.5
 62
   256
  6
BYLAYER
  0
ACDBPLACEHOLDER
  5
F
102
{ACAD_REACTORS
330
E
102
}
330
E
  0
VISUALSTYLE
  5
2F
102
{ACAD_REACTORS
330
2A
102
}
330
2A
100
AcDbVisualStyle
  2
2dWireframe
 70
     4
177
     2
291
     0
 71
     0
176
     1
 72
     2
176
     1
 73
     0
176
     1
 90
        0
176
     1
 40
-0.6
176
     1
 41
-30.0
176
     1
 62
     5
 63
     7
421
 16777215
176
     1
 74
     1
176
     1
 91
        4
176
     1
 64
     7
176
     1
 65
   257
176
     1
 75
     1
176
     1
175
     1
176
     1
 42
1.0
176
     1
 92
        0
176
     1
 66
   257
176
     1
 43
1.0
176
     1
 76
     1
176
     1
 77
     6
176
     1
 78
     2
176
     1
 67
     7
176
     1
 79
     5
176
     1
170
     0
176
     1
171
     0
176
     1
290
     0
176
     1
 93
        1
176
     1
 44
0.0
176
     1
173
     0
176
     1
  0
VISUALSTYLE
  5
31
102
{ACAD_REACTORS
330
2A
102
}
330
2A
100
AcDbVisualStyle
  2
3D Hidden
 70
     6
177
     2
291
     0
 71
     1
176
     1
 72
     2
176
     1
 73
     2
176
     1
 90
        0
176
     1
 40
-0.6
176
     1
 41
-30.0
176
     1
 62
     5
 63
     7
421
 16777215
176
     1
 74
     2
176
     1
 91
        2
176
     1
 64
     7
176
     1
 65
   257
176
     1
 75
     2
176
     1
175
     1
176
     1
 42
40.0
176
     1
 92
        0
176
     1
 66
   257
176
     1
 43
1.0
176
     1
 76
     1
176
     1
 77
     6
176
     1
 78
     2
176
     1
 67
     7
176
     1
 79
     3
176
     1
170
     0
176
     1
171
     0
176
     1
290
     0
176
     1
 93
        1
176
     1
 44
0.0
176
     1
173
     0
176
     1
  0
VISUALSTYLE
  5
30
102
{ACAD_REACTORS
330
2A
102
}
330
2A
100
AcDbVisualStyle
  2
3dWireframe
 70
     5
177
     2
291
     0
 71
     0
176
     1
 72
     2
176
     1
 73
     0
176
     1
 90
        0
176
     1
 40
-0.6
176
     1
 41
-30.0
176
     1
 62
     5
 63
     7
421
 16777215
176
     1
 74
     1
176
     1
 91
        4
176
     1
 64
     7
176
     1
 65
   257
176
     1
 75
     1
176
     1
175
     1
176
     1
 42
1.0
176
     1
 92
        0
176
     1
 66
   257
176
     1
 43
1.0
176
     1
 76
     1
176
     1
 77
     6
176
     1
 78
     2
176
     1
 67
     7
176
     1
 79
     5
176
     1
170
     0
176
     1
171
     0
176
     1
290
     0
176
     1
 93
        1
176
     1
 44
0.0
176
     1
173
     0
176
     1
  0
VISUALSTYLE
  5
32
102
{ACAD_REACTORS
330
2A
102
}
330
2A
100
AcDbVisualStyle
  2
Basic
 70
     7
177
     2
291
     1
 71
     1
176
     1
 72
     0
176
     1
 73
     1
176
     1
 90
        0
176
     1
 40
-0.6
176
     1
 41
-30.0
176
     1
 62
     5
 63
     7
421
 16777215
176
     1
 74
     0
176
     1
 91
        4
176
     1
 64
     7
176
     1
 65
   257
176
     1
 75
     1
176
     1
175
     1
176
     1
 42
1.0
176
     1
 92
        8
176
     1
 66
     7
176
     1
 43
1.0
176
     1
 76
     1
176
     1
 77
     6
176
     1
 78
     2
176
     1
 67
     7
176
     1
 79
     5
176
     1
170
     0
176
     1
171
     0
176
     1
290
     0
176
     1
 93
        1
176
     1
 44
0.0
176
     1
173
     0
176
     1
  0
VISUALSTYLE
  5
36
102
{ACAD_REACTORS
330
2A
102
}
330
2A
100
AcDbVisualStyle
  2
Brighten
 70
    12
177
     2
291
     1
 71
     2
176
     1
 72
     2
176
     1
 73
     0
176
     1
 90
        0
176
     1
 40
-0.6
176
     1
 41
-30.0
176
     1
 62
     5
 63
     7
421
 16777215
176
     1
 74
     1
176
     1
 91
        4
176
     1
 64
     7
176
     1
 65
   257
176
     1
 75
     1
176
     1
175
     1
176
     1
 42
1.0
176
     1
 92
        8
176
     1
 66
     7
176
     1
 43
1.0
176
     1
 76
     1
176
     1
 77
     6
176
     1
 78
     2
176
     1
 67
     7
176
     1
 79
     5
176
     1
170
     0
176
     1
171
     0
176
     1
290
     0
176
     1
 93
        1
176
     1
 44
50.0
176
     1
173
     0
176
     1
  0
VISUALSTYLE
  5
3A
102
{ACAD_REACTORS
330
2A
102
}
330
2A
100
AcDbVisualStyle
  2
ColorChange
 70
    16
177
     2
291
     1
 71
     2
176
     1
 72
     2
176
     1
 73
     3
176
     1
 90
        0
176
     1
 40
-0.6
176
     1
 41
-30.0
176
     1
 62
     5
 63
     8
421
  8421504
176
     1
 74
     1
176
     1
 91
        4
176
     1
 64
     7
176
     1
 65
   257
176
     1
 75
     1
176
     1
175
     1
176
     1
 42
1.0
176
     1
 92
        8
176
     1
 66
     8
424
  8421504
176
     1
 43
1.0
176
     1
 76
     1
176
     1
 77
     6
176
     1
 78
     2
176
     1
 67
     7
176
     1
 79
     5
176
     1
170
     0
176
     1
171
     0
176
     1
290
     0
176
     1
 93
        1
176
     1
 44
0.0
176
     1
173
     0
176
     1
  0
VISUALSTYLE
  5
34
102
{ACAD_REACTORS
330
2A
102
}
330
2A
100
AcDbVisualStyle
  2
Conceptual
 70
     9
177
     2
291
     0
 71
     3
176
     1
 72
     2
176
     1
 73
     0
176
     1
 90
        0
176
     1
 40
-0.6
176
     1
 41
-30.0
176
     1
 62
     5
 63
     7
421
 16777215
176
     1
 74
     2
176
     1
 91
        2
176
     1
 64
     7
176
     1
 65
   257
176
     1
 75
     1
176
     1
175
     1
176
     1
 42
40.0
176
     1
 92
        8
176
     1
 66
     7
176
     1
 43
1.0
176
     1
 76
     1
176
     1
 77
     6
176
     1
 78
     2
176
     1
 67
     7
176
     1
 79
     3
176
     1
170
     0
176
     1
171
     0
176
     1
290
     0
176
     1
 93
        1
176
     1
 44
0.0
176
     1
173
     0
176
     1
  0
VISUALSTYLE
  5
35
102
{ACAD_REACTORS
330
2A
102
}
330
2A
100
AcDbVisualStyle
  2
Dim
 70
    11
177
     2
291
     1
 71
     2
176
     1
 72
     2
176
     1
 73
     0
176
     1
 90
        0
176
     1
 40
-0.6
176
     1
 41
-30.0
176
     1
 62
     5
 63
     7
421
 16777215
176
     1
 74
     1
176
     1
 91
        4
176
     1
 64
     7
176
     1
 65
   257
176
     1
 75
     1
176
     1
175
     1
176
     1
 42
1.0
176
     1
 92
        8
176
     1
 66
     7
176
     1
 43
1.0
176
     1
 76
     1
176
     1
 77
     6
176
     1
 78
     2
176
     1
 67
     7
176
     1
 79
     5
176
     1
170
     0
176
     1
171
     0
176
     1
290
     0
176
     1
 93
        1
176
     1
 44
-50.0
176
     1
173
     0
176
     1
  0
VISUALSTYLE
  5
39
102
{ACAD_REACTORS
330
2A
102
}
330
2A
100
AcDbVisualStyle
  2
Facepattern
 70
    15
177
     2
291
     1
 71
     2
176
     1
 72
     2
176
     1
 73
     0
176
     1
 90
        0
176
     1
 40
-0.6
176
     1
 41
-30.0
176
     1
 62
     5
 63
     7
421
 16777215
176
     1
 74
     1
176
     1
 91
        4
176
     1
 64
     7
176
     1
 65
   257
176
     1
 75
     1
176
     1
175
     1
176
     1
 42
1.0
176
     1
 92
        8
176
     1
 66
     7
176
     1
 43
1.0
176
     1
 76
     1
176
     1
 77
     6
176
     1
 78
     2
176
     1
 67
     7
176
     1
 79
     5
176
     1
170
     0
176
     1
171
     0
176
     1
290
     0
176
     1
 93
        1
176
     1
 44
0.0
176
     1
173
     0
176
     1
  0
VISUALSTYLE
  5
2B
102
{ACAD_REACTORS
330
2A
102
}
330
2A
100
AcDbVisualStyle
  2
Flat
 70
     0
177
     2
291
     1
 71
     2
176
     1
 72
     1
176
     1
 73
     1
176
     1
 90
        2
176
     1
 40
-0.6
176
     1
 41
30.0
176
     1
 62
     5
 63
     7
421
 16777215
176
     1
 74
     0
176
     1
 91
        4
176
     1
 64
     7
176
     1
 65
   257
176
     1
 75
     1
176
     1
175
     1
176
     1
 42
1.0
176
     1
 92
        8
176
     1
 66
     7
176
     1
 43
1.0
176
     1
 76
     1
176
     1
 77
     6
176
     1
 78
     2
176
     1
 67
     7
176
     1
 79
     5
176
     1
170
     0
176
     1
171
     0
176
     1
290
     0
176
     1
 93
       13
176
     1
 44
0.0
176
     1
173
     0
176
     1
  0
VISUALSTYLE
  5
2C
102
{ACAD_REACTORS
330
2A
102
}
330
2A
100
AcDbVisualStyle
  2
FlatWithEdges
 70
     1
177
     2
291
     1
 71
     2
176
     1
 72
     1
176
     1
 73
     1
176
     1
 90
        2
176
     1
 40
-0.6
176
     1
 41
30.0
176
     1
 62
     5
 63
     7
421
 16777215
176
     1
 74
     1
176
     1
 91
        4
176
     1
 64
     7
176
     1
 65
   257
176
     1
 75
     1
176
     1
175
     1
176
     1
 42
1.0
176
     1
 92
        0
176
     1
 66
   257
176
     1
 43
1.0
176
     1
 76
     1
176
     1
 77
     6
176
     1
 78
     2
176
     1
 67
     7
176
     1
 79
     5
176
     1
170
     0
176
     1
171
     0
176
     1
290
     0
176
     1
 93
       13
176
     1
 44
0.0
176
     1
173
     0
176
     1
  0
VISUALSTYLE
  5
2D
102
{ACAD_REACTORS
330
2A
102
}
330
2A
100
AcDbVisualStyle
  2
Gouraud
 70
     2
177
     2
291
     1
 71
     2
176
     1
 72
     2
176
     1
 73
     1
176
     1
 90
        2
176
     1
 40
-0.6
176
     1
 41
30.0
176
     1
 62
     5
 63
     7
421
 16777215
176
     1
 74
     0
176
     1
 91
        4
176
     1
 64
     7
176
     1
 65
   257
176
     1
 75
     1
176
     1
175
     1
176
     1
 42
1.0
176
     1
 92
        0
176
     1
 66
     7
176
     1
 43
1.0
176
     1
 76
     1
176
     1
 77
     6
176
     1
 78
     2
176
     1
 67
     7
176
     1
 79
     5
176
     1
170
     0
176
     1
171
     0
176
     1
290
     0
176
     1
 93
       13
176
     1
 44
0.0
176
     1
173
     0
176
     1
  0
VISUALSTYLE
  5
2E
102
{ACAD_REACTORS
330
2A
102
}
330
2A
100
AcDbVisualStyle
  2
GouraudWithEdges
 70
     3
177
     2
291
     1
 71
     2
176
     1
 72
     2
176
     1
 73
     1
176
     1
 90
        2
176
     1
 40
-0.6
176
     1
 41
30.0
176
     1
 62
     5
 63
     7
421
 16777215
176
     1
 74
     1
176
     1
 91
        4
176
     1
 64
     7
176
     1
 65
   257
176
     1
 75
     1
176
     1
175
     1
176
     1
 42
1.0
176
     1
 92
        0
176
     1
 66
   257
176
     1
 43
1.0
176
     1
 76
     1
176
     1
 77
     6
176
     1
 78
     2
176
     1
 67
     7
176
     1
 79
     5
176
     1
170
     0
176
     1
171
     0
176
     1
290
     0
176
     1
 93
       13
176
     1
 44
0.0
176
     1
173
     0
176
     1
  0
VISUALSTYLE
  5
38
102
{ACAD_REACTORS
330
2A
102
}
330
2A
100
AcDbVisualStyle
  2
Linepattern
 70
    14
177
     2
291
     1
 71
     2
176
     1
 72
     2
176
     1
 73
     0
176
     1
 90
        0
176
     1
 40
-0.6
176
     1
 41
-30.0
176
     1
 62
     5
 63
     7
421
 16777215
176
     1
 74
     1
176
     1
 91
        4
176
     1
 64
     7
176
     1
 65
   257
176
     1
 75
     7
176
     1
175
     7
176
     1
 42
1.0
176
     1
 92
        8
176
     1
 66
     7
176
     1
 43
1.0
176
     1
 76
     1
176
     1
 77
     6
176
     1
 78
     2
176
     1
 67
     7
176
     1
 79
     5
176
     1
170
     0
176
     1
171
     0
176
     1
290
     0
176
     1
 93
        1
176
     1
 44
0.0
176
     1
173
     0
176
     1
  0
VISUALSTYLE
  5
33
102
{ACAD_REACTORS
330
2A
102
}
330
2A
100
AcDbVisualStyle
  2
Realistic
 70
     8
177
     2
291
     0
 71
     2
176
     1
 72
     2
176
     1
 73
     0
176
     1
 90
        0
176
     1
 40
-0.6
176
     1
 41
-30.0
176
     1
 62
     5
 63
     7
421
 16777215
176
     1
 74
     1
176
     1
 91
        0
176
     1
 64
     7
176
     1
 65
   257
176
     1
 75
     1
176
     1
175
     1
176
     1
 42
1.0
176
     1
 92
        8
176
     1
 66
     8
424
  7895160
176
     1
 43
1.0
176
     1
 76
     1
176
     1
 77
     6
176
     1
 78
     2
176
     1
 67
     7
176
     1
 79
     5
176
     1
170
     0
176
     1
171
     0
176
     1
290
     0
176
     1
 93
       13
176
     1
 44
0.0
176
     1
173
     0
176
     1
  0
VISUALSTYLE
  5
37
102
{ACAD_REACTORS
330
2A
102
}
330
2A
100
AcDbVisualStyle
  2
Thicken
 70
    13
177
     2
291
     1
 71
     2
176
     1
 72
     2
176
     1
 73
     0
176
     1
 90
        0
176
     1
 40
-0.6
176
     1
 41
-30.0
176
     1
 62
     5
 63
     7
421
 16777215
176
     1
 74
     1
176
     1
 91
        4
176
     1
 64
     7
176
     1
 65
   257
176
     1
 75
     1
176
     1
175
     1
176
     1
 42
1.0
176
     1
 92
       12
176
     1
 66
     7
176
     1
 43
1.0
176
     1
 76
     1
176
     1
 77
     6
176
     1
 78
     2
176
     1
 67
     7
176
     1
 79
     5
176
     1
170
     0
176
     1
171
     0
176
     1
290
     0
176
     1
 93
        1
176
     1
 44
0.0
176
     1
173
     0
176
     1
  0
ENDSEC
  0
EOF
