  0
SECTION
  2
HEADER
  9
$ACADVER
  1
AC1024
  9
$ACADMAINTVER
 70
     6
  9
$DWGCODEPAGE
  3
UNDEFINED
  9
$INSBASE
 10
0.0
 20
0.0
 30
0.0
  9
$EXTMIN
 10
1.000000000000000E+20
 20
1.000000000000000E+20
 30
1.000000000000000E+20
  9
$EXTMAX
 10
-1.000000000000000E+20
 20
-1.000000000000000E+20
 30
-1.000000000000000E+20
  9
$LIMMIN
 10
0.0
 20
0.0
  9
$LIMMAX
 10
12.0
 20
9.0
  9
$ORTHOMODE
 70
     0
  9
$REGENMODE
 70
     1
  9
$FILLMODE
 70
     1
  9
$QTEXTMODE
 70
     0
  9
$MIRRTEXT
 70
     1
  9
$LTSCALE
 40
1.0
  9
$ATTMODE
 70
     1
  9
$TEXTSIZE
 40
0.2
  9
$TRACEWID
 40
0.05
  9
$TEXTSTYLE
  7
Standard
  9
$CLAYER
  8
0
  9
$CELTYPE
  6
ByLayer
  9
$CECOLOR
 62
   256
  9
$CELTSCALE
 40
1.0
  9
$DISPSILH
 70
     0
  9
$DIMSCALE
 40
1.0
  9
$DIMASZ
 40
0.18
  9
$DIMEXO
 40
0.0625
  9
$DIMDLI
 40
0.38
  9
$DIMRND
 40
0.0
  9
$DIMDLE
 40
0.0
  9
$DIMEXE
 40
0.18
  9
$DIMTP
 40
0.0
  9
$DIMTM
 40
0.0
  9
$DIMTXT
 40
0.18
  9
$DIMCEN
 40
0.09
  9
$DIMTSZ
 40
0.0
  9
$DIMTOL
 70
     0
  9
$DIMLIM
 70
     0
  9
$DIMTIH
 70
     1
  9
$DIMTOH
 70
     1
  9
$DIMSE1
 70
     0
  9
$DIMSE2
 70
     0
  9
$DIMTAD
 70
     0
  9
$DIMZIN
 70
     0
  9
$DIMBLK
  1

  9
$DIMASO
 70
     1
  9
$DIMSHO
 70
     1
  9
$DIMPOST
  1

  9
$DIMAPOST
  1

  9
$DIMALT
 70
     0
  9
$DIMALTD
 70
     2
  9
$DIMALTF
 40
25.4
  9
$DIMLFAC
 40
1.0
  9
$DIMTOFL
 70
     0
  9
$DIMTVP
 40
0.0
  9
$DIMTIX
 70
     0
  9
$DIMSOXD
 70
     0
  9
$DIMSAH
 70
     0
  9
$DIMBLK1
  1

  9
$DIMBLK2
  1

  9
$DIMSTYLE
  2
Standard
  9
$DIMCLRD
 70
     0
  9
$DIMCLRE
 70
     0
  9
$DIMCLRT
 70
     0
  9
$DIMTFAC
 40
1.0
  9
$DIMGAP
 40
0.09
  9
$DIMJUST
 70
     0
  9
$DIMSD1
 70
     0
  9
$DIMSD2
 70
     0
  9
$DIMTOLJ
 70
     1
  9
$DIMTZIN
 70
     0
  9
$DIMALTZ
 70
     0
  9
$DIMALTTZ
 70
     0
  9
$DIMUPT
 70
     0
  9
$DIMDEC
 70
     4
  9
$DIMTDEC
 70
     4
  9
$DIMALTU
 70
     2
  9
$DIMALTTD
 70
     2
  9
$DIMTXSTY
  7
Standard
  9
$DIMAUNIT
 70
     0
  9
$DIMADEC
 70
     0
  9
$DIMALTRND
 40
0.0
  9
$DIMAZIN
 70
     0
  9
$DIMDSEP
 70
    46
  9
$DIMATFIT
 70
     3
  9
$DIMFRAC
 70
     0
  9
$DIMLDRBLK
  1

  9
$DIMLUNIT
 70
     2
  9
$DIMLWD
 70
    -2
  9
$DIMLWE
 70
    -2
  9
$DIMTMOVE
 70
     0
  9
$DIMFXL
 40
1.0
  9
$DIMFXLON
 70
     0
  9
$DIMJOGANG
 40
0.7853981633974483
  9
$DIMTFILL
 70
     0
  9
$DIMTFILLCLR
 70
     0
  9
$DIMARCSYM
 70
     0
  9
$DIMLTYPE
  6

  9
$DIMLTEX1
  6

  9
$DIMLTEX2
  6

  9
$DIMTXTDIRECTION
 70
     0
  9
$LUNITS
 70
     2
  9
$LUPREC
 70
     4
  9
$SKETCHINC
 40
0.1
  9
$FILLETRAD
 40
0.5
  9
$AUNITS
 70
     0
  9
$AUPREC
 70
     0
  9
$MENU
  1
.
  9
$ELEVATION
 40
0.0
  9
$PELEVATION
 40
0.0
  9
$THICKNESS
 40
0.0
  9
$LIMCHECK
 70
     0
  9
$CHAMFERA
 40
0.5
  9
$CHAMFERB
 40
0.5
  9
$CHAMFERC
 40
1.0
  9
$CHAMFERD
 40
0.0
  9
$SKPOLY
 70
     0
  9
$TDCREATE
 40
2457917.620312489
  9
$TDUCREATE
 40
2457917.2453125
  9
$TDUPDATE
 40
2457917.620312489
  9
$TDUUPDATE
 40
2457917.2453125
  9
$TDINDWG
 40
0.0000000116
  9
$TDUSRTIMER
 40
0.0000000116
  9
$USRTIMER
 70
     1
  9
$ANGBASE
 50
0.0
  9
$ANGDIR
 70
     0
  9
$PDMODE
 70
     0
  9
$PDSIZE
 40
0.0
  9
$PLINEWID
 40
0.0
  9
$SPLFRAME
 70
     0
  9
$SPLINETYPE
 70
     6
  9
$SPLINESEGS
 70
     8
  9
$HANDSEED
  5
D6
  9
$SURFTAB1
 70
     6
  9
$SURFTAB2
 70
     6
  9
$SURFTYPE
 70
     6
  9
$SURFU
 70
     6
  9
$SURFV
 70
     6
  9
$UCSBASE
  2

  9
$UCSNAME
  2

  9
$UCSORG
 10
0.0
 20
0.0
 30
0.0
  9
$UCSXDIR
 10
1.0
 20
0.0
 30
0.0
  9
$UCSYDIR
 10
0.0
 20
1.0
 30
0.0
  9
$UCSORTHOREF
  2

  9
$UCSORTHOVIEW
 70
     0
  9
$UCSORGTOP
 10
0.0
 20
0.0
 30
0.0
  9
$UCSORGBOTTOM
 10
0.0
 20
0.0
 30
0.0
  9
$UCSORGLEFT
 10
0.0
 20
0.0
 30
0.0
  9
$UCSORGRIGHT
 10
0.0
 20
0.0
 30
0.0
  9
$UCSORGFRONT
 10
0.0
 20
0.0
 30
0.0
  9
$UCSORGBACK
 10
0.0
 20
0.0
 30
0.0
  9
$PUCSBASE
  2

  9
$PUCSNAME
  2

  9
$PUCSORG
 10
0.0
 20
0.0
 30
0.0
  9
$PUCSXDIR
 10
1.0
 20
0.0
 30
0.0
  9
$PUCSYDIR
 10
0.0
 20
1.0
 30
0.0
  9
$PUCSORTHOREF
  2

  9
$PUCSORTHOVIEW
 70
     0
  9
$PUCSORGTOP
 10
0.0
 20
0.0
 30
0.0
  9
$PUCSORGBOTTOM
 10
0.0
 20
0.0
 30
0.0
  9
$PUCSORGLEFT
 10
0.0
 20
0.0
 30
0.0
  9
$PUCSORGRIGHT
 10
0.0
 20
0.0
 30
0.0
  9
$PUCSORGFRONT
 10
0.0
 20
0.0
 30
0.0
  9
$PUCSORGBACK
 10
0.0
 20
0.0
 30
0.0
  9
$USERI1
 70
     0
  9
$USERI2
 70
     0
  9
$USERI3
 70
     0
  9
$USERI4
 70
     0
  9
$USERI5
 70
     0
  9
$USERR1
 40
0.0
  9
$USERR2
 40
0.0
  9
$USERR3
 40
0.0
  9
$USERR4
 40
0.0
  9
$USERR5
 40
0.0
  9
$WORLDVIEW
 70
     1
  9
$SHADEDGE
 70
     3
  9
$SHADEDIF
 70
    70
  9
$TILEMODE
 70
     1
  9
$MAXACTVP
 70
    64
  9
$PINSBASE
 10
0.0
 20
0.0
 30
0.0
  9
$PLIMCHECK
 70
     0
  9
$PEXTMIN
 10
1.000000000000000E+20
 20
1.000000000000000E+20
 30
1.000000000000000E+20
  9
$PEXTMAX
 10
-1.000000000000000E+20
 20
-1.000000000000000E+20
 30
-1.000000000000000E+20
  9
$PLIMMIN
 10
0.0
 20
0.0
  9
$PLIMMAX
 10
12.0
 20
9.0
  9
$UNITMODE
 70
     0
  9
$VISRETAIN
 70
     1
  9
$PLINEGEN
 70
     0
  9
$PSLTSCALE
 70
     1
  9
$TREEDEPTH
 70
  3020
  9
$CMLSTYLE
  2
Standard
  9
$CMLJUST
 70
     0
  9
$CMLSCALE
 40
1.0
  9
$PROXYGRAPHICS
 70
     1
  9
$MEASUREMENT
 70
     0
  9
$CELWEIGHT
370
    -1
  9
$ENDCAPS
280
     0
  9
$JOINSTYLE
280
     0
  9
$LWDISPLAY
290
     1
  9
$INSUNITS
 70
     1
  9
$HYPERLINKBASE
  1

  9
$STYLESHEET
  1

  9
$XEDIT
290
     1
  9
$CEPSNTYPE
380
     0
  9
$PSTYLEMODE
290
     1
  9
$FINGERPRINTGUID
  2
{66725CDB-2EC0-C1DA-A536-8CFE71C9C457}
  9
$VERSIONGUID
  2
{FAEB1C32-E019-11D5-929B-00C0DF256EC4}
  9
$EXTNAMES
290
     1
  9
$PSVPSCALE
 40
0.0
  9
$OLESTARTUP
290
     0
  9
$SORTENTS
280
   127
  9
$INDEXCTL
280
     0
  9
$HIDETEXT
280
     1
  9
$XCLIPFRAME
280
     2
  9
$HALOGAP
280
     0
  9
$OBSCOLOR
 70
   257
  9
$OBSLTYPE
280
     0
  9
$INTERSECTIONDISPLAY
280
     0
  9
$INTERSECTIONCOLOR
 70
   257
  9
$DIMASSOC
280
     2
  9
$PROJECTNAME
  1

  9
$CAMERADISPLAY
290
     0
  9
$LENSLENGTH
 40
50.0
  9
$CAMERAHEIGHT
 40
0.0
  9
$STEPSPERSEC
 40
2.0
  9
$STEPSIZE
 40
6.0
  9
$3DDWFPREC
 40
2.0
  9
$PSOLWIDTH
 40
0.25
  9
$PSOLHEIGHT
 40
4.0
  9
$LOFTANG1
 40
1.570796326794897
  9
$LOFTANG2
 40
1.570796326794897
  9
$LOFTMAG1
 40
0.0
  9
$LOFTMAG2
 40
0.0
  9
$LOFTPARAM
 70
     7
  9
$LOFTNORMALS
280
     1
  9
$LATITUDE
 40
37.795
  9
$LONGITUDE
 40
-122.394
  9
$NORTHDIRECTION
 40
0.0
  9
$TIMEZONE
 70
 -8000
  9
$LIGHTGLYPHDISPLAY
280
     1
  9
$TILEMODELIGHTSYNCH
280
     1
  9
$CMATERIAL
347
3C
  9
$SOLIDHIST
280
     1
  9
$SHOWHIST
280
     1
  9
$DWFFRAME
280
     2
  9
$DGNFRAME
280
     2
  9
$REALWORLDSCALE
290
     1
  9
$INTERFERECOLOR
 62
   256
  9
$CSHADOW
280
     0
  9
$SHADOWPLANELOCATION
 40
0.0
  0
ENDSEC
  0
SECTION
  2
CLASSES
  0
CLASS
  1
ACDBDICTIONARYWDFLT
  2
AcDbDictionaryWithDefault
  3
ObjectDBX Classes
 90
        0
 91
        4
280
     0
281
     0
  0
CLASS
  1
VISUALSTYLE
  2
AcDbVisualStyle
  3
ObjectDBX Classes
 90
     4095
 91
        4
280
     0
281
     0
  0
CLASS
  1
MATERIAL
  2
AcDbMaterial
  3
ObjectDBX Classes
 90
     1153
 91
        4
280
     0
281
     0
  0
CLASS
  1
SUN
  2
AcDbSun
  3
SCENEOE
 90
     1024
 91
        4
280
     0
281
     0
  0
ENDSEC
  0
SECTION
  2
TABLES
  0
TABLE
  2
VPORT
  5
8
330
0
100
AcDbSymbolTable
 70
     1
  0
VPORT
  5
29
330
8
100
AcDbSymbolTableRecord
100
AcDbViewportTableRecord
  2
*Active
 70
     0
 10
0.0
 20
0.0
 11
1.0
 21
1.0
 12
0.0
 22
0.0
 13
0.0
 23
0.0
 14
0.5
 24
0.5
 15
0.5
 25
0.5
 16
0.0
 26
0.0
 36
1.0
 17
91.00082462281999
 27
-128.4993055234307
 37
0.0
 40
256.9986110468615
 41
0.7081814508812795
 42
50.0
 43
0.0
 44
0.0
 50
0.0
 51
0.0
 71
     0
 72
   100
 73
     1
 74
     3
 75
     0
 76
     0
 77
     0
 78
     0
281
     0
 65
     1
110
0.0
120
0.0
130
0.0
111
1.0
121
0.0
131
0.0
112
0.0
122
1.0
132
0.0
 79
     0
146
0.0
 60
     3
 61
     5
292
     1
282
     1
141
0.0
142
0.0
 63
   250
361
3F
  0
ENDTAB
  0
TABLE
  2
LTYPE
  5
5
330
0
100
AcDbSymbolTable
 70
     1
  0
LTYPE
  5
14
330
5
100
AcDbSymbolTableRecord
100
AcDbLinetypeTableRecord
  2
ByBlock
 70
     0
  3

 72
    65
 73
     0
 40
0.0
  0
LTYPE
  5
15
330
5
100
AcDbSymbolTableRecord
100
AcDbLinetypeTableRecord
  2
ByLayer
 70
     0
  3

 72
    65
 73
     0
 40
0.0
  0
LTYPE
  5
16
330
5
100
AcDbSymbolTableRecord
100
AcDbLinetypeTableRecord
  2
Continuous
 70
     0
  3
Solid line
 72
    65
 73
     0
 40
0.0
  0
ENDTAB
  0
TABLE
  2
LAYER
  5
2
330
0
100
AcDbSymbolTable
 70
     2
  0
LAYER
  5
10
330
2
100
AcDbSymbolTableRecord
100
AcDbLayerTableRecord
  2
0
 70
     0
 62
     7
  6
Continuous
370
    -3
390
F
347
3E
  0
LAYER
  5
40
330
2
100
AcDbSymbolTableRecord
100
AcDbLayerTableRecord
  2
_U+30EC_U+30A4_U+30E4_U+30FC 1
 70
     0
 62
     7
  6
Continuous
370
    -3
390
F
347
3E
  0
ENDTAB
  0
TABLE
  2
STYLE
  5
3
330
0
100
AcDbSymbolTable
 70
     1
  0
STYLE
  5
11
330
3
100
AcDbSymbolTableRecord
100
AcDbTextStyleTableRecord
  2
Standard
 70
     0
 40
0.0
 41
1.0
 50
0.0
 71
     0
 42
0.2
  3
txt
  4

  0
ENDTAB
  0
TABLE
  2
VIEW
  5
6
330
0
100
AcDbSymbolTable
 70
     0
  0
ENDTAB
  0
TABLE
  2
UCS
  5
7
330
0
100
AcDbSymbolTable
 70
     0
  0
ENDTAB
  0
TABLE
  2
APPID
  5
9
330
0
100
AcDbSymbolTable
 70
     1
  0
APPID
  5
12
330
9
100
AcDbSymbolTableRecord
100
AcDbRegAppTableRecord
  2
ACAD
 70
     0
  0
ENDTAB
  0
TABLE
  2
DIMSTYLE
  5
A
330
0
100
AcDbSymbolTable
 70
     1
100
AcDbDimStyleTable
  0
DIMSTYLE
105
27
330
A
100
AcDbSymbolTableRecord
100
AcDbDimStyleTableRecord
  2
Standard
 70
     0
178
     0
340
11
  0
ENDTAB
  0
TABLE
  2
BLOCK_RECORD
  5
1
330
0
100
AcDbSymbolTable
 70
     6
  0
BLOCK_RECORD
  5
1F
330
1
100
AcDbSymbolTableRecord
100
AcDbBlockTableRecord
  2
*Model_Space
340
22
 70
     0
280
     1
281
     0
  0
BLOCK_RECORD
  5
1B
330
1
100
AcDbSymbolTableRecord
100
AcDbBlockTableRecord
  2
*Paper_Space
340
1E
 70
     0
280
     1
281
     0
  0
BLOCK_RECORD
  5
23
330
1
100
AcDbSymbolTableRecord
100
AcDbBlockTableRecord
  2
*Paper_Space0
340
26
 70
     0
280
     1
281
     0
  0
BLOCK_RECORD
  5
7D
330
1
100
AcDbSymbolTableRecord
100
AcDbBlockTableRecord
  2
block 2
340
0
102
{BLKREFS
331
7E
102
}
 70
     0
280
     1
281
     0
  0
BLOCK_RECORD
  5
91
330
1
100
AcDbSymbolTableRecord
100
AcDbBlockTableRecord
  2
block 3
340
0
102
{BLKREFS
331
92
102
}
 70
     0
280
     1
281
     0
  0
BLOCK_RECORD
  5
A7
330
1
100
AcDbSymbolTableRecord
100
AcDbBlockTableRecord
  2
block 4
340
0
102
{BLKREFS
331
A8
102
}
 70
     0
280
     1
281
     0
  0
BLOCK_RECORD
  5
C2
330
1
100
AcDbSymbolTableRecord
100
AcDbBlockTableRecord
  2
block 5
340
0
102
{BLKREFS
331
C3
102
}
 70
     0
280
     1
281
     0
  0
BLOCK_RECORD
  5
CA
330
1
100
AcDbSymbolTableRecord
100
AcDbBlockTableRecord
  2
block 6
340
0
102
{BLKREFS
331
CB
102
}
 70
     0
280
     1
281
     0
  0
ENDTAB
  0
ENDSEC
  0
SECTION
  2
BLOCKS
  0
BLOCK
  5
20
330
1F
100
AcDbEntity
  8
0
100
AcDbBlockBegin
  2
*Model_Space
 70
     0
 10
0.0
 20
0.0
 30
0.0
  3
*Model_Space
  1

  0
ENDBLK
  5
21
330
1F
100
AcDbEntity
  8
0
100
AcDbBlockEnd
  0
BLOCK
  5
1C
330
1B
100
AcDbEntity
 67
     1
  8
0
100
AcDbBlockBegin
  2
*Paper_Space
 70
     0
 10
0.0
 20
0.0
 30
0.0
  3
*Paper_Space
  1

  0
ENDBLK
  5
1D
330
1B
100
AcDbEntity
 67
     1
  8
0
100
AcDbBlockEnd
  0
BLOCK
  5
24
330
23
100
AcDbEntity
  8
0
100
AcDbBlockBegin
  2
*Paper_Space0
 70
     0
 10
0.0
 20
0.0
 30
0.0
  3
*Paper_Space0
  1

  0
ENDBLK
  5
25
330
23
100
AcDbEntity
  8
0
100
AcDbBlockEnd
  0
BLOCK
  5
7F
330
7D
100
AcDbEntity
  8
0
100
AcDbBlockBegin
  2
block 2
 70
     0
 10
0.0
 20
0.0
 30
0.0
  3
block 2
  1

  0
SPLINE
  5
81
330
7D
100
AcDbEntity
  8
_U+30EC_U+30A4_U+30E4_U+30FC 1
370
     0
100
AcDbSpline
210
0.0
220
0.0
230
1.0
 70
    11
 71
     3
 72
    29
 73
    25
 74
     0
 42
0.0000000001
 43
0.0000000001
 12
1.0
 22
0.0
 32
0.0
 13
1.0
 23
0.0
 33
0.0
 40
0.0
 40
0.0
 40
0.0
 40
0.0
 40
1.0
 40
1.0
 40
1.0
 40
2.0
 40
2.0
 40
2.0
 40
3.0
 40
3.0
 40
3.0
 40
4.0
 40
4.0
 40
4.0
 40
5.0
 40
5.0
 40
5.0
 40
6.0
 40
6.0
 40
6.0
 40
7.0
 40
7.0
 40
7.0
 40
8.0
 40
8.0
 40
8.0
 40
8.0
 10
84.57967798449745
 20
-116.0268540834065
 30
0.0
 10
84.29476858786728
 20
-116.0268540834065
 30
0.0
 10
84.02346731840386
 20
-115.8892225187708
 30
0.0
 10
84.02346731840386
 20
-115.5402343461149
 30
0.0
 10
84.02346731840386
 20
-115.2842637515609
 30
0.0
 10
84.17487926498059
 20
-115.1890068613937
 30
0.0
 10
84.28805065167104
 20
-115.1276841617563
 30
0.0
 10
84.15455320161762
 20
-115.06842851941
 30
0.0
 10
84.07324894816571
 20
-114.9542236040739
 30
0.0
 10
84.07324894816571
 20
-114.793509899687
 30
0.0
 10
84.07324894816571
 20
-114.5184190251898
 30
0.0
 10
84.28563908483137
 20
-114.3830267726195
 30
0.0
 10
84.57967798449745
 20
-114.3830267726195
 30
0.0
 10
84.88267413242517
 20
-114.3830267726195
 30
0.0
 10
85.08610702082917
 20
-114.5268595091287
 30
0.0
 10
85.08610702082917
 20
-114.793509899687
 30
0.0
 10
85.08610702082917
 20
-114.9542236040739
 30
0.0
 10
85.0023912005376
 20
-115.06842851941
 30
0.0
 10
84.86906600525843
 20
-115.1276841617563
 30
0.0
 10
84.96397838587707
 20
-115.1784993201637
 30
0.0
 10
85.13347708375136
 20
-115.2737562103309
 30
0.0
 10
85.13347708375136
 20
-115.5361002315326
 30
0.0
 10
85.13347708375136
 20
-115.910409856005
 30
0.0
 10
84.83513181472873
 20
-116.0268540834065
 30
0.0
 10
84.57967798449745
 20
-116.0268540834065
 30
0.0
  0
SPLINE
  5
82
330
7D
100
AcDbEntity
  8
_U+30EC_U+30A4_U+30E4_U+30FC 1
370
     0
100
AcDbSpline
210
0.0
220
0.0
230
1.0
 70
    11
 71
     3
 72
    17
 73
    13
 74
     0
 42
0.0000000001
 43
0.0000000001
 12
1.0
 22
0.0
 32
0.0
 13
1.0
 23
0.0
 33
0.0
 40
0.0
 40
0.0
 40
0.0
 40
0.0
 40
1.0
 40
1.0
 40
1.0
 40
2.0
 40
2.0
 40
2.0
 40
3.0
 40
3.0
 40
3.0
 40
4.0
 40
4.0
 40
4.0
 40
4.0
 10
84.57967798449745
 20
-115.2356879052189
 30
0.0
 10
84.42585447108104
 20
-115.2356879052189
 30
0.0
 10
84.26307370940299
 20
-115.3223320566729
 30
0.0
 10
84.26307370940299
 20
-115.5254204355284
 30
0.0
 10
84.26307370940299
 20
-115.730575871675
 30
0.0
 10
84.39881047152183
 20
-115.8322061884899
 30
0.0
 10
84.57967798449745
 20
-115.8322061884899
 30
0.0
 10
84.77863224877062
 20
-115.8322061884899
 30
0.0
 10
84.89611000481764
 20
-115.709560789215
 30
0.0
 10
84.89611000481764
 20
-115.5317938621761
 30
0.0
 10
84.89611000481764
 20
-115.3095852033775
 30
0.0
 10
84.72213268281253
 20
-115.2356879052189
 30
0.0
 10
84.57967798449745
 20
-115.2356879052189
 30
0.0
  0
SPLINE
  5
83
330
7D
100
AcDbEntity
  8
_U+30EC_U+30A4_U+30E4_U+30FC 1
370
     0
100
AcDbSpline
210
0.0
220
0.0
230
1.0
 70
    11
 71
     3
 72
    17
 73
    13
 74
     0
 42
0.0000000001
 43
0.0000000001
 12
1.0
 22
0.0
 32
0.0
 13
1.0
 23
0.0
 33
0.0
 40
0.0
 40
0.0
 40
0.0
 40
0.0
 40
1.0
 40
1.0
 40
1.0
 40
2.0
 40
2.0
 40
2.0
 40
3.0
 40
3.0
 40
3.0
 40
4.0
 40
4.0
 40
4.0
 40
4.0
 10
84.57967798449745
 20
-114.575607610245
 30
0.0
 10
84.40328909565265
 20
-114.575607610245
 30
0.0
 10
84.31285533916484
 20
-114.6706922456379
 30
0.0
 10
84.31285533916484
 20
-114.8060844982082
 30
0.0
 10
84.31285533916484
 20
-114.9289021522574
 30
0.0
 10
84.38968096848592
 20
-115.04741343695
 30
0.0
 10
84.57967798449745
 20
-115.04741343695
 30
0.0
 10
84.76950274573471
 20
-115.04741343695
 30
0.0
 10
84.84650062983005
 20
-114.9289021522574
 30
0.0
 10
84.84650062983005
 20
-114.8060844982082
 30
0.0
 10
84.84650062983005
 20
-114.6706922456379
 30
0.0
 10
84.75365530650257
 20
-114.575607610245
 30
0.0
 10
84.57967798449745
 20
-114.575607610245
 30
0.0
  0
HATCH
  5
84
330
7D
100
AcDbEntity
  8
_U+30EC_U+30A4_U+30E4_U+30FC 1
 62
   179
420
  2234388
100
AcDbHatch
 10
0.0
 20
0.0
 30
0.0
210
0.0
220
0.0
230
1.0
  2
SOLID
 70
     1
 71
     0
 91
        3
 92
        1
 93
        1
 72
     4
 94
        3
 73
     0
 74
     1
 95
       29
 96
       25
 40
0.0
 40
0.0
 40
0.0
 40
0.0
 40
1.0
 40
1.0
 40
1.0
 40
2.0
 40
2.0
 40
2.0
 40
3.0
 40
3.0
 40
3.0
 40
4.0
 40
4.0
 40
4.0
 40
5.0
 40
5.0
 40
5.0
 40
6.0
 40
6.0
 40
6.0
 40
7.0
 40
7.0
 40
7.0
 40
8.0
 40
8.0
 40
8.0
 40
8.0
 10
84.57967798449745
 20
-116.0268540834065
 10
84.29476858786728
 20
-116.0268540834065
 10
84.02346731840386
 20
-115.8892225187708
 10
84.02346731840386
 20
-115.5402343461149
 10
84.02346731840386
 20
-115.2842637515609
 10
84.17487926498059
 20
-115.1890068613937
 10
84.28805065167104
 20
-115.1276841617563
 10
84.15455320161762
 20
-115.06842851941
 10
84.07324894816571
 20
-114.9542236040739
 10
84.07324894816571
 20
-114.793509899687
 10
84.07324894816571
 20
-114.5184190251898
 10
84.28563908483137
 20
-114.3830267726195
 10
84.57967798449745
 20
-114.3830267726195
 10
84.88267413242517
 20
-114.3830267726195
 10
85.08610702082917
 20
-114.5268595091287
 10
85.08610702082917
 20
-114.793509899687
 10
85.08610702082917
 20
-114.9542236040739
 10
85.0023912005376
 20
-115.06842851941
 10
84.86906600525843
 20
-115.1276841617563
 10
84.96397838587707
 20
-115.1784993201637
 10
85.13347708375136
 20
-115.2737562103309
 10
85.13347708375136
 20
-115.5361002315326
 10
85.13347708375136
 20
-115.910409856005
 10
84.83513181472873
 20
-116.0268540834065
 10
84.57967798449745
 20
-116.0268540834065
 97
        0
 97
        0
 92
        1
 93
        1
 72
     4
 94
        3
 73
     0
 74
     1
 95
       17
 96
       13
 40
0.0
 40
0.0
 40
0.0
 40
0.0
 40
1.0
 40
1.0
 40
1.0
 40
2.0
 40
2.0
 40
2.0
 40
3.0
 40
3.0
 40
3.0
 40
4.0
 40
4.0
 40
4.0
 40
4.0
 10
84.57967798449745
 20
-115.2356879052189
 10
84.42585447108104
 20
-115.2356879052189
 10
84.26307370940299
 20
-115.3223320566729
 10
84.26307370940299
 20
-115.5254204355284
 10
84.26307370940299
 20
-115.730575871675
 10
84.39881047152183
 20
-115.8322061884899
 10
84.57967798449745
 20
-115.8322061884899
 10
84.77863224877062
 20
-115.8322061884899
 10
84.89611000481764
 20
-115.709560789215
 10
84.89611000481764
 20
-115.5317938621761
 10
84.89611000481764
 20
-115.3095852033775
 10
84.72213268281253
 20
-115.2356879052189
 10
84.57967798449745
 20
-115.2356879052189
 97
        0
 97
        0
 92
        1
 93
        1
 72
     4
 94
        3
 73
     0
 74
     1
 95
       17
 96
       13
 40
0.0
 40
0.0
 40
0.0
 40
0.0
 40
1.0
 40
1.0
 40
1.0
 40
2.0
 40
2.0
 40
2.0
 40
3.0
 40
3.0
 40
3.0
 40
4.0
 40
4.0
 40
4.0
 40
4.0
 10
84.57967798449745
 20
-114.575607610245
 10
84.40328909565265
 20
-114.575607610245
 10
84.31285533916484
 20
-114.6706922456379
 10
84.31285533916484
 20
-114.8060844982082
 10
84.31285533916484
 20
-114.9289021522574
 10
84.38968096848592
 20
-115.04741343695
 10
84.57967798449745
 20
-115.04741343695
 10
84.76950274573471
 20
-115.04741343695
 10
84.84650062983005
 20
-114.9289021522574
 10
84.84650062983005
 20
-114.8060844982082
 10
84.84650062983005
 20
-114.6706922456379
 10
84.75365530650257
 20
-114.575607610245
 10
84.57967798449745
 20
-114.575607610245
 97
        0
 97
        0
 75
     2
 76
     1
 98
        0
  0
ENDBLK
  5
80
330
7D
100
AcDbEntity
  8
0
100
AcDbBlockEnd
  0
BLOCK
  5
93
330
91
100
AcDbEntity
  8
0
100
AcDbBlockBegin
  2
block 3
 70
     0
 10
0.0
 20
0.0
 30
0.0
  3
block 3
  1

  0
SPLINE
  5
95
330
91
100
AcDbEntity
  8
_U+30EC_U+30A4_U+30E4_U+30FC 1
370
     0
100
AcDbSpline
210
0.0
220
0.0
230
1.0
 70
    11
 71
     3
 72
    26
 73
    22
 74
     0
 42
0.0000000001
 43
0.0000000001
 12
1.0
 22
0.0
 32
0.0
 13
1.0
 23
0.0
 33
0.0
 40
0.0
 40
0.0
 40
0.0
 40
0.0
 40
1.0
 40
1.0
 40
1.0
 40
2.0
 40
2.0
 40
2.0
 40
3.0
 40
3.0
 40
3.0
 40
4.0
 40
4.0
 40
4.0
 40
5.0
 40
5.0
 40
5.0
 40
6.0
 40
6.0
 40
6.0
 40
7.0
 40
7.0
 40
7.0
 40
7.0
 10
88.86089814401741
 20
-141.5172878335443
 30
0.0
 10
88.86089814401741
 20
-141.5172878335443
 30
0.0
 10
88.86089814401741
 20
-140.4131347305217
 30
0.0
 10
88.86089814401741
 20
-140.4131347305217
 30
0.0
 10
88.86089814401741
 20
-140.4131347305217
 30
0.0
 10
88.50846487587636
 20
-140.4131347305217
 30
0.0
 10
88.50846487587636
 20
-140.4131347305217
 30
0.0
 10
88.50846487587636
 20
-140.4131347305217
 30
0.0
 10
88.50846487587636
 20
-140.264995624656
 30
0.0
 10
88.50846487587636
 20
-140.264995624656
 30
0.0
 10
88.8633097108571
 20
-140.2501817140694
 30
0.0
 10
88.91291908584469
 20
-140.0872286976171
 30
0.0
 10
88.94461396430899
 20
-139.9728515275068
 30
0.0
 10
88.94461396430899
 20
-139.9728515275068
 30
0.0
 10
89.10067678979081
 20
-139.9728515275068
 30
0.0
 10
89.10067678979081
 20
-139.9728515275068
 30
0.0
 10
89.10067678979081
 20
-139.9728515275068
 30
0.0
 10
89.10067678979081
 20
-141.5172878335443
 30
0.0
 10
89.10067678979081
 20
-141.5172878335443
 30
0.0
 10
89.10067678979081
 20
-141.5172878335443
 30
0.0
 10
88.86089814401741
 20
-141.5172878335443
 30
0.0
 10
88.86089814401741
 20
-141.5172878335443
 30
0.0
  0
HATCH
  5
96
330
91
100
AcDbEntity
  8
_U+30EC_U+30A4_U+30E4_U+30FC 1
 62
   179
420
  2234388
100
AcDbHatch
 10
0.0
 20
0.0
 30
0.0
210
0.0
220
0.0
230
1.0
  2
SOLID
 70
     1
 71
     0
 91
        1
 92
        1
 93
        1
 72
     4
 94
        3
 73
     0
 74
     1
 95
       26
 96
       22
 40
0.0
 40
0.0
 40
0.0
 40
0.0
 40
1.0
 40
1.0
 40
1.0
 40
2.0
 40
2.0
 40
2.0
 40
3.0
 40
3.0
 40
3.0
 40
4.0
 40
4.0
 40
4.0
 40
5.0
 40
5.0
 40
5.0
 40
6.0
 40
6.0
 40
6.0
 40
7.0
 40
7.0
 40
7.0
 40
7.0
 10
88.86089814401741
 20
-141.5172878335443
 10
88.86089814401741
 20
-141.5172878335443
 10
88.86089814401741
 20
-140.4131347305217
 10
88.86089814401741
 20
-140.4131347305217
 10
88.86089814401741
 20
-140.4131347305217
 10
88.50846487587636
 20
-140.4131347305217
 10
88.50846487587636
 20
-140.4131347305217
 10
88.50846487587636
 20
-140.4131347305217
 10
88.50846487587636
 20
-140.264995624656
 10
88.50846487587636
 20
-140.264995624656
 10
88.8633097108571
 20
-140.2501817140694
 10
88.91291908584469
 20
-140.0872286976171
 10
88.94461396430899
 20
-139.9728515275068
 10
88.94461396430899
 20
-139.9728515275068
 10
89.10067678979081
 20
-139.9728515275068
 10
89.10067678979081
 20
-139.9728515275068
 10
89.10067678979081
 20
-139.9728515275068
 10
89.10067678979081
 20
-141.5172878335443
 10
89.10067678979081
 20
-141.5172878335443
 10
89.10067678979081
 20
-141.5172878335443
 10
88.86089814401741
 20
-141.5172878335443
 10
88.86089814401741
 20
-141.5172878335443
 97
        0
 97
        0
 75
     2
 76
     1
 98
        0
  0
SPLINE
  5
97
330
91
100
AcDbEntity
  8
_U+30EC_U+30A4_U+30E4_U+30FC 1
370
     0
100
AcDbSpline
210
0.0
220
0.0
230
1.0
 70
    11
 71
     3
 72
    29
 73
    25
 74
     0
 42
0.0000000001
 43
0.0000000001
 12
1.0
 22
0.0
 32
0.0
 13
1.0
 23
0.0
 33
0.0
 40
0.0
 40
0.0
 40
0.0
 40
0.0
 40
1.0
 40
1.0
 40
1.0
 40
2.0
 40
2.0
 40
2.0
 40
3.0
 40
3.0
 40
3.0
 40
4.0
 40
4.0
 40
4.0
 40
5.0
 40
5.0
 40
5.0
 40
6.0
 40
6.0
 40
6.0
 40
7.0
 40
7.0
 40
7.0
 40
8.0
 40
8.0
 40
8.0
 40
8.0
 10
90.1707234475094
 20
-141.5679307371775
 30
0.0
 10
89.88581405087925
 20
-141.5679307371775
 30
0.0
 10
89.61468503619008
 20
-141.430471427316
 30
0.0
 10
89.61468503619008
 20
-141.0814832546602
 30
0.0
 10
89.61468503619008
 20
-140.8255126601061
 30
0.0
 10
89.76626923754108
 20
-140.7304280247132
 30
0.0
 10
89.87926836945726
 20
-140.6691053250758
 30
0.0
 10
89.7459431741781
 20
-140.6098496827295
 30
0.0
 10
89.66429441117768
 20
-140.4954725126192
 30
0.0
 10
89.66429441117768
 20
-140.334586553458
 30
0.0
 10
89.66429441117768
 20
-140.0596679337351
 30
0.0
 10
89.8768568026176
 20
-139.9242756811648
 30
0.0
 10
90.1707234475094
 20
-139.9242756811648
 30
0.0
 10
90.47389185021139
 20
-139.9242756811648
 30
0.0
 10
90.67715248384113
 20
-140.0682806724482
 30
0.0
 10
90.67715248384113
 20
-140.334586553458
 30
0.0
 10
90.67715248384113
 20
-140.4954725126192
 30
0.0
 10
90.59378117309808
 20
-140.6098496827295
 30
0.0
 10
90.4601114682704
 20
-140.6691053250758
 30
0.0
 10
90.55519610366329
 20
-140.719748228709
 30
0.0
 10
90.72469480153758
 20
-140.8148328641018
 30
0.0
 10
90.72469480153758
 20
-141.0773491400779
 30
0.0
 10
90.72469480153758
 20
-141.4518310193245
 30
0.0
 10
90.42634953251495
 20
-141.5679307371775
 30
0.0
 10
90.1707234475094
 20
-141.5679307371775
 30
0.0
  0
SPLINE
  5
98
330
91
100
AcDbEntity
  8
_U+30EC_U+30A4_U+30E4_U+30FC 1
370
     0
100
AcDbSpline
210
0.0
220
0.0
230
1.0
 70
    11
 71
     3
 72
    17
 73
    13
 74
     0
 42
0.0000000001
 43
0.0000000001
 12
1.0
 22
0.0
 32
0.0
 13
1.0
 23
0.0
 33
0.0
 40
0.0
 40
0.0
 40
0.0
 40
0.0
 40
1.0
 40
1.0
 40
1.0
 40
2.0
 40
2.0
 40
2.0
 40
3.0
 40
3.0
 40
3.0
 40
4.0
 40
4.0
 40
4.0
 40
4.0
 10
90.1707234475094
 20
-140.7769368137641
 30
0.0
 10
90.01707218886726
 20
-140.7769368137641
 30
0.0
 10
89.85446368196347
 20
-140.8637532199924
 30
0.0
 10
89.85446368196347
 20
-141.0666693440736
 30
0.0
 10
89.85446368196347
 20
-141.2719970349945
 30
0.0
 10
89.9898559345338
 20
-141.3732828422609
 30
0.0
 10
90.1707234475094
 20
-141.3732828422609
 30
0.0
 10
90.36984996655684
 20
-141.3732828422609
 30
0.0
 10
90.48732772260387
 20
-141.2506374429859
 30
0.0
 10
90.48732772260387
 20
-141.0728705159471
 30
0.0
 10
90.48732772260387
 20
-140.851006366697
 30
0.0
 10
90.31335040059875
 20
-140.7769368137641
 30
0.0
 10
90.1707234475094
 20
-140.7769368137641
 30
0.0
  0
SPLINE
  5
99
330
91
100
AcDbEntity
  8
_U+30EC_U+30A4_U+30E4_U+30FC 1
370
     0
100
AcDbSpline
210
0.0
220
0.0
230
1.0
 70
    11
 71
     3
 72
    17
 73
    13
 74
     0
 42
0.0000000001
 43
0.0000000001
 12
1.0
 22
0.0
 32
0.0
 13
1.0
 23
0.0
 33
0.0
 40
0.0
 40
0.0
 40
0.0
 40
0.0
 40
1.0
 40
1.0
 40
1.0
 40
2.0
 40
2.0
 40
2.0
 40
3.0
 40
3.0
 40
3.0
 40
4.0
 40
4.0
 40
4.0
 40
4.0
 10
90.1707234475094
 20
-140.1168565187902
 30
0.0
 10
89.99467906821315
 20
-140.1168565187902
 30
0.0
 10
89.90407305695106
 20
-140.2119411541831
 30
0.0
 10
89.90407305695106
 20
-140.3473334067534
 30
0.0
 10
89.90407305695106
 20
-140.4699788060283
 30
0.0
 10
89.98089868627214
 20
-140.5884900907209
 30
0.0
 10
90.1707234475094
 20
-140.5884900907209
 30
0.0
 10
90.3608927182952
 20
-140.5884900907209
 30
0.0
 10
90.43771834761627
 20
-140.4699788060283
 30
0.0
 10
90.43771834761627
 20
-140.3473334067534
 30
0.0
 10
90.43771834761627
 20
-140.2119411541831
 30
0.0
 10
90.34504527906304
 20
-140.1168565187902
 30
0.0
 10
90.1707234475094
 20
-140.1168565187902
 30
0.0
  0
HATCH
  5
9A
330
91
100
AcDbEntity
  8
_U+30EC_U+30A4_U+30E4_U+30FC 1
 62
   179
420
  2234388
100
AcDbHatch
 10
0.0
 20
0.0
 30
0.0
210
0.0
220
0.0
230
1.0
  2
SOLID
 70
     1
 71
     0
 91
        3
 92
        1
 93
        1
 72
     4
 94
        3
 73
     0
 74
     1
 95
       29
 96
       25
 40
0.0
 40
0.0
 40
0.0
 40
0.0
 40
1.0
 40
1.0
 40
1.0
 40
2.0
 40
2.0
 40
2.0
 40
3.0
 40
3.0
 40
3.0
 40
4.0
 40
4.0
 40
4.0
 40
5.0
 40
5.0
 40
5.0
 40
6.0
 40
6.0
 40
6.0
 40
7.0
 40
7.0
 40
7.0
 40
8.0
 40
8.0
 40
8.0
 40
8.0
 10
90.1707234475094
 20
-141.5679307371775
 10
89.88581405087925
 20
-141.5679307371775
 10
89.61468503619008
 20
-141.430471427316
 10
89.61468503619008
 20
-141.0814832546602
 10
89.61468503619008
 20
-140.8255126601061
 10
89.76626923754108
 20
-140.7304280247132
 10
89.87926836945726
 20
-140.6691053250758
 10
89.7459431741781
 20
-140.6098496827295
 10
89.66429441117768
 20
-140.4954725126192
 10
89.66429441117768
 20
-140.334586553458
 10
89.66429441117768
 20
-140.0596679337351
 10
89.8768568026176
 20
-139.9242756811648
 10
90.1707234475094
 20
-139.9242756811648
 10
90.47389185021139
 20
-139.9242756811648
 10
90.67715248384113
 20
-140.0682806724482
 10
90.67715248384113
 20
-140.334586553458
 10
90.67715248384113
 20
-140.4954725126192
 10
90.59378117309808
 20
-140.6098496827295
 10
90.4601114682704
 20
-140.6691053250758
 10
90.55519610366329
 20
-140.719748228709
 10
90.72469480153758
 20
-140.8148328641018
 10
90.72469480153758
 20
-141.0773491400779
 10
90.72469480153758
 20
-141.4518310193245
 10
90.42634953251495
 20
-141.5679307371775
 10
90.1707234475094
 20
-141.5679307371775
 97
        0
 97
        0
 92
        1
 93
        1
 72
     4
 94
        3
 73
     0
 74
     1
 95
       17
 96
       13
 40
0.0
 40
0.0
 40
0.0
 40
0.0
 40
1.0
 40
1.0
 40
1.0
 40
2.0
 40
2.0
 40
2.0
 40
3.0
 40
3.0
 40
3.0
 40
4.0
 40
4.0
 40
4.0
 40
4.0
 10
90.1707234475094
 20
-140.7769368137641
 10
90.01707218886726
 20
-140.7769368137641
 10
89.85446368196347
 20
-140.8637532199924
 10
89.85446368196347
 20
-141.0666693440736
 10
89.85446368196347
 20
-141.2719970349945
 10
89.9898559345338
 20
-141.3732828422609
 10
90.1707234475094
 20
-141.3732828422609
 10
90.36984996655684
 20
-141.3732828422609
 10
90.48732772260387
 20
-141.2506374429859
 10
90.48732772260387
 20
-141.0728705159471
 10
90.48732772260387
 20
-140.851006366697
 10
90.31335040059875
 20
-140.7769368137641
 10
90.1707234475094
 20
-140.7769368137641
 97
        0
 97
        0
 92
        1
 93
        1
 72
     4
 94
        3
 73
     0
 74
     1
 95
       17
 96
       13
 40
0.0
 40
0.0
 40
0.0
 40
0.0
 40
1.0
 40
1.0
 40
1.0
 40
2.0
 40
2.0
 40
2.0
 40
3.0
 40
3.0
 40
3.0
 40
4.0
 40
4.0
 40
4.0
 40
4.0
 10
90.1707234475094
 20
-140.1168565187902
 10
89.99467906821315
 20
-140.1168565187902
 10
89.90407305695106
 20
-140.2119411541831
 10
89.90407305695106
 20
-140.3473334067534
 10
89.90407305695106
 20
-140.4699788060283
 10
89.98089868627214
 20
-140.5884900907209
 10
90.1707234475094
 20
-140.5884900907209
 10
90.3608927182952
 20
-140.5884900907209
 10
90.43771834761627
 20
-140.4699788060283
 10
90.43771834761627
 20
-140.3473334067534
 10
90.43771834761627
 20
-140.2119411541831
 10
90.34504527906304
 20
-140.1168565187902
 10
90.1707234475094
 20
-140.1168565187902
 97
        0
 97
        0
 75
     2
 76
     1
 98
        0
  0
ENDBLK
  5
94
330
91
100
AcDbEntity
  8
0
100
AcDbBlockEnd
  0
BLOCK
  5
A9
330
A7
100
AcDbEntity
  8
0
100
AcDbBlockBegin
  2
block 4
 70
     0
 10
0.0
 20
0.0
 30
0.0
  3
block 4
  1

  0
SPLINE
  5
AB
330
A7
100
AcDbEntity
  8
_U+30EC_U+30A4_U+30E4_U+30FC 1
370
     0
100
AcDbSpline
210
0.0
220
0.0
230
1.0
 70
    11
 71
     3
 72
    26
 73
    22
 74
     0
 42
0.0000000001
 43
0.0000000001
 12
1.0
 22
0.0
 32
0.0
 13
1.0
 23
0.0
 33
0.0
 40
0.0
 40
0.0
 40
0.0
 40
0.0
 40
1.0
 40
1.0
 40
1.0
 40
2.0
 40
2.0
 40
2.0
 40
3.0
 40
3.0
 40
3.0
 40
4.0
 40
4.0
 40
4.0
 40
5.0
 40
5.0
 40
5.0
 40
6.0
 40
6.0
 40
6.0
 40
7.0
 40
7.0
 40
7.0
 40
7.0
 10
101.1128634729857
 20
-130.9666829099667
 30
0.0
 10
101.1128634729857
 20
-130.9666829099667
 30
0.0
 10
100.0087103699631
 20
-130.9666829099667
 30
0.0
 10
100.0087103699631
 20
-130.9666829099667
 30
0.0
 10
100.0087103699631
 20
-130.9666829099667
 30
0.0
 10
100.0087103699631
 20
-131.3191161781077
 30
0.0
 10
100.0087103699631
 20
-131.3191161781077
 30
0.0
 10
100.0087103699631
 20
-131.3191161781077
 30
0.0
 10
99.86057126409736
 20
-131.3191161781077
 30
0.0
 10
99.86057126409736
 20
-131.3191161781077
 30
0.0
 10
99.84575735351079
 20
-130.964271343127
 30
0.0
 10
99.68280433705847
 20
-130.9146619681394
 30
0.0
 10
99.56842716694817
 20
-130.8829670896751
 30
0.0
 10
99.56842716694817
 20
-130.8829670896751
 30
0.0
 10
99.56842716694817
 20
-130.7269042641933
 30
0.0
 10
99.56842716694817
 20
-130.7269042641933
 30
0.0
 10
99.56842716694817
 20
-130.7269042641933
 30
0.0
 10
101.1128634729857
 20
-130.7269042641933
 30
0.0
 10
101.1128634729857
 20
-130.7269042641933
 30
0.0
 10
101.1128634729857
 20
-130.7269042641933
 30
0.0
 10
101.1128634729857
 20
-130.9666829099667
 30
0.0
 10
101.1128634729857
 20
-130.9666829099667
 30
0.0
  0
HATCH
  5
AC
330
A7
100
AcDbEntity
  8
_U+30EC_U+30A4_U+30E4_U+30FC 1
 62
   179
420
  2234388
100
AcDbHatch
 10
0.0
 20
0.0
 30
0.0
210
0.0
220
0.0
230
1.0
  2
SOLID
 70
     1
 71
     0
 91
        1
 92
        1
 93
        1
 72
     4
 94
        3
 73
     0
 74
     1
 95
       26
 96
       22
 40
0.0
 40
0.0
 40
0.0
 40
0.0
 40
1.0
 40
1.0
 40
1.0
 40
2.0
 40
2.0
 40
2.0
 40
3.0
 40
3.0
 40
3.0
 40
4.0
 40
4.0
 40
4.0
 40
5.0
 40
5.0
 40
5.0
 40
6.0
 40
6.0
 40
6.0
 40
7.0
 40
7.0
 40
7.0
 40
7.0
 10
101.1128634729857
 20
-130.9666829099667
 10
101.1128634729857
 20
-130.9666829099667
 10
100.0087103699631
 20
-130.9666829099667
 10
100.0087103699631
 20
-130.9666829099667
 10
100.0087103699631
 20
-130.9666829099667
 10
100.0087103699631
 20
-131.3191161781077
 10
100.0087103699631
 20
-131.3191161781077
 10
100.0087103699631
 20
-131.3191161781077
 10
99.86057126409736
 20
-131.3191161781077
 10
99.86057126409736
 20
-131.3191161781077
 10
99.84575735351079
 20
-130.964271343127
 10
99.68280433705847
 20
-130.9146619681394
 10
99.56842716694817
 20
-130.8829670896751
 10
99.56842716694817
 20
-130.8829670896751
 10
99.56842716694817
 20
-130.7269042641933
 10
99.56842716694817
 20
-130.7269042641933
 10
99.56842716694817
 20
-130.7269042641933
 10
101.1128634729857
 20
-130.7269042641933
 10
101.1128634729857
 20
-130.7269042641933
 10
101.1128634729857
 20
-130.7269042641933
 10
101.1128634729857
 20
-130.9666829099667
 10
101.1128634729857
 20
-130.9666829099667
 97
        0
 97
        0
 75
     2
 76
     1
 98
        0
  0
SPLINE
  5
AD
330
A7
100
AcDbEntity
  8
_U+30EC_U+30A4_U+30E4_U+30FC 1
370
     0
100
AcDbSpline
210
0.0
220
0.0
230
1.0
 70
    11
 71
     3
 72
    53
 73
    49
 74
     0
 42
0.0000000001
 43
0.0000000001
 12
1.0
 22
0.0
 32
0.0
 13
1.0
 23
0.0
 33
0.0
 40
0.0
 40
0.0
 40
0.0
 40
0.0
 40
1.0
 40
1.0
 40
1.0
 40
2.0
 40
2.0
 40
2.0
 40
3.0
 40
3.0
 40
3.0
 40
4.0
 40
4.0
 40
4.0
 40
5.0
 40
5.0
 40
5.0
 40
6.0
 40
6.0
 40
6.0
 40
7.0
 40
7.0
 40
7.0
 40
8.0
 40
8.0
 40
8.0
 40
9.0
 40
9.0
 40
9.0
 40
10.0
 40
10.0
 40
10.0
 40
11.0
 40
11.0
 40
11.0
 40
12.0
 40
12.0
 40
12.0
 40
13.0
 40
13.0
 40
13.0
 40
14.0
 40
14.0
 40
14.0
 40
15.0
 40
15.0
 40
15.0
 40
16.0
 40
16.0
 40
16.0
 40
16.0
 10
101.1635063766189
 20
-129.6771836698377
 30
0.0
 10
101.1635063766189
 20
-129.7605549805807
 30
0.0
 10
101.1466254087411
 20
-129.8694199979146
 30
0.0
 10
101.0832356518125
 20
-129.9775959961515
 30
0.0
 10
100.9733371058331
 20
-130.1632866428064
 30
0.0
 10
100.842078967845
 20
-130.1856797634605
 30
0.0
 10
100.7342474791567
 20
-130.2060058268235
 30
0.0
 10
100.7342474791567
 20
-130.2060058268235
 30
0.0
 10
100.7342474791567
 20
-129.9686387478898
 30
0.0
 10
100.7342474791567
 20
-129.9686387478898
 30
0.0
 10
100.9330294886556
 20
-129.9100721246405
 30
0.0
 10
100.9626573098288
 20
-129.7743353625217
 30
0.0
 10
100.9626573098288
 20
-129.674772102998
 30
0.0
 10
100.9626573098288
 20
-129.5255994684867
 30
0.0
 10
100.8630940503051
 20
-129.3629909615829
 30
0.0
 10
100.6305501050507
 20
-129.3629909615829
 30
0.0
 10
100.3745795104966
 20
-129.3629909615829
 30
0.0
 10
100.3046440721461
 20
-129.5548827801113
 30
0.0
 10
100.3046440721461
 20
-129.6837293512596
 30
0.0
 10
100.3046440721461
 20
-129.7178357965636
 30
0.0
 10
100.3046440721461
 20
-129.8694199979146
 30
0.0
 10
100.4338351528429
 20
-129.964160123759
 30
0.0
 10
100.4338351528429
 20
-129.964160123759
 30
0.0
 10
100.4148871276741
 20
-130.1519178277051
 30
0.0
 10
100.4148871276741
 20
-130.1519178277051
 30
0.0
 10
100.4148871276741
 20
-130.1519178277051
 30
0.0
 10
99.56842716694817
 20
-130.0230712565567
 30
0.0
 10
99.56842716694817
 20
-130.0230712565567
 30
0.0
 10
99.56842716694817
 20
-130.0230712565567
 30
0.0
 10
99.56842716694817
 20
-129.1910806968689
 30
0.0
 10
99.56842716694817
 20
-129.1910806968689
 30
0.0
 10
99.56842716694817
 20
-129.1910806968689
 30
0.0
 10
99.7630750618648
 20
-129.1910806968689
 30
0.0
 10
99.7630750618648
 20
-129.1910806968689
 30
0.0
 10
99.7630750618648
 20
-129.1910806968689
 30
0.0
 10
99.7630750618648
 20
-129.8487494250031
 30
0.0
 10
99.7630750618648
 20
-129.8487494250031
 30
0.0
 10
99.7630750618648
 20
-129.8487494250031
 30
0.0
 10
100.1861327874535
 20
-129.9190293729022
 30
0.0
 10
100.1861327874535
 20
-129.9190293729022
 30
0.0
 10
100.152370851698
 20
-129.8535725586825
 30
0.0
 10
100.1120632345206
 20
-129.76537811426
 30
0.0
 10
100.1120632345206
 20
-129.6385986004028
 30
0.0
 10
100.1120632345206
 20
-129.3674695857137
 30
0.0
 10
100.2984429002726
 20
-129.1142550675478
 30
0.0
 10
100.6116020798818
 20
-129.1142550675478
 30
0.0
 10
100.9288953740733
 20
-129.1142550675478
 30
0.0
 10
101.1635063766189
 20
-129.3536892037727
 30
0.0
 10
101.1635063766189
 20
-129.6771836698377
 30
0.0
  0
HATCH
  5
AE
330
A7
100
AcDbEntity
  8
_U+30EC_U+30A4_U+30E4_U+30FC 1
 62
   179
420
  2234388
100
AcDbHatch
 10
0.0
 20
0.0
 30
0.0
210
0.0
220
0.0
230
1.0
  2
SOLID
 70
     1
 71
     0
 91
        1
 92
        1
 93
        1
 72
     4
 94
        3
 73
     0
 74
     1
 95
       53
 96
       49
 40
0.0
 40
0.0
 40
0.0
 40
0.0
 40
1.0
 40
1.0
 40
1.0
 40
2.0
 40
2.0
 40
2.0
 40
3.0
 40
3.0
 40
3.0
 40
4.0
 40
4.0
 40
4.0
 40
5.0
 40
5.0
 40
5.0
 40
6.0
 40
6.0
 40
6.0
 40
7.0
 40
7.0
 40
7.0
 40
8.0
 40
8.0
 40
8.0
 40
9.0
 40
9.0
 40
9.0
 40
10.0
 40
10.0
 40
10.0
 40
11.0
 40
11.0
 40
11.0
 40
12.0
 40
12.0
 40
12.0
 40
13.0
 40
13.0
 40
13.0
 40
14.0
 40
14.0
 40
14.0
 40
15.0
 40
15.0
 40
15.0
 40
16.0
 40
16.0
 40
16.0
 40
16.0
 10
101.1635063766189
 20
-129.6771836698377
 10
101.1635063766189
 20
-129.7605549805807
 10
101.1466254087411
 20
-129.8694199979146
 10
101.0832356518125
 20
-129.9775959961515
 10
100.9733371058331
 20
-130.1632866428064
 10
100.842078967845
 20
-130.1856797634605
 10
100.7342474791567
 20
-130.2060058268235
 10
100.7342474791567
 20
-130.2060058268235
 10
100.7342474791567
 20
-129.9686387478898
 10
100.7342474791567
 20
-129.9686387478898
 10
100.9330294886556
 20
-129.9100721246405
 10
100.9626573098288
 20
-129.7743353625217
 10
100.9626573098288
 20
-129.674772102998
 10
100.9626573098288
 20
-129.5255994684867
 10
100.8630940503051
 20
-129.3629909615829
 10
100.6305501050507
 20
-129.3629909615829
 10
100.3745795104966
 20
-129.3629909615829
 10
100.3046440721461
 20
-129.5548827801113
 10
100.3046440721461
 20
-129.6837293512596
 10
100.3046440721461
 20
-129.7178357965636
 10
100.3046440721461
 20
-129.8694199979146
 10
100.4338351528429
 20
-129.964160123759
 10
100.4338351528429
 20
-129.964160123759
 10
100.4148871276741
 20
-130.1519178277051
 10
100.4148871276741
 20
-130.1519178277051
 10
100.4148871276741
 20
-130.1519178277051
 10
99.56842716694817
 20
-130.0230712565567
 10
99.56842716694817
 20
-130.0230712565567
 10
99.56842716694817
 20
-130.0230712565567
 10
99.56842716694817
 20
-129.1910806968689
 10
99.56842716694817
 20
-129.1910806968689
 10
99.56842716694817
 20
-129.1910806968689
 10
99.7630750618648
 20
-129.1910806968689
 10
99.7630750618648
 20
-129.1910806968689
 10
99.7630750618648
 20
-129.1910806968689
 10
99.7630750618648
 20
-129.8487494250031
 10
99.7630750618648
 20
-129.8487494250031
 10
99.7630750618648
 20
-129.8487494250031
 10
100.1861327874535
 20
-129.9190293729022
 10
100.1861327874535
 20
-129.9190293729022
 10
100.152370851698
 20
-129.8535725586825
 10
100.1120632345206
 20
-129.76537811426
 10
100.1120632345206
 20
-129.6385986004028
 10
100.1120632345206
 20
-129.3674695857137
 10
100.2984429002726
 20
-129.1142550675478
 10
100.6116020798818
 20
-129.1142550675478
 10
100.9288953740733
 20
-129.1142550675478
 10
101.1635063766189
 20
-129.3536892037727
 10
101.1635063766189
 20
-129.6771836698377
 97
        0
 97
        0
 75
     2
 76
     1
 98
        0
  0
POLYLINE
  5
AF
330
A7
100
AcDbEntity
  8
_U+30EC_U+30A4_U+30E4_U+30FC 1
370
     0
100
AcDb2dPolyline
 66
     1
 10
0.0
 20
0.0
 30
0.0
  0
VERTEX
  5
B0
330
AF
100
AcDbEntity
  8
_U+30EC_U+30A4_U+30E4_U+30FC 1
370
     0
100
AcDbVertex
100
AcDb2dVertex
 10
101.1128634729857
 20
-128.8693087785466
 30
0.0
  0
VERTEX
  5
B1
330
AF
100
AcDbEntity
  8
_U+30EC_U+30A4_U+30E4_U+30FC 1
370
     0
100
AcDbVertex
100
AcDb2dVertex
 10
100.8610269930139
 20
-128.8693087785466
 30
0.0
  0
VERTEX
  5
B2
330
AF
100
AcDbEntity
  8
_U+30EC_U+30A4_U+30E4_U+30FC 1
370
     0
100
AcDbVertex
100
AcDb2dVertex
 10
100.8610269930139
 20
-128.6002468211485
 30
0.0
  0
VERTEX
  5
B3
330
AF
100
AcDbEntity
  8
_U+30EC_U+30A4_U+30E4_U+30FC 1
370
     0
100
AcDbVertex
100
AcDb2dVertex
 10
101.1128634729857
 20
-128.6002468211485
 30
0.0
  0
VERTEX
  5
B4
330
AF
100
AcDbEntity
  8
_U+30EC_U+30A4_U+30E4_U+30FC 1
370
     0
100
AcDbVertex
100
AcDb2dVertex
 10
101.1128634729857
 20
-128.8693087785466
 30
0.0
  0
SEQEND
  5
B5
330
AF
100
AcDbEntity
  8
_U+30EC_U+30A4_U+30E4_U+30FC 1
370
     0
  0
HATCH
  5
B6
330
A7
100
AcDbEntity
  8
_U+30EC_U+30A4_U+30E4_U+30FC 1
 62
   179
420
  2234388
100
AcDbHatch
 10
0.0
 20
0.0
 30
0.0
210
0.0
220
0.0
230
1.0
  2
SOLID
 70
     1
 71
     0
 91
        1
 92
        1
 93
        4
 72
     1
 10
101.1128634729857
 20
-128.8693087785466
 11
100.8610269930139
 21
-128.8693087785466
 72
     1
 10
100.8610269930139
 20
-128.8693087785466
 11
100.8610269930139
 21
-128.6002468211485
 72
     1
 10
100.8610269930139
 20
-128.6002468211485
 11
101.1128634729857
 21
-128.6002468211485
 72
     1
 10
101.1128634729857
 20
-128.6002468211485
 11
101.1128634729857
 21
-128.8693087785466
 97
        0
 75
     2
 76
     1
 98
        0
  0
SPLINE
  5
B7
330
A7
100
AcDbEntity
  8
_U+30EC_U+30A4_U+30E4_U+30FC 1
370
     0
100
AcDbSpline
210
0.0
220
0.0
230
1.0
 70
    11
 71
     3
 72
    53
 73
    49
 74
     0
 42
0.0000000001
 43
0.0000000001
 12
1.0
 22
0.0
 32
0.0
 13
1.0
 23
0.0
 33
0.0
 40
0.0
 40
0.0
 40
0.0
 40
0.0
 40
1.0
 40
1.0
 40
1.0
 40
2.0
 40
2.0
 40
2.0
 40
3.0
 40
3.0
 40
3.0
 40
4.0
 40
4.0
 40
4.0
 40
5.0
 40
5.0
 40
5.0
 40
6.0
 40
6.0
 40
6.0
 40
7.0
 40
7.0
 40
7.0
 40
8.0
 40
8.0
 40
8.0
 40
9.0
 40
9.0
 40
9.0
 40
10.0
 40
10.0
 40
10.0
 40
11.0
 40
11.0
 40
11.0
 40
12.0
 40
12.0
 40
12.0
 40
13.0
 40
13.0
 40
13.0
 40
14.0
 40
14.0
 40
14.0
 40
15.0
 40
15.0
 40
15.0
 40
16.0
 40
16.0
 40
16.0
 40
16.0
 10
101.1635063766189
 20
-127.8337130756805
 30
0.0
 10
101.1635063766189
 20
-127.917428895972
 30
0.0
 10
101.1466254087411
 20
-128.0256048942089
 30
0.0
 10
101.0832356518125
 20
-128.1344699115428
 30
0.0
 10
100.9733371058331
 20
-128.3198160486492
 30
0.0
 10
100.842078967845
 20
-128.3422091693033
 30
0.0
 10
100.7342474791567
 20
-128.3625352326663
 30
0.0
 10
100.7342474791567
 20
-128.3625352326663
 30
0.0
 10
100.7342474791567
 20
-128.1251681537326
 30
0.0
 10
100.7342474791567
 20
-128.1251681537326
 30
0.0
 10
100.9330294886556
 20
-128.0666015304834
 30
0.0
 10
100.9626573098288
 20
-127.9308647683645
 30
0.0
 10
100.9626573098288
 20
-127.8313015088408
 30
0.0
 10
100.9626573098288
 20
-127.6821288743295
 30
0.0
 10
100.8630940503051
 20
-127.5191758578772
 30
0.0
 10
100.6305501050507
 20
-127.5191758578772
 30
0.0
 10
100.3745795104966
 20
-127.5191758578772
 30
0.0
 10
100.3046440721461
 20
-127.7114121859541
 30
0.0
 10
100.3046440721461
 20
-127.8402587571024
 30
0.0
 10
100.3046440721461
 20
-127.8743652024064
 30
0.0
 10
100.3046440721461
 20
-128.0256048942089
 30
0.0
 10
100.4338351528429
 20
-128.1206895296018
 30
0.0
 10
100.4338351528429
 20
-128.1206895296018
 30
0.0
 10
100.4148871276741
 20
-128.3084472335479
 30
0.0
 10
100.4148871276741
 20
-128.3084472335479
 30
0.0
 10
100.4148871276741
 20
-128.3084472335479
 30
0.0
 10
99.56842716694817
 20
-128.1796006623995
 30
0.0
 10
99.56842716694817
 20
-128.1796006623995
 30
0.0
 10
99.56842716694817
 20
-128.1796006623995
 30
0.0
 10
99.56842716694817
 20
-127.3476101027117
 30
0.0
 10
99.56842716694817
 20
-127.3476101027117
 30
0.0
 10
99.56842716694817
 20
-127.3476101027117
 30
0.0
 10
99.7630750618648
 20
-127.3476101027117
 30
0.0
 10
99.7630750618648
 20
-127.3476101027117
 30
0.0
 10
99.7630750618648
 20
-127.3476101027117
 30
0.0
 10
99.7630750618648
 20
-128.0052788308459
 30
0.0
 10
99.7630750618648
 20
-128.0052788308459
 30
0.0
 10
99.7630750618648
 20
-128.0052788308459
 30
0.0
 10
100.1861327874535
 20
-128.075558778745
 30
0.0
 10
100.1861327874535
 20
-128.075558778745
 30
0.0
 10
100.152370851698
 20
-128.0101019645253
 30
0.0
 10
100.1120632345206
 20
-127.9219075201029
 30
0.0
 10
100.1120632345206
 20
-127.7951280062457
 30
0.0
 10
100.1120632345206
 20
-127.5239989915565
 30
0.0
 10
100.2984429002726
 20
-127.2707844733906
 30
0.0
 10
100.6116020798818
 20
-127.2707844733906
 30
0.0
 10
100.9288953740733
 20
-127.2707844733906
 30
0.0
 10
101.1635063766189
 20
-127.5102186096155
 30
0.0
 10
101.1635063766189
 20
-127.8337130756805
 30
0.0
  0
HATCH
  5
B8
330
A7
100
AcDbEntity
  8
_U+30EC_U+30A4_U+30E4_U+30FC 1
 62
   179
420
  2234388
100
AcDbHatch
 10
0.0
 20
0.0
 30
0.0
210
0.0
220
0.0
230
1.0
  2
SOLID
 70
     1
 71
     0
 91
        1
 92
        1
 93
        1
 72
     4
 94
        3
 73
     0
 74
     1
 95
       53
 96
       49
 40
0.0
 40
0.0
 40
0.0
 40
0.0
 40
1.0
 40
1.0
 40
1.0
 40
2.0
 40
2.0
 40
2.0
 40
3.0
 40
3.0
 40
3.0
 40
4.0
 40
4.0
 40
4.0
 40
5.0
 40
5.0
 40
5.0
 40
6.0
 40
6.0
 40
6.0
 40
7.0
 40
7.0
 40
7.0
 40
8.0
 40
8.0
 40
8.0
 40
9.0
 40
9.0
 40
9.0
 40
10.0
 40
10.0
 40
10.0
 40
11.0
 40
11.0
 40
11.0
 40
12.0
 40
12.0
 40
12.0
 40
13.0
 40
13.0
 40
13.0
 40
14.0
 40
14.0
 40
14.0
 40
15.0
 40
15.0
 40
15.0
 40
16.0
 40
16.0
 40
16.0
 40
16.0
 10
101.1635063766189
 20
-127.8337130756805
 10
101.1635063766189
 20
-127.917428895972
 10
101.1466254087411
 20
-128.0256048942089
 10
101.0832356518125
 20
-128.1344699115428
 10
100.9733371058331
 20
-128.3198160486492
 10
100.842078967845
 20
-128.3422091693033
 10
100.7342474791567
 20
-128.3625352326663
 10
100.7342474791567
 20
-128.3625352326663
 10
100.7342474791567
 20
-128.1251681537326
 10
100.7342474791567
 20
-128.1251681537326
 10
100.9330294886556
 20
-128.0666015304834
 10
100.9626573098288
 20
-127.9308647683645
 10
100.9626573098288
 20
-127.8313015088408
 10
100.9626573098288
 20
-127.6821288743295
 10
100.8630940503051
 20
-127.5191758578772
 10
100.6305501050507
 20
-127.5191758578772
 10
100.3745795104966
 20
-127.5191758578772
 10
100.3046440721461
 20
-127.7114121859541
 10
100.3046440721461
 20
-127.8402587571024
 10
100.3046440721461
 20
-127.8743652024064
 10
100.3046440721461
 20
-128.0256048942089
 10
100.4338351528429
 20
-128.1206895296018
 10
100.4338351528429
 20
-128.1206895296018
 10
100.4148871276741
 20
-128.3084472335479
 10
100.4148871276741
 20
-128.3084472335479
 10
100.4148871276741
 20
-128.3084472335479
 10
99.56842716694817
 20
-128.1796006623995
 10
99.56842716694817
 20
-128.1796006623995
 10
99.56842716694817
 20
-128.1796006623995
 10
99.56842716694817
 20
-127.3476101027117
 10
99.56842716694817
 20
-127.3476101027117
 10
99.56842716694817
 20
-127.3476101027117
 10
99.7630750618648
 20
-127.3476101027117
 10
99.7630750618648
 20
-127.3476101027117
 10
99.7630750618648
 20
-127.3476101027117
 10
99.7630750618648
 20
-128.0052788308459
 10
99.7630750618648
 20
-128.0052788308459
 10
99.7630750618648
 20
-128.0052788308459
 10
100.1861327874535
 20
-128.075558778745
 10
100.1861327874535
 20
-128.075558778745
 10
100.152370851698
 20
-128.0101019645253
 10
100.1120632345206
 20
-127.9219075201029
 10
100.1120632345206
 20
-127.7951280062457
 10
100.1120632345206
 20
-127.5239989915565
 10
100.2984429002726
 20
-127.2707844733906
 10
100.6116020798818
 20
-127.2707844733906
 10
100.9288953740733
 20
-127.2707844733906
 10
101.1635063766189
 20
-127.5102186096155
 10
101.1635063766189
 20
-127.8337130756805
 97
        0
 97
        0
 75
     2
 76
     1
 98
        0
  0
ENDBLK
  5
AA
330
A7
100
AcDbEntity
  8
0
100
AcDbBlockEnd
  0
BLOCK
  5
C4
330
C2
100
AcDbEntity
  8
0
100
AcDbBlockBegin
  2
block 5
 70
     0
 10
0.0
 20
0.0
 30
0.0
  3
block 5
  1

  0
SPLINE
  5
C6
330
C2
100
AcDbEntity
  8
_U+30EC_U+30A4_U+30E4_U+30FC 1
370
     0
100
AcDbSpline
210
0.0
220
0.0
230
1.0
 70
    11
 71
     3
 72
    26
 73
    22
 74
     0
 42
0.0000000001
 43
0.0000000001
 12
1.0
 22
0.0
 32
0.0
 13
1.0
 23
0.0
 33
0.0
 40
0.0
 40
0.0
 40
0.0
 40
0.0
 40
1.0
 40
1.0
 40
1.0
 40
2.0
 40
2.0
 40
2.0
 40
3.0
 40
3.0
 40
3.0
 40
4.0
 40
4.0
 40
4.0
 40
5.0
 40
5.0
 40
5.0
 40
6.0
 40
6.0
 40
6.0
 40
7.0
 40
7.0
 40
7.0
 40
7.0
 10
101.1128634729857
 20
-137.6329426739251
 30
0.0
 10
101.1128634729857
 20
-137.6329426739251
 30
0.0
 10
100.0087103699631
 20
-137.6329426739251
 30
0.0
 10
100.0087103699631
 20
-137.6329426739251
 30
0.0
 10
100.0087103699631
 20
-137.6329426739251
 30
0.0
 10
100.0087103699631
 20
-137.9853759420662
 30
0.0
 10
100.0087103699631
 20
-137.9853759420662
 30
0.0
 10
100.0087103699631
 20
-137.9853759420662
 30
0.0
 10
99.86057126409736
 20
-137.9853759420662
 30
0.0
 10
99.86057126409736
 20
-137.9853759420662
 30
0.0
 10
99.84575735351079
 20
-137.6305311070854
 30
0.0
 10
99.68280433705847
 20
-137.5809217320978
 30
0.0
 10
99.56842716694817
 20
-137.5492268536335
 30
0.0
 10
99.56842716694817
 20
-137.5492268536335
 30
0.0
 10
99.56842716694817
 20
-137.3931640281517
 30
0.0
 10
99.56842716694817
 20
-137.3931640281517
 30
0.0
 10
99.56842716694817
 20
-137.3931640281517
 30
0.0
 10
101.1128634729857
 20
-137.3931640281517
 30
0.0
 10
101.1128634729857
 20
-137.3931640281517
 30
0.0
 10
101.1128634729857
 20
-137.3931640281517
 30
0.0
 10
101.1128634729857
 20
-137.6329426739251
 30
0.0
 10
101.1128634729857
 20
-137.6329426739251
 30
0.0
  0
HATCH
  5
C7
330
C2
100
AcDbEntity
  8
_U+30EC_U+30A4_U+30E4_U+30FC 1
 62
   179
420
  2234388
100
AcDbHatch
 10
0.0
 20
0.0
 30
0.0
210
0.0
220
0.0
230
1.0
  2
SOLID
 70
     1
 71
     0
 91
        1
 92
        1
 93
        1
 72
     4
 94
        3
 73
     0
 74
     1
 95
       26
 96
       22
 40
0.0
 40
0.0
 40
0.0
 40
0.0
 40
1.0
 40
1.0
 40
1.0
 40
2.0
 40
2.0
 40
2.0
 40
3.0
 40
3.0
 40
3.0
 40
4.0
 40
4.0
 40
4.0
 40
5.0
 40
5.0
 40
5.0
 40
6.0
 40
6.0
 40
6.0
 40
7.0
 40
7.0
 40
7.0
 40
7.0
 10
101.1128634729857
 20
-137.6329426739251
 10
101.1128634729857
 20
-137.6329426739251
 10
100.0087103699631
 20
-137.6329426739251
 10
100.0087103699631
 20
-137.6329426739251
 10
100.0087103699631
 20
-137.6329426739251
 10
100.0087103699631
 20
-137.9853759420662
 10
100.0087103699631
 20
-137.9853759420662
 10
100.0087103699631
 20
-137.9853759420662
 10
99.86057126409736
 20
-137.9853759420662
 10
99.86057126409736
 20
-137.9853759420662
 10
99.84575735351079
 20
-137.6305311070854
 10
99.68280433705847
 20
-137.5809217320978
 10
99.56842716694817
 20
-137.5492268536335
 10
99.56842716694817
 20
-137.5492268536335
 10
99.56842716694817
 20
-137.3931640281517
 10
99.56842716694817
 20
-137.3931640281517
 10
99.56842716694817
 20
-137.3931640281517
 10
101.1128634729857
 20
-137.3931640281517
 10
101.1128634729857
 20
-137.3931640281517
 10
101.1128634729857
 20
-137.3931640281517
 10
101.1128634729857
 20
-137.6329426739251
 10
101.1128634729857
 20
-137.6329426739251
 97
        0
 97
        0
 75
     2
 76
     1
 98
        0
  0
ENDBLK
  5
C5
330
C2
100
AcDbEntity
  8
0
100
AcDbBlockEnd
  0
BLOCK
  5
CC
330
CA
100
AcDbEntity
  8
0
100
AcDbBlockBegin
  2
block 6
 70
     0
 10
0.0
 20
0.0
 30
0.0
  3
block 6
  1

  0
SPLINE
  5
CE
330
CA
100
AcDbEntity
  8
_U+30EC_U+30A4_U+30E4_U+30FC 1
370
     0
100
AcDbSpline
210
0.0
220
0.0
230
1.0
 70
    11
 71
     3
 72
    26
 73
    22
 74
     0
 42
0.0000000001
 43
0.0000000001
 12
1.0
 22
0.0
 32
0.0
 13
1.0
 23
0.0
 33
0.0
 40
0.0
 40
0.0
 40
0.0
 40
0.0
 40
1.0
 40
1.0
 40
1.0
 40
2.0
 40
2.0
 40
2.0
 40
3.0
 40
3.0
 40
3.0
 40
4.0
 40
4.0
 40
4.0
 40
5.0
 40
5.0
 40
5.0
 40
6.0
 40
6.0
 40
6.0
 40
7.0
 40
7.0
 40
7.0
 40
7.0
 10
79.37103812034822
 20
-128.6882690107967
 30
0.0
 10
79.37103812034822
 20
-128.6882690107967
 30
0.0
 10
79.37103812034822
 20
-127.5839436529998
 30
0.0
 10
79.37103812034822
 20
-127.5839436529998
 30
0.0
 10
79.37103812034822
 20
-127.5839436529998
 30
0.0
 10
79.04099797286128
 20
-127.5839436529998
 30
0.0
 10
79.04099797286128
 20
-127.5839436529998
 30
0.0
 10
79.04099797286128
 20
-127.5839436529998
 30
0.0
 10
79.04099797286128
 20
-127.4358045471341
 30
0.0
 10
79.04099797286128
 20
-127.4358045471341
 30
0.0
 10
79.37310517763936
 20
-127.4211628913218
 30
0.0
 10
79.41961396669024
 20
-127.2582098748695
 30
0.0
 10
79.44924178786339
 20
-127.1440049595334
 30
0.0
 10
79.44924178786339
 20
-127.1440049595334
 30
0.0
 10
79.59531383643798
 20
-127.1440049595334
 30
0.0
 10
79.59531383643798
 20
-127.1440049595334
 30
0.0
 10
79.59531383643798
 20
-127.1440049595334
 30
0.0
 10
79.59531383643798
 20
-128.6882690107967
 30
0.0
 10
79.59531383643798
 20
-128.6882690107967
 30
0.0
 10
79.59531383643798
 20
-128.6882690107967
 30
0.0
 10
79.37103812034822
 20
-128.6882690107967
 30
0.0
 10
79.37103812034822
 20
-128.6882690107967
 30
0.0
  0
HATCH
  5
CF
330
CA
100
AcDbEntity
  8
_U+30EC_U+30A4_U+30E4_U+30FC 1
 62
   179
420
  2234388
100
AcDbHatch
 10
0.0
 20
0.0
 30
0.0
210
0.0
220
0.0
230
1.0
  2
SOLID
 70
     1
 71
     0
 91
        1
 92
        1
 93
        1
 72
     4
 94
        3
 73
     0
 74
     1
 95
       26
 96
       22
 40
0.0
 40
0.0
 40
0.0
 40
0.0
 40
1.0
 40
1.0
 40
1.0
 40
2.0
 40
2.0
 40
2.0
 40
3.0
 40
3.0
 40
3.0
 40
4.0
 40
4.0
 40
4.0
 40
5.0
 40
5.0
 40
5.0
 40
6.0
 40
6.0
 40
6.0
 40
7.0
 40
7.0
 40
7.0
 40
7.0
 10
79.37103812034822
 20
-128.6882690107967
 10
79.37103812034822
 20
-128.6882690107967
 10
79.37103812034822
 20
-127.5839436529998
 10
79.37103812034822
 20
-127.5839436529998
 10
79.37103812034822
 20
-127.5839436529998
 10
79.04099797286128
 20
-127.5839436529998
 10
79.04099797286128
 20
-127.5839436529998
 10
79.04099797286128
 20
-127.5839436529998
 10
79.04099797286128
 20
-127.4358045471341
 10
79.04099797286128
 20
-127.4358045471341
 10
79.37310517763936
 20
-127.4211628913218
 10
79.41961396669024
 20
-127.2582098748695
 10
79.44924178786339
 20
-127.1440049595334
 10
79.44924178786339
 20
-127.1440049595334
 10
79.59531383643798
 20
-127.1440049595334
 10
79.59531383643798
 20
-127.1440049595334
 10
79.59531383643798
 20
-127.1440049595334
 10
79.59531383643798
 20
-128.6882690107967
 10
79.59531383643798
 20
-128.6882690107967
 10
79.59531383643798
 20
-128.6882690107967
 10
79.37103812034822
 20
-128.6882690107967
 10
79.37103812034822
 20
-128.6882690107967
 97
        0
 97
        0
 75
     2
 76
     1
 98
        0
  0
ENDBLK
  5
CD
330
CA
100
AcDbEntity
  8
0
100
AcDbBlockEnd
  0
ENDSEC
  0
SECTION
  2
ENTITIES
  0
SPLINE
  5
41
330
1F
100
AcDbEntity
  8
_U+30EC_U+30A4_U+30E4_U+30FC 1
 62
   253
420
 11711154
370
     9
100
AcDbSpline
210
0.0
220
0.0
230
1.0
 70
    11
 71
     3
 72
    44
 73
    40
 74
     0
 42
0.0000000001
 43
0.0000000001
 12
1.0
 22
0.0
 32
0.0
 13
1.0
 23
0.0
 33
0.0
 40
0.0
 40
0.0
 40
0.0
 40
0.0
 40
1.0
 40
1.0
 40
1.0
 40
2.0
 40
2.0
 40
2.0
 40
3.0
 40
3.0
 40
3.0
 40
4.0
 40
4.0
 40
4.0
 40
5.0
 40
5.0
 40
5.0
 40
6.0
 40
6.0
 40
6.0
 40
7.0
 40
7.0
 40
7.0
 40
8.0
 40
8.0
 40
8.0
 40
9.0
 40
9.0
 40
9.0
 40
10.0
 40
10.0
 40
10.0
 40
11.0
 40
11.0
 40
11.0
 40
12.0
 40
12.0
 40
12.0
 40
13.0
 40
13.0
 40
13.0
 40
13.0
 10
80.48536600220281
 20
-120.5559494143055
 30
0.0
 10
80.48536600220281
 20
-120.5559494143055
 30
0.0
 10
83.04438065913912
 20
-120.5559494143055
 30
0.0
 10
83.04438065913912
 20
-120.5559494143055
 30
0.0
 10
83.04438065913912
 20
-120.5559494143055
 30
0.0
 10
88.44008135481666
 20
-121.0038008030825
 30
0.0
 10
88.44008135481666
 20
-121.0038008030825
 30
0.0
 10
88.44008135481666
 20
-121.0038008030825
 30
0.0
 10
88.50414579762669
 20
-121.5798163584939
 30
0.0
 10
88.50414579762669
 20
-121.5798163584939
 30
0.0
 10
88.50414579762669
 20
-121.5798163584939
 30
0.0
 10
81.55124875278764
 20
-121.6225377473722
 30
0.0
 10
81.55124875278764
 20
-121.6225377473722
 30
0.0
 10
81.55124875278764
 20
-121.6225377473722
 30
0.0
 10
81.55124875278764
 20
-137.1048255212791
 30
0.0
 10
81.55124875278764
 20
-137.1048255212791
 30
0.0
 10
81.55124875278764
 20
-137.1048255212791
 30
0.0
 10
87.71452331777164
 20
-137.0834471879515
 30
0.0
 10
87.71452331777164
 20
-137.0834471879515
 30
0.0
 10
87.71452331777164
 20
-137.0834471879515
 30
0.0
 10
88.56753996267604
 20
-137.4038399656492
 30
0.0
 10
88.56753996267604
 20
-137.6167413544846
 30
0.0
 10
88.56753996267604
 20
-137.6167413544846
 30
0.0
 10
98.0794516644514
 20
-137.6167413544846
 30
0.0
 10
98.0794516644514
 20
-137.6167413544846
 30
0.0
 10
98.0794516644514
 20
-137.6167413544846
 30
0.0
 10
98.65479692755089
 20
-137.7449055211195
 30
0.0
 10
98.50595998690359
 20
-138.1286924654675
 30
0.0
 10
98.50595998690359
 20
-138.1286924654675
 30
0.0
 10
81.1674970959113
 20
-138.1714138543458
 30
0.0
 10
81.1674970959113
 20
-138.1714138543458
 30
0.0
 10
81.1674970959113
 20
-138.1714138543458
 30
0.0
 10
80.65554599786115
 20
-137.7662838544471
 30
0.0
 10
80.65554599786115
 20
-137.7662838544471
 30
0.0
 10
80.65554599786115
 20
-137.7662838544471
 30
0.0
 10
80.5701032222632
 20
-137.5312985767286
 30
0.0
 10
80.5701032222632
 20
-137.5312985767286
 30
0.0
 10
80.5701032222632
 20
-137.5312985767286
 30
0.0
 10
80.48536600220281
 20
-120.5559494143055
 30
0.0
 10
80.48536600220281
 20
-120.5559494143055
 30
0.0
  0
HATCH
  5
42
330
1F
100
AcDbEntity
  8
_U+30EC_U+30A4_U+30E4_U+30FC 1
 62
   253
420
 11711154
100
AcDbHatch
 10
0.0
 20
0.0
 30
0.0
210
0.0
220
0.0
230
1.0
  2
SOLID
 70
     1
 71
     0
 91
        1
 92
        1
 93
        1
 72
     4
 94
        3
 73
     0
 74
     1
 95
       44
 96
       40
 40
0.0
 40
0.0
 40
0.0
 40
0.0
 40
1.0
 40
1.0
 40
1.0
 40
2.0
 40
2.0
 40
2.0
 40
3.0
 40
3.0
 40
3.0
 40
4.0
 40
4.0
 40
4.0
 40
5.0
 40
5.0
 40
5.0
 40
6.0
 40
6.0
 40
6.0
 40
7.0
 40
7.0
 40
7.0
 40
8.0
 40
8.0
 40
8.0
 40
9.0
 40
9.0
 40
9.0
 40
10.0
 40
10.0
 40
10.0
 40
11.0
 40
11.0
 40
11.0
 40
12.0
 40
12.0
 40
12.0
 40
13.0
 40
13.0
 40
13.0
 40
13.0
 10
80.48536600220281
 20
-120.5559494143055
 10
80.48536600220281
 20
-120.5559494143055
 10
83.04438065913912
 20
-120.5559494143055
 10
83.04438065913912
 20
-120.5559494143055
 10
83.04438065913912
 20
-120.5559494143055
 10
88.44008135481666
 20
-121.0038008030825
 10
88.44008135481666
 20
-121.0038008030825
 10
88.44008135481666
 20
-121.0038008030825
 10
88.50414579762669
 20
-121.5798163584939
 10
88.50414579762669
 20
-121.5798163584939
 10
88.50414579762669
 20
-121.5798163584939
 10
81.55124875278764
 20
-121.6225377473722
 10
81.55124875278764
 20
-121.6225377473722
 10
81.55124875278764
 20
-121.6225377473722
 10
81.55124875278764
 20
-137.1048255212791
 10
81.55124875278764
 20
-137.1048255212791
 10
81.55124875278764
 20
-137.1048255212791
 10
87.71452331777164
 20
-137.0834471879515
 10
87.71452331777164
 20
-137.0834471879515
 10
87.71452331777164
 20
-137.0834471879515
 10
88.56753996267604
 20
-137.4038399656492
 10
88.56753996267604
 20
-137.6167413544846
 10
88.56753996267604
 20
-137.6167413544846
 10
98.0794516644514
 20
-137.6167413544846
 10
98.0794516644514
 20
-137.6167413544846
 10
98.0794516644514
 20
-137.6167413544846
 10
98.65479692755089
 20
-137.7449055211195
 10
98.50595998690359
 20
-138.1286924654675
 10
98.50595998690359
 20
-138.1286924654675
 10
81.1674970959113
 20
-138.1714138543458
 10
81.1674970959113
 20
-138.1714138543458
 10
81.1674970959113
 20
-138.1714138543458
 10
80.65554599786115
 20
-137.7662838544471
 10
80.65554599786115
 20
-137.7662838544471
 10
80.65554599786115
 20
-137.7662838544471
 10
80.5701032222632
 20
-137.5312985767286
 10
80.5701032222632
 20
-137.5312985767286
 10
80.5701032222632
 20
-137.5312985767286
 10
80.48536600220281
 20
-120.5559494143055
 10
80.48536600220281
 20
-120.5559494143055
 97
        0
 97
        0
 75
     2
 76
     1
 98
        0
  0
POLYLINE
  5
43
330
1F
100
AcDbEntity
  8
_U+30EC_U+30A4_U+30E4_U+30FC 1
 62
   179
420
  2234388
370
    25
100
AcDb2dPolyline
 66
     1
 10
0.0
 20
0.0
 30
0.0
  0
VERTEX
  5
44
330
43
100
AcDbEntity
  8
_U+30EC_U+30A4_U+30E4_U+30FC 1
 62
   179
420
  2234388
370
    25
100
AcDbVertex
100
AcDb2dVertex
 10
81.53678486426776
 20
-121.5722669140515
 30
0.0
  0
VERTEX
  5
45
330
43
100
AcDbEntity
  8
_U+30EC_U+30A4_U+30E4_U+30FC 1
 62
   179
420
  2234388
370
    25
100
AcDbVertex
100
AcDb2dVertex
 10
88.53723635233803
 20
-121.5722669140515
 30
0.0
  0
SEQEND
  5
46
330
43
100
AcDbEntity
  8
_U+30EC_U+30A4_U+30E4_U+30FC 1
 62
   179
420
  2234388
370
    25
  0
POLYLINE
  5
47
330
1F
100
AcDbEntity
  8
_U+30EC_U+30A4_U+30E4_U+30FC 1
 62
   179
420
  2234388
370
    25
100
AcDb2dPolyline
 66
     1
 10
0.0
 20
0.0
 30
0.0
  0
VERTEX
  5
48
330
47
100
AcDbEntity
  8
_U+30EC_U+30A4_U+30E4_U+30FC 1
 62
   179
420
  2234388
370
    25
100
AcDbVertex
100
AcDb2dVertex
 10
80.53701266755185
 20
-120.5724946920792
 30
0.0
  0
VERTEX
  5
49
330
47
100
AcDbEntity
  8
_U+30EC_U+30A4_U+30E4_U+30FC 1
 62
   179
420
  2234388
370
    25
100
AcDbVertex
100
AcDb2dVertex
 10
82.53726261652122
 20
-120.5724946920792
 30
0.0
  0
SEQEND
  5
4A
330
47
100
AcDbEntity
  8
_U+30EC_U+30A4_U+30E4_U+30FC 1
 62
   179
420
  2234388
370
    25
  0
POLYLINE
  5
4B
330
1F
100
AcDbEntity
  8
_U+30EC_U+30A4_U+30E4_U+30FC 1
 62
   179
420
  2234388
370
    25
100
AcDb2dPolyline
 66
     1
 10
0.0
 20
0.0
 30
0.0
  0
VERTEX
  5
4C
330
4B
100
AcDbEntity
  8
_U+30EC_U+30A4_U+30E4_U+30FC 1
 62
   179
420
  2234388
370
    25
100
AcDbVertex
100
AcDb2dVertex
 10
81.53678486426776
 20
-137.1137507990551
 30
0.0
  0
VERTEX
  5
4D
330
4B
100
AcDbEntity
  8
_U+30EC_U+30A4_U+30E4_U+30FC 1
 62
   179
420
  2234388
370
    25
100
AcDbVertex
100
AcDb2dVertex
 10
87.67113165221198
 20
-137.1137507990551
 30
0.0
  0
SEQEND
  5
4E
330
4B
100
AcDbEntity
  8
_U+30EC_U+30A4_U+30E4_U+30FC 1
 62
   179
420
  2234388
370
    25
  0
POLYLINE
  5
4F
330
1F
100
AcDbEntity
  8
_U+30EC_U+30A4_U+30E4_U+30FC 1
 62
   179
420
  2234388
370
    25
100
AcDb2dPolyline
 66
     1
 10
0.0
 20
0.0
 30
0.0
  0
VERTEX
  5
50
330
4F
100
AcDbEntity
  8
_U+30EC_U+30A4_U+30E4_U+30FC 1
 62
   179
420
  2234388
370
    25
100
AcDbVertex
100
AcDb2dVertex
 10
81.3369715360321
 20
-138.113523021027
 30
0.0
  0
VERTEX
  5
51
330
4F
100
AcDbEntity
  8
_U+30EC_U+30A4_U+30E4_U+30FC 1
 62
   179
420
  2234388
370
    25
100
AcDbVertex
100
AcDb2dVertex
 10
98.53696915277915
 20
-138.113523021027
 30
0.0
  0
SEQEND
  5
52
330
4F
100
AcDbEntity
  8
_U+30EC_U+30A4_U+30E4_U+30FC 1
 62
   179
420
  2234388
370
    25
  0
POLYLINE
  5
53
330
1F
100
AcDbEntity
  8
_U+30EC_U+30A4_U+30E4_U+30FC 1
 62
   179
420
  2234388
370
    25
100
AcDb2dPolyline
 66
     1
 10
0.0
 20
0.0
 30
0.0
  0
VERTEX
  5
54
330
53
100
AcDbEntity
  8
_U+30EC_U+30A4_U+30E4_U+30FC 1
 62
   179
420
  2234388
370
    25
100
AcDbVertex
100
AcDb2dVertex
 10
88.53723635233803
 20
-120.9721213586458
 30
0.0
  0
VERTEX
  5
55
330
53
100
AcDbEntity
  8
_U+30EC_U+30A4_U+30E4_U+30FC 1
 62
   179
420
  2234388
370
    25
100
AcDbVertex
100
AcDb2dVertex
 10
88.53723635233803
 20
-121.5722669140515
 30
0.0
  0
SEQEND
  5
56
330
53
100
AcDbEntity
  8
_U+30EC_U+30A4_U+30E4_U+30FC 1
 62
   179
420
  2234388
370
    25
  0
POLYLINE
  5
57
330
1F
100
AcDbEntity
  8
_U+30EC_U+30A4_U+30E4_U+30FC 1
 62
   179
420
  2234388
370
    25
100
AcDb2dPolyline
 66
     1
 10
0.0
 20
0.0
 30
0.0
  0
VERTEX
  5
58
330
57
100
AcDbEntity
  8
_U+30EC_U+30A4_U+30E4_U+30FC 1
 62
   179
420
  2234388
370
    25
100
AcDbVertex
100
AcDb2dVertex
 10
80.53701266755185
 20
-120.6138402476243
 30
0.0
  0
VERTEX
  5
59
330
57
100
AcDbEntity
  8
_U+30EC_U+30A4_U+30E4_U+30FC 1
 62
   179
420
  2234388
370
    25
100
AcDbVertex
100
AcDb2dVertex
 10
80.53701266755185
 20
-137.3135994101159
 30
0.0
  0
SEQEND
  5
5A
330
57
100
AcDbEntity
  8
_U+30EC_U+30A4_U+30E4_U+30FC 1
 62
   179
420
  2234388
370
    25
  0
POLYLINE
  5
5B
330
1F
100
AcDbEntity
  8
_U+30EC_U+30A4_U+30E4_U+30FC 1
 62
   179
420
  2234388
370
    25
100
AcDb2dPolyline
 66
     1
 10
0.0
 20
0.0
 30
0.0
  0
VERTEX
  5
5C
330
5B
100
AcDbEntity
  8
_U+30EC_U+30A4_U+30E4_U+30FC 1
 62
   179
420
  2234388
370
    25
100
AcDbVertex
100
AcDb2dVertex
 10
81.53678486426776
 20
-121.6135771918187
 30
0.0
  0
VERTEX
  5
5D
330
5B
100
AcDbEntity
  8
_U+30EC_U+30A4_U+30E4_U+30FC 1
 62
   179
420
  2234388
370
    25
100
AcDbVertex
100
AcDb2dVertex
 10
81.53678486426776
 20
-137.1137507990551
 30
0.0
  0
SEQEND
  5
5E
330
5B
100
AcDbEntity
  8
_U+30EC_U+30A4_U+30E4_U+30FC 1
 62
   179
420
  2234388
370
    25
  0
POLYLINE
  5
5F
330
1F
100
AcDbEntity
  8
_U+30EC_U+30A4_U+30E4_U+30FC 1
 62
   179
420
  2234388
370
    25
100
AcDb2dPolyline
 66
     1
 10
0.0
 20
0.0
 30
0.0
  0
VERTEX
  5
60
330
5F
100
AcDbEntity
  8
_U+30EC_U+30A4_U+30E4_U+30FC 1
 62
   179
420
  2234388
370
    25
100
AcDbVertex
100
AcDb2dVertex
 10
86.52735557028103
 20
-120.771602469807
 30
0.0
  0
VERTEX
  5
61
330
5F
100
AcDbEntity
  8
_U+30EC_U+30A4_U+30E4_U+30FC 1
 62
   179
420
  2234388
370
    25
100
AcDbVertex
100
AcDb2dVertex
 10
88.53723635233803
 20
-120.9721213586458
 30
0.0
  0
SEQEND
  5
62
330
5F
100
AcDbEntity
  8
_U+30EC_U+30A4_U+30E4_U+30FC 1
 62
   179
420
  2234388
370
    25
  0
POLYLINE
  5
63
330
1F
100
AcDbEntity
  8
_U+30EC_U+30A4_U+30E4_U+30FC 1
 62
   179
420
  2234388
370
    25
100
AcDb2dPolyline
 66
     1
 10
0.0
 20
0.0
 30
0.0
  0
VERTEX
  5
64
330
63
100
AcDbEntity
  8
_U+30EC_U+30A4_U+30E4_U+30FC 1
 62
   179
420
  2234388
370
    25
100
AcDbVertex
100
AcDb2dVertex
 10
88.53723635233803
 20
-137.6133194100408
 30
0.0
  0
VERTEX
  5
65
330
63
100
AcDbEntity
  8
_U+30EC_U+30A4_U+30E4_U+30FC 1
 62
   179
420
  2234388
370
    25
100
AcDbVertex
100
AcDb2dVertex
 10
98.03743583218997
 20
-137.6133194100408
 30
0.0
  0
SEQEND
  5
66
330
63
100
AcDbEntity
  8
_U+30EC_U+30A4_U+30E4_U+30FC 1
 62
   179
420
  2234388
370
    25
  0
SPLINE
  5
67
330
1F
100
AcDbEntity
  8
_U+30EC_U+30A4_U+30E4_U+30FC 1
 62
   179
420
  2234388
370
    25
100
AcDbSpline
210
0.0
220
0.0
230
1.0
 70
     8
 71
     3
 72
     8
 73
     4
 74
     0
 42
0.0000000001
 43
0.0000000001
 12
1.0
 22
0.0
 32
0.0
 13
1.0
 23
0.0
 33
0.0
 40
0.0
 40
0.0
 40
0.0
 40
0.0
 40
1.0
 40
1.0
 40
1.0
 40
1.0
 10
80.53701266755185
 20
-137.3135994101159
 30
0.0
 10
80.53701266755185
 20
-137.7552419100059
 30
0.0
 10
80.89532904729933
 20
-138.113523021027
 30
0.0
 10
81.3369715360321
 20
-138.113523021027
 30
0.0
  0
SPLINE
  5
68
330
1F
100
AcDbEntity
  8
_U+30EC_U+30A4_U+30E4_U+30FC 1
 62
   179
420
  2234388
370
    25
100
AcDbSpline
210
0.0
220
0.0
230
1.0
 70
     8
 71
     3
 72
     8
 73
     4
 74
     0
 42
0.0000000001
 43
0.0000000001
 12
1.0
 22
0.0
 32
0.0
 13
1.0
 23
0.0
 33
0.0
 40
0.0
 40
0.0
 40
0.0
 40
0.0
 40
1.0
 40
1.0
 40
1.0
 40
1.0
 10
98.53696915277915
 20
-138.113523021027
 30
0.0
 10
98.53696915277915
 20
-137.8372274655406
 30
0.0
 10
98.31302582515909
 20
-137.6133194100408
 30
0.0
 10
98.03743583218997
 20
-137.6133194100408
 30
0.0
  0
SPLINE
  5
69
330
1F
100
AcDbEntity
  8
_U+30EC_U+30A4_U+30E4_U+30FC 1
 62
   179
420
  2234388
370
    25
100
AcDbSpline
210
0.0
220
0.0
230
1.0
 70
     8
 71
     3
 72
     8
 73
     4
 74
     0
 42
0.0000000001
 43
0.0000000001
 12
1.0
 22
0.0
 32
0.0
 13
1.0
 23
0.0
 33
0.0
 40
0.0
 40
0.0
 40
0.0
 40
0.0
 40
1.0
 40
1.0
 40
1.0
 40
1.0
 10
88.53723635233803
 20
-137.6133194100408
 30
0.0
 10
88.35876607911341
 20
-137.3039332990076
 30
0.0
 10
88.0287424764219
 20
-137.1137507990551
 30
0.0
 10
87.67113165221198
 20
-137.1137507990551
 30
0.0
  0
SPLINE
  5
6A
330
1F
100
AcDbEntity
  8
_U+30EC_U+30A4_U+30E4_U+30FC 1
 62
   179
420
  2234388
370
    25
100
AcDbSpline
210
0.0
220
0.0
230
1.0
 70
     8
 71
     3
 72
     8
 73
     4
 74
     0
 42
0.0000000001
 43
0.0000000001
 12
1.0
 22
0.0
 32
0.0
 13
1.0
 23
0.0
 33
0.0
 40
0.0
 40
0.0
 40
0.0
 40
0.0
 40
1.0
 40
1.0
 40
1.0
 40
1.0
 10
86.52735557028103
 20
-120.771602469807
 30
0.0
 10
85.20098171523075
 20
-120.638640525396
 30
0.0
 10
83.8698100825251
 20
-120.5724946920792
 30
0.0
 10
82.53726261652122
 20
-120.5724946920792
 30
0.0
  0
SPLINE
  5
6B
330
1F
100
AcDbEntity
  8
_U+30EC_U+30A4_U+30E4_U+30FC 1
 62
   179
420
  2234388
370
     9
100
AcDbSpline
210
0.0
220
0.0
230
1.0
 70
    11
 71
     3
 72
    17
 73
    13
 74
     0
 42
0.0000000001
 43
0.0000000001
 12
1.0
 22
0.0
 32
0.0
 13
1.0
 23
0.0
 33
0.0
 40
0.0
 40
0.0
 40
0.0
 40
0.0
 40
1.0
 40
1.0
 40
1.0
 40
2.0
 40
2.0
 40
2.0
 40
3.0
 40
3.0
 40
3.0
 40
4.0
 40
4.0
 40
4.0
 40
4.0
 10
80.63691933166969
 20
-116.5720299708571
 30
0.0
 10
80.63691933166969
 20
-116.5169260819819
 30
0.0
 10
80.59215183281181
 20
-116.4721233042152
 30
0.0
 10
80.53701266755185
 20
-116.4721233042152
 30
0.0
 10
80.48190878006878
 20
-116.4721233042152
 30
0.0
 10
80.43710600343402
 20
-116.5169260819819
 30
0.0
 10
80.43710600343402
 20
-116.5720299708571
 30
0.0
 10
80.43710600343402
 20
-116.6278394152876
 30
0.0
 10
80.48190878006878
 20
-116.672642193054
 30
0.0
 10
80.53701266755185
 20
-116.672642193054
 30
0.0
 10
80.59215183281181
 20
-116.672642193054
 30
0.0
 10
80.63691933166969
 20
-116.6278394152876
 30
0.0
 10
80.63691933166969
 20
-116.5720299708571
 30
0.0
  0
SPLINE
  5
6C
330
1F
100
AcDbEntity
  8
_U+30EC_U+30A4_U+30E4_U+30FC 1
 62
   179
420
  2234388
370
     9
100
AcDbSpline
210
0.0
220
0.0
230
1.0
 70
    11
 71
     3
 72
    17
 73
    13
 74
     0
 42
0.0000000001
 43
0.0000000001
 12
1.0
 22
0.0
 32
0.0
 13
1.0
 23
0.0
 33
0.0
 40
0.0
 40
0.0
 40
0.0
 40
0.0
 40
1.0
 40
1.0
 40
1.0
 40
2.0
 40
2.0
 40
2.0
 40
3.0
 40
3.0
 40
3.0
 40
4.0
 40
4.0
 40
4.0
 40
4.0
 10
88.63714301645587
 20
-116.5720299708571
 30
0.0
 10
88.63714301645587
 20
-116.5169260819819
 30
0.0
 10
88.5923402398211
 20
-116.4721233042152
 30
0.0
 10
88.53723635233803
 20
-116.4721233042152
 30
0.0
 10
88.48209718707808
 20
-116.4721233042152
 30
0.0
 10
88.4373296882202
 20
-116.5169260819819
 30
0.0
 10
88.4373296882202
 20
-116.5720299708571
 30
0.0
 10
88.4373296882202
 20
-116.6278394152876
 30
0.0
 10
88.48209718707808
 20
-116.672642193054
 30
0.0
 10
88.53723635233803
 20
-116.672642193054
 30
0.0
 10
88.5923402398211
 20
-116.672642193054
 30
0.0
 10
88.63714301645587
 20
-116.6278394152876
 30
0.0
 10
88.63714301645587
 20
-116.5720299708571
 30
0.0
  0
SPLINE
  5
6D
330
1F
100
AcDbEntity
  8
_U+30EC_U+30A4_U+30E4_U+30FC 1
 62
   179
420
  2234388
370
     9
100
AcDbSpline
210
0.0
220
0.0
230
1.0
 70
    11
 71
     3
 72
    17
 73
    13
 74
     0
 42
0.0000000001
 43
0.0000000001
 12
1.0
 22
0.0
 32
0.0
 13
1.0
 23
0.0
 33
0.0
 40
0.0
 40
0.0
 40
0.0
 40
0.0
 40
1.0
 40
1.0
 40
1.0
 40
2.0
 40
2.0
 40
2.0
 40
3.0
 40
3.0
 40
3.0
 40
4.0
 40
4.0
 40
4.0
 40
4.0
 10
102.5146796068549
 20
-121.6142827473742
 30
0.0
 10
102.5146796068549
 20
-121.5591435807215
 30
0.0
 10
102.4698768302201
 20
-121.5143760807326
 30
0.0
 10
102.414772942737
 20
-121.5143760807326
 30
0.0
 10
102.3596337774771
 20
-121.5143760807326
 30
0.0
 10
102.3148662786192
 20
-121.5591435807215
 30
0.0
 10
102.3148662786192
 20
-121.6142827473742
 30
0.0
 10
102.3148662786192
 20
-121.6693866362495
 30
0.0
 10
102.3596337774771
 20
-121.7141894140159
 30
0.0
 10
102.414772942737
 20
-121.7141894140159
 30
0.0
 10
102.4698768302201
 20
-121.7141894140159
 30
0.0
 10
102.5146796068549
 20
-121.6693866362495
 30
0.0
 10
102.5146796068549
 20
-121.6142827473742
 30
0.0
  0
SPLINE
  5
6E
330
1F
100
AcDbEntity
  8
_U+30EC_U+30A4_U+30E4_U+30FC 1
 62
   179
420
  2234388
370
     9
100
AcDbSpline
210
0.0
220
0.0
230
1.0
 70
    11
 71
     3
 72
    17
 73
    13
 74
     0
 42
0.0000000001
 43
0.0000000001
 12
1.0
 22
0.0
 32
0.0
 13
1.0
 23
0.0
 33
0.0
 40
0.0
 40
0.0
 40
0.0
 40
0.0
 40
1.0
 40
1.0
 40
1.0
 40
2.0
 40
2.0
 40
2.0
 40
3.0
 40
3.0
 40
3.0
 40
4.0
 40
4.0
 40
4.0
 40
4.0
 10
102.5146796068549
 20
-137.1137507990551
 30
0.0
 10
102.5146796068549
 20
-137.0579413546247
 30
0.0
 10
102.4698768302201
 20
-137.0131738546355
 30
0.0
 10
102.414772942737
 20
-137.0131738546355
 30
0.0
 10
102.3596337774771
 20
-137.0131738546355
 30
0.0
 10
102.3148662786192
 20
-137.0579413546247
 30
0.0
 10
102.3148662786192
 20
-137.1137507990551
 30
0.0
 10
102.3148662786192
 20
-137.1688899657075
 30
0.0
 10
102.3596337774771
 20
-137.2136574656967
 30
0.0
 10
102.414772942737
 20
-137.2136574656967
 30
0.0
 10
102.4698768302201
 20
-137.2136574656967
 30
0.0
 10
102.5146796068549
 20
-137.1688899657075
 30
0.0
 10
102.5146796068549
 20
-137.1137507990551
 30
0.0
  0
SPLINE
  5
6F
330
1F
100
AcDbEntity
  8
_U+30EC_U+30A4_U+30E4_U+30FC 1
 62
   179
420
  2234388
370
     9
100
AcDbSpline
210
0.0
220
0.0
230
1.0
 70
    11
 71
     3
 72
    17
 73
    13
 74
     0
 42
0.0000000001
 43
0.0000000001
 12
1.0
 22
0.0
 32
0.0
 13
1.0
 23
0.0
 33
0.0
 40
0.0
 40
0.0
 40
0.0
 40
0.0
 40
1.0
 40
1.0
 40
1.0
 40
2.0
 40
2.0
 40
2.0
 40
3.0
 40
3.0
 40
3.0
 40
4.0
 40
4.0
 40
4.0
 40
4.0
 10
80.63691933166969
 20
-142.1132821866939
 30
0.0
 10
80.63691933166969
 20
-142.058178297819
 30
0.0
 10
80.59215183281181
 20
-142.0133755200523
 30
0.0
 10
80.53701266755185
 20
-142.0133755200523
 30
0.0
 10
80.48190878006878
 20
-142.0133755200523
 30
0.0
 10
80.43710600343402
 20
-142.058178297819
 30
0.0
 10
80.43710600343402
 20
-142.1132821866939
 30
0.0
 10
80.43710600343402
 20
-142.168421353347
 30
0.0
 10
80.48190878006878
 20
-142.2131888533355
 30
0.0
 10
80.53701266755185
 20
-142.2131888533355
 30
0.0
 10
80.59215183281181
 20
-142.2131888533355
 30
0.0
 10
80.63691933166969
 20
-142.168421353347
 30
0.0
 10
80.63691933166969
 20
-142.1132821866939
 30
0.0
  0
SPLINE
  5
70
330
1F
100
AcDbEntity
  8
_U+30EC_U+30A4_U+30E4_U+30FC 1
 62
   179
420
  2234388
370
     9
100
AcDbSpline
210
0.0
220
0.0
230
1.0
 70
    11
 71
     3
 72
    17
 73
    13
 74
     0
 42
0.0000000001
 43
0.0000000001
 12
1.0
 22
0.0
 32
0.0
 13
1.0
 23
0.0
 33
0.0
 40
0.0
 40
0.0
 40
0.0
 40
0.0
 40
1.0
 40
1.0
 40
1.0
 40
2.0
 40
2.0
 40
2.0
 40
3.0
 40
3.0
 40
3.0
 40
4.0
 40
4.0
 40
4.0
 40
4.0
 10
98.63687581689699
 20
-142.1132821866939
 30
0.0
 10
98.63687581689699
 20
-142.058178297819
 30
0.0
 10
98.59207304026222
 20
-142.0133755200523
 30
0.0
 10
98.53696915277915
 20
-142.0133755200523
 30
0.0
 10
98.4818299875192
 20
-142.0133755200523
 30
0.0
 10
98.43706248866131
 20
-142.058178297819
 30
0.0
 10
98.43706248866131
 20
-142.1132821866939
 30
0.0
 10
98.43706248866131
 20
-142.168421353347
 30
0.0
 10
98.4818299875192
 20
-142.2131888533355
 30
0.0
 10
98.53696915277915
 20
-142.2131888533355
 30
0.0
 10
98.59207304026222
 20
-142.2131888533355
 30
0.0
 10
98.63687581689699
 20
-142.168421353347
 30
0.0
 10
98.63687581689699
 20
-142.1132821866939
 30
0.0
  0
POLYLINE
  5
71
330
1F
100
AcDbEntity
  8
_U+30EC_U+30A4_U+30E4_U+30FC 1
 62
   179
420
  2234388
370
     9
100
AcDb2dPolyline
 66
     1
 10
0.0
 20
0.0
 30
0.0
  0
VERTEX
  5
72
330
71
100
AcDbEntity
  8
_U+30EC_U+30A4_U+30E4_U+30FC 1
 62
   179
420
  2234388
370
     9
100
AcDbVertex
100
AcDb2dVertex
 10
80.53701266755185
 20
-116.5720299708571
 30
0.0
  0
VERTEX
  5
73
330
71
100
AcDbEntity
  8
_U+30EC_U+30A4_U+30E4_U+30FC 1
 62
   179
420
  2234388
370
     9
100
AcDbVertex
100
AcDb2dVertex
 10
88.53723635233803
 20
-116.5720299708571
 30
0.0
  0
SEQEND
  5
74
330
71
100
AcDbEntity
  8
_U+30EC_U+30A4_U+30E4_U+30FC 1
 62
   179
420
  2234388
370
     9
  0
POLYLINE
  5
75
330
1F
100
AcDbEntity
  8
_U+30EC_U+30A4_U+30E4_U+30FC 1
 62
   179
420
  2234388
370
     9
100
AcDb2dPolyline
 66
     1
 10
0.0
 20
0.0
 30
0.0
  0
VERTEX
  5
76
330
75
100
AcDbEntity
  8
_U+30EC_U+30A4_U+30E4_U+30FC 1
 62
   179
420
  2234388
370
     9
100
AcDbVertex
100
AcDb2dVertex
 10
80.53701266755185
 20
-118.0320713593809
 30
0.0
  0
VERTEX
  5
77
330
75
100
AcDbEntity
  8
_U+30EC_U+30A4_U+30E4_U+30FC 1
 62
   179
420
  2234388
370
     9
100
AcDbVertex
100
AcDb2dVertex
 10
80.53701266755185
 20
-115.5722577488846
 30
0.0
  0
SEQEND
  5
78
330
75
100
AcDbEntity
  8
_U+30EC_U+30A4_U+30E4_U+30FC 1
 62
   179
420
  2234388
370
     9
  0
POLYLINE
  5
79
330
1F
100
AcDbEntity
  8
_U+30EC_U+30A4_U+30E4_U+30FC 1
 62
   179
420
  2234388
370
     9
100
AcDb2dPolyline
 66
     1
 10
0.0
 20
0.0
 30
0.0
  0
VERTEX
  5
7A
330
79
100
AcDbEntity
  8
_U+30EC_U+30A4_U+30E4_U+30FC 1
 62
   179
420
  2234388
370
     9
100
AcDbVertex
100
AcDb2dVertex
 10
88.53723635233803
 20
-118.4324035815029
 30
0.0
  0
VERTEX
  5
7B
330
79
100
AcDbEntity
  8
_U+30EC_U+30A4_U+30E4_U+30FC 1
 62
   179
420
  2234388
370
     9
100
AcDbVertex
100
AcDb2dVertex
 10
88.53723635233803
 20
-115.5722577488846
 30
0.0
  0
SEQEND
  5
7C
330
79
100
AcDbEntity
  8
_U+30EC_U+30A4_U+30E4_U+30FC 1
 62
   179
420
  2234388
370
     9
  0
INSERT
  5
7E
330
1F
100
AcDbEntity
  8
_U+30EC_U+30A4_U+30E4_U+30FC 1
100
AcDbBlockReference
  2
block 2
 10
0.0
 20
0.0
 30
0.0
  0
POLYLINE
  5
85
330
1F
100
AcDbEntity
  8
_U+30EC_U+30A4_U+30E4_U+30FC 1
 62
   179
420
  2234388
370
     9
100
AcDb2dPolyline
 66
     1
 10
0.0
 20
0.0
 30
0.0
  0
VERTEX
  5
86
330
85
100
AcDbEntity
  8
_U+30EC_U+30A4_U+30E4_U+30FC 1
 62
   179
420
  2234388
370
     9
100
AcDbVertex
100
AcDb2dVertex
 10
80.53701266755185
 20
-142.1132821866939
 30
0.0
  0
VERTEX
  5
87
330
85
100
AcDbEntity
  8
_U+30EC_U+30A4_U+30E4_U+30FC 1
 62
   179
420
  2234388
370
     9
100
AcDbVertex
100
AcDb2dVertex
 10
98.53696915277915
 20
-142.1132821866939
 30
0.0
  0
SEQEND
  5
88
330
85
100
AcDbEntity
  8
_U+30EC_U+30A4_U+30E4_U+30FC 1
 62
   179
420
  2234388
370
     9
  0
POLYLINE
  5
89
330
1F
100
AcDbEntity
  8
_U+30EC_U+30A4_U+30E4_U+30FC 1
 62
   179
420
  2234388
370
     9
100
AcDb2dPolyline
 66
     1
 10
0.0
 20
0.0
 30
0.0
  0
VERTEX
  5
8A
330
89
100
AcDbEntity
  8
_U+30EC_U+30A4_U+30E4_U+30FC 1
 62
   179
420
  2234388
370
     9
100
AcDbVertex
100
AcDb2dVertex
 10
80.53701266755185
 20
-139.8533171872591
 30
0.0
  0
VERTEX
  5
8B
330
89
100
AcDbEntity
  8
_U+30EC_U+30A4_U+30E4_U+30FC 1
 62
   179
420
  2234388
370
     9
100
AcDbVertex
100
AcDb2dVertex
 10
80.53701266755185
 20
-143.1130544086664
 30
0.0
  0
SEQEND
  5
8C
330
89
100
AcDbEntity
  8
_U+30EC_U+30A4_U+30E4_U+30FC 1
 62
   179
420
  2234388
370
     9
  0
POLYLINE
  5
8D
330
1F
100
AcDbEntity
  8
_U+30EC_U+30A4_U+30E4_U+30FC 1
 62
   179
420
  2234388
370
     9
100
AcDb2dPolyline
 66
     1
 10
0.0
 20
0.0
 30
0.0
  0
VERTEX
  5
8E
330
8D
100
AcDbEntity
  8
_U+30EC_U+30A4_U+30E4_U+30FC 1
 62
   179
420
  2234388
370
     9
100
AcDbVertex
100
AcDb2dVertex
 10
98.53696915277915
 20
-140.6532407981702
 30
0.0
  0
VERTEX
  5
8F
330
8D
100
AcDbEntity
  8
_U+30EC_U+30A4_U+30E4_U+30FC 1
 62
   179
420
  2234388
370
     9
100
AcDbVertex
100
AcDb2dVertex
 10
98.53696915277915
 20
-143.1130544086664
 30
0.0
  0
SEQEND
  5
90
330
8D
100
AcDbEntity
  8
_U+30EC_U+30A4_U+30E4_U+30FC 1
 62
   179
420
  2234388
370
     9
  0
INSERT
  5
92
330
1F
100
AcDbEntity
  8
_U+30EC_U+30A4_U+30E4_U+30FC 1
100
AcDbBlockReference
  2
block 3
 10
0.0
 20
0.0
 30
0.0
  0
POLYLINE
  5
9B
330
1F
100
AcDbEntity
  8
_U+30EC_U+30A4_U+30E4_U+30FC 1
 62
   179
420
  2234388
370
     9
100
AcDb2dPolyline
 66
     1
 10
0.0
 20
0.0
 30
0.0
  0
VERTEX
  5
9C
330
9B
100
AcDbEntity
  8
_U+30EC_U+30A4_U+30E4_U+30FC 1
 62
   179
420
  2234388
370
     9
100
AcDbVertex
100
AcDb2dVertex
 10
102.414772942737
 20
-137.1137507990551
 30
0.0
  0
VERTEX
  5
9D
330
9B
100
AcDbEntity
  8
_U+30EC_U+30A4_U+30E4_U+30FC 1
 62
   179
420
  2234388
370
     9
100
AcDbVertex
100
AcDb2dVertex
 10
102.414772942737
 20
-121.6142827473742
 30
0.0
  0
SEQEND
  5
9E
330
9B
100
AcDbEntity
  8
_U+30EC_U+30A4_U+30E4_U+30FC 1
 62
   179
420
  2234388
370
     9
  0
POLYLINE
  5
9F
330
1F
100
AcDbEntity
  8
_U+30EC_U+30A4_U+30E4_U+30FC 1
 62
   179
420
  2234388
370
     9
100
AcDb2dPolyline
 66
     1
 10
0.0
 20
0.0
 30
0.0
  0
VERTEX
  5
A0
330
9F
100
AcDbEntity
  8
_U+30EC_U+30A4_U+30E4_U+30FC 1
 62
   179
420
  2234388
370
     9
100
AcDbVertex
100
AcDb2dVertex
 10
101.2868365826242
 20
-137.1137507990551
 30
0.0
  0
VERTEX
  5
A1
330
9F
100
AcDbEntity
  8
_U+30EC_U+30A4_U+30E4_U+30FC 1
 62
   179
420
  2234388
370
     9
100
AcDbVertex
100
AcDb2dVertex
 10
103.4152154172136
 20
-137.1137507990551
 30
0.0
  0
SEQEND
  5
A2
330
9F
100
AcDbEntity
  8
_U+30EC_U+30A4_U+30E4_U+30FC 1
 62
   179
420
  2234388
370
     9
  0
POLYLINE
  5
A3
330
1F
100
AcDbEntity
  8
_U+30EC_U+30A4_U+30E4_U+30FC 1
 62
   179
420
  2234388
370
     9
100
AcDb2dPolyline
 66
     1
 10
0.0
 20
0.0
 30
0.0
  0
VERTEX
  5
A4
330
A3
100
AcDbEntity
  8
_U+30EC_U+30A4_U+30E4_U+30FC 1
 62
   179
420
  2234388
370
     9
100
AcDbVertex
100
AcDb2dVertex
 10
101.2868365826242
 20
-121.6135771918187
 30
0.0
  0
VERTEX
  5
A5
330
A3
100
AcDbEntity
  8
_U+30EC_U+30A4_U+30E4_U+30FC 1
 62
   179
420
  2234388
370
     9
100
AcDbVertex
100
AcDb2dVertex
 10
103.4152154172136
 20
-121.6142827473742
 30
0.0
  0
SEQEND
  5
A6
330
A3
100
AcDbEntity
  8
_U+30EC_U+30A4_U+30E4_U+30FC 1
 62
   179
420
  2234388
370
     9
  0
INSERT
  5
A8
330
1F
100
AcDbEntity
  8
_U+30EC_U+30A4_U+30E4_U+30FC 1
100
AcDbBlockReference
  2
block 4
 10
0.0
 20
0.0
 30
0.0
  0
SPLINE
  5
B9
330
1F
100
AcDbEntity
  8
_U+30EC_U+30A4_U+30E4_U+30FC 1
 62
   179
420
  2234388
370
     9
100
AcDbSpline
210
0.0
220
0.0
230
1.0
 70
    11
 71
     3
 72
    17
 73
    13
 74
     0
 42
0.0000000001
 43
0.0000000001
 12
1.0
 22
0.0
 32
0.0
 13
1.0
 23
0.0
 33
0.0
 40
0.0
 40
0.0
 40
0.0
 40
0.0
 40
1.0
 40
1.0
 40
1.0
 40
2.0
 40
2.0
 40
2.0
 40
3.0
 40
3.0
 40
3.0
 40
4.0
 40
4.0
 40
4.0
 40
4.0
 10
102.5146796068549
 20
-138.1093955210283
 30
0.0
 10
102.5146796068549
 20
-138.0535860765979
 30
0.0
 10
102.4698768302201
 20
-138.0088185766087
 30
0.0
 10
102.414772942737
 20
-138.0088185766087
 30
0.0
 10
102.3596337774771
 20
-138.0088185766087
 30
0.0
 10
102.3148662786192
 20
-138.0535860765979
 30
0.0
 10
102.3148662786192
 20
-138.1093955210283
 30
0.0
 10
102.3148662786192
 20
-138.1645346876808
 30
0.0
 10
102.3596337774771
 20
-138.20930218767
 30
0.0
 10
102.414772942737
 20
-138.20930218767
 30
0.0
 10
102.4698768302201
 20
-138.20930218767
 30
0.0
 10
102.5146796068549
 20
-138.1645346876808
 30
0.0
 10
102.5146796068549
 20
-138.1093955210283
 30
0.0
  0
POLYLINE
  5
BA
330
1F
100
AcDbEntity
  8
_U+30EC_U+30A4_U+30E4_U+30FC 1
 62
   179
420
  2234388
370
     9
100
AcDb2dPolyline
 66
     1
 10
0.0
 20
0.0
 30
0.0
  0
VERTEX
  5
BB
330
BA
100
AcDbEntity
  8
_U+30EC_U+30A4_U+30E4_U+30FC 1
 62
   179
420
  2234388
370
     9
100
AcDbVertex
100
AcDb2dVertex
 10
102.414772942737
 20
-138.1093955210283
 30
0.0
  0
VERTEX
  5
BC
330
BA
100
AcDbEntity
  8
_U+30EC_U+30A4_U+30E4_U+30FC 1
 62
   179
420
  2234388
370
     9
100
AcDbVertex
100
AcDb2dVertex
 10
102.414772942737
 20
-135.9562163548996
 30
0.0
  0
SEQEND
  5
BD
330
BA
100
AcDbEntity
  8
_U+30EC_U+30A4_U+30E4_U+30FC 1
 62
   179
420
  2234388
370
     9
  0
POLYLINE
  5
BE
330
1F
100
AcDbEntity
  8
_U+30EC_U+30A4_U+30E4_U+30FC 1
 62
   179
420
  2234388
370
     9
100
AcDb2dPolyline
 66
     1
 10
0.0
 20
0.0
 30
0.0
  0
VERTEX
  5
BF
330
BE
100
AcDbEntity
  8
_U+30EC_U+30A4_U+30E4_U+30FC 1
 62
   179
420
  2234388
370
     9
100
AcDbVertex
100
AcDb2dVertex
 10
101.2868365826242
 20
-138.1093955210283
 30
0.0
  0
VERTEX
  5
C0
330
BE
100
AcDbEntity
  8
_U+30EC_U+30A4_U+30E4_U+30FC 1
 62
   179
420
  2234388
370
     9
100
AcDbVertex
100
AcDb2dVertex
 10
103.4152154172136
 20
-138.1093955210283
 30
0.0
  0
SEQEND
  5
C1
330
BE
100
AcDbEntity
  8
_U+30EC_U+30A4_U+30E4_U+30FC 1
 62
   179
420
  2234388
370
     9
  0
INSERT
  5
C3
330
1F
100
AcDbEntity
  8
_U+30EC_U+30A4_U+30E4_U+30FC 1
100
AcDbBlockReference
  2
block 5
 10
0.0
 20
0.0
 30
0.0
  0
SPLINE
  5
C8
330
1F
100
AcDbEntity
  8
_U+30EC_U+30A4_U+30E4_U+30FC 1
 62
   179
420
  2234388
370
     9
100
AcDbSpline
210
0.0
220
0.0
230
1.0
 70
    11
 71
     3
 72
    17
 73
    13
 74
     0
 42
0.0000000001
 43
0.0000000001
 12
1.0
 22
0.0
 32
0.0
 13
1.0
 23
0.0
 33
0.0
 40
0.0
 40
0.0
 40
0.0
 40
0.0
 40
1.0
 40
1.0
 40
1.0
 40
2.0
 40
2.0
 40
2.0
 40
3.0
 40
3.0
 40
3.0
 40
4.0
 40
4.0
 40
4.0
 40
4.0
 10
80.6465854425342
 20
-129.2768630232366
 30
0.0
 10
80.6465854425342
 20
-129.2217591343611
 30
0.0
 10
80.60178266589944
 20
-129.1769563565944
 30
0.0
 10
80.54667877841636
 20
-129.1769563565944
 30
0.0
 10
80.49154164654377
 20
-129.1769563565944
 30
0.0
 10
80.44677211429853
 20
-129.2217591343611
 30
0.0
 10
80.44677211429853
 20
-129.2768630232366
 30
0.0
 10
80.44677211429853
 20
-129.3320021898891
 30
0.0
 10
80.49154164654377
 20
-129.3767696898783
 30
0.0
 10
80.54667877841636
 20
-129.3767696898783
 30
0.0
 10
80.60178266589944
 20
-129.3767696898783
 30
0.0
 10
80.6465854425342
 20
-129.3320021898891
 30
0.0
 10
80.6465854425342
 20
-129.2768630232366
 30
0.0
  0
SPLINE
  5
C9
330
1F
100
AcDbEntity
  8
_U+30EC_U+30A4_U+30E4_U+30FC 1
 62
   179
420
  2234388
370
     9
100
AcDbSpline
210
0.0
220
0.0
230
1.0
 70
    11
 71
     3
 72
    17
 73
    13
 74
     0
 42
0.0000000001
 43
0.0000000001
 12
1.0
 22
0.0
 32
0.0
 13
1.0
 23
0.0
 33
0.0
 40
0.0
 40
0.0
 40
0.0
 40
0.0
 40
1.0
 40
1.0
 40
1.0
 40
2.0
 40
2.0
 40
2.0
 40
3.0
 40
3.0
 40
3.0
 40
4.0
 40
4.0
 40
4.0
 40
4.0
 10
81.6463576392501
 20
-129.2768630232366
 30
0.0
 10
81.6463576392501
 20
-129.2217591343611
 30
0.0
 10
81.60155486261534
 20
-129.1769563565944
 30
0.0
 10
81.54645097513227
 20
-129.1769563565944
 30
0.0
 10
81.49131386851599
 20
-129.1769563565944
 30
0.0
 10
81.44654431101443
 20
-129.2217591343611
 30
0.0
 10
81.44654431101443
 20
-129.2768630232366
 30
0.0
 10
81.44654431101443
 20
-129.3320021898891
 30
0.0
 10
81.49131386851599
 20
-129.3767696898783
 30
0.0
 10
81.54645097513227
 20
-129.3767696898783
 30
0.0
 10
81.60155486261534
 20
-129.3767696898783
 30
0.0
 10
81.6463576392501
 20
-129.3320021898891
 30
0.0
 10
81.6463576392501
 20
-129.2768630232366
 30
0.0
  0
INSERT
  5
CB
330
1F
100
AcDbEntity
  8
_U+30EC_U+30A4_U+30E4_U+30FC 1
100
AcDbBlockReference
  2
block 6
 10
0.0
 20
0.0
 30
0.0
  0
POLYLINE
  5
D0
330
1F
100
AcDbEntity
  8
_U+30EC_U+30A4_U+30E4_U+30FC 1
 62
   179
420
  2234388
370
     9
100
AcDb2dPolyline
 66
     1
 10
0.0
 20
0.0
 30
0.0
  0
VERTEX
  5
D1
330
D0
100
AcDbEntity
  8
_U+30EC_U+30A4_U+30E4_U+30FC 1
 62
   179
420
  2234388
370
     9
100
AcDbVertex
100
AcDb2dVertex
 10
82.40772261982606
 20
-129.2768630232366
 30
0.0
  0
VERTEX
  5
D2
330
D0
100
AcDbEntity
  8
_U+30EC_U+30A4_U+30E4_U+30FC 1
 62
   179
420
  2234388
370
     9
100
AcDbVertex
100
AcDb2dVertex
 10
78.56851271777246
 20
-129.2768630232366
 30
0.0
  0
SEQEND
  5
D3
330
D0
100
AcDbEntity
  8
_U+30EC_U+30A4_U+30E4_U+30FC 1
 62
   179
420
  2234388
370
     9
  0
ENDSEC
  0
SECTION
  2
OBJECTS
  0
DICTIONARY
  5
C
330
0
100
AcDbDictionary
281
     1
  3
ACAD_GROUP
350
D
  3
ACAD_LAYOUT
350
1A
  3
ACAD_MATERIAL
350
3B
  3
ACAD_MLEADERSTYLE
350
D5
  3
ACAD_MLINESTYLE
350
17
  3
ACAD_PLOTSETTINGS
350
19
  3
ACAD_PLOTSTYLENAME
350
E
  3
ACAD_TABLESTYLE
350
D4
  3
ACAD_VISUALSTYLE
350
2A
  0
SUN
  5
3F
330
29
100
AcDbSun
 90
        1
290
     0
 63
     7
421
 16777215
 40
1.0
291
     1
 91
  2455826
 92
 54000000
292
     0
 70
     2
 71
   256
280
     1
  0
DICTIONARY
  5
D
102
{ACAD_REACTORS
330
C
102
}
330
C
100
AcDbDictionary
281
     1
  0
DICTIONARY
  5
1A
102
{ACAD_REACTORS
330
C
102
}
330
C
100
AcDbDictionary
281
     1
  3
Layout1
350
1E
  3
Layout2
350
26
  3
Model
350
22
  0
DICTIONARY
  5
3B
102
{ACAD_REACTORS
330
C
102
}
330
C
100
AcDbDictionary
281
     1
  3
ByBlock
350
3D
  3
ByLayer
350
3C
  3
Global
350
3E
  0
DICTIONARY
  5
D5
102
{ACAD_REACTORS
330
C
102
}
330
C
100
AcDbDictionary
281
     1
  0
DICTIONARY
  5
17
102
{ACAD_REACTORS
330
C
102
}
330
C
100
AcDbDictionary
281
     1
  3
Standard
350
18
  0
DICTIONARY
  5
19
102
{ACAD_REACTORS
330
C
102
}
330
C
100
AcDbDictionary
281
     1
  0
ACDBDICTIONARYWDFLT
  5
E
102
{ACAD_REACTORS
330
C
102
}
330
C
100
AcDbDictionary
281
     1
  3
Normal
350
F
100
AcDbDictionaryWithDefault
340
F
  0
DICTIONARY
  5
D4
102
{ACAD_REACTORS
330
C
102
}
330
C
100
AcDbDictionary
281
     1
  0
DICTIONARY
  5
2A
102
{ACAD_REACTORS
330
C
102
}
330
C
100
AcDbDictionary
281
     1
  3
2dWireframe
350
2F
  3
3D Hidden
350
31
  3
3dWireframe
350
30
  3
Basic
350
32
  3
Brighten
350
36
  3
ColorChange
350
3A
  3
Conceptual
350
34
  3
Dim
350
35
  3
Facepattern
350
39
  3
Flat
350
2B
  3
FlatWithEdges
350
2C
  3
Gouraud
350
2D
  3
GouraudWithEdges
350
2E
  3
Linepattern
350
38
  3
Realistic
350
33
  3
Thicken
350
37
  0
LAYOUT
  5
1E
102
{ACAD_REACTORS
330
1A
102
}
330
1A
100
AcDbPlotSettings
  1

  2
none_device
  4

  6

 40
0.0
 41
0.0
 42
0.0
 43
0.0
 44
0.0
 45
0.0
 46
0.0
 47
0.0
 48
0.0
 49
0.0
140
0.0
141
0.0
142
1.0
143
1.0
 70
   688
 72
     0
 73
     0
 74
     5
  7

 75
    16
 76
     0
 77
     2
 78
   300
147
1.0
148
0.0
149
0.0
100
AcDbLayout
  1
Layout1
 70
     1
 71
     1
 10
0.0
 20
0.0
 11
12.0
 21
9.0
 12
0.0
 22
0.0
 32
0.0
 14
1.000000000000000E+20
 24
1.000000000000000E+20
 34
1.000000000000000E+20
 15
-1.000000000000000E+20
 25
-1.000000000000000E+20
 35
-1.000000000000000E+20
146
0.0
 13
0.0
 23
0.0
 33
0.0
 16
1.0
 26
0.0
 36
0.0
 17
0.0
 27
1.0
 37
0.0
 76
     0
330
1B
  0
LAYOUT
  5
26
102
{ACAD_REACTORS
330
1A
102
}
330
1A
100
AcDbPlotSettings
  1

  2
none_device
  4

  6

 40
0.0
 41
0.0
 42
0.0
 43
0.0
 44
0.0
 45
0.0
 46
0.0
 47
0.0
 48
0.0
 49
0.0
140
0.0
141
0.0
142
1.0
143
1.0
 70
   688
 72
     0
 73
     0
 74
     5
  7

 75
    16
 76
     0
 77
     2
 78
   300
147
1.0
148
0.0
149
0.0
100
AcDbLayout
  1
Layout2
 70
     1
 71
     2
 10
0.0
 20
0.0
 11
0.0
 21
0.0
 12
0.0
 22
0.0
 32
0.0
 14
0.0
 24
0.0
 34
0.0
 15
0.0
 25
0.0
 35
0.0
146
0.0
 13
0.0
 23
0.0
 33
0.0
 16
1.0
 26
0.0
 36
0.0
 17
0.0
 27
1.0
 37
0.0
 76
     0
330
23
  0
LAYOUT
  5
22
102
{ACAD_REACTORS
330
1A
102
}
330
1A
100
AcDbPlotSettings
  1

  2
none_device
  4

  6

 40
0.0
 41
0.0
 42
0.0
 43
0.0
 44
0.0
 45
0.0
 46
0.0
 47
0.0
 48
0.0
 49
0.0
140
0.0
141
0.0
142
1.0
143
1.0
 70
  1712
 72
     0
 73
     0
 74
     0
  7

 75
     0
 76
     0
 77
     2
 78
   300
147
1.0
148
0.0
149
0.0
100
AcDbLayout
  1
Model
 70
     1
 71
     0
 10
0.0
 20
0.0
 11
12.0
 21
9.0
 12
0.0
 22
0.0
 32
0.0
 14
1.000000000000000E+20
 24
1.000000000000000E+20
 34
1.000000000000000E+20
 15
-1.000000000000000E+20
 25
-1.000000000000000E+20
 35
-1.000000000000000E+20
146
0.0
 13
0.0
 23
0.0
 33
0.0
 16
1.0
 26
0.0
 36
0.0
 17
0.0
 27
1.0
 37
0.0
 76
     0
330
1F
331
29
  0
MATERIAL
  5
3D
102
{ACAD_REACTORS
330
3B
102
}
330
3B
100
AcDbMaterial
  1
ByBlock
 72
     1
 94
      127
  0
MATERIAL
  5
3C
102
{ACAD_REACTORS
330
3B
102
}
330
3B
100
AcDbMaterial
  1
ByLayer
 72
     1
 94
      127
  0
MATERIAL
  5
3E
102
{ACAD_REACTORS
330
3B
102
}
330
3B
100
AcDbMaterial
  1
Global
 72
     1
 94
      127
  0
MLINESTYLE
  5
18
102
{ACAD_REACTORS
330
17
102
}
330
17
100
AcDbMlineStyle
  2
Standard
 70
     0
  3

 62
   256
 51
90.0
 52
90.0
 71
     2
 49
0.5
 62
   256
  6
BYLAYER
 49
-0.5
 62
   256
  6
BYLAYER
  0
ACDBPLACEHOLDER
  5
F
102
{ACAD_REACTORS
330
E
102
}
330
E
  0
VISUALSTYLE
  5
2F
102
{ACAD_REACTORS
330
2A
102
}
330
2A
100
AcDbVisualStyle
  2
2dWireframe
 70
     4
177
     2
291
     0
 71
     0
176
     1
 72
     2
176
     1
 73
     0
176
     1
 90
        0
176
     1
 40
-0.6
176
     1
 41
-30.0
176
     1
 62
     5
 63
     7
421
 16777215
176
     1
 74
     1
176
     1
 91
        4
176
     1
 64
     7
176
     1
 65
   257
176
     1
 75
     1
176
     1
175
     1
176
     1
 42
1.0
176
     1
 92
        0
176
     1
 66
   257
176
     1
 43
1.0
176
     1
 76
     1
176
     1
 77
     6
176
     1
 78
     2
176
     1
 67
     7
176
     1
 79
     5
176
     1
170
     0
176
     1
171
     0
176
     1
290
     0
176
     1
 93
        1
176
     1
 44
0.0
176
     1
173
     0
176
     1
  0
VISUALSTYLE
  5
31
102
{ACAD_REACTORS
330
2A
102
}
330
2A
100
AcDbVisualStyle
  2
3D Hidden
 70
     6
177
     2
291
     0
 71
     1
176
     1
 72
     2
176
     1
 73
     2
176
     1
 90
        0
176
     1
 40
-0.6
176
     1
 41
-30.0
176
     1
 62
     5
 63
     7
421
 16777215
176
     1
 74
     2
176
     1
 91
        2
176
     1
 64
     7
176
     1
 65
   257
176
     1
 75
     2
176
     1
175
     1
176
     1
 42
40.0
176
     1
 92
        0
176
     1
 66
   257
176
     1
 43
1.0
176
     1
 76
     1
176
     1
 77
     6
176
     1
 78
     2
176
     1
 67
     7
176
     1
 79
     3
176
     1
170
     0
176
     1
171
     0
176
     1
290
     0
176
     1
 93
        1
176
     1
 44
0.0
176
     1
173
     0
176
     1
  0
VISUALSTYLE
  5
30
102
{ACAD_REACTORS
330
2A
102
}
330
2A
100
AcDbVisualStyle
  2
3dWireframe
 70
     5
177
     2
291
     0
 71
     0
176
     1
 72
     2
176
     1
 73
     0
176
     1
 90
        0
176
     1
 40
-0.6
176
     1
 41
-30.0
176
     1
 62
     5
 63
     7
421
 16777215
176
     1
 74
     1
176
     1
 91
        4
176
     1
 64
     7
176
     1
 65
   257
176
     1
 75
     1
176
     1
175
     1
176
     1
 42
1.0
176
     1
 92
        0
176
     1
 66
   257
176
     1
 43
1.0
176
     1
 76
     1
176
     1
 77
     6
176
     1
 78
     2
176
     1
 67
     7
176
     1
 79
     5
176
     1
170
     0
176
     1
171
     0
176
     1
290
     0
176
     1
 93
        1
176
     1
 44
0.0
176
     1
173
     0
176
     1
  0
VISUALSTYLE
  5
32
102
{ACAD_REACTORS
330
2A
102
}
330
2A
100
AcDbVisualStyle
  2
Basic
 70
     7
177
     2
291
     1
 71
     1
176
     1
 72
     0
176
     1
 73
     1
176
     1
 90
        0
176
     1
 40
-0.6
176
     1
 41
-30.0
176
     1
 62
     5
 63
     7
421
 16777215
176
     1
 74
     0
176
     1
 91
        4
176
     1
 64
     7
176
     1
 65
   257
176
     1
 75
     1
176
     1
175
     1
176
     1
 42
1.0
176
     1
 92
        8
176
     1
 66
     7
176
     1
 43
1.0
176
     1
 76
     1
176
     1
 77
     6
176
     1
 78
     2
176
     1
 67
     7
176
     1
 79
     5
176
     1
170
     0
176
     1
171
     0
176
     1
290
     0
176
     1
 93
        1
176
     1
 44
0.0
176
     1
173
     0
176
     1
  0
VISUALSTYLE
  5
36
102
{ACAD_REACTORS
330
2A
102
}
330
2A
100
AcDbVisualStyle
  2
Brighten
 70
    12
177
     2
291
     1
 71
     2
176
     1
 72
     2
176
     1
 73
     0
176
     1
 90
        0
176
     1
 40
-0.6
176
     1
 41
-30.0
176
     1
 62
     5
 63
     7
421
 16777215
176
     1
 74
     1
176
     1
 91
        4
176
     1
 64
     7
176
     1
 65
   257
176
     1
 75
     1
176
     1
175
     1
176
     1
 42
1.0
176
     1
 92
        8
176
     1
 66
     7
176
     1
 43
1.0
176
     1
 76
     1
176
     1
 77
     6
176
     1
 78
     2
176
     1
 67
     7
176
     1
 79
     5
176
     1
170
     0
176
     1
171
     0
176
     1
290
     0
176
     1
 93
        1
176
     1
 44
50.0
176
     1
173
     0
176
     1
  0
VISUALSTYLE
  5
3A
102
{ACAD_REACTORS
330
2A
102
}
330
2A
100
AcDbVisualStyle
  2
ColorChange
 70
    16
177
     2
291
     1
 71
     2
176
     1
 72
     2
176
     1
 73
     3
176
     1
 90
        0
176
     1
 40
-0.6
176
     1
 41
-30.0
176
     1
 62
     5
 63
     8
421
  8421504
176
     1
 74
     1
176
     1
 91
        4
176
     1
 64
     7
176
     1
 65
   257
176
     1
 75
     1
176
     1
175
     1
176
     1
 42
1.0
176
     1
 92
        8
176
     1
 66
     8
424
  8421504
176
     1
 43
1.0
176
     1
 76
     1
176
     1
 77
     6
176
     1
 78
     2
176
     1
 67
     7
176
     1
 79
     5
176
     1
170
     0
176
     1
171
     0
176
     1
290
     0
176
     1
 93
        1
176
     1
 44
0.0
176
     1
173
     0
176
     1
  0
VISUALSTYLE
  5
34
102
{ACAD_REACTORS
330
2A
102
}
330
2A
100
AcDbVisualStyle
  2
Conceptual
 70
     9
177
     2
291
     0
 71
     3
176
     1
 72
     2
176
     1
 73
     0
176
     1
 90
        0
176
     1
 40
-0.6
176
     1
 41
-30.0
176
     1
 62
     5
 63
     7
421
 16777215
176
     1
 74
     2
176
     1
 91
        2
176
     1
 64
     7
176
     1
 65
   257
176
     1
 75
     1
176
     1
175
     1
176
     1
 42
40.0
176
     1
 92
        8
176
     1
 66
     7
176
     1
 43
1.0
176
     1
 76
     1
176
     1
 77
     6
176
     1
 78
     2
176
     1
 67
     7
176
     1
 79
     3
176
     1
170
     0
176
     1
171
     0
176
     1
290
     0
176
     1
 93
        1
176
     1
 44
0.0
176
     1
173
     0
176
     1
  0
VISUALSTYLE
  5
35
102
{ACAD_REACTORS
330
2A
102
}
330
2A
100
AcDbVisualStyle
  2
Dim
 70
    11
177
     2
291
     1
 71
     2
176
     1
 72
     2
176
     1
 73
     0
176
     1
 90
        0
176
     1
 40
-0.6
176
     1
 41
-30.0
176
     1
 62
     5
 63
     7
421
 16777215
176
     1
 74
     1
176
     1
 91
        4
176
     1
 64
     7
176
     1
 65
   257
176
     1
 75
     1
176
     1
175
     1
176
     1
 42
1.0
176
     1
 92
        8
176
     1
 66
     7
176
     1
 43
1.0
176
     1
 76
     1
176
     1
 77
     6
176
     1
 78
     2
176
     1
 67
     7
176
     1
 79
     5
176
     1
170
     0
176
     1
171
     0
176
     1
290
     0
176
     1
 93
        1
176
     1
 44
-50.0
176
     1
173
     0
176
     1
  0
VISUALSTYLE
  5
39
102
{ACAD_REACTORS
330
2A
102
}
330
2A
100
AcDbVisualStyle
  2
Facepattern
 70
    15
177
     2
291
     1
 71
     2
176
     1
 72
     2
176
     1
 73
     0
176
     1
 90
        0
176
     1
 40
-0.6
176
     1
 41
-30.0
176
     1
 62
     5
 63
     7
421
 16777215
176
     1
 74
     1
176
     1
 91
        4
176
     1
 64
     7
176
     1
 65
   257
176
     1
 75
     1
176
     1
175
     1
176
     1
 42
1.0
176
     1
 92
        8
176
     1
 66
     7
176
     1
 43
1.0
176
     1
 76
     1
176
     1
 77
     6
176
     1
 78
     2
176
     1
 67
     7
176
     1
 79
     5
176
     1
170
     0
176
     1
171
     0
176
     1
290
     0
176
     1
 93
        1
176
     1
 44
0.0
176
     1
173
     0
176
     1
  0
VISUALSTYLE
  5
2B
102
{ACAD_REACTORS
330
2A
102
}
330
2A
100
AcDbVisualStyle
  2
Flat
 70
     0
177
     2
291
     1
 71
     2
176
     1
 72
     1
176
     1
 73
     1
176
     1
 90
        2
176
     1
 40
-0.6
176
     1
 41
30.0
176
     1
 62
     5
 63
     7
421
 16777215
176
     1
 74
     0
176
     1
 91
        4
176
     1
 64
     7
176
     1
 65
   257
176
     1
 75
     1
176
     1
175
     1
176
     1
 42
1.0
176
     1
 92
        8
176
     1
 66
     7
176
     1
 43
1.0
176
     1
 76
     1
176
     1
 77
     6
176
     1
 78
     2
176
     1
 67
     7
176
     1
 79
     5
176
     1
170
     0
176
     1
171
     0
176
     1
290
     0
176
     1
 93
       13
176
     1
 44
0.0
176
     1
173
     0
176
     1
  0
VISUALSTYLE
  5
2C
102
{ACAD_REACTORS
330
2A
102
}
330
2A
100
AcDbVisualStyle
  2
FlatWithEdges
 70
     1
177
     2
291
     1
 71
     2
176
     1
 72
     1
176
     1
 73
     1
176
     1
 90
        2
176
     1
 40
-0.6
176
     1
 41
30.0
176
     1
 62
     5
 63
     7
421
 16777215
176
     1
 74
     1
176
     1
 91
        4
176
     1
 64
     7
176
     1
 65
   257
176
     1
 75
     1
176
     1
175
     1
176
     1
 42
1.0
176
     1
 92
        0
176
     1
 66
   257
176
     1
 43
1.0
176
     1
 76
     1
176
     1
 77
     6
176
     1
 78
     2
176
     1
 67
     7
176
     1
 79
     5
176
     1
170
     0
176
     1
171
     0
176
     1
290
     0
176
     1
 93
       13
176
     1
 44
0.0
176
     1
173
     0
176
     1
  0
VISUALSTYLE
  5
2D
102
{ACAD_REACTORS
330
2A
102
}
330
2A
100
AcDbVisualStyle
  2
Gouraud
 70
     2
177
     2
291
     1
 71
     2
176
     1
 72
     2
176
     1
 73
     1
176
     1
 90
        2
176
     1
 40
-0.6
176
     1
 41
30.0
176
     1
 62
     5
 63
     7
421
 16777215
176
     1
 74
     0
176
     1
 91
        4
176
     1
 64
     7
176
     1
 65
   257
176
     1
 75
     1
176
     1
175
     1
176
     1
 42
1.0
176
     1
 92
        0
176
     1
 66
     7
176
     1
 43
1.0
176
     1
 76
     1
176
     1
 77
     6
176
     1
 78
     2
176
     1
 67
     7
176
     1
 79
     5
176
     1
170
     0
176
     1
171
     0
176
     1
290
     0
176
     1
 93
       13
176
     1
 44
0.0
176
     1
173
     0
176
     1
  0
VISUALSTYLE
  5
2E
102
{ACAD_REACTORS
330
2A
102
}
330
2A
100
AcDbVisualStyle
  2
GouraudWithEdges
 70
     3
177
     2
291
     1
 71
     2
176
     1
 72
     2
176
     1
 73
     1
176
     1
 90
        2
176
     1
 40
-0.6
176
     1
 41
30.0
176
     1
 62
     5
 63
     7
421
 16777215
176
     1
 74
     1
176
     1
 91
        4
176
     1
 64
     7
176
     1
 65
   257
176
     1
 75
     1
176
     1
175
     1
176
     1
 42
1.0
176
     1
 92
        0
176
     1
 66
   257
176
     1
 43
1.0
176
     1
 76
     1
176
     1
 77
     6
176
     1
 78
     2
176
     1
 67
     7
176
     1
 79
     5
176
     1
170
     0
176
     1
171
     0
176
     1
290
     0
176
     1
 93
       13
176
     1
 44
0.0
176
     1
173
     0
176
     1
  0
VISUALSTYLE
  5
38
102
{ACAD_REACTORS
330
2A
102
}
330
2A
100
AcDbVisualStyle
  2
Linepattern
 70
    14
177
     2
291
     1
 71
     2
176
     1
 72
     2
176
     1
 73
     0
176
     1
 90
        0
176
     1
 40
-0.6
176
     1
 41
-30.0
176
     1
 62
     5
 63
     7
421
 16777215
176
     1
 74
     1
176
     1
 91
        4
176
     1
 64
     7
176
     1
 65
   257
176
     1
 75
     7
176
     1
175
     7
176
     1
 42
1.0
176
     1
 92
        8
176
     1
 66
     7
176
     1
 43
1.0
176
     1
 76
     1
176
     1
 77
     6
176
     1
 78
     2
176
     1
 67
     7
176
     1
 79
     5
176
     1
170
     0
176
     1
171
     0
176
     1
290
     0
176
     1
 93
        1
176
     1
 44
0.0
176
     1
173
     0
176
     1
  0
VISUALSTYLE
  5
33
102
{ACAD_REACTORS
330
2A
102
}
330
2A
100
AcDbVisualStyle
  2
Realistic
 70
     8
177
     2
291
     0
 71
     2
176
     1
 72
     2
176
     1
 73
     0
176
     1
 90
        0
176
     1
 40
-0.6
176
     1
 41
-30.0
176
     1
 62
     5
 63
     7
421
 16777215
176
     1
 74
     1
176
     1
 91
        0
176
     1
 64
     7
176
     1
 65
   257
176
     1
 75
     1
176
     1
175
     1
176
     1
 42
1.0
176
     1
 92
        8
176
     1
 66
     8
424
  7895160
176
     1
 43
1.0
176
     1
 76
     1
176
     1
 77
     6
176
     1
 78
     2
176
     1
 67
     7
176
     1
 79
     5
176
     1
170
     0
176
     1
171
     0
176
     1
290
     0
176
     1
 93
       13
176
     1
 44
0.0
176
     1
173
     0
176
     1
  0
VISUALSTYLE
  5
37
102
{ACAD_REACTORS
330
2A
102
}
330
2A
100
AcDbVisualStyle
  2
Thicken
 70
    13
177
     2
291
     1
 71
     2
176
     1
 72
     2
176
     1
 73
     0
176
     1
 90
        0
176
     1
 40
-0.6
176
     1
 41
-30.0
176
     1
 62
     5
 63
     7
421
 16777215
176
     1
 74
     1
176
     1
 91
        4
176
     1
 64
     7
176
     1
 65
   257
176
     1
 75
     1
176
     1
175
     1
176
     1
 42
1.0
176
     1
 92
       12
176
     1
 66
     7
176
     1
 43
1.0
176
     1
 76
     1
176
     1
 77
     6
176
     1
 78
     2
176
     1
 67
     7
176
     1
 79
     5
176
     1
170
     0
176
     1
171
     0
176
     1
290
     0
176
     1
 93
        1
176
     1
 44
0.0
176
     1
173
     0
176
     1
  0
ENDSEC
  0
EOF
