  0
SECTION
  2
HEADER
  9
$ACADVER
  1
AC1024
  9
$ACADMAINTVER
 70
     6
  9
$DWGCODEPAGE
  3
UNDEFINED
  9
$INSBASE
 10
0.0
 20
0.0
 30
0.0
  9
$EXTMIN
 10
1.000000000000000E+20
 20
1.000000000000000E+20
 30
1.000000000000000E+20
  9
$EXTMAX
 10
-1.000000000000000E+20
 20
-1.000000000000000E+20
 30
-1.000000000000000E+20
  9
$LIMMIN
 10
0.0
 20
0.0
  9
$LIMMAX
 10
12.0
 20
9.0
  9
$ORTHOMODE
 70
     0
  9
$REGENMODE
 70
     1
  9
$FILLMODE
 70
     1
  9
$QTEXTMODE
 70
     0
  9
$MIRRTEXT
 70
     1
  9
$LTSCALE
 40
1.0
  9
$ATTMODE
 70
     1
  9
$TEXTSIZE
 40
0.2
  9
$TRACEWID
 40
0.05
  9
$TEXTSTYLE
  7
Standard
  9
$CLAYER
  8
0
  9
$CELTYPE
  6
ByLayer
  9
$CECOLOR
 62
   256
  9
$CELTSCALE
 40
1.0
  9
$DISPSILH
 70
     0
  9
$DIMSCALE
 40
1.0
  9
$DIMASZ
 40
0.18
  9
$DIMEXO
 40
0.0625
  9
$DIMDLI
 40
0.38
  9
$DIMRND
 40
0.0
  9
$DIMDLE
 40
0.0
  9
$DIMEXE
 40
0.18
  9
$DIMTP
 40
0.0
  9
$DIMTM
 40
0.0
  9
$DIMTXT
 40
0.18
  9
$DIMCEN
 40
0.09
  9
$DIMTSZ
 40
0.0
  9
$DIMTOL
 70
     0
  9
$DIMLIM
 70
     0
  9
$DIMTIH
 70
     1
  9
$DIMTOH
 70
     1
  9
$DIMSE1
 70
     0
  9
$DIMSE2
 70
     0
  9
$DIMTAD
 70
     0
  9
$DIMZIN
 70
     0
  9
$DIMBLK
  1

  9
$DIMASO
 70
     1
  9
$DIMSHO
 70
     1
  9
$DIMPOST
  1

  9
$DIMAPOST
  1

  9
$DIMALT
 70
     0
  9
$DIMALTD
 70
     2
  9
$DIMALTF
 40
25.4
  9
$DIMLFAC
 40
1.0
  9
$DIMTOFL
 70
     0
  9
$DIMTVP
 40
0.0
  9
$DIMTIX
 70
     0
  9
$DIMSOXD
 70
     0
  9
$DIMSAH
 70
     0
  9
$DIMBLK1
  1

  9
$DIMBLK2
  1

  9
$DIMSTYLE
  2
Standard
  9
$DIMCLRD
 70
     0
  9
$DIMCLRE
 70
     0
  9
$DIMCLRT
 70
     0
  9
$DIMTFAC
 40
1.0
  9
$DIMGAP
 40
0.09
  9
$DIMJUST
 70
     0
  9
$DIMSD1
 70
     0
  9
$DIMSD2
 70
     0
  9
$DIMTOLJ
 70
     1
  9
$DIMTZIN
 70
     0
  9
$DIMALTZ
 70
     0
  9
$DIMALTTZ
 70
     0
  9
$DIMUPT
 70
     0
  9
$DIMDEC
 70
     4
  9
$DIMTDEC
 70
     4
  9
$DIMALTU
 70
     2
  9
$DIMALTTD
 70
     2
  9
$DIMTXSTY
  7
Standard
  9
$DIMAUNIT
 70
     0
  9
$DIMADEC
 70
     0
  9
$DIMALTRND
 40
0.0
  9
$DIMAZIN
 70
     0
  9
$DIMDSEP
 70
    46
  9
$DIMATFIT
 70
     3
  9
$DIMFRAC
 70
     0
  9
$DIMLDRBLK
  1

  9
$DIMLUNIT
 70
     2
  9
$DIMLWD
 70
    -2
  9
$DIMLWE
 70
    -2
  9
$DIMTMOVE
 70
     0
  9
$DIMFXL
 40
1.0
  9
$DIMFXLON
 70
     0
  9
$DIMJOGANG
 40
0.7853981633974483
  9
$DIMTFILL
 70
     0
  9
$DIMTFILLCLR
 70
     0
  9
$DIMARCSYM
 70
     0
  9
$DIMLTYPE
  6

  9
$DIMLTEX1
  6

  9
$DIMLTEX2
  6

  9
$DIMTXTDIRECTION
 70
     0
  9
$LUNITS
 70
     2
  9
$LUPREC
 70
     4
  9
$SKETCHINC
 40
0.1
  9
$FILLETRAD
 40
0.5
  9
$AUNITS
 70
     0
  9
$AUPREC
 70
     0
  9
$MENU
  1
.
  9
$ELEVATION
 40
0.0
  9
$PELEVATION
 40
0.0
  9
$THICKNESS
 40
0.0
  9
$LIMCHECK
 70
     0
  9
$CHAMFERA
 40
0.5
  9
$CHAMFERB
 40
0.5
  9
$CHAMFERC
 40
1.0
  9
$CHAMFERD
 40
0.0
  9
$SKPOLY
 70
     0
  9
$TDCREATE
 40
2457917.62028934
  9
$TDUCREATE
 40
2457917.245289352
  9
$TDUPDATE
 40
2457917.62028934
  9
$TDUUPDATE
 40
2457917.245289352
  9
$TDINDWG
 40
0.0000000116
  9
$TDUSRTIMER
 40
0.0000000116
  9
$USRTIMER
 70
     1
  9
$ANGBASE
 50
0.0
  9
$ANGDIR
 70
     0
  9
$PDMODE
 70
     0
  9
$PDSIZE
 40
0.0
  9
$PLINEWID
 40
0.0
  9
$SPLFRAME
 70
     0
  9
$SPLINETYPE
 70
     6
  9
$SPLINESEGS
 70
     8
  9
$HANDSEED
  5
E6
  9
$SURFTAB1
 70
     6
  9
$SURFTAB2
 70
     6
  9
$SURFTYPE
 70
     6
  9
$SURFU
 70
     6
  9
$SURFV
 70
     6
  9
$UCSBASE
  2

  9
$UCSNAME
  2

  9
$UCSORG
 10
0.0
 20
0.0
 30
0.0
  9
$UCSXDIR
 10
1.0
 20
0.0
 30
0.0
  9
$UCSYDIR
 10
0.0
 20
1.0
 30
0.0
  9
$UCSORTHOREF
  2

  9
$UCSORTHOVIEW
 70
     0
  9
$UCSORGTOP
 10
0.0
 20
0.0
 30
0.0
  9
$UCSORGBOTTOM
 10
0.0
 20
0.0
 30
0.0
  9
$UCSORGLEFT
 10
0.0
 20
0.0
 30
0.0
  9
$UCSORGRIGHT
 10
0.0
 20
0.0
 30
0.0
  9
$UCSORGFRONT
 10
0.0
 20
0.0
 30
0.0
  9
$UCSORGBACK
 10
0.0
 20
0.0
 30
0.0
  9
$PUCSBASE
  2

  9
$PUCSNAME
  2

  9
$PUCSORG
 10
0.0
 20
0.0
 30
0.0
  9
$PUCSXDIR
 10
1.0
 20
0.0
 30
0.0
  9
$PUCSYDIR
 10
0.0
 20
1.0
 30
0.0
  9
$PUCSORTHOREF
  2

  9
$PUCSORTHOVIEW
 70
     0
  9
$PUCSORGTOP
 10
0.0
 20
0.0
 30
0.0
  9
$PUCSORGBOTTOM
 10
0.0
 20
0.0
 30
0.0
  9
$PUCSORGLEFT
 10
0.0
 20
0.0
 30
0.0
  9
$PUCSORGRIGHT
 10
0.0
 20
0.0
 30
0.0
  9
$PUCSORGFRONT
 10
0.0
 20
0.0
 30
0.0
  9
$PUCSORGBACK
 10
0.0
 20
0.0
 30
0.0
  9
$USERI1
 70
     0
  9
$USERI2
 70
     0
  9
$USERI3
 70
     0
  9
$USERI4
 70
     0
  9
$USERI5
 70
     0
  9
$USERR1
 40
0.0
  9
$USERR2
 40
0.0
  9
$USERR3
 40
0.0
  9
$USERR4
 40
0.0
  9
$USERR5
 40
0.0
  9
$WORLDVIEW
 70
     1
  9
$SHADEDGE
 70
     3
  9
$SHADEDIF
 70
    70
  9
$TILEMODE
 70
     1
  9
$MAXACTVP
 70
    64
  9
$PINSBASE
 10
0.0
 20
0.0
 30
0.0
  9
$PLIMCHECK
 70
     0
  9
$PEXTMIN
 10
1.000000000000000E+20
 20
1.000000000000000E+20
 30
1.000000000000000E+20
  9
$PEXTMAX
 10
-1.000000000000000E+20
 20
-1.000000000000000E+20
 30
-1.000000000000000E+20
  9
$PLIMMIN
 10
0.0
 20
0.0
  9
$PLIMMAX
 10
12.0
 20
9.0
  9
$UNITMODE
 70
     0
  9
$VISRETAIN
 70
     1
  9
$PLINEGEN
 70
     0
  9
$PSLTSCALE
 70
     1
  9
$TREEDEPTH
 70
  3020
  9
$CMLSTYLE
  2
Standard
  9
$CMLJUST
 70
     0
  9
$CMLSCALE
 40
1.0
  9
$PROXYGRAPHICS
 70
     1
  9
$MEASUREMENT
 70
     0
  9
$CELWEIGHT
370
    -1
  9
$ENDCAPS
280
     0
  9
$JOINSTYLE
280
     0
  9
$LWDISPLAY
290
     1
  9
$INSUNITS
 70
     1
  9
$HYPERLINKBASE
  1

  9
$STYLESHEET
  1

  9
$XEDIT
290
     1
  9
$CEPSNTYPE
380
     0
  9
$PSTYLEMODE
290
     1
  9
$FINGERPRINTGUID
  2
{7F483689-3D89-0BCE-7E22-DCA6250ABD1D}
  9
$VERSIONGUID
  2
{FAEB1C32-E019-11D5-929B-00C0DF256EC4}
  9
$EXTNAMES
290
     1
  9
$PSVPSCALE
 40
0.0
  9
$OLESTARTUP
290
     0
  9
$SORTENTS
280
   127
  9
$INDEXCTL
280
     0
  9
$HIDETEXT
280
     1
  9
$XCLIPFRAME
280
     2
  9
$HALOGAP
280
     0
  9
$OBSCOLOR
 70
   257
  9
$OBSLTYPE
280
     0
  9
$INTERSECTIONDISPLAY
280
     0
  9
$INTERSECTIONCOLOR
 70
   257
  9
$DIMASSOC
280
     2
  9
$PROJECTNAME
  1

  9
$CAMERADISPLAY
290
     0
  9
$LENSLENGTH
 40
50.0
  9
$CAMERAHEIGHT
 40
0.0
  9
$STEPSPERSEC
 40
2.0
  9
$STEPSIZE
 40
6.0
  9
$3DDWFPREC
 40
2.0
  9
$PSOLWIDTH
 40
0.25
  9
$PSOLHEIGHT
 40
4.0
  9
$LOFTANG1
 40
1.570796326794897
  9
$LOFTANG2
 40
1.570796326794897
  9
$LOFTMAG1
 40
0.0
  9
$LOFTMAG2
 40
0.0
  9
$LOFTPARAM
 70
     7
  9
$LOFTNORMALS
280
     1
  9
$LATITUDE
 40
37.795
  9
$LONGITUDE
 40
-122.394
  9
$NORTHDIRECTION
 40
0.0
  9
$TIMEZONE
 70
 -8000
  9
$LIGHTGLYPHDISPLAY
280
     1
  9
$TILEMODELIGHTSYNCH
280
     1
  9
$CMATERIAL
347
3C
  9
$SOLIDHIST
280
     1
  9
$SHOWHIST
280
     1
  9
$DWFFRAME
280
     2
  9
$DGNFRAME
280
     2
  9
$REALWORLDSCALE
290
     1
  9
$INTERFERECOLOR
 62
   256
  9
$CSHADOW
280
     0
  9
$SHADOWPLANELOCATION
 40
0.0
  0
ENDSEC
  0
SECTION
  2
CLASSES
  0
CLASS
  1
ACDBDICTIONARYWDFLT
  2
AcDbDictionaryWithDefault
  3
ObjectDBX Classes
 90
        0
 91
        4
280
     0
281
     0
  0
CLASS
  1
VISUALSTYLE
  2
AcDbVisualStyle
  3
ObjectDBX Classes
 90
     4095
 91
        4
280
     0
281
     0
  0
CLASS
  1
MATERIAL
  2
AcDbMaterial
  3
ObjectDBX Classes
 90
     1153
 91
        4
280
     0
281
     0
  0
CLASS
  1
SUN
  2
AcDbSun
  3
SCENEOE
 90
     1024
 91
        4
280
     0
281
     0
  0
ENDSEC
  0
SECTION
  2
TABLES
  0
TABLE
  2
VPORT
  5
8
330
0
100
AcDbSymbolTable
 70
     1
  0
VPORT
  5
29
330
8
100
AcDbSymbolTableRecord
100
AcDbViewportTableRecord
  2
*Active
 70
     0
 10
0.0
 20
0.0
 11
1.0
 21
1.0
 12
0.0
 22
0.0
 13
0.0
 23
0.0
 14
0.5
 24
0.5
 15
0.5
 25
0.5
 16
0.0
 26
0.0
 36
1.0
 17
91.00082462281999
 27
-128.4993055234307
 37
0.0
 40
256.9986110468615
 41
0.7081814508812795
 42
50.0
 43
0.0
 44
0.0
 50
0.0
 51
0.0
 71
     0
 72
   100
 73
     1
 74
     3
 75
     0
 76
     0
 77
     0
 78
     0
281
     0
 65
     1
110
0.0
120
0.0
130
0.0
111
1.0
121
0.0
131
0.0
112
0.0
122
1.0
132
0.0
 79
     0
146
0.0
 60
     3
 61
     5
292
     1
282
     1
141
0.0
142
0.0
 63
   250
361
3F
  0
ENDTAB
  0
TABLE
  2
LTYPE
  5
5
330
0
100
AcDbSymbolTable
 70
     1
  0
LTYPE
  5
14
330
5
100
AcDbSymbolTableRecord
100
AcDbLinetypeTableRecord
  2
ByBlock
 70
     0
  3

 72
    65
 73
     0
 40
0.0
  0
LTYPE
  5
15
330
5
100
AcDbSymbolTableRecord
100
AcDbLinetypeTableRecord
  2
ByLayer
 70
     0
  3

 72
    65
 73
     0
 40
0.0
  0
LTYPE
  5
16
330
5
100
AcDbSymbolTableRecord
100
AcDbLinetypeTableRecord
  2
Continuous
 70
     0
  3
Solid line
 72
    65
 73
     0
 40
0.0
  0
ENDTAB
  0
TABLE
  2
LAYER
  5
2
330
0
100
AcDbSymbolTable
 70
     2
  0
LAYER
  5
10
330
2
100
AcDbSymbolTableRecord
100
AcDbLayerTableRecord
  2
0
 70
     0
 62
     7
  6
Continuous
370
    -3
390
F
347
3E
  0
LAYER
  5
40
330
2
100
AcDbSymbolTableRecord
100
AcDbLayerTableRecord
  2
_U+30EC_U+30A4_U+30E4_U+30FC 1
 70
     0
 62
     7
  6
Continuous
370
    -3
390
F
347
3E
  0
ENDTAB
  0
TABLE
  2
STYLE
  5
3
330
0
100
AcDbSymbolTable
 70
     1
  0
STYLE
  5
11
330
3
100
AcDbSymbolTableRecord
100
AcDbTextStyleTableRecord
  2
Standard
 70
     0
 40
0.0
 41
1.0
 50
0.0
 71
     0
 42
0.2
  3
txt
  4

  0
ENDTAB
  0
TABLE
  2
VIEW
  5
6
330
0
100
AcDbSymbolTable
 70
     0
  0
ENDTAB
  0
TABLE
  2
UCS
  5
7
330
0
100
AcDbSymbolTable
 70
     0
  0
ENDTAB
  0
TABLE
  2
APPID
  5
9
330
0
100
AcDbSymbolTable
 70
     1
  0
APPID
  5
12
330
9
100
AcDbSymbolTableRecord
100
AcDbRegAppTableRecord
  2
ACAD
 70
     0
  0
ENDTAB
  0
TABLE
  2
DIMSTYLE
  5
A
330
0
100
AcDbSymbolTable
 70
     1
100
AcDbDimStyleTable
  0
DIMSTYLE
105
27
330
A
100
AcDbSymbolTableRecord
100
AcDbDimStyleTableRecord
  2
Standard
 70
     0
178
     0
340
11
  0
ENDTAB
  0
TABLE
  2
BLOCK_RECORD
  5
1
330
0
100
AcDbSymbolTable
 70
    10
  0
BLOCK_RECORD
  5
1F
330
1
100
AcDbSymbolTableRecord
100
AcDbBlockTableRecord
  2
*Model_Space
340
22
 70
     0
280
     1
281
     0
  0
BLOCK_RECORD
  5
1B
330
1
100
AcDbSymbolTableRecord
100
AcDbBlockTableRecord
  2
*Paper_Space
340
1E
 70
     0
280
     1
281
     0
  0
BLOCK_RECORD
  5
23
330
1
100
AcDbSymbolTableRecord
100
AcDbBlockTableRecord
  2
*Paper_Space0
340
26
 70
     0
280
     1
281
     0
  0
BLOCK_RECORD
  5
71
330
1
100
AcDbSymbolTableRecord
100
AcDbBlockTableRecord
  2
block 2
340
0
102
{BLKREFS
331
72
102
}
 70
     0
280
     1
281
     0
  0
BLOCK_RECORD
  5
79
330
1
100
AcDbSymbolTableRecord
100
AcDbBlockTableRecord
  2
block 3
340
0
102
{BLKREFS
331
7A
102
}
 70
     0
280
     1
281
     0
  0
BLOCK_RECORD
  5
7F
330
1
100
AcDbSymbolTableRecord
100
AcDbBlockTableRecord
  2
block 4
340
0
102
{BLKREFS
331
80
102
}
 70
     0
280
     1
281
     0
  0
BLOCK_RECORD
  5
88
330
1
100
AcDbSymbolTableRecord
100
AcDbBlockTableRecord
  2
block 5
340
0
102
{BLKREFS
331
89
102
}
 70
     0
280
     1
281
     0
  0
BLOCK_RECORD
  5
A6
330
1
100
AcDbSymbolTableRecord
100
AcDbBlockTableRecord
  2
block 6
340
0
102
{BLKREFS
331
A7
102
}
 70
     0
280
     1
281
     0
  0
BLOCK_RECORD
  5
B5
330
1
100
AcDbSymbolTableRecord
100
AcDbBlockTableRecord
  2
block 7
340
0
102
{BLKREFS
331
B6
102
}
 70
     0
280
     1
281
     0
  0
BLOCK_RECORD
  5
BD
330
1
100
AcDbSymbolTableRecord
100
AcDbBlockTableRecord
  2
block 8
340
0
102
{BLKREFS
331
BE
102
}
 70
     0
280
     1
281
     0
  0
BLOCK_RECORD
  5
C5
330
1
100
AcDbSymbolTableRecord
100
AcDbBlockTableRecord
  2
block 9
340
0
102
{BLKREFS
331
C6
102
}
 70
     0
280
     1
281
     0
  0
BLOCK_RECORD
  5
CF
330
1
100
AcDbSymbolTableRecord
100
AcDbBlockTableRecord
  2
block 10
340
0
102
{BLKREFS
331
D0
102
}
 70
     0
280
     1
281
     0
  0
ENDTAB
  0
ENDSEC
  0
SECTION
  2
BLOCKS
  0
BLOCK
  5
20
330
1F
100
AcDbEntity
  8
0
100
AcDbBlockBegin
  2
*Model_Space
 70
     0
 10
0.0
 20
0.0
 30
0.0
  3
*Model_Space
  1

  0
ENDBLK
  5
21
330
1F
100
AcDbEntity
  8
0
100
AcDbBlockEnd
  0
BLOCK
  5
1C
330
1B
100
AcDbEntity
 67
     1
  8
0
100
AcDbBlockBegin
  2
*Paper_Space
 70
     0
 10
0.0
 20
0.0
 30
0.0
  3
*Paper_Space
  1

  0
ENDBLK
  5
1D
330
1B
100
AcDbEntity
 67
     1
  8
0
100
AcDbBlockEnd
  0
BLOCK
  5
24
330
23
100
AcDbEntity
  8
0
100
AcDbBlockBegin
  2
*Paper_Space0
 70
     0
 10
0.0
 20
0.0
 30
0.0
  3
*Paper_Space0
  1

  0
ENDBLK
  5
25
330
23
100
AcDbEntity
  8
0
100
AcDbBlockEnd
  0
BLOCK
  5
73
330
71
100
AcDbEntity
  8
0
100
AcDbBlockBegin
  2
block 2
 70
     0
 10
0.0
 20
0.0
 30
0.0
  3
block 2
  1

  0
SPLINE
  5
75
330
71
100
AcDbEntity
  8
_U+30EC_U+30A4_U+30E4_U+30FC 1
370
     0
100
AcDbSpline
210
0.0
220
0.0
230
1.0
 70
    11
 71
     3
 72
    26
 73
    22
 74
     0
 42
0.0000000001
 43
0.0000000001
 12
1.0
 22
0.0
 32
0.0
 13
1.0
 23
0.0
 33
0.0
 40
0.0
 40
0.0
 40
0.0
 40
0.0
 40
1.0
 40
1.0
 40
1.0
 40
2.0
 40
2.0
 40
2.0
 40
3.0
 40
3.0
 40
3.0
 40
4.0
 40
4.0
 40
4.0
 40
5.0
 40
5.0
 40
5.0
 40
6.0
 40
6.0
 40
6.0
 40
7.0
 40
7.0
 40
7.0
 40
7.0
 10
119.1978922228047
 20
-141.0304958414785
 30
0.0
 10
119.1978922228047
 20
-141.0304958414785
 30
0.0
 10
118.0937391197821
 20
-141.0304958414785
 30
0.0
 10
118.0937391197821
 20
-141.0304958414785
 30
0.0
 10
118.0937391197821
 20
-141.0304958414785
 30
0.0
 10
118.0937391197821
 20
-141.3605359889654
 30
0.0
 10
118.0937391197821
 20
-141.3605359889654
 30
0.0
 10
118.0937391197821
 20
-141.3605359889654
 30
0.0
 10
117.9456000139164
 20
-141.3605359889654
 30
0.0
 10
117.9456000139164
 20
-141.3605359889654
 30
0.0
 10
117.9307861033298
 20
-141.0284287841874
 30
0.0
 10
117.7678330868775
 20
-140.9819199951365
 30
0.0
 10
117.6534559167672
 20
-140.9522921739633
 30
0.0
 10
117.6534559167672
 20
-140.9522921739633
 30
0.0
 10
117.6534559167672
 20
-140.8062201253887
 30
0.0
 10
117.6534559167672
 20
-140.8062201253887
 30
0.0
 10
117.6534559167672
 20
-140.8062201253887
 30
0.0
 10
119.1978922228047
 20
-140.8062201253887
 30
0.0
 10
119.1978922228047
 20
-140.8062201253887
 30
0.0
 10
119.1978922228047
 20
-140.8062201253887
 30
0.0
 10
119.1978922228047
 20
-141.0304958414785
 30
0.0
 10
119.1978922228047
 20
-141.0304958414785
 30
0.0
  0
HATCH
  5
76
330
71
100
AcDbEntity
  8
_U+30EC_U+30A4_U+30E4_U+30FC 1
 62
   179
420
  2234388
100
AcDbHatch
 10
0.0
 20
0.0
 30
0.0
210
0.0
220
0.0
230
1.0
  2
SOLID
 70
     1
 71
     0
 91
        1
 92
        1
 93
        1
 72
     4
 94
        3
 73
     0
 74
     1
 95
       26
 96
       22
 40
0.0
 40
0.0
 40
0.0
 40
0.0
 40
1.0
 40
1.0
 40
1.0
 40
2.0
 40
2.0
 40
2.0
 40
3.0
 40
3.0
 40
3.0
 40
4.0
 40
4.0
 40
4.0
 40
5.0
 40
5.0
 40
5.0
 40
6.0
 40
6.0
 40
6.0
 40
7.0
 40
7.0
 40
7.0
 40
7.0
 10
119.1978922228047
 20
-141.0304958414785
 10
119.1978922228047
 20
-141.0304958414785
 10
118.0937391197821
 20
-141.0304958414785
 10
118.0937391197821
 20
-141.0304958414785
 10
118.0937391197821
 20
-141.0304958414785
 10
118.0937391197821
 20
-141.3605359889654
 10
118.0937391197821
 20
-141.3605359889654
 10
118.0937391197821
 20
-141.3605359889654
 10
117.9456000139164
 20
-141.3605359889654
 10
117.9456000139164
 20
-141.3605359889654
 10
117.9307861033298
 20
-141.0284287841874
 10
117.7678330868775
 20
-140.9819199951365
 10
117.6534559167672
 20
-140.9522921739633
 10
117.6534559167672
 20
-140.9522921739633
 10
117.6534559167672
 20
-140.8062201253887
 10
117.6534559167672
 20
-140.8062201253887
 10
117.6534559167672
 20
-140.8062201253887
 10
119.1978922228047
 20
-140.8062201253887
 10
119.1978922228047
 20
-140.8062201253887
 10
119.1978922228047
 20
-140.8062201253887
 10
119.1978922228047
 20
-141.0304958414785
 10
119.1978922228047
 20
-141.0304958414785
 97
        0
 97
        0
 75
     2
 76
     1
 98
        0
  0
SPLINE
  5
77
330
71
100
AcDbEntity
  8
_U+30EC_U+30A4_U+30E4_U+30FC 1
370
     0
100
AcDbSpline
210
0.0
220
0.0
230
1.0
 70
    11
 71
     3
 72
    62
 73
    58
 74
     0
 42
0.0000000001
 43
0.0000000001
 12
1.0
 22
0.0
 32
0.0
 13
1.0
 23
0.0
 33
0.0
 40
0.0
 40
0.0
 40
0.0
 40
0.0
 40
1.0
 40
1.0
 40
1.0
 40
2.0
 40
2.0
 40
2.0
 40
3.0
 40
3.0
 40
3.0
 40
4.0
 40
4.0
 40
4.0
 40
5.0
 40
5.0
 40
5.0
 40
6.0
 40
6.0
 40
6.0
 40
7.0
 40
7.0
 40
7.0
 40
8.0
 40
8.0
 40
8.0
 40
9.0
 40
9.0
 40
9.0
 40
10.0
 40
10.0
 40
10.0
 40
11.0
 40
11.0
 40
11.0
 40
12.0
 40
12.0
 40
12.0
 40
13.0
 40
13.0
 40
13.0
 40
14.0
 40
14.0
 40
14.0
 40
15.0
 40
15.0
 40
15.0
 40
16.0
 40
16.0
 40
16.0
 40
17.0
 40
17.0
 40
17.0
 40
18.0
 40
18.0
 40
18.0
 40
19.0
 40
19.0
 40
19.0
 40
19.0
 10
119.2485351264379
 20
-139.8133436065397
 30
0.0
 10
119.2485351264379
 20
-139.9087727514811
 30
0.0
 10
119.2275200439778
 20
-140.1265027861489
 30
0.0
 10
119.0414848877744
 20
-140.2515597522635
 30
0.0
 10
118.9291747749552
 20
-140.3256293051964
 30
0.0
 10
118.82995602498
 20
-140.3297634197787
 30
0.0
 10
118.7452066760429
 20
-140.333897534361
 30
0.0
 10
118.7452066760429
 20
-140.333897534361
 30
0.0
 10
118.7452066760429
 20
-140.1137559328535
 30
0.0
 10
118.7452066760429
 20
-140.1137559328535
 30
0.0
 10
118.8192762289757
 20
-140.1116888755624
 30
0.0
 10
119.0538872315213
 20
-140.1013535891066
 30
0.0
 10
119.0538872315213
 20
-139.8178222306705
 30
0.0
 10
119.0538872315213
 20
-139.6803629208091
 30
0.0
 10
118.9842963027192
 20
-139.5277451908125
 30
0.0
 10
118.7558864720472
 20
-139.5277451908125
 30
0.0
 10
118.6394422446457
 20
-139.5277451908125
 30
0.0
 10
118.5908663983037
 20
-139.5659857506988
 30
0.0
 10
118.5591715198394
 20
-139.5976806291631
 30
0.0
 10
118.4851019669065
 20
-139.671750182096
 30
0.0
 10
118.4723551136111
 20
-139.7881944094974
 30
0.0
 10
118.4723551136111
 20
-139.8429714277129
 30
0.0
 10
118.4723551136111
 20
-139.8622639624303
 30
0.0
 10
118.4744221709022
 20
-139.8980929554769
 30
0.0
 10
118.4785562854845
 20
-139.9256537193589
 30
0.0
 10
118.4785562854845
 20
-139.9256537193589
 30
0.0
 10
118.2839083905679
 20
-139.9256537193589
 30
0.0
 10
118.2839083905679
 20
-139.9256537193589
 30
0.0
 10
118.2904540719899
 20
-139.8874131594726
 30
0.0
 10
118.292521129281
 20
-139.8453829945526
 30
0.0
 10
118.292521129281
 20
-139.8388373131306
 30
0.0
 10
118.292521129281
 20
-139.7733804989108
 30
0.0
 10
118.2711615372725
 20
-139.5745984894119
 30
0.0
 10
118.0344834774358
 20
-139.5745984894119
 30
0.0
 10
117.8567165503969
 20
-139.5745984894119
 30
0.0
 10
117.8015950226329
 20
-139.7055121178514
 30
0.0
 10
117.8015950226329
 20
-139.8157551733794
 30
0.0
 10
117.8015950226329
 20
-140.0799939970981
 30
0.0
 10
118.0344834774358
 20
-140.0886067358112
 30
0.0
 10
118.106141463529
 20
-140.0927408503935
 30
0.0
 10
118.106141463529
 20
-140.0927408503935
 30
0.0
 10
118.106141463529
 20
-140.2960014840232
 30
0.0
 10
118.106141463529
 20
-140.2960014840232
 30
0.0
 10
117.981429006963
 20
-140.2873887453101
 30
0.0
 10
117.6048800704252
 20
-140.2598279814281
 30
0.0
 10
117.6048800704252
 20
-139.803008320084
 30
0.0
 10
117.6048800704252
 20
-139.5787326039942
 30
0.0
 10
117.7320040938309
 20
-139.3375759200267
 30
0.0
 10
118.0279377960139
 20
-139.3375759200267
 30
0.0
 10
118.2143174617659
 20
-139.3375759200267
 30
0.0
 10
118.2966552438633
 20
-139.4326605554196
 30
0.0
 10
118.3579779435008
 20
-139.5322238149433
 30
0.0
 10
118.3855387073828
 20
-139.4709011153059
 30
0.0
 10
118.4658094321891
 20
-139.2890000736847
 30
0.0
 10
118.7431396187517
 20
-139.2890000736847
 30
0.0
 10
119.0814479954033
 20
-139.2890000736847
 30
0.0
 10
119.2485351264379
 20
-139.5363579295256
 30
0.0
 10
119.2485351264379
 20
-139.8133436065397
 30
0.0
  0
HATCH
  5
78
330
71
100
AcDbEntity
  8
_U+30EC_U+30A4_U+30E4_U+30FC 1
 62
   179
420
  2234388
100
AcDbHatch
 10
0.0
 20
0.0
 30
0.0
210
0.0
220
0.0
230
1.0
  2
SOLID
 70
     1
 71
     0
 91
        1
 92
        1
 93
        1
 72
     4
 94
        3
 73
     0
 74
     1
 95
       62
 96
       58
 40
0.0
 40
0.0
 40
0.0
 40
0.0
 40
1.0
 40
1.0
 40
1.0
 40
2.0
 40
2.0
 40
2.0
 40
3.0
 40
3.0
 40
3.0
 40
4.0
 40
4.0
 40
4.0
 40
5.0
 40
5.0
 40
5.0
 40
6.0
 40
6.0
 40
6.0
 40
7.0
 40
7.0
 40
7.0
 40
8.0
 40
8.0
 40
8.0
 40
9.0
 40
9.0
 40
9.0
 40
10.0
 40
10.0
 40
10.0
 40
11.0
 40
11.0
 40
11.0
 40
12.0
 40
12.0
 40
12.0
 40
13.0
 40
13.0
 40
13.0
 40
14.0
 40
14.0
 40
14.0
 40
15.0
 40
15.0
 40
15.0
 40
16.0
 40
16.0
 40
16.0
 40
17.0
 40
17.0
 40
17.0
 40
18.0
 40
18.0
 40
18.0
 40
19.0
 40
19.0
 40
19.0
 40
19.0
 10
119.2485351264379
 20
-139.8133436065397
 10
119.2485351264379
 20
-139.9087727514811
 10
119.2275200439778
 20
-140.1265027861489
 10
119.0414848877744
 20
-140.2515597522635
 10
118.9291747749552
 20
-140.3256293051964
 10
118.82995602498
 20
-140.3297634197787
 10
118.7452066760429
 20
-140.333897534361
 10
118.7452066760429
 20
-140.333897534361
 10
118.7452066760429
 20
-140.1137559328535
 10
118.7452066760429
 20
-140.1137559328535
 10
118.8192762289757
 20
-140.1116888755624
 10
119.0538872315213
 20
-140.1013535891066
 10
119.0538872315213
 20
-139.8178222306705
 10
119.0538872315213
 20
-139.6803629208091
 10
118.9842963027192
 20
-139.5277451908125
 10
118.7558864720472
 20
-139.5277451908125
 10
118.6394422446457
 20
-139.5277451908125
 10
118.5908663983037
 20
-139.5659857506988
 10
118.5591715198394
 20
-139.5976806291631
 10
118.4851019669065
 20
-139.671750182096
 10
118.4723551136111
 20
-139.7881944094974
 10
118.4723551136111
 20
-139.8429714277129
 10
118.4723551136111
 20
-139.8622639624303
 10
118.4744221709022
 20
-139.8980929554769
 10
118.4785562854845
 20
-139.9256537193589
 10
118.4785562854845
 20
-139.9256537193589
 10
118.2839083905679
 20
-139.9256537193589
 10
118.2839083905679
 20
-139.9256537193589
 10
118.2904540719899
 20
-139.8874131594726
 10
118.292521129281
 20
-139.8453829945526
 10
118.292521129281
 20
-139.8388373131306
 10
118.292521129281
 20
-139.7733804989108
 10
118.2711615372725
 20
-139.5745984894119
 10
118.0344834774358
 20
-139.5745984894119
 10
117.8567165503969
 20
-139.5745984894119
 10
117.8015950226329
 20
-139.7055121178514
 10
117.8015950226329
 20
-139.8157551733794
 10
117.8015950226329
 20
-140.0799939970981
 10
118.0344834774358
 20
-140.0886067358112
 10
118.106141463529
 20
-140.0927408503935
 10
118.106141463529
 20
-140.0927408503935
 10
118.106141463529
 20
-140.2960014840232
 10
118.106141463529
 20
-140.2960014840232
 10
117.981429006963
 20
-140.2873887453101
 10
117.6048800704252
 20
-140.2598279814281
 10
117.6048800704252
 20
-139.803008320084
 10
117.6048800704252
 20
-139.5787326039942
 10
117.7320040938309
 20
-139.3375759200267
 10
118.0279377960139
 20
-139.3375759200267
 10
118.2143174617659
 20
-139.3375759200267
 10
118.2966552438633
 20
-139.4326605554196
 10
118.3579779435008
 20
-139.5322238149433
 10
118.3855387073828
 20
-139.4709011153059
 10
118.4658094321891
 20
-139.2890000736847
 10
118.7431396187517
 20
-139.2890000736847
 10
119.0814479954033
 20
-139.2890000736847
 10
119.2485351264379
 20
-139.5363579295256
 10
119.2485351264379
 20
-139.8133436065397
 97
        0
 97
        0
 75
     2
 76
     1
 98
        0
  0
ENDBLK
  5
74
330
71
100
AcDbEntity
  8
0
100
AcDbBlockEnd
  0
BLOCK
  5
7B
330
79
100
AcDbEntity
  8
0
100
AcDbBlockBegin
  2
block 3
 70
     0
 10
0.0
 20
0.0
 30
0.0
  3
block 3
  1

  0
SPLINE
  5
7D
330
79
100
AcDbEntity
  8
_U+30EC_U+30A4_U+30E4_U+30FC 1
370
     0
100
AcDbSpline
210
0.0
220
0.0
230
1.0
 70
    11
 71
     3
 72
    26
 73
    22
 74
     0
 42
0.0000000001
 43
0.0000000001
 12
1.0
 22
0.0
 32
0.0
 13
1.0
 23
0.0
 33
0.0
 40
0.0
 40
0.0
 40
0.0
 40
0.0
 40
1.0
 40
1.0
 40
1.0
 40
2.0
 40
2.0
 40
2.0
 40
3.0
 40
3.0
 40
3.0
 40
4.0
 40
4.0
 40
4.0
 40
5.0
 40
5.0
 40
5.0
 40
6.0
 40
6.0
 40
6.0
 40
7.0
 40
7.0
 40
7.0
 40
7.0
 10
119.1978922228047
 20
-133.4878037860725
 30
0.0
 10
119.1978922228047
 20
-133.4878037860725
 30
0.0
 10
118.0937391197821
 20
-133.4878037860725
 30
0.0
 10
118.0937391197821
 20
-133.4878037860725
 30
0.0
 10
118.0937391197821
 20
-133.4878037860725
 30
0.0
 10
118.0937391197821
 20
-133.8178439335594
 30
0.0
 10
118.0937391197821
 20
-133.8178439335594
 30
0.0
 10
118.0937391197821
 20
-133.8178439335594
 30
0.0
 10
117.9456000139164
 20
-133.8178439335594
 30
0.0
 10
117.9456000139164
 20
-133.8178439335594
 30
0.0
 10
117.9307861033298
 20
-133.4857367287813
 30
0.0
 10
117.7678330868775
 20
-133.4392279397305
 30
0.0
 10
117.6534559167672
 20
-133.4096001185573
 30
0.0
 10
117.6534559167672
 20
-133.4096001185573
 30
0.0
 10
117.6534559167672
 20
-133.2635280699827
 30
0.0
 10
117.6534559167672
 20
-133.2635280699827
 30
0.0
 10
117.6534559167672
 20
-133.2635280699827
 30
0.0
 10
119.1978922228047
 20
-133.2635280699827
 30
0.0
 10
119.1978922228047
 20
-133.2635280699827
 30
0.0
 10
119.1978922228047
 20
-133.2635280699827
 30
0.0
 10
119.1978922228047
 20
-133.4878037860725
 30
0.0
 10
119.1978922228047
 20
-133.4878037860725
 30
0.0
  0
HATCH
  5
7E
330
79
100
AcDbEntity
  8
_U+30EC_U+30A4_U+30E4_U+30FC 1
 62
   179
420
  2234388
100
AcDbHatch
 10
0.0
 20
0.0
 30
0.0
210
0.0
220
0.0
230
1.0
  2
SOLID
 70
     1
 71
     0
 91
        1
 92
        1
 93
        1
 72
     4
 94
        3
 73
     0
 74
     1
 95
       26
 96
       22
 40
0.0
 40
0.0
 40
0.0
 40
0.0
 40
1.0
 40
1.0
 40
1.0
 40
2.0
 40
2.0
 40
2.0
 40
3.0
 40
3.0
 40
3.0
 40
4.0
 40
4.0
 40
4.0
 40
5.0
 40
5.0
 40
5.0
 40
6.0
 40
6.0
 40
6.0
 40
7.0
 40
7.0
 40
7.0
 40
7.0
 10
119.1978922228047
 20
-133.4878037860725
 10
119.1978922228047
 20
-133.4878037860725
 10
118.0937391197821
 20
-133.4878037860725
 10
118.0937391197821
 20
-133.4878037860725
 10
118.0937391197821
 20
-133.4878037860725
 10
118.0937391197821
 20
-133.8178439335594
 10
118.0937391197821
 20
-133.8178439335594
 10
118.0937391197821
 20
-133.8178439335594
 10
117.9456000139164
 20
-133.8178439335594
 10
117.9456000139164
 20
-133.8178439335594
 10
117.9307861033298
 20
-133.4857367287813
 10
117.7678330868775
 20
-133.4392279397305
 10
117.6534559167672
 20
-133.4096001185573
 10
117.6534559167672
 20
-133.4096001185573
 10
117.6534559167672
 20
-133.2635280699827
 10
117.6534559167672
 20
-133.2635280699827
 10
117.6534559167672
 20
-133.2635280699827
 10
119.1978922228047
 20
-133.2635280699827
 10
119.1978922228047
 20
-133.2635280699827
 10
119.1978922228047
 20
-133.2635280699827
 10
119.1978922228047
 20
-133.4878037860725
 10
119.1978922228047
 20
-133.4878037860725
 97
        0
 97
        0
 75
     2
 76
     1
 98
        0
  0
ENDBLK
  5
7C
330
79
100
AcDbEntity
  8
0
100
AcDbBlockEnd
  0
BLOCK
  5
81
330
7F
100
AcDbEntity
  8
0
100
AcDbBlockBegin
  2
block 4
 70
     0
 10
0.0
 20
0.0
 30
0.0
  3
block 4
  1

  0
SPLINE
  5
83
330
7F
100
AcDbEntity
  8
_U+30EC_U+30A4_U+30E4_U+30FC 1
370
     0
100
AcDbSpline
210
0.0
220
0.0
230
1.0
 70
    11
 71
     3
 72
    62
 73
    58
 74
     0
 42
0.0000000001
 43
0.0000000001
 12
1.0
 22
0.0
 32
0.0
 13
1.0
 23
0.0
 33
0.0
 40
0.0
 40
0.0
 40
0.0
 40
0.0
 40
1.0
 40
1.0
 40
1.0
 40
2.0
 40
2.0
 40
2.0
 40
3.0
 40
3.0
 40
3.0
 40
4.0
 40
4.0
 40
4.0
 40
5.0
 40
5.0
 40
5.0
 40
6.0
 40
6.0
 40
6.0
 40
7.0
 40
7.0
 40
7.0
 40
8.0
 40
8.0
 40
8.0
 40
9.0
 40
9.0
 40
9.0
 40
10.0
 40
10.0
 40
10.0
 40
11.0
 40
11.0
 40
11.0
 40
12.0
 40
12.0
 40
12.0
 40
13.0
 40
13.0
 40
13.0
 40
14.0
 40
14.0
 40
14.0
 40
15.0
 40
15.0
 40
15.0
 40
16.0
 40
16.0
 40
16.0
 40
17.0
 40
17.0
 40
17.0
 40
18.0
 40
18.0
 40
18.0
 40
19.0
 40
19.0
 40
19.0
 40
19.0
 10
119.2485351264379
 20
-118.4875135337462
 30
0.0
 10
119.2485351264379
 20
-118.5829426786876
 30
0.0
 10
119.2275200439778
 20
-118.8006727133554
 30
0.0
 10
119.0414848877744
 20
-118.92572967947
 30
0.0
 10
118.9291747749552
 20
-118.9997992324028
 30
0.0
 10
118.82995602498
 20
-119.0039333469851
 30
0.0
 10
118.7452066760429
 20
-119.0080674615674
 30
0.0
 10
118.7452066760429
 20
-119.0080674615674
 30
0.0
 10
118.7452066760429
 20
-118.78792586006
 30
0.0
 10
118.7452066760429
 20
-118.78792586006
 30
0.0
 10
118.8192762289757
 20
-118.7858588027688
 30
0.0
 10
119.0538872315213
 20
-118.7755235163131
 30
0.0
 10
119.0538872315213
 20
-118.491992157877
 30
0.0
 10
119.0538872315213
 20
-118.3545328480155
 30
0.0
 10
118.9842963027192
 20
-118.201915118019
 30
0.0
 10
118.7558864720472
 20
-118.201915118019
 30
0.0
 10
118.6394422446457
 20
-118.201915118019
 30
0.0
 10
118.5908663983037
 20
-118.2401556779052
 30
0.0
 10
118.5591715198394
 20
-118.2718505563695
 30
0.0
 10
118.4851019669065
 20
-118.3459201093024
 30
0.0
 10
118.4723551136111
 20
-118.4623643367039
 30
0.0
 10
118.4723551136111
 20
-118.5171413549193
 30
0.0
 10
118.4723551136111
 20
-118.5364338896367
 30
0.0
 10
118.4744221709022
 20
-118.5722628826833
 30
0.0
 10
118.4785562854845
 20
-118.5998236465653
 30
0.0
 10
118.4785562854845
 20
-118.5998236465653
 30
0.0
 10
118.2839083905679
 20
-118.5998236465653
 30
0.0
 10
118.2839083905679
 20
-118.5998236465653
 30
0.0
 10
118.2904540719899
 20
-118.5615830866791
 30
0.0
 10
118.292521129281
 20
-118.519552921759
 30
0.0
 10
118.292521129281
 20
-118.513007240337
 30
0.0
 10
118.292521129281
 20
-118.4475504261173
 30
0.0
 10
118.2711615372725
 20
-118.2487684166184
 30
0.0
 10
118.0344834774358
 20
-118.2487684166184
 30
0.0
 10
117.8567165503969
 20
-118.2487684166184
 30
0.0
 10
117.8015950226329
 20
-118.3796820450579
 30
0.0
 10
117.8015950226329
 20
-118.4899251005859
 30
0.0
 10
117.8015950226329
 20
-118.7541639243045
 30
0.0
 10
118.0344834774358
 20
-118.7627766630176
 30
0.0
 10
118.106141463529
 20
-118.7669107775999
 30
0.0
 10
118.106141463529
 20
-118.7669107775999
 30
0.0
 10
118.106141463529
 20
-118.9701714112297
 30
0.0
 10
118.106141463529
 20
-118.9701714112297
 30
0.0
 10
117.981429006963
 20
-118.9615586725166
 30
0.0
 10
117.6048800704252
 20
-118.9339979086346
 30
0.0
 10
117.6048800704252
 20
-118.4771782472904
 30
0.0
 10
117.6048800704252
 20
-118.2529025312007
 30
0.0
 10
117.7320040938309
 20
-118.0117458472332
 30
0.0
 10
118.0279377960139
 20
-118.0117458472332
 30
0.0
 10
118.2143174617659
 20
-118.0117458472332
 30
0.0
 10
118.2966552438633
 20
-118.1068304826261
 30
0.0
 10
118.3579779435008
 20
-118.2063937421498
 30
0.0
 10
118.3855387073828
 20
-118.1450710425123
 30
0.0
 10
118.4658094321891
 20
-117.9631700008912
 30
0.0
 10
118.7431396187517
 20
-117.9631700008912
 30
0.0
 10
119.0814479954033
 20
-117.9631700008912
 30
0.0
 10
119.2485351264379
 20
-118.2105278567321
 30
0.0
 10
119.2485351264379
 20
-118.4875135337462
 30
0.0
  0
HATCH
  5
84
330
7F
100
AcDbEntity
  8
_U+30EC_U+30A4_U+30E4_U+30FC 1
 62
   179
420
  2234388
100
AcDbHatch
 10
0.0
 20
0.0
 30
0.0
210
0.0
220
0.0
230
1.0
  2
SOLID
 70
     1
 71
     0
 91
        1
 92
        1
 93
        1
 72
     4
 94
        3
 73
     0
 74
     1
 95
       62
 96
       58
 40
0.0
 40
0.0
 40
0.0
 40
0.0
 40
1.0
 40
1.0
 40
1.0
 40
2.0
 40
2.0
 40
2.0
 40
3.0
 40
3.0
 40
3.0
 40
4.0
 40
4.0
 40
4.0
 40
5.0
 40
5.0
 40
5.0
 40
6.0
 40
6.0
 40
6.0
 40
7.0
 40
7.0
 40
7.0
 40
8.0
 40
8.0
 40
8.0
 40
9.0
 40
9.0
 40
9.0
 40
10.0
 40
10.0
 40
10.0
 40
11.0
 40
11.0
 40
11.0
 40
12.0
 40
12.0
 40
12.0
 40
13.0
 40
13.0
 40
13.0
 40
14.0
 40
14.0
 40
14.0
 40
15.0
 40
15.0
 40
15.0
 40
16.0
 40
16.0
 40
16.0
 40
17.0
 40
17.0
 40
17.0
 40
18.0
 40
18.0
 40
18.0
 40
19.0
 40
19.0
 40
19.0
 40
19.0
 10
119.2485351264379
 20
-118.4875135337462
 10
119.2485351264379
 20
-118.5829426786876
 10
119.2275200439778
 20
-118.8006727133554
 10
119.0414848877744
 20
-118.92572967947
 10
118.9291747749552
 20
-118.9997992324028
 10
118.82995602498
 20
-119.0039333469851
 10
118.7452066760429
 20
-119.0080674615674
 10
118.7452066760429
 20
-119.0080674615674
 10
118.7452066760429
 20
-118.78792586006
 10
118.7452066760429
 20
-118.78792586006
 10
118.8192762289757
 20
-118.7858588027688
 10
119.0538872315213
 20
-118.7755235163131
 10
119.0538872315213
 20
-118.491992157877
 10
119.0538872315213
 20
-118.3545328480155
 10
118.9842963027192
 20
-118.201915118019
 10
118.7558864720472
 20
-118.201915118019
 10
118.6394422446457
 20
-118.201915118019
 10
118.5908663983037
 20
-118.2401556779052
 10
118.5591715198394
 20
-118.2718505563695
 10
118.4851019669065
 20
-118.3459201093024
 10
118.4723551136111
 20
-118.4623643367039
 10
118.4723551136111
 20
-118.5171413549193
 10
118.4723551136111
 20
-118.5364338896367
 10
118.4744221709022
 20
-118.5722628826833
 10
118.4785562854845
 20
-118.5998236465653
 10
118.4785562854845
 20
-118.5998236465653
 10
118.2839083905679
 20
-118.5998236465653
 10
118.2839083905679
 20
-118.5998236465653
 10
118.2904540719899
 20
-118.5615830866791
 10
118.292521129281
 20
-118.519552921759
 10
118.292521129281
 20
-118.513007240337
 10
118.292521129281
 20
-118.4475504261173
 10
118.2711615372725
 20
-118.2487684166184
 10
118.0344834774358
 20
-118.2487684166184
 10
117.8567165503969
 20
-118.2487684166184
 10
117.8015950226329
 20
-118.3796820450579
 10
117.8015950226329
 20
-118.4899251005859
 10
117.8015950226329
 20
-118.7541639243045
 10
118.0344834774358
 20
-118.7627766630176
 10
118.106141463529
 20
-118.7669107775999
 10
118.106141463529
 20
-118.7669107775999
 10
118.106141463529
 20
-118.9701714112297
 10
118.106141463529
 20
-118.9701714112297
 10
117.981429006963
 20
-118.9615586725166
 10
117.6048800704252
 20
-118.9339979086346
 10
117.6048800704252
 20
-118.4771782472904
 10
117.6048800704252
 20
-118.2529025312007
 10
117.7320040938309
 20
-118.0117458472332
 10
118.0279377960139
 20
-118.0117458472332
 10
118.2143174617659
 20
-118.0117458472332
 10
118.2966552438633
 20
-118.1068304826261
 10
118.3579779435008
 20
-118.2063937421498
 10
118.3855387073828
 20
-118.1450710425123
 10
118.4658094321891
 20
-117.9631700008912
 10
118.7431396187517
 20
-117.9631700008912
 10
119.0814479954033
 20
-117.9631700008912
 10
119.2485351264379
 20
-118.2105278567321
 10
119.2485351264379
 20
-118.4875135337462
 97
        0
 97
        0
 75
     2
 76
     1
 98
        0
  0
SPLINE
  5
85
330
7F
100
AcDbEntity
  8
_U+30EC_U+30A4_U+30E4_U+30FC 1
370
     0
100
AcDbSpline
210
0.0
220
0.0
230
1.0
 70
    11
 71
     3
 72
    29
 73
    25
 74
     0
 42
0.0000000001
 43
0.0000000001
 12
1.0
 22
0.0
 32
0.0
 13
1.0
 23
0.0
 33
0.0
 40
0.0
 40
0.0
 40
0.0
 40
0.0
 40
1.0
 40
1.0
 40
1.0
 40
2.0
 40
2.0
 40
2.0
 40
3.0
 40
3.0
 40
3.0
 40
4.0
 40
4.0
 40
4.0
 40
5.0
 40
5.0
 40
5.0
 40
6.0
 40
6.0
 40
6.0
 40
7.0
 40
7.0
 40
7.0
 40
8.0
 40
8.0
 40
8.0
 40
8.0
 10
119.0201252957658
 20
-116.9044921582739
 30
0.0
 10
119.229587101269
 20
-117.0126681565107
 30
0.0
 10
119.2485351264379
 20
-117.1859564594188
 30
0.0
 10
119.2485351264379
 20
-117.3024006868202
 30
0.0
 10
119.2485351264379
 20
-117.4632866459814
 30
0.0
 10
119.202026337387
 20
-117.6048800704252
 30
0.0
 10
119.0201252957658
 20
-117.6999647058181
 30
0.0
 10
118.8254774008492
 20
-117.8036620799241
 30
0.0
 10
118.588454831464
 20
-117.8229546146415
 30
0.0
 10
118.4258463245602
 20
-117.8229546146415
 30
0.0
 10
118.2818413332768
 20
-117.8229546146415
 30
0.0
 10
118.030004853305
 20
-117.8057291372152
 30
0.0
 10
117.8312228438061
 20
-117.6999647058181
 30
0.0
 10
117.6283067197249
 20
-117.5921332171298
 30
0.0
 10
117.6048800704252
 20
-117.4312472579686
 30
0.0
 10
117.6048800704252
 20
-117.3024006868202
 30
0.0
 10
117.6048800704252
 20
-117.1435817849502
 30
0.0
 10
117.6493218021849
 20
-116.9999213032153
 30
0.0
 10
117.8312228438061
 20
-116.9044921582739
 30
0.0
 10
118.0238036814316
 20
-116.8052734082987
 30
0.0
 10
118.2522135121036
 20
-116.781846758999
 30
0.0
 10
118.4258463245602
 20
-116.781846758999
 30
0.0
 10
118.5970675701771
 20
-116.781846758999
 30
0.0
 10
118.8275444581403
 20
-116.8032063510075
 30
0.0
 10
119.0201252957658
 20
-116.9044921582739
 30
0.0
  0
SPLINE
  5
86
330
7F
100
AcDbEntity
  8
_U+30EC_U+30A4_U+30E4_U+30FC 1
370
     0
100
AcDbSpline
210
0.0
220
0.0
230
1.0
 70
    11
 71
     3
 72
    17
 73
    13
 74
     0
 42
0.0000000001
 43
0.0000000001
 12
1.0
 22
0.0
 32
0.0
 13
1.0
 23
0.0
 33
0.0
 40
0.0
 40
0.0
 40
0.0
 40
0.0
 40
1.0
 40
1.0
 40
1.0
 40
2.0
 40
2.0
 40
2.0
 40
3.0
 40
3.0
 40
3.0
 40
4.0
 40
4.0
 40
4.0
 40
4.0
 10
117.7974609080506
 20
-117.3024006868202
 30
0.0
 10
117.7974609080506
 20
-117.5521701095008
 30
0.0
 10
118.0809922664867
 20
-117.5986788985517
 30
0.0
 10
118.4258463245602
 20
-117.5986788985517
 30
0.0
 10
118.7452066760429
 20
-117.5986788985517
 30
0.0
 10
119.0538872315213
 20
-117.5625053959566
 30
0.0
 10
119.0538872315213
 20
-117.3024006868202
 30
0.0
 10
119.0538872315213
 20
-117.0546983214308
 30
0.0
 10
118.7727674399249
 20
-117.0061224750888
 30
0.0
 10
118.4258463245602
 20
-117.0061224750888
 30
0.0
 10
118.106141463529
 20
-117.0061224750888
 30
0.0
 10
117.7974609080506
 20
-117.044363034975
 30
0.0
 10
117.7974609080506
 20
-117.3024006868202
 30
0.0
  0
HATCH
  5
87
330
7F
100
AcDbEntity
  8
_U+30EC_U+30A4_U+30E4_U+30FC 1
 62
   179
420
  2234388
100
AcDbHatch
 10
0.0
 20
0.0
 30
0.0
210
0.0
220
0.0
230
1.0
  2
SOLID
 70
     1
 71
     0
 91
        2
 92
        1
 93
        1
 72
     4
 94
        3
 73
     0
 74
     1
 95
       29
 96
       25
 40
0.0
 40
0.0
 40
0.0
 40
0.0
 40
1.0
 40
1.0
 40
1.0
 40
2.0
 40
2.0
 40
2.0
 40
3.0
 40
3.0
 40
3.0
 40
4.0
 40
4.0
 40
4.0
 40
5.0
 40
5.0
 40
5.0
 40
6.0
 40
6.0
 40
6.0
 40
7.0
 40
7.0
 40
7.0
 40
8.0
 40
8.0
 40
8.0
 40
8.0
 10
119.0201252957658
 20
-116.9044921582739
 10
119.229587101269
 20
-117.0126681565107
 10
119.2485351264379
 20
-117.1859564594188
 10
119.2485351264379
 20
-117.3024006868202
 10
119.2485351264379
 20
-117.4632866459814
 10
119.202026337387
 20
-117.6048800704252
 10
119.0201252957658
 20
-117.6999647058181
 10
118.8254774008492
 20
-117.8036620799241
 10
118.588454831464
 20
-117.8229546146415
 10
118.4258463245602
 20
-117.8229546146415
 10
118.2818413332768
 20
-117.8229546146415
 10
118.030004853305
 20
-117.8057291372152
 10
117.8312228438061
 20
-117.6999647058181
 10
117.6283067197249
 20
-117.5921332171298
 10
117.6048800704252
 20
-117.4312472579686
 10
117.6048800704252
 20
-117.3024006868202
 10
117.6048800704252
 20
-117.1435817849502
 10
117.6493218021849
 20
-116.9999213032153
 10
117.8312228438061
 20
-116.9044921582739
 10
118.0238036814316
 20
-116.8052734082987
 10
118.2522135121036
 20
-116.781846758999
 10
118.4258463245602
 20
-116.781846758999
 10
118.5970675701771
 20
-116.781846758999
 10
118.8275444581403
 20
-116.8032063510075
 10
119.0201252957658
 20
-116.9044921582739
 97
        0
 97
        0
 92
        1
 93
        1
 72
     4
 94
        3
 73
     0
 74
     1
 95
       17
 96
       13
 40
0.0
 40
0.0
 40
0.0
 40
0.0
 40
1.0
 40
1.0
 40
1.0
 40
2.0
 40
2.0
 40
2.0
 40
3.0
 40
3.0
 40
3.0
 40
4.0
 40
4.0
 40
4.0
 40
4.0
 10
117.7974609080506
 20
-117.3024006868202
 10
117.7974609080506
 20
-117.5521701095008
 10
118.0809922664867
 20
-117.5986788985517
 10
118.4258463245602
 20
-117.5986788985517
 10
118.7452066760429
 20
-117.5986788985517
 10
119.0538872315213
 20
-117.5625053959566
 10
119.0538872315213
 20
-117.3024006868202
 10
119.0538872315213
 20
-117.0546983214308
 10
118.7727674399249
 20
-117.0061224750888
 10
118.4258463245602
 20
-117.0061224750888
 10
118.106141463529
 20
-117.0061224750888
 10
117.7974609080506
 20
-117.044363034975
 10
117.7974609080506
 20
-117.3024006868202
 97
        0
 97
        0
 75
     2
 76
     1
 98
        0
  0
ENDBLK
  5
82
330
7F
100
AcDbEntity
  8
0
100
AcDbBlockEnd
  0
BLOCK
  5
8A
330
88
100
AcDbEntity
  8
0
100
AcDbBlockBegin
  2
block 5
 70
     0
 10
0.0
 20
0.0
 30
0.0
  3
block 5
  1

  0
SPLINE
  5
8C
330
88
100
AcDbEntity
  8
_U+30EC_U+30A4_U+30E4_U+30FC 1
370
     0
100
AcDbSpline
210
0.0
220
0.0
230
1.0
 70
    11
 71
     3
 72
    26
 73
    22
 74
     0
 42
0.0000000001
 43
0.0000000001
 12
1.0
 22
0.0
 32
0.0
 13
1.0
 23
0.0
 33
0.0
 40
0.0
 40
0.0
 40
0.0
 40
0.0
 40
1.0
 40
1.0
 40
1.0
 40
2.0
 40
2.0
 40
2.0
 40
3.0
 40
3.0
 40
3.0
 40
4.0
 40
4.0
 40
4.0
 40
5.0
 40
5.0
 40
5.0
 40
6.0
 40
6.0
 40
6.0
 40
7.0
 40
7.0
 40
7.0
 40
7.0
 10
119.1978922228047
 20
-151.6100395671322
 30
0.0
 10
119.1978922228047
 20
-151.6100395671322
 30
0.0
 10
118.0937391197821
 20
-151.6100395671322
 30
0.0
 10
118.0937391197821
 20
-151.6100395671322
 30
0.0
 10
118.0937391197821
 20
-151.6100395671322
 30
0.0
 10
118.0937391197821
 20
-151.9400797146191
 30
0.0
 10
118.0937391197821
 20
-151.9400797146191
 30
0.0
 10
118.0937391197821
 20
-151.9400797146191
 30
0.0
 10
117.9456000139164
 20
-151.9400797146191
 30
0.0
 10
117.9456000139164
 20
-151.9400797146191
 30
0.0
 10
117.9307861033298
 20
-151.6079725098411
 30
0.0
 10
117.7678330868775
 20
-151.5614637207902
 30
0.0
 10
117.6534559167672
 20
-151.5318358996171
 30
0.0
 10
117.6534559167672
 20
-151.5318358996171
 30
0.0
 10
117.6534559167672
 20
-151.3857638510424
 30
0.0
 10
117.6534559167672
 20
-151.3857638510424
 30
0.0
 10
117.6534559167672
 20
-151.3857638510424
 30
0.0
 10
119.1978922228047
 20
-151.3857638510424
 30
0.0
 10
119.1978922228047
 20
-151.3857638510424
 30
0.0
 10
119.1978922228047
 20
-151.3857638510424
 30
0.0
 10
119.1978922228047
 20
-151.6100395671322
 30
0.0
 10
119.1978922228047
 20
-151.6100395671322
 30
0.0
  0
HATCH
  5
8D
330
88
100
AcDbEntity
  8
_U+30EC_U+30A4_U+30E4_U+30FC 1
 62
   179
420
  2234388
100
AcDbHatch
 10
0.0
 20
0.0
 30
0.0
210
0.0
220
0.0
230
1.0
  2
SOLID
 70
     1
 71
     0
 91
        1
 92
        1
 93
        1
 72
     4
 94
        3
 73
     0
 74
     1
 95
       26
 96
       22
 40
0.0
 40
0.0
 40
0.0
 40
0.0
 40
1.0
 40
1.0
 40
1.0
 40
2.0
 40
2.0
 40
2.0
 40
3.0
 40
3.0
 40
3.0
 40
4.0
 40
4.0
 40
4.0
 40
5.0
 40
5.0
 40
5.0
 40
6.0
 40
6.0
 40
6.0
 40
7.0
 40
7.0
 40
7.0
 40
7.0
 10
119.1978922228047
 20
-151.6100395671322
 10
119.1978922228047
 20
-151.6100395671322
 10
118.0937391197821
 20
-151.6100395671322
 10
118.0937391197821
 20
-151.6100395671322
 10
118.0937391197821
 20
-151.6100395671322
 10
118.0937391197821
 20
-151.9400797146191
 10
118.0937391197821
 20
-151.9400797146191
 10
118.0937391197821
 20
-151.9400797146191
 10
117.9456000139164
 20
-151.9400797146191
 10
117.9456000139164
 20
-151.9400797146191
 10
117.9307861033298
 20
-151.6079725098411
 10
117.7678330868775
 20
-151.5614637207902
 10
117.6534559167672
 20
-151.5318358996171
 10
117.6534559167672
 20
-151.5318358996171
 10
117.6534559167672
 20
-151.3857638510424
 10
117.6534559167672
 20
-151.3857638510424
 10
117.6534559167672
 20
-151.3857638510424
 10
119.1978922228047
 20
-151.3857638510424
 10
119.1978922228047
 20
-151.3857638510424
 10
119.1978922228047
 20
-151.3857638510424
 10
119.1978922228047
 20
-151.6100395671322
 10
119.1978922228047
 20
-151.6100395671322
 97
        0
 97
        0
 75
     2
 76
     1
 98
        0
  0
POLYLINE
  5
8E
330
88
100
AcDbEntity
  8
_U+30EC_U+30A4_U+30E4_U+30FC 1
370
     0
100
AcDb2dPolyline
 66
     1
 10
0.0
 20
0.0
 30
0.0
  0
VERTEX
  5
8F
330
8E
100
AcDbEntity
  8
_U+30EC_U+30A4_U+30E4_U+30FC 1
370
     0
100
AcDbVertex
100
AcDb2dVertex
 10
119.1978922228047
 20
-150.8245577964953
 30
0.0
  0
VERTEX
  5
90
330
8E
100
AcDbEntity
  8
_U+30EC_U+30A4_U+30E4_U+30FC 1
370
     0
100
AcDbVertex
100
AcDb2dVertex
 10
118.9460557428329
 20
-150.8245577964953
 30
0.0
  0
VERTEX
  5
91
330
8E
100
AcDbEntity
  8
_U+30EC_U+30A4_U+30E4_U+30FC 1
370
     0
100
AcDbVertex
100
AcDb2dVertex
 10
118.9460557428329
 20
-150.5727213165235
 30
0.0
  0
VERTEX
  5
92
330
8E
100
AcDbEntity
  8
_U+30EC_U+30A4_U+30E4_U+30FC 1
370
     0
100
AcDbVertex
100
AcDb2dVertex
 10
119.1978922228047
 20
-150.5727213165235
 30
0.0
  0
VERTEX
  5
93
330
8E
100
AcDbEntity
  8
_U+30EC_U+30A4_U+30E4_U+30FC 1
370
     0
100
AcDbVertex
100
AcDb2dVertex
 10
119.1978922228047
 20
-150.8245577964953
 30
0.0
  0
SEQEND
  5
94
330
8E
100
AcDbEntity
  8
_U+30EC_U+30A4_U+30E4_U+30FC 1
370
     0
  0
HATCH
  5
95
330
88
100
AcDbEntity
  8
_U+30EC_U+30A4_U+30E4_U+30FC 1
 62
   179
420
  2234388
100
AcDbHatch
 10
0.0
 20
0.0
 30
0.0
210
0.0
220
0.0
230
1.0
  2
SOLID
 70
     1
 71
     0
 91
        1
 92
        1
 93
        4
 72
     1
 10
119.1978922228047
 20
-150.8245577964953
 11
118.9460557428329
 21
-150.8245577964953
 72
     1
 10
118.9460557428329
 20
-150.8245577964953
 11
118.9460557428329
 21
-150.5727213165235
 72
     1
 10
118.9460557428329
 20
-150.5727213165235
 11
119.1978922228047
 21
-150.5727213165235
 72
     1
 10
119.1978922228047
 20
-150.5727213165235
 11
119.1978922228047
 21
-150.8245577964953
 97
        0
 75
     2
 76
     1
 98
        0
  0
SPLINE
  5
96
330
88
100
AcDbEntity
  8
_U+30EC_U+30A4_U+30E4_U+30FC 1
370
     0
100
AcDbSpline
210
0.0
220
0.0
230
1.0
 70
    11
 71
     3
 72
    53
 73
    49
 74
     0
 42
0.0000000001
 43
0.0000000001
 12
1.0
 22
0.0
 32
0.0
 13
1.0
 23
0.0
 33
0.0
 40
0.0
 40
0.0
 40
0.0
 40
0.0
 40
1.0
 40
1.0
 40
1.0
 40
2.0
 40
2.0
 40
2.0
 40
3.0
 40
3.0
 40
3.0
 40
4.0
 40
4.0
 40
4.0
 40
5.0
 40
5.0
 40
5.0
 40
6.0
 40
6.0
 40
6.0
 40
7.0
 40
7.0
 40
7.0
 40
8.0
 40
8.0
 40
8.0
 40
9.0
 40
9.0
 40
9.0
 40
10.0
 40
10.0
 40
10.0
 40
11.0
 40
11.0
 40
11.0
 40
12.0
 40
12.0
 40
12.0
 40
13.0
 40
13.0
 40
13.0
 40
14.0
 40
14.0
 40
14.0
 40
15.0
 40
15.0
 40
15.0
 40
16.0
 40
16.0
 40
16.0
 40
16.0
 10
119.2485351264379
 20
-149.8554524364945
 30
0.0
 10
119.2485351264379
 20
-149.9336561040097
 30
0.0
 10
119.2316541585601
 20
-150.0352864208245
 30
0.0
 10
119.1682644016315
 20
-150.1369167376394
 30
0.0
 10
119.0583658556521
 20
-150.3102050405475
 30
0.0
 10
118.9271077176641
 20
-150.331564632556
 30
0.0
 10
118.8192762289757
 20
-150.3505126577249
 30
0.0
 10
118.8192762289757
 20
-150.3505126577249
 30
0.0
 10
118.8192762289757
 20
-150.1283039989263
 30
0.0
 10
118.8192762289757
 20
-150.1283039989263
 30
0.0
 10
119.0180582384747
 20
-150.0735269807108
 30
0.0
 10
119.0476860596478
 20
-149.9464029573051
 30
0.0
 10
119.0476860596478
 20
-149.8533853792033
 30
0.0
 10
119.0476860596478
 20
-149.7138590120507
 30
0.0
 10
118.9481228001241
 20
-149.5615857916027
 30
0.0
 10
118.7155788548697
 20
-149.5615857916027
 30
0.0
 10
118.4596082603157
 20
-149.5615857916027
 30
0.0
 10
118.3896728219651
 20
-149.7414197759327
 30
0.0
 10
118.3896728219651
 20
-149.8619981179164
 30
0.0
 10
118.3896728219651
 20
-149.8936929963808
 30
0.0
 10
118.3896728219651
 20
-150.0352864208245
 30
0.0
 10
118.518863902662
 20
-150.124169884344
 30
0.0
 10
118.518863902662
 20
-150.124169884344
 30
0.0
 10
118.4999158774931
 20
-150.2998697540917
 30
0.0
 10
118.4999158774931
 20
-150.2998697540917
 30
0.0
 10
118.4999158774931
 20
-150.2998697540917
 30
0.0
 10
117.6534559167672
 20
-150.179291412108
 30
0.0
 10
117.6534559167672
 20
-150.179291412108
 30
0.0
 10
117.6534559167672
 20
-150.179291412108
 30
0.0
 10
117.6534559167672
 20
-149.4006998324415
 30
0.0
 10
117.6534559167672
 20
-149.4006998324415
 30
0.0
 10
117.6534559167672
 20
-149.4006998324415
 30
0.0
 10
117.8481038116838
 20
-149.4006998324415
 30
0.0
 10
117.8481038116838
 20
-149.4006998324415
 30
0.0
 10
117.8481038116838
 20
-149.4006998324415
 30
0.0
 10
117.8481038116838
 20
-150.0163383956557
 30
0.0
 10
117.8481038116838
 20
-150.0163383956557
 30
0.0
 10
117.8481038116838
 20
-150.0163383956557
 30
0.0
 10
118.2711615372725
 20
-150.0817952098754
 30
0.0
 10
118.2711615372725
 20
-150.0817952098754
 30
0.0
 10
118.237399601517
 20
-150.0204725102379
 30
0.0
 10
118.1970919843396
 20
-149.9381347281405
 30
0.0
 10
118.1970919843396
 20
-149.8196234434479
 30
0.0
 10
118.1970919843396
 20
-149.565719906185
 30
0.0
 10
118.3834716500916
 20
-149.3286973367998
 30
0.0
 10
118.6966308297009
 20
-149.3286973367998
 30
0.0
 10
119.0139241238924
 20
-149.3286973367998
 30
0.0
 10
119.2485351264379
 20
-149.5529730528895
 30
0.0
 10
119.2485351264379
 20
-149.8554524364945
 30
0.0
  0
HATCH
  5
97
330
88
100
AcDbEntity
  8
_U+30EC_U+30A4_U+30E4_U+30FC 1
 62
   179
420
  2234388
100
AcDbHatch
 10
0.0
 20
0.0
 30
0.0
210
0.0
220
0.0
230
1.0
  2
SOLID
 70
     1
 71
     0
 91
        1
 92
        1
 93
        1
 72
     4
 94
        3
 73
     0
 74
     1
 95
       53
 96
       49
 40
0.0
 40
0.0
 40
0.0
 40
0.0
 40
1.0
 40
1.0
 40
1.0
 40
2.0
 40
2.0
 40
2.0
 40
3.0
 40
3.0
 40
3.0
 40
4.0
 40
4.0
 40
4.0
 40
5.0
 40
5.0
 40
5.0
 40
6.0
 40
6.0
 40
6.0
 40
7.0
 40
7.0
 40
7.0
 40
8.0
 40
8.0
 40
8.0
 40
9.0
 40
9.0
 40
9.0
 40
10.0
 40
10.0
 40
10.0
 40
11.0
 40
11.0
 40
11.0
 40
12.0
 40
12.0
 40
12.0
 40
13.0
 40
13.0
 40
13.0
 40
14.0
 40
14.0
 40
14.0
 40
15.0
 40
15.0
 40
15.0
 40
16.0
 40
16.0
 40
16.0
 40
16.0
 10
119.2485351264379
 20
-149.8554524364945
 10
119.2485351264379
 20
-149.9336561040097
 10
119.2316541585601
 20
-150.0352864208245
 10
119.1682644016315
 20
-150.1369167376394
 10
119.0583658556521
 20
-150.3102050405475
 10
118.9271077176641
 20
-150.331564632556
 10
118.8192762289757
 20
-150.3505126577249
 10
118.8192762289757
 20
-150.3505126577249
 10
118.8192762289757
 20
-150.1283039989263
 10
118.8192762289757
 20
-150.1283039989263
 10
119.0180582384747
 20
-150.0735269807108
 10
119.0476860596478
 20
-149.9464029573051
 10
119.0476860596478
 20
-149.8533853792033
 10
119.0476860596478
 20
-149.7138590120507
 10
118.9481228001241
 20
-149.5615857916027
 10
118.7155788548697
 20
-149.5615857916027
 10
118.4596082603157
 20
-149.5615857916027
 10
118.3896728219651
 20
-149.7414197759327
 10
118.3896728219651
 20
-149.8619981179164
 10
118.3896728219651
 20
-149.8936929963808
 10
118.3896728219651
 20
-150.0352864208245
 10
118.518863902662
 20
-150.124169884344
 10
118.518863902662
 20
-150.124169884344
 10
118.4999158774931
 20
-150.2998697540917
 10
118.4999158774931
 20
-150.2998697540917
 10
118.4999158774931
 20
-150.2998697540917
 10
117.6534559167672
 20
-150.179291412108
 10
117.6534559167672
 20
-150.179291412108
 10
117.6534559167672
 20
-150.179291412108
 10
117.6534559167672
 20
-149.4006998324415
 10
117.6534559167672
 20
-149.4006998324415
 10
117.6534559167672
 20
-149.4006998324415
 10
117.8481038116838
 20
-149.4006998324415
 10
117.8481038116838
 20
-149.4006998324415
 10
117.8481038116838
 20
-149.4006998324415
 10
117.8481038116838
 20
-150.0163383956557
 10
117.8481038116838
 20
-150.0163383956557
 10
117.8481038116838
 20
-150.0163383956557
 10
118.2711615372725
 20
-150.0817952098754
 10
118.2711615372725
 20
-150.0817952098754
 10
118.237399601517
 20
-150.0204725102379
 10
118.1970919843396
 20
-149.9381347281405
 10
118.1970919843396
 20
-149.8196234434479
 10
118.1970919843396
 20
-149.565719906185
 10
118.3834716500916
 20
-149.3286973367998
 10
118.6966308297009
 20
-149.3286973367998
 10
119.0139241238924
 20
-149.3286973367998
 10
119.2485351264379
 20
-149.5529730528895
 10
119.2485351264379
 20
-149.8554524364945
 97
        0
 97
        0
 75
     2
 76
     1
 98
        0
  0
ENDBLK
  5
8B
330
88
100
AcDbEntity
  8
0
100
AcDbBlockEnd
  0
BLOCK
  5
A8
330
A6
100
AcDbEntity
  8
0
100
AcDbBlockBegin
  2
block 6
 70
     0
 10
0.0
 20
0.0
 30
0.0
  3
block 6
  1

  0
SPLINE
  5
AA
330
A6
100
AcDbEntity
  8
_U+30EC_U+30A4_U+30E4_U+30FC 1
370
     0
100
AcDbSpline
210
0.0
220
0.0
230
1.0
 70
    11
 71
     3
 72
    44
 73
    40
 74
     0
 42
0.0000000001
 43
0.0000000001
 12
1.0
 22
0.0
 32
0.0
 13
1.0
 23
0.0
 33
0.0
 40
0.0
 40
0.0
 40
0.0
 40
0.0
 40
1.0
 40
1.0
 40
1.0
 40
2.0
 40
2.0
 40
2.0
 40
3.0
 40
3.0
 40
3.0
 40
4.0
 40
4.0
 40
4.0
 40
5.0
 40
5.0
 40
5.0
 40
6.0
 40
6.0
 40
6.0
 40
7.0
 40
7.0
 40
7.0
 40
8.0
 40
8.0
 40
8.0
 40
9.0
 40
9.0
 40
9.0
 40
10.0
 40
10.0
 40
10.0
 40
11.0
 40
11.0
 40
11.0
 40
12.0
 40
12.0
 40
12.0
 40
13.0
 40
13.0
 40
13.0
 40
13.0
 10
63.22043048549698
 20
-134.9691948447299
 30
0.0
 10
63.37907713259273
 20
-135.1869248793977
 30
0.0
 10
63.4531466855256
 20
-135.2799424574995
 30
0.0
 10
63.59697942203479
 20
-135.32886281339
 30
0.0
 10
63.59697942203479
 20
-135.32886281339
 30
0.0
 10
63.59697942203479
 20
-134.5502712337235
 30
0.0
 10
63.59697942203479
 20
-134.5502712337235
 30
0.0
 10
63.59697942203479
 20
-134.5502712337235
 30
0.0
 10
63.80213485818141
 20
-134.5502712337235
 30
0.0
 10
63.80213485818141
 20
-134.5502712337235
 30
0.0
 10
63.80213485818141
 20
-134.5502712337235
 30
0.0
 10
63.80213485818141
 20
-135.5782877265221
 30
0.0
 10
63.80213485818141
 20
-135.5782877265221
 30
0.0
 10
63.44453394681248
 20
-135.5465928480578
 30
0.0
 10
63.36633027929731
 20
-135.4811360338381
 30
0.0
 10
63.06798501027468
 20
-135.0959743585871
 30
0.0
 10
62.86920300077576
 20
-134.8400037640331
 30
0.0
 10
62.8015068744906
 20
-134.7745469498133
 30
0.0
 10
62.66404756462913
 20
-134.7745469498133
 30
0.0
 10
62.54553627993653
 20
-134.7745469498133
 30
0.0
 10
62.41427814194851
 20
-134.846549445455
 30
0.0
 10
62.41427814194851
 20
-135.0432643976628
 30
0.0
 10
62.41427814194851
 20
-135.3033691067992
 30
0.0
 10
62.64492728468599
 20
-135.3119818455123
 30
0.0
 10
62.76137151208744
 20
-135.3161159600946
 30
0.0
 10
62.76137151208744
 20
-135.3161159600946
 30
0.0
 10
62.76137151208744
 20
-135.5403916761844
 30
0.0
 10
62.76137151208744
 20
-135.5403916761844
 30
0.0
 10
62.63441974345598
 20
-135.5317789374712
 30
0.0
 10
62.5222818854111
 20
-135.5210991414669
 30
0.0
 10
62.4037706007185
 20
-135.4408284166606
 30
0.0
 10
62.2430568963316
 20
-135.3309298706812
 30
0.0
 10
62.20912270580189
 20
-135.1445502049291
 30
0.0
 10
62.20912270580189
 20
-135.0284504870762
 30
0.0
 10
62.20912270580189
 20
-134.7511203005136
 30
0.0
 10
62.39326305948849
 20
-134.5437255523016
 30
0.0
 10
62.66611462192028
 20
-134.5437255523016
 30
0.0
 10
62.89452445259234
 20
-134.5437255523016
 30
0.0
 10
62.99408771211606
 20
-134.660169779703
 30
0.0
 10
63.22043048549698
 20
-134.9691948447299
 30
0.0
  0
HATCH
  5
AB
330
A6
100
AcDbEntity
  8
_U+30EC_U+30A4_U+30E4_U+30FC 1
 62
   179
420
  2234388
100
AcDbHatch
 10
0.0
 20
0.0
 30
0.0
210
0.0
220
0.0
230
1.0
  2
SOLID
 70
     1
 71
     0
 91
        1
 92
        1
 93
        1
 72
     4
 94
        3
 73
     0
 74
     1
 95
       44
 96
       40
 40
0.0
 40
0.0
 40
0.0
 40
0.0
 40
1.0
 40
1.0
 40
1.0
 40
2.0
 40
2.0
 40
2.0
 40
3.0
 40
3.0
 40
3.0
 40
4.0
 40
4.0
 40
4.0
 40
5.0
 40
5.0
 40
5.0
 40
6.0
 40
6.0
 40
6.0
 40
7.0
 40
7.0
 40
7.0
 40
8.0
 40
8.0
 40
8.0
 40
9.0
 40
9.0
 40
9.0
 40
10.0
 40
10.0
 40
10.0
 40
11.0
 40
11.0
 40
11.0
 40
12.0
 40
12.0
 40
12.0
 40
13.0
 40
13.0
 40
13.0
 40
13.0
 10
63.22043048549698
 20
-134.9691948447299
 10
63.37907713259273
 20
-135.1869248793977
 10
63.4531466855256
 20
-135.2799424574995
 10
63.59697942203479
 20
-135.32886281339
 10
63.59697942203479
 20
-135.32886281339
 10
63.59697942203479
 20
-134.5502712337235
 10
63.59697942203479
 20
-134.5502712337235
 10
63.59697942203479
 20
-134.5502712337235
 10
63.80213485818141
 20
-134.5502712337235
 10
63.80213485818141
 20
-134.5502712337235
 10
63.80213485818141
 20
-134.5502712337235
 10
63.80213485818141
 20
-135.5782877265221
 10
63.80213485818141
 20
-135.5782877265221
 10
63.44453394681248
 20
-135.5465928480578
 10
63.36633027929731
 20
-135.4811360338381
 10
63.06798501027468
 20
-135.0959743585871
 10
62.86920300077576
 20
-134.8400037640331
 10
62.8015068744906
 20
-134.7745469498133
 10
62.66404756462913
 20
-134.7745469498133
 10
62.54553627993653
 20
-134.7745469498133
 10
62.41427814194851
 20
-134.846549445455
 10
62.41427814194851
 20
-135.0432643976628
 10
62.41427814194851
 20
-135.3033691067992
 10
62.64492728468599
 20
-135.3119818455123
 10
62.76137151208744
 20
-135.3161159600946
 10
62.76137151208744
 20
-135.3161159600946
 10
62.76137151208744
 20
-135.5403916761844
 10
62.76137151208744
 20
-135.5403916761844
 10
62.63441974345598
 20
-135.5317789374712
 10
62.5222818854111
 20
-135.5210991414669
 10
62.4037706007185
 20
-135.4408284166606
 10
62.2430568963316
 20
-135.3309298706812
 10
62.20912270580189
 20
-135.1445502049291
 10
62.20912270580189
 20
-135.0284504870762
 10
62.20912270580189
 20
-134.7511203005136
 10
62.39326305948849
 20
-134.5437255523016
 10
62.66611462192028
 20
-134.5437255523016
 10
62.89452445259234
 20
-134.5437255523016
 10
62.99408771211606
 20
-134.660169779703
 10
63.22043048549698
 20
-134.9691948447299
 97
        0
 97
        0
 75
     2
 76
     1
 98
        0
  0
SPLINE
  5
AC
330
A6
100
AcDbEntity
  8
_U+30EC_U+30A4_U+30E4_U+30FC 1
370
     0
100
AcDbSpline
210
0.0
220
0.0
230
1.0
 70
    11
 71
     3
 72
    29
 73
    25
 74
     0
 42
0.0000000001
 43
0.0000000001
 12
1.0
 22
0.0
 32
0.0
 13
1.0
 23
0.0
 33
0.0
 40
0.0
 40
0.0
 40
0.0
 40
0.0
 40
1.0
 40
1.0
 40
1.0
 40
2.0
 40
2.0
 40
2.0
 40
3.0
 40
3.0
 40
3.0
 40
4.0
 40
4.0
 40
4.0
 40
5.0
 40
5.0
 40
5.0
 40
6.0
 40
6.0
 40
6.0
 40
7.0
 40
7.0
 40
7.0
 40
8.0
 40
8.0
 40
8.0
 40
8.0
 10
63.85295001658885
 20
-133.8853678050703
 30
0.0
 10
63.85295001658885
 20
-134.1520181956287
 30
0.0
 10
63.71531845195312
 20
-134.4059217328916
 30
0.0
 10
63.36633027929731
 20
-134.4059217328916
 30
0.0
 10
63.11035968474324
 20
-134.4059217328916
 30
0.0
 10
63.01510279457609
 20
-134.2639837988993
 30
0.0
 10
62.95378009493864
 20
-134.1582193675021
 30
0.0
 10
62.89452445259234
 20
-134.2829318240682
 30
0.0
 10
62.78031953725631
 20
-134.3590684342922
 30
0.0
 10
62.6196058328694
 20
-134.3590684342922
 30
0.0
 10
62.34451495837221
 20
-134.3590684342922
 30
0.0
 10
62.20912270580189
 20
-134.1602864247933
 30
0.0
 10
62.20912270580189
 20
-133.8853678050703
 30
0.0
 10
62.20912270580189
 20
-133.6018364466343
 30
0.0
 10
62.35295544231107
 20
-133.4113226663
 30
0.0
 10
62.6196058328694
 20
-133.4113226663
 30
0.0
 10
62.78031953725631
 20
-133.4113226663
 30
0.0
 10
62.89452445259234
 20
-133.4898708433637
 30
0.0
 10
62.95378009493864
 20
-133.6145832999297
 30
0.0
 10
63.00459525334607
 20
-133.5256998364102
 30
0.0
 10
63.09985214351323
 20
-133.3668809345402
 30
0.0
 10
63.36202390994075
 20
-133.3668809345402
 30
0.0
 10
63.7365057891874
 20
-133.3668809345402
 30
0.0
 10
63.85295001658885
 20
-133.646278178394
 30
0.0
 10
63.85295001658885
 20
-133.8853678050703
 30
0.0
  0
SPLINE
  5
AD
330
A6
100
AcDbEntity
  8
_U+30EC_U+30A4_U+30E4_U+30FC 1
370
     0
100
AcDbSpline
210
0.0
220
0.0
230
1.0
 70
    11
 71
     3
 72
    17
 73
    13
 74
     0
 42
0.0000000001
 43
0.0000000001
 12
1.0
 22
0.0
 32
0.0
 13
1.0
 23
0.0
 33
0.0
 40
0.0
 40
0.0
 40
0.0
 40
0.0
 40
1.0
 40
1.0
 40
1.0
 40
2.0
 40
2.0
 40
2.0
 40
3.0
 40
3.0
 40
3.0
 40
4.0
 40
4.0
 40
4.0
 40
4.0
 10
62.40170354342735
 20
-133.8853678050703
 30
0.0
 10
62.40170354342735
 20
-134.0503878788138
 30
0.0
 10
62.49678817882025
 20
-134.1351372277509
 30
0.0
 10
62.63218043139057
 20
-134.1351372277509
 30
0.0
 10
62.75499808543972
 20
-134.1351372277509
 30
0.0
 10
62.87350937013232
 20
-134.0631347321092
 30
0.0
 10
62.87350937013232
 20
-133.8853678050703
 30
0.0
 10
62.87350937013232
 20
-133.7076008780314
 30
0.0
 10
62.75499808543972
 20
-133.6355983823897
 30
0.0
 10
62.63218043139057
 20
-133.6355983823897
 30
0.0
 10
62.49678817882025
 20
-133.6355983823897
 30
0.0
 10
62.40170354342735
 20
-133.722414788618
 30
0.0
 10
62.40170354342735
 20
-133.8853678050703
 30
0.0
  0
SPLINE
  5
AE
330
A6
100
AcDbEntity
  8
_U+30EC_U+30A4_U+30E4_U+30FC 1
370
     0
100
AcDbSpline
210
0.0
220
0.0
230
1.0
 70
    11
 71
     3
 72
    17
 73
    13
 74
     0
 42
0.0000000001
 43
0.0000000001
 12
1.0
 22
0.0
 32
0.0
 13
1.0
 23
0.0
 33
0.0
 40
0.0
 40
0.0
 40
0.0
 40
0.0
 40
1.0
 40
1.0
 40
1.0
 40
2.0
 40
2.0
 40
2.0
 40
3.0
 40
3.0
 40
3.0
 40
4.0
 40
4.0
 40
4.0
 40
4.0
 10
63.06178383840123
 20
-133.8853678050703
 30
0.0
 10
63.06178383840123
 20
-134.0290282868052
 30
0.0
 10
63.14842798985526
 20
-134.1816460168018
 30
0.0
 10
63.35151636871073
 20
-134.1816460168018
 30
0.0
 10
63.55667180485737
 20
-134.1816460168018
 30
0.0
 10
63.65830212167224
 20
-134.0545219933961
 30
0.0
 10
63.65830212167224
 20
-133.8853678050703
 30
0.0
 10
63.65830212167224
 20
-133.6993326488668
 30
0.0
 10
63.53565672239734
 20
-133.5890895933389
 30
0.0
 10
63.35788979535845
 20
-133.5890895933389
 30
0.0
 10
63.13568113655983
 20
-133.5890895933389
 30
0.0
 10
63.06178383840123
 20
-133.7520426097912
 30
0.0
 10
63.06178383840123
 20
-133.8853678050703
 30
0.0
  0
HATCH
  5
AF
330
A6
100
AcDbEntity
  8
_U+30EC_U+30A4_U+30E4_U+30FC 1
 62
   179
420
  2234388
100
AcDbHatch
 10
0.0
 20
0.0
 30
0.0
210
0.0
220
0.0
230
1.0
  2
SOLID
 70
     1
 71
     0
 91
        3
 92
        1
 93
        1
 72
     4
 94
        3
 73
     0
 74
     1
 95
       29
 96
       25
 40
0.0
 40
0.0
 40
0.0
 40
0.0
 40
1.0
 40
1.0
 40
1.0
 40
2.0
 40
2.0
 40
2.0
 40
3.0
 40
3.0
 40
3.0
 40
4.0
 40
4.0
 40
4.0
 40
5.0
 40
5.0
 40
5.0
 40
6.0
 40
6.0
 40
6.0
 40
7.0
 40
7.0
 40
7.0
 40
8.0
 40
8.0
 40
8.0
 40
8.0
 10
63.85295001658885
 20
-133.8853678050703
 10
63.85295001658885
 20
-134.1520181956287
 10
63.71531845195312
 20
-134.4059217328916
 10
63.36633027929731
 20
-134.4059217328916
 10
63.11035968474324
 20
-134.4059217328916
 10
63.01510279457609
 20
-134.2639837988993
 10
62.95378009493864
 20
-134.1582193675021
 10
62.89452445259234
 20
-134.2829318240682
 10
62.78031953725631
 20
-134.3590684342922
 10
62.6196058328694
 20
-134.3590684342922
 10
62.34451495837221
 20
-134.3590684342922
 10
62.20912270580189
 20
-134.1602864247933
 10
62.20912270580189
 20
-133.8853678050703
 10
62.20912270580189
 20
-133.6018364466343
 10
62.35295544231107
 20
-133.4113226663
 10
62.6196058328694
 20
-133.4113226663
 10
62.78031953725631
 20
-133.4113226663
 10
62.89452445259234
 20
-133.4898708433637
 10
62.95378009493864
 20
-133.6145832999297
 10
63.00459525334607
 20
-133.5256998364102
 10
63.09985214351323
 20
-133.3668809345402
 10
63.36202390994075
 20
-133.3668809345402
 10
63.7365057891874
 20
-133.3668809345402
 10
63.85295001658885
 20
-133.646278178394
 10
63.85295001658885
 20
-133.8853678050703
 97
        0
 97
        0
 92
        1
 93
        1
 72
     4
 94
        3
 73
     0
 74
     1
 95
       17
 96
       13
 40
0.0
 40
0.0
 40
0.0
 40
0.0
 40
1.0
 40
1.0
 40
1.0
 40
2.0
 40
2.0
 40
2.0
 40
3.0
 40
3.0
 40
3.0
 40
4.0
 40
4.0
 40
4.0
 40
4.0
 10
62.40170354342735
 20
-133.8853678050703
 10
62.40170354342735
 20
-134.0503878788138
 10
62.49678817882025
 20
-134.1351372277509
 10
62.63218043139057
 20
-134.1351372277509
 10
62.75499808543972
 20
-134.1351372277509
 10
62.87350937013232
 20
-134.0631347321092
 10
62.87350937013232
 20
-133.8853678050703
 10
62.87350937013232
 20
-133.7076008780314
 10
62.75499808543972
 20
-133.6355983823897
 10
62.63218043139057
 20
-133.6355983823897
 10
62.49678817882025
 20
-133.6355983823897
 10
62.40170354342735
 20
-133.722414788618
 10
62.40170354342735
 20
-133.8853678050703
 97
        0
 97
        0
 92
        1
 93
        1
 72
     4
 94
        3
 73
     0
 74
     1
 95
       17
 96
       13
 40
0.0
 40
0.0
 40
0.0
 40
0.0
 40
1.0
 40
1.0
 40
1.0
 40
2.0
 40
2.0
 40
2.0
 40
3.0
 40
3.0
 40
3.0
 40
4.0
 40
4.0
 40
4.0
 40
4.0
 10
63.06178383840123
 20
-133.8853678050703
 10
63.06178383840123
 20
-134.0290282868052
 10
63.14842798985526
 20
-134.1816460168018
 10
63.35151636871073
 20
-134.1816460168018
 10
63.55667180485737
 20
-134.1816460168018
 10
63.65830212167224
 20
-134.0545219933961
 10
63.65830212167224
 20
-133.8853678050703
 10
63.65830212167224
 20
-133.6993326488668
 10
63.53565672239734
 20
-133.5890895933389
 10
63.35788979535845
 20
-133.5890895933389
 10
63.13568113655983
 20
-133.5890895933389
 10
63.06178383840123
 20
-133.7520426097912
 10
63.06178383840123
 20
-133.8853678050703
 97
        0
 97
        0
 75
     2
 76
     1
 98
        0
  0
ENDBLK
  5
A9
330
A6
100
AcDbEntity
  8
0
100
AcDbBlockEnd
  0
BLOCK
  5
B7
330
B5
100
AcDbEntity
  8
0
100
AcDbBlockBegin
  2
block 7
 70
     0
 10
0.0
 20
0.0
 30
0.0
  3
block 7
  1

  0
SPLINE
  5
B9
330
B5
100
AcDbEntity
  8
_U+30EC_U+30A4_U+30E4_U+30FC 1
370
     0
100
AcDbSpline
210
0.0
220
0.0
230
1.0
 70
    11
 71
     3
 72
    26
 73
    22
 74
     0
 42
0.0000000001
 43
0.0000000001
 12
1.0
 22
0.0
 32
0.0
 13
1.0
 23
0.0
 33
0.0
 40
0.0
 40
0.0
 40
0.0
 40
0.0
 40
1.0
 40
1.0
 40
1.0
 40
2.0
 40
2.0
 40
2.0
 40
3.0
 40
3.0
 40
3.0
 40
4.0
 40
4.0
 40
4.0
 40
5.0
 40
5.0
 40
5.0
 40
6.0
 40
6.0
 40
6.0
 40
7.0
 40
7.0
 40
7.0
 40
7.0
 10
75.36094697551741
 20
-151.7843613986859
 30
0.0
 10
75.36094697551741
 20
-151.7843613986859
 30
0.0
 10
75.36094697551741
 20
-150.6802082956633
 30
0.0
 10
75.36094697551741
 20
-150.6802082956633
 30
0.0
 10
75.36094697551741
 20
-150.6802082956633
 30
0.0
 10
75.03090682803047
 20
-150.6802082956633
 30
0.0
 10
75.03090682803047
 20
-150.6802082956633
 30
0.0
 10
75.03090682803047
 20
-150.6802082956633
 30
0.0
 10
75.03090682803047
 20
-150.5320691897975
 30
0.0
 10
75.03090682803047
 20
-150.5320691897975
 30
0.0
 10
75.36301403280855
 20
-150.517255279211
 30
0.0
 10
75.40952282185943
 20
-150.3543022627587
 30
0.0
 10
75.43915064303258
 20
-150.2399250926483
 30
0.0
 10
75.43915064303258
 20
-150.2399250926483
 30
0.0
 10
75.58522269160717
 20
-150.2399250926483
 30
0.0
 10
75.58522269160717
 20
-150.2399250926483
 30
0.0
 10
75.58522269160717
 20
-150.2399250926483
 30
0.0
 10
75.58522269160717
 20
-151.7843613986859
 30
0.0
 10
75.58522269160717
 20
-151.7843613986859
 30
0.0
 10
75.58522269160717
 20
-151.7843613986859
 30
0.0
 10
75.36094697551741
 20
-151.7843613986859
 30
0.0
 10
75.36094697551741
 20
-151.7843613986859
 30
0.0
  0
HATCH
  5
BA
330
B5
100
AcDbEntity
  8
_U+30EC_U+30A4_U+30E4_U+30FC 1
 62
   179
420
  2234388
100
AcDbHatch
 10
0.0
 20
0.0
 30
0.0
210
0.0
220
0.0
230
1.0
  2
SOLID
 70
     1
 71
     0
 91
        1
 92
        1
 93
        1
 72
     4
 94
        3
 73
     0
 74
     1
 95
       26
 96
       22
 40
0.0
 40
0.0
 40
0.0
 40
0.0
 40
1.0
 40
1.0
 40
1.0
 40
2.0
 40
2.0
 40
2.0
 40
3.0
 40
3.0
 40
3.0
 40
4.0
 40
4.0
 40
4.0
 40
5.0
 40
5.0
 40
5.0
 40
6.0
 40
6.0
 40
6.0
 40
7.0
 40
7.0
 40
7.0
 40
7.0
 10
75.36094697551741
 20
-151.7843613986859
 10
75.36094697551741
 20
-151.7843613986859
 10
75.36094697551741
 20
-150.6802082956633
 10
75.36094697551741
 20
-150.6802082956633
 10
75.36094697551741
 20
-150.6802082956633
 10
75.03090682803047
 20
-150.6802082956633
 10
75.03090682803047
 20
-150.6802082956633
 10
75.03090682803047
 20
-150.6802082956633
 10
75.03090682803047
 20
-150.5320691897975
 10
75.03090682803047
 20
-150.5320691897975
 10
75.36301403280855
 20
-150.517255279211
 10
75.40952282185943
 20
-150.3543022627587
 10
75.43915064303258
 20
-150.2399250926483
 10
75.43915064303258
 20
-150.2399250926483
 10
75.58522269160717
 20
-150.2399250926483
 10
75.58522269160717
 20
-150.2399250926483
 10
75.58522269160717
 20
-150.2399250926483
 10
75.58522269160717
 20
-151.7843613986859
 10
75.58522269160717
 20
-151.7843613986859
 10
75.58522269160717
 20
-151.7843613986859
 10
75.36094697551741
 20
-151.7843613986859
 10
75.36094697551741
 20
-151.7843613986859
 97
        0
 97
        0
 75
     2
 76
     1
 98
        0
  0
SPLINE
  5
BB
330
B5
100
AcDbEntity
  8
_U+30EC_U+30A4_U+30E4_U+30FC 1
370
     0
100
AcDbSpline
210
0.0
220
0.0
230
1.0
 70
    11
 71
     3
 72
    53
 73
    49
 74
     0
 42
0.0000000001
 43
0.0000000001
 12
1.0
 22
0.0
 32
0.0
 13
1.0
 23
0.0
 33
0.0
 40
0.0
 40
0.0
 40
0.0
 40
0.0
 40
1.0
 40
1.0
 40
1.0
 40
2.0
 40
2.0
 40
2.0
 40
3.0
 40
3.0
 40
3.0
 40
4.0
 40
4.0
 40
4.0
 40
5.0
 40
5.0
 40
5.0
 40
6.0
 40
6.0
 40
6.0
 40
7.0
 40
7.0
 40
7.0
 40
8.0
 40
8.0
 40
8.0
 40
9.0
 40
9.0
 40
9.0
 40
10.0
 40
10.0
 40
10.0
 40
11.0
 40
11.0
 40
11.0
 40
12.0
 40
12.0
 40
12.0
 40
13.0
 40
13.0
 40
13.0
 40
14.0
 40
14.0
 40
14.0
 40
15.0
 40
15.0
 40
15.0
 40
16.0
 40
16.0
 40
16.0
 40
16.0
 10
76.5674194144519
 20
-151.835004302319
 30
0.0
 10
76.48921574693672
 20
-151.835004302319
 30
0.0
 10
76.38758543012186
 20
-151.8181233344413
 30
0.0
 10
76.28595511330698
 20
-151.7547335775127
 30
0.0
 10
76.11266681039892
 20
-151.6448350315332
 30
0.0
 10
76.09130721839037
 20
-151.5135768935452
 30
0.0
 10
76.0723591932215
 20
-151.4057454048569
 30
0.0
 10
76.0723591932215
 20
-151.4057454048569
 30
0.0
 10
76.29456785202011
 20
-151.4057454048569
 30
0.0
 10
76.29456785202011
 20
-151.4057454048569
 30
0.0
 10
76.34934487023558
 20
-151.6045274143558
 30
0.0
 10
76.4764688936413
 20
-151.634155235529
 30
0.0
 10
76.56948647174305
 20
-151.634155235529
 30
0.0
 10
76.70901283889566
 20
-151.634155235529
 30
0.0
 10
76.86128605934371
 20
-151.5345919760053
 30
0.0
 10
76.86128605934371
 20
-151.3020480307509
 30
0.0
 10
76.86128605934371
 20
-151.0460774361968
 30
0.0
 10
76.68145207501367
 20
-150.9761419978462
 30
0.0
 10
76.56087373302992
 20
-150.9761419978462
 30
0.0
 10
76.52917885456563
 20
-150.9761419978462
 30
0.0
 10
76.38758543012186
 20
-150.9761419978462
 30
0.0
 10
76.29870196660241
 20
-151.1053330785431
 30
0.0
 10
76.29870196660241
 20
-151.1053330785431
 30
0.0
 10
76.12300209685466
 20
-151.0863850533742
 30
0.0
 10
76.12300209685466
 20
-151.0863850533742
 30
0.0
 10
76.12300209685466
 20
-151.0863850533742
 30
0.0
 10
76.2435804388384
 20
-150.2399250926483
 30
0.0
 10
76.2435804388384
 20
-150.2399250926483
 30
0.0
 10
76.2435804388384
 20
-150.2399250926483
 30
0.0
 10
77.02217201850488
 20
-150.2399250926483
 30
0.0
 10
77.02217201850488
 20
-150.2399250926483
 30
0.0
 10
77.02217201850488
 20
-150.2399250926483
 30
0.0
 10
77.02217201850488
 20
-150.434572987565
 30
0.0
 10
77.02217201850488
 20
-150.434572987565
 30
0.0
 10
77.02217201850488
 20
-150.434572987565
 30
0.0
 10
76.40653345529073
 20
-150.434572987565
 30
0.0
 10
76.40653345529073
 20
-150.434572987565
 30
0.0
 10
76.40653345529073
 20
-150.434572987565
 30
0.0
 10
76.34107664107098
 20
-150.8576307131537
 30
0.0
 10
76.34107664107098
 20
-150.8576307131537
 30
0.0
 10
76.40239934070843
 20
-150.8238687773982
 30
0.0
 10
76.4847371228059
 20
-150.7835611602208
 30
0.0
 10
76.6032484074985
 20
-150.7835611602208
 30
0.0
 10
76.85715194476141
 20
-150.7835611602208
 30
0.0
 10
77.0941745141466
 20
-150.9699408259728
 30
0.0
 10
77.0941745141466
 20
-151.283100005582
 30
0.0
 10
77.0941745141466
 20
-151.6003932997735
 30
0.0
 10
76.86989879805684
 20
-151.835004302319
 30
0.0
 10
76.5674194144519
 20
-151.835004302319
 30
0.0
  0
HATCH
  5
BC
330
B5
100
AcDbEntity
  8
_U+30EC_U+30A4_U+30E4_U+30FC 1
 62
   179
420
  2234388
100
AcDbHatch
 10
0.0
 20
0.0
 30
0.0
210
0.0
220
0.0
230
1.0
  2
SOLID
 70
     1
 71
     0
 91
        1
 92
        1
 93
        1
 72
     4
 94
        3
 73
     0
 74
     1
 95
       53
 96
       49
 40
0.0
 40
0.0
 40
0.0
 40
0.0
 40
1.0
 40
1.0
 40
1.0
 40
2.0
 40
2.0
 40
2.0
 40
3.0
 40
3.0
 40
3.0
 40
4.0
 40
4.0
 40
4.0
 40
5.0
 40
5.0
 40
5.0
 40
6.0
 40
6.0
 40
6.0
 40
7.0
 40
7.0
 40
7.0
 40
8.0
 40
8.0
 40
8.0
 40
9.0
 40
9.0
 40
9.0
 40
10.0
 40
10.0
 40
10.0
 40
11.0
 40
11.0
 40
11.0
 40
12.0
 40
12.0
 40
12.0
 40
13.0
 40
13.0
 40
13.0
 40
14.0
 40
14.0
 40
14.0
 40
15.0
 40
15.0
 40
15.0
 40
16.0
 40
16.0
 40
16.0
 40
16.0
 10
76.5674194144519
 20
-151.835004302319
 10
76.48921574693672
 20
-151.835004302319
 10
76.38758543012186
 20
-151.8181233344413
 10
76.28595511330698
 20
-151.7547335775127
 10
76.11266681039892
 20
-151.6448350315332
 10
76.09130721839037
 20
-151.5135768935452
 10
76.0723591932215
 20
-151.4057454048569
 10
76.0723591932215
 20
-151.4057454048569
 10
76.29456785202011
 20
-151.4057454048569
 10
76.29456785202011
 20
-151.4057454048569
 10
76.34934487023558
 20
-151.6045274143558
 10
76.4764688936413
 20
-151.634155235529
 10
76.56948647174305
 20
-151.634155235529
 10
76.70901283889566
 20
-151.634155235529
 10
76.86128605934371
 20
-151.5345919760053
 10
76.86128605934371
 20
-151.3020480307509
 10
76.86128605934371
 20
-151.0460774361968
 10
76.68145207501367
 20
-150.9761419978462
 10
76.56087373302992
 20
-150.9761419978462
 10
76.52917885456563
 20
-150.9761419978462
 10
76.38758543012186
 20
-150.9761419978462
 10
76.29870196660241
 20
-151.1053330785431
 10
76.29870196660241
 20
-151.1053330785431
 10
76.12300209685466
 20
-151.0863850533742
 10
76.12300209685466
 20
-151.0863850533742
 10
76.12300209685466
 20
-151.0863850533742
 10
76.2435804388384
 20
-150.2399250926483
 10
76.2435804388384
 20
-150.2399250926483
 10
76.2435804388384
 20
-150.2399250926483
 10
77.02217201850488
 20
-150.2399250926483
 10
77.02217201850488
 20
-150.2399250926483
 10
77.02217201850488
 20
-150.2399250926483
 10
77.02217201850488
 20
-150.434572987565
 10
77.02217201850488
 20
-150.434572987565
 10
77.02217201850488
 20
-150.434572987565
 10
76.40653345529073
 20
-150.434572987565
 10
76.40653345529073
 20
-150.434572987565
 10
76.40653345529073
 20
-150.434572987565
 10
76.34107664107098
 20
-150.8576307131537
 10
76.34107664107098
 20
-150.8576307131537
 10
76.40239934070843
 20
-150.8238687773982
 10
76.4847371228059
 20
-150.7835611602208
 10
76.6032484074985
 20
-150.7835611602208
 10
76.85715194476141
 20
-150.7835611602208
 10
77.0941745141466
 20
-150.9699408259728
 10
77.0941745141466
 20
-151.283100005582
 10
77.0941745141466
 20
-151.6003932997735
 10
76.86989879805684
 20
-151.835004302319
 10
76.5674194144519
 20
-151.835004302319
 97
        0
 97
        0
 75
     2
 76
     1
 98
        0
  0
ENDBLK
  5
B8
330
B5
100
AcDbEntity
  8
0
100
AcDbBlockEnd
  0
BLOCK
  5
BF
330
BD
100
AcDbEntity
  8
0
100
AcDbBlockBegin
  2
block 8
 70
     0
 10
0.0
 20
0.0
 30
0.0
  3
block 8
  1

  0
SPLINE
  5
C1
330
BD
100
AcDbEntity
  8
_U+30EC_U+30A4_U+30E4_U+30FC 1
370
     0
100
AcDbSpline
210
0.0
220
0.0
230
1.0
 70
    11
 71
     3
 72
    26
 73
    22
 74
     0
 42
0.0000000001
 43
0.0000000001
 12
1.0
 22
0.0
 32
0.0
 13
1.0
 23
0.0
 33
0.0
 40
0.0
 40
0.0
 40
0.0
 40
0.0
 40
1.0
 40
1.0
 40
1.0
 40
2.0
 40
2.0
 40
2.0
 40
3.0
 40
3.0
 40
3.0
 40
4.0
 40
4.0
 40
4.0
 40
5.0
 40
5.0
 40
5.0
 40
6.0
 40
6.0
 40
6.0
 40
7.0
 40
7.0
 40
7.0
 40
7.0
 10
88.72481687235005
 20
-151.7843613986859
 30
0.0
 10
88.72481687235005
 20
-151.7843613986859
 30
0.0
 10
88.72481687235005
 20
-150.6802082956633
 30
0.0
 10
88.72481687235005
 20
-150.6802082956633
 30
0.0
 10
88.72481687235005
 20
-150.6802082956633
 30
0.0
 10
88.39477672486312
 20
-150.6802082956633
 30
0.0
 10
88.39477672486312
 20
-150.6802082956633
 30
0.0
 10
88.39477672486312
 20
-150.6802082956633
 30
0.0
 10
88.39477672486312
 20
-150.5320691897975
 30
0.0
 10
88.39477672486312
 20
-150.5320691897975
 30
0.0
 10
88.7268839296412
 20
-150.517255279211
 30
0.0
 10
88.77339271869208
 20
-150.3543022627587
 30
0.0
 10
88.80302053986522
 20
-150.2399250926483
 30
0.0
 10
88.80302053986522
 20
-150.2399250926483
 30
0.0
 10
88.94909258843981
 20
-150.2399250926483
 30
0.0
 10
88.94909258843981
 20
-150.2399250926483
 30
0.0
 10
88.94909258843981
 20
-150.2399250926483
 30
0.0
 10
88.94909258843981
 20
-151.7843613986859
 30
0.0
 10
88.94909258843981
 20
-151.7843613986859
 30
0.0
 10
88.94909258843981
 20
-151.7843613986859
 30
0.0
 10
88.72481687235005
 20
-151.7843613986859
 30
0.0
 10
88.72481687235005
 20
-151.7843613986859
 30
0.0
  0
HATCH
  5
C2
330
BD
100
AcDbEntity
  8
_U+30EC_U+30A4_U+30E4_U+30FC 1
 62
   179
420
  2234388
100
AcDbHatch
 10
0.0
 20
0.0
 30
0.0
210
0.0
220
0.0
230
1.0
  2
SOLID
 70
     1
 71
     0
 91
        1
 92
        1
 93
        1
 72
     4
 94
        3
 73
     0
 74
     1
 95
       26
 96
       22
 40
0.0
 40
0.0
 40
0.0
 40
0.0
 40
1.0
 40
1.0
 40
1.0
 40
2.0
 40
2.0
 40
2.0
 40
3.0
 40
3.0
 40
3.0
 40
4.0
 40
4.0
 40
4.0
 40
5.0
 40
5.0
 40
5.0
 40
6.0
 40
6.0
 40
6.0
 40
7.0
 40
7.0
 40
7.0
 40
7.0
 10
88.72481687235005
 20
-151.7843613986859
 10
88.72481687235005
 20
-151.7843613986859
 10
88.72481687235005
 20
-150.6802082956633
 10
88.72481687235005
 20
-150.6802082956633
 10
88.72481687235005
 20
-150.6802082956633
 10
88.39477672486312
 20
-150.6802082956633
 10
88.39477672486312
 20
-150.6802082956633
 10
88.39477672486312
 20
-150.6802082956633
 10
88.39477672486312
 20
-150.5320691897975
 10
88.39477672486312
 20
-150.5320691897975
 10
88.7268839296412
 20
-150.517255279211
 10
88.77339271869208
 20
-150.3543022627587
 10
88.80302053986522
 20
-150.2399250926483
 10
88.80302053986522
 20
-150.2399250926483
 10
88.94909258843981
 20
-150.2399250926483
 10
88.94909258843981
 20
-150.2399250926483
 10
88.94909258843981
 20
-150.2399250926483
 10
88.94909258843981
 20
-151.7843613986859
 10
88.94909258843981
 20
-151.7843613986859
 10
88.94909258843981
 20
-151.7843613986859
 10
88.72481687235005
 20
-151.7843613986859
 10
88.72481687235005
 20
-151.7843613986859
 97
        0
 97
        0
 75
     2
 76
     1
 98
        0
  0
SPLINE
  5
C3
330
BD
100
AcDbEntity
  8
_U+30EC_U+30A4_U+30E4_U+30FC 1
370
     0
100
AcDbSpline
210
0.0
220
0.0
230
1.0
 70
    11
 71
     3
 72
    44
 73
    40
 74
     0
 42
0.0000000001
 43
0.0000000001
 12
1.0
 22
0.0
 32
0.0
 13
1.0
 23
0.0
 33
0.0
 40
0.0
 40
0.0
 40
0.0
 40
0.0
 40
1.0
 40
1.0
 40
1.0
 40
2.0
 40
2.0
 40
2.0
 40
3.0
 40
3.0
 40
3.0
 40
4.0
 40
4.0
 40
4.0
 40
5.0
 40
5.0
 40
5.0
 40
6.0
 40
6.0
 40
6.0
 40
7.0
 40
7.0
 40
7.0
 40
8.0
 40
8.0
 40
8.0
 40
9.0
 40
9.0
 40
9.0
 40
10.0
 40
10.0
 40
10.0
 40
11.0
 40
11.0
 40
11.0
 40
12.0
 40
12.0
 40
12.0
 40
13.0
 40
13.0
 40
13.0
 40
13.0
 10
90.04325491455516
 20
-151.2024847712272
 30
0.0
 10
89.82552487988737
 20
-151.3613036730972
 30
0.0
 10
89.73250730178563
 20
-151.4353732260301
 30
0.0
 10
89.68358694589507
 20
-151.579033707765
 30
0.0
 10
89.68358694589507
 20
-151.579033707765
 30
0.0
 10
90.46217852556154
 20
-151.579033707765
 30
0.0
 10
90.46217852556154
 20
-151.579033707765
 30
0.0
 10
90.46217852556154
 20
-151.579033707765
 30
0.0
 10
90.46217852556154
 20
-151.7843613986859
 30
0.0
 10
90.46217852556154
 20
-151.7843613986859
 30
0.0
 10
90.46217852556154
 20
-151.7843613986859
 30
0.0
 10
89.434162032763
 20
-151.7843613986859
 30
0.0
 10
89.434162032763
 20
-151.7843613986859
 30
0.0
 10
89.46585691122729
 20
-151.4267604873169
 30
0.0
 10
89.53131372544703
 20
-151.3485568198018
 30
0.0
 10
89.91647540069796
 20
-151.0502115507791
 30
0.0
 10
90.17244599525203
 20
-150.8514295412802
 30
0.0
 10
90.23790280947178
 20
-150.7835611602208
 30
0.0
 10
90.23790280947178
 20
-150.6461018503593
 30
0.0
 10
90.23790280947178
 20
-150.5275905656667
 30
0.0
 10
90.16590031383005
 20
-150.3966769372272
 30
0.0
 10
89.9691853616223
 20
-150.3966769372272
 30
0.0
 10
89.70908065248592
 20
-150.3966769372272
 30
0.0
 10
89.70081242332132
 20
-150.6271538251904
 30
0.0
 10
89.6963337991905
 20
-150.7435980525919
 30
0.0
 10
89.6963337991905
 20
-150.7435980525919
 30
0.0
 10
89.47205808310073
 20
-150.7435980525919
 30
0.0
 10
89.47205808310073
 20
-150.7435980525919
 30
0.0
 10
89.48067082181386
 20
-150.6164740291862
 30
0.0
 10
89.49135061781814
 20
-150.5045084259156
 30
0.0
 10
89.57162134262445
 20
-150.385997141223
 30
0.0
 10
89.68151988860393
 20
-150.2251111820618
 30
0.0
 10
89.86789955435594
 20
-150.1913492463063
 30
0.0
 10
89.98399927220886
 20
-150.1913492463063
 30
0.0
 10
90.26132945877147
 20
-150.1913492463063
 30
0.0
 10
90.46872420698352
 20
-150.3753173452187
 30
0.0
 10
90.46872420698352
 20
-150.6481689076505
 30
0.0
 10
90.46872420698352
 20
-150.876923247871
 30
0.0
 10
90.35227997958208
 20
-150.9761419978462
 30
0.0
 10
90.04325491455516
 20
-151.2024847712272
 30
0.0
  0
HATCH
  5
C4
330
BD
100
AcDbEntity
  8
_U+30EC_U+30A4_U+30E4_U+30FC 1
 62
   179
420
  2234388
100
AcDbHatch
 10
0.0
 20
0.0
 30
0.0
210
0.0
220
0.0
230
1.0
  2
SOLID
 70
     1
 71
     0
 91
        1
 92
        1
 93
        1
 72
     4
 94
        3
 73
     0
 74
     1
 95
       44
 96
       40
 40
0.0
 40
0.0
 40
0.0
 40
0.0
 40
1.0
 40
1.0
 40
1.0
 40
2.0
 40
2.0
 40
2.0
 40
3.0
 40
3.0
 40
3.0
 40
4.0
 40
4.0
 40
4.0
 40
5.0
 40
5.0
 40
5.0
 40
6.0
 40
6.0
 40
6.0
 40
7.0
 40
7.0
 40
7.0
 40
8.0
 40
8.0
 40
8.0
 40
9.0
 40
9.0
 40
9.0
 40
10.0
 40
10.0
 40
10.0
 40
11.0
 40
11.0
 40
11.0
 40
12.0
 40
12.0
 40
12.0
 40
13.0
 40
13.0
 40
13.0
 40
13.0
 10
90.04325491455516
 20
-151.2024847712272
 10
89.82552487988737
 20
-151.3613036730972
 10
89.73250730178563
 20
-151.4353732260301
 10
89.68358694589507
 20
-151.579033707765
 10
89.68358694589507
 20
-151.579033707765
 10
90.46217852556154
 20
-151.579033707765
 10
90.46217852556154
 20
-151.579033707765
 10
90.46217852556154
 20
-151.579033707765
 10
90.46217852556154
 20
-151.7843613986859
 10
90.46217852556154
 20
-151.7843613986859
 10
90.46217852556154
 20
-151.7843613986859
 10
89.434162032763
 20
-151.7843613986859
 10
89.434162032763
 20
-151.7843613986859
 10
89.46585691122729
 20
-151.4267604873169
 10
89.53131372544703
 20
-151.3485568198018
 10
89.91647540069796
 20
-151.0502115507791
 10
90.17244599525203
 20
-150.8514295412802
 10
90.23790280947178
 20
-150.7835611602208
 10
90.23790280947178
 20
-150.6461018503593
 10
90.23790280947178
 20
-150.5275905656667
 10
90.16590031383005
 20
-150.3966769372272
 10
89.9691853616223
 20
-150.3966769372272
 10
89.70908065248592
 20
-150.3966769372272
 10
89.70081242332132
 20
-150.6271538251904
 10
89.6963337991905
 20
-150.7435980525919
 10
89.6963337991905
 20
-150.7435980525919
 10
89.47205808310073
 20
-150.7435980525919
 10
89.47205808310073
 20
-150.7435980525919
 10
89.48067082181386
 20
-150.6164740291862
 10
89.49135061781814
 20
-150.5045084259156
 10
89.57162134262445
 20
-150.385997141223
 10
89.68151988860393
 20
-150.2251111820618
 10
89.86789955435594
 20
-150.1913492463063
 10
89.98399927220886
 20
-150.1913492463063
 10
90.26132945877147
 20
-150.1913492463063
 10
90.46872420698352
 20
-150.3753173452187
 10
90.46872420698352
 20
-150.6481689076505
 10
90.46872420698352
 20
-150.876923247871
 10
90.35227997958208
 20
-150.9761419978462
 10
90.04325491455516
 20
-151.2024847712272
 97
        0
 97
        0
 75
     2
 76
     1
 98
        0
  0
ENDBLK
  5
C0
330
BD
100
AcDbEntity
  8
0
100
AcDbBlockEnd
  0
BLOCK
  5
C7
330
C5
100
AcDbEntity
  8
0
100
AcDbBlockBegin
  2
block 9
 70
     0
 10
0.0
 20
0.0
 30
0.0
  3
block 9
  1

  0
SPLINE
  5
C9
330
C5
100
AcDbEntity
  8
_U+30EC_U+30A4_U+30E4_U+30FC 1
370
     0
100
AcDbSpline
210
0.0
220
0.0
230
1.0
 70
    11
 71
     3
 72
    26
 73
    22
 74
     0
 42
0.0000000001
 43
0.0000000001
 12
1.0
 22
0.0
 32
0.0
 13
1.0
 23
0.0
 33
0.0
 40
0.0
 40
0.0
 40
0.0
 40
0.0
 40
1.0
 40
1.0
 40
1.0
 40
2.0
 40
2.0
 40
2.0
 40
3.0
 40
3.0
 40
3.0
 40
4.0
 40
4.0
 40
4.0
 40
5.0
 40
5.0
 40
5.0
 40
6.0
 40
6.0
 40
6.0
 40
7.0
 40
7.0
 40
7.0
 40
7.0
 10
97.51549476728779
 20
-151.7843613986859
 30
0.0
 10
97.51549476728779
 20
-151.7843613986859
 30
0.0
 10
97.51549476728779
 20
-150.6802082956633
 30
0.0
 10
97.51549476728779
 20
-150.6802082956633
 30
0.0
 10
97.51549476728779
 20
-150.6802082956633
 30
0.0
 10
97.18545461980086
 20
-150.6802082956633
 30
0.0
 10
97.18545461980086
 20
-150.6802082956633
 30
0.0
 10
97.18545461980086
 20
-150.6802082956633
 30
0.0
 10
97.18545461980086
 20
-150.5320691897975
 30
0.0
 10
97.18545461980086
 20
-150.5320691897975
 30
0.0
 10
97.51756182457895
 20
-150.517255279211
 30
0.0
 10
97.56407061362982
 20
-150.3543022627587
 30
0.0
 10
97.59369843480297
 20
-150.2399250926483
 30
0.0
 10
97.59369843480297
 20
-150.2399250926483
 30
0.0
 10
97.73977048337755
 20
-150.2399250926483
 30
0.0
 10
97.73977048337755
 20
-150.2399250926483
 30
0.0
 10
97.73977048337755
 20
-150.2399250926483
 30
0.0
 10
97.73977048337755
 20
-151.7843613986859
 30
0.0
 10
97.73977048337755
 20
-151.7843613986859
 30
0.0
 10
97.73977048337755
 20
-151.7843613986859
 30
0.0
 10
97.51549476728779
 20
-151.7843613986859
 30
0.0
 10
97.51549476728779
 20
-151.7843613986859
 30
0.0
  0
HATCH
  5
CA
330
C5
100
AcDbEntity
  8
_U+30EC_U+30A4_U+30E4_U+30FC 1
 62
   179
420
  2234388
100
AcDbHatch
 10
0.0
 20
0.0
 30
0.0
210
0.0
220
0.0
230
1.0
  2
SOLID
 70
     1
 71
     0
 91
        1
 92
        1
 93
        1
 72
     4
 94
        3
 73
     0
 74
     1
 95
       26
 96
       22
 40
0.0
 40
0.0
 40
0.0
 40
0.0
 40
1.0
 40
1.0
 40
1.0
 40
2.0
 40
2.0
 40
2.0
 40
3.0
 40
3.0
 40
3.0
 40
4.0
 40
4.0
 40
4.0
 40
5.0
 40
5.0
 40
5.0
 40
6.0
 40
6.0
 40
6.0
 40
7.0
 40
7.0
 40
7.0
 40
7.0
 10
97.51549476728779
 20
-151.7843613986859
 10
97.51549476728779
 20
-151.7843613986859
 10
97.51549476728779
 20
-150.6802082956633
 10
97.51549476728779
 20
-150.6802082956633
 10
97.51549476728779
 20
-150.6802082956633
 10
97.18545461980086
 20
-150.6802082956633
 10
97.18545461980086
 20
-150.6802082956633
 10
97.18545461980086
 20
-150.6802082956633
 10
97.18545461980086
 20
-150.5320691897975
 10
97.18545461980086
 20
-150.5320691897975
 10
97.51756182457895
 20
-150.517255279211
 10
97.56407061362982
 20
-150.3543022627587
 10
97.59369843480297
 20
-150.2399250926483
 10
97.59369843480297
 20
-150.2399250926483
 10
97.73977048337755
 20
-150.2399250926483
 10
97.73977048337755
 20
-150.2399250926483
 10
97.73977048337755
 20
-150.2399250926483
 10
97.73977048337755
 20
-151.7843613986859
 10
97.73977048337755
 20
-151.7843613986859
 10
97.73977048337755
 20
-151.7843613986859
 10
97.51549476728779
 20
-151.7843613986859
 10
97.51549476728779
 20
-151.7843613986859
 97
        0
 97
        0
 75
     2
 76
     1
 98
        0
  0
ENDBLK
  5
C8
330
C5
100
AcDbEntity
  8
0
100
AcDbBlockEnd
  0
BLOCK
  5
D1
330
CF
100
AcDbEntity
  8
0
100
AcDbBlockBegin
  2
block 10
 70
     0
 10
0.0
 20
0.0
 30
0.0
  3
block 10
  1

  0
SPLINE
  5
D3
330
CF
100
AcDbEntity
  8
_U+30EC_U+30A4_U+30E4_U+30FC 1
370
     0
100
AcDbSpline
210
0.0
220
0.0
230
1.0
 70
    11
 71
     3
 72
    44
 73
    40
 74
     0
 42
0.0000000001
 43
0.0000000001
 12
1.0
 22
0.0
 32
0.0
 13
1.0
 23
0.0
 33
0.0
 40
0.0
 40
0.0
 40
0.0
 40
0.0
 40
1.0
 40
1.0
 40
1.0
 40
2.0
 40
2.0
 40
2.0
 40
3.0
 40
3.0
 40
3.0
 40
4.0
 40
4.0
 40
4.0
 40
5.0
 40
5.0
 40
5.0
 40
6.0
 40
6.0
 40
6.0
 40
7.0
 40
7.0
 40
7.0
 40
8.0
 40
8.0
 40
8.0
 40
9.0
 40
9.0
 40
9.0
 40
10.0
 40
10.0
 40
10.0
 40
11.0
 40
11.0
 40
11.0
 40
12.0
 40
12.0
 40
12.0
 40
13.0
 40
13.0
 40
13.0
 40
13.0
 10
63.74374048970643
 20
-153.2157985728072
 30
0.0
 10
63.72031384040673
 20
-153.1713568410474
 30
0.0
 10
63.69929875794671
 20
-153.1186468801231
 30
0.0
 10
63.69705944588129
 20
-152.8878254826114
 30
0.0
 10
63.69292533129899
 20
-152.6446017413527
 30
0.0
 10
63.63366968895269
 20
-152.5750108125507
 30
0.0
 10
63.4559027619138
 20
-152.5750108125507
 30
0.0
 10
63.4559027619138
 20
-152.5750108125507
 30
0.0
 10
63.0476589469117
 20
-152.5750108125507
 30
0.0
 10
63.0476589469117
 20
-152.5750108125507
 30
0.0
 10
63.0476589469117
 20
-152.5750108125507
 30
0.0
 10
63.0476589469117
 20
-153.2157985728072
 30
0.0
 10
63.0476589469117
 20
-153.2157985728072
 30
0.0
 10
63.0476589469117
 20
-153.2157985728072
 30
0.0
 10
62.81287568959192
 20
-153.2157985728072
 30
0.0
 10
62.81287568959192
 20
-153.2157985728072
 30
0.0
 10
62.81287568959192
 20
-153.2157985728072
 30
0.0
 10
62.81287568959192
 20
-151.6717067763182
 30
0.0
 10
62.81287568959192
 20
-151.6717067763182
 30
0.0
 10
62.81287568959192
 20
-151.6717067763182
 30
0.0
 10
63.48759764037811
 20
-151.6717067763182
 30
0.0
 10
63.48759764037811
 20
-151.6717067763182
 30
0.0
 10
63.7943833933396
 20
-151.6717067763182
 30
0.0
 10
63.96164277914848
 20
-151.8425835123866
 30
0.0
 10
63.96164277914848
 20
-152.0988986164892
 30
0.0
 10
63.96164277914848
 20
-152.1495415201223
 30
0.0
 10
63.95303004043536
 20
-152.2318793022198
 30
0.0
 10
63.90858830867563
 20
-152.3124945365747
 30
0.0
 10
63.8495049211036
 20
-152.4161919106807
 30
0.0
 10
63.78387585210959
 20
-152.4351399358495
 30
0.0
 10
63.72255315247214
 20
-152.4520209037273
 30
0.0
 10
63.86001246233361
 20
-152.4943955781958
 30
0.0
 10
63.92770858861877
 20
-152.5433159340864
 30
0.0
 10
63.93201495797533
 20
-152.8581976614382
 30
0.0
 10
63.93614907255763
 20
-153.1289821665789
 30
0.0
 10
63.9721503203785
 20
-153.1606770450432
 30
0.0
 10
64.03984644666365
 20
-153.2157985728072
 30
0.0
 10
64.03984644666365
 20
-153.2157985728072
 30
0.0
 10
63.74374048970643
 20
-153.2157985728072
 30
0.0
 10
63.74374048970643
 20
-153.2157985728072
 30
0.0
  0
SPLINE
  5
D4
330
CF
100
AcDbEntity
  8
_U+30EC_U+30A4_U+30E4_U+30FC 1
370
     0
100
AcDbSpline
210
0.0
220
0.0
230
1.0
 70
    11
 71
     3
 72
    20
 73
    16
 74
     0
 42
0.0000000001
 43
0.0000000001
 12
1.0
 22
0.0
 32
0.0
 13
1.0
 23
0.0
 33
0.0
 40
0.0
 40
0.0
 40
0.0
 40
0.0
 40
1.0
 40
1.0
 40
1.0
 40
2.0
 40
2.0
 40
2.0
 40
3.0
 40
3.0
 40
3.0
 40
4.0
 40
4.0
 40
4.0
 40
5.0
 40
5.0
 40
5.0
 40
5.0
 10
63.49190400973467
 20
-151.8832356391125
 30
0.0
 10
63.49190400973467
 20
-151.8832356391125
 30
0.0
 10
63.0476589469117
 20
-151.8832356391125
 30
0.0
 10
63.0476589469117
 20
-151.8832356391125
 30
0.0
 10
63.0476589469117
 20
-151.8832356391125
 30
0.0
 10
63.0476589469117
 20
-152.3634819497564
 30
0.0
 10
63.0476589469117
 20
-152.3634819497564
 30
0.0
 10
63.0476589469117
 20
-152.3634819497564
 30
0.0
 10
63.48983695244352
 20
-152.3634819497564
 30
0.0
 10
63.48983695244352
 20
-152.3634819497564
 30
0.0
 10
63.58922795719297
 20
-152.3634819497564
 30
0.0
 10
63.72462020976329
 20
-152.2870008299838
 30
0.0
 10
63.72462020976329
 20
-152.1157795843669
 30
0.0
 10
63.72462020976329
 20
-152.0375759168517
 30
0.0
 10
63.69085827400784
 20
-151.8832356391125
 30
0.0
 10
63.49190400973467
 20
-151.8832356391125
 30
0.0
  0
HATCH
  5
D5
330
CF
100
AcDbEntity
  8
_U+30EC_U+30A4_U+30E4_U+30FC 1
 62
   179
420
  2234388
100
AcDbHatch
 10
0.0
 20
0.0
 30
0.0
210
0.0
220
0.0
230
1.0
  2
SOLID
 70
     1
 71
     0
 91
        2
 92
        1
 93
        1
 72
     4
 94
        3
 73
     0
 74
     1
 95
       44
 96
       40
 40
0.0
 40
0.0
 40
0.0
 40
0.0
 40
1.0
 40
1.0
 40
1.0
 40
2.0
 40
2.0
 40
2.0
 40
3.0
 40
3.0
 40
3.0
 40
4.0
 40
4.0
 40
4.0
 40
5.0
 40
5.0
 40
5.0
 40
6.0
 40
6.0
 40
6.0
 40
7.0
 40
7.0
 40
7.0
 40
8.0
 40
8.0
 40
8.0
 40
9.0
 40
9.0
 40
9.0
 40
10.0
 40
10.0
 40
10.0
 40
11.0
 40
11.0
 40
11.0
 40
12.0
 40
12.0
 40
12.0
 40
13.0
 40
13.0
 40
13.0
 40
13.0
 10
63.74374048970643
 20
-153.2157985728072
 10
63.72031384040673
 20
-153.1713568410474
 10
63.69929875794671
 20
-153.1186468801231
 10
63.69705944588129
 20
-152.8878254826114
 10
63.69292533129899
 20
-152.6446017413527
 10
63.63366968895269
 20
-152.5750108125507
 10
63.4559027619138
 20
-152.5750108125507
 10
63.4559027619138
 20
-152.5750108125507
 10
63.0476589469117
 20
-152.5750108125507
 10
63.0476589469117
 20
-152.5750108125507
 10
63.0476589469117
 20
-152.5750108125507
 10
63.0476589469117
 20
-153.2157985728072
 10
63.0476589469117
 20
-153.2157985728072
 10
63.0476589469117
 20
-153.2157985728072
 10
62.81287568959192
 20
-153.2157985728072
 10
62.81287568959192
 20
-153.2157985728072
 10
62.81287568959192
 20
-153.2157985728072
 10
62.81287568959192
 20
-151.6717067763182
 10
62.81287568959192
 20
-151.6717067763182
 10
62.81287568959192
 20
-151.6717067763182
 10
63.48759764037811
 20
-151.6717067763182
 10
63.48759764037811
 20
-151.6717067763182
 10
63.7943833933396
 20
-151.6717067763182
 10
63.96164277914848
 20
-151.8425835123866
 10
63.96164277914848
 20
-152.0988986164892
 10
63.96164277914848
 20
-152.1495415201223
 10
63.95303004043536
 20
-152.2318793022198
 10
63.90858830867563
 20
-152.3124945365747
 10
63.8495049211036
 20
-152.4161919106807
 10
63.78387585210959
 20
-152.4351399358495
 10
63.72255315247214
 20
-152.4520209037273
 10
63.86001246233361
 20
-152.4943955781958
 10
63.92770858861877
 20
-152.5433159340864
 10
63.93201495797533
 20
-152.8581976614382
 10
63.93614907255763
 20
-153.1289821665789
 10
63.9721503203785
 20
-153.1606770450432
 10
64.03984644666365
 20
-153.2157985728072
 10
64.03984644666365
 20
-153.2157985728072
 10
63.74374048970643
 20
-153.2157985728072
 10
63.74374048970643
 20
-153.2157985728072
 97
        0
 97
        0
 92
        1
 93
        1
 72
     4
 94
        3
 73
     0
 74
     1
 95
       20
 96
       16
 40
0.0
 40
0.0
 40
0.0
 40
0.0
 40
1.0
 40
1.0
 40
1.0
 40
2.0
 40
2.0
 40
2.0
 40
3.0
 40
3.0
 40
3.0
 40
4.0
 40
4.0
 40
4.0
 40
5.0
 40
5.0
 40
5.0
 40
5.0
 10
63.49190400973467
 20
-151.8832356391125
 10
63.49190400973467
 20
-151.8832356391125
 10
63.0476589469117
 20
-151.8832356391125
 10
63.0476589469117
 20
-151.8832356391125
 10
63.0476589469117
 20
-151.8832356391125
 10
63.0476589469117
 20
-152.3634819497564
 10
63.0476589469117
 20
-152.3634819497564
 10
63.0476589469117
 20
-152.3634819497564
 10
63.48983695244352
 20
-152.3634819497564
 10
63.48983695244352
 20
-152.3634819497564
 10
63.58922795719297
 20
-152.3634819497564
 10
63.72462020976329
 20
-152.2870008299838
 10
63.72462020976329
 20
-152.1157795843669
 10
63.72462020976329
 20
-152.0375759168517
 10
63.69085827400784
 20
-151.8832356391125
 10
63.49190400973467
 20
-151.8832356391125
 97
        0
 97
        0
 75
     2
 76
     1
 98
        0
  0
SPLINE
  5
D6
330
CF
100
AcDbEntity
  8
_U+30EC_U+30A4_U+30E4_U+30FC 1
370
     0
100
AcDbSpline
210
0.0
220
0.0
230
1.0
 70
    11
 71
     3
 72
    26
 73
    22
 74
     0
 42
0.0000000001
 43
0.0000000001
 12
1.0
 22
0.0
 32
0.0
 13
1.0
 23
0.0
 33
0.0
 40
0.0
 40
0.0
 40
0.0
 40
0.0
 40
1.0
 40
1.0
 40
1.0
 40
2.0
 40
2.0
 40
2.0
 40
3.0
 40
3.0
 40
3.0
 40
4.0
 40
4.0
 40
4.0
 40
5.0
 40
5.0
 40
5.0
 40
6.0
 40
6.0
 40
6.0
 40
7.0
 40
7.0
 40
7.0
 40
7.0
 10
64.63085257715827
 20
-153.2157985728072
 30
0.0
 10
64.63085257715827
 20
-153.2157985728072
 30
0.0
 10
64.63085257715827
 20
-152.1113009602361
 30
0.0
 10
64.63085257715827
 20
-152.1113009602361
 30
0.0
 10
64.63085257715827
 20
-152.1113009602361
 30
0.0
 10
64.30081242967132
 20
-152.1113009602361
 30
0.0
 10
64.30081242967132
 20
-152.1113009602361
 30
0.0
 10
64.30081242967132
 20
-152.1113009602361
 30
0.0
 10
64.30081242967132
 20
-151.9635063639188
 30
0.0
 10
64.30081242967132
 20
-151.9635063639188
 30
0.0
 10
64.63291963444941
 20
-151.9486924533323
 30
0.0
 10
64.67942842350028
 20
-151.78573943688
 30
0.0
 10
64.70905624467343
 20
-151.6717067763182
 30
0.0
 10
64.70905624467343
 20
-151.6717067763182
 30
0.0
 10
64.85512829324803
 20
-151.6717067763182
 30
0.0
 10
64.85512829324803
 20
-151.6717067763182
 30
0.0
 10
64.85512829324803
 20
-151.6717067763182
 30
0.0
 10
64.85512829324803
 20
-153.2157985728072
 30
0.0
 10
64.85512829324803
 20
-153.2157985728072
 30
0.0
 10
64.85512829324803
 20
-153.2157985728072
 30
0.0
 10
64.63085257715827
 20
-153.2157985728072
 30
0.0
 10
64.63085257715827
 20
-153.2157985728072
 30
0.0
  0
HATCH
  5
D7
330
CF
100
AcDbEntity
  8
_U+30EC_U+30A4_U+30E4_U+30FC 1
 62
   179
420
  2234388
100
AcDbHatch
 10
0.0
 20
0.0
 30
0.0
210
0.0
220
0.0
230
1.0
  2
SOLID
 70
     1
 71
     0
 91
        1
 92
        1
 93
        1
 72
     4
 94
        3
 73
     0
 74
     1
 95
       26
 96
       22
 40
0.0
 40
0.0
 40
0.0
 40
0.0
 40
1.0
 40
1.0
 40
1.0
 40
2.0
 40
2.0
 40
2.0
 40
3.0
 40
3.0
 40
3.0
 40
4.0
 40
4.0
 40
4.0
 40
5.0
 40
5.0
 40
5.0
 40
6.0
 40
6.0
 40
6.0
 40
7.0
 40
7.0
 40
7.0
 40
7.0
 10
64.63085257715827
 20
-153.2157985728072
 10
64.63085257715827
 20
-153.2157985728072
 10
64.63085257715827
 20
-152.1113009602361
 10
64.63085257715827
 20
-152.1113009602361
 10
64.63085257715827
 20
-152.1113009602361
 10
64.30081242967132
 20
-152.1113009602361
 10
64.30081242967132
 20
-152.1113009602361
 10
64.30081242967132
 20
-152.1113009602361
 10
64.30081242967132
 20
-151.9635063639188
 10
64.30081242967132
 20
-151.9635063639188
 10
64.63291963444941
 20
-151.9486924533323
 10
64.67942842350028
 20
-151.78573943688
 10
64.70905624467343
 20
-151.6717067763182
 10
64.70905624467343
 20
-151.6717067763182
 10
64.85512829324803
 20
-151.6717067763182
 10
64.85512829324803
 20
-151.6717067763182
 10
64.85512829324803
 20
-151.6717067763182
 10
64.85512829324803
 20
-153.2157985728072
 10
64.85512829324803
 20
-153.2157985728072
 10
64.85512829324803
 20
-153.2157985728072
 10
64.63085257715827
 20
-153.2157985728072
 10
64.63085257715827
 20
-153.2157985728072
 97
        0
 97
        0
 75
     2
 76
     1
 98
        0
  0
SPLINE
  5
D8
330
CF
100
AcDbEntity
  8
_U+30EC_U+30A4_U+30E4_U+30FC 1
370
     0
100
AcDbSpline
210
0.0
220
0.0
230
1.0
 70
    11
 71
     3
 72
    53
 73
    49
 74
     0
 42
0.0000000001
 43
0.0000000001
 12
1.0
 22
0.0
 32
0.0
 13
1.0
 23
0.0
 33
0.0
 40
0.0
 40
0.0
 40
0.0
 40
0.0
 40
1.0
 40
1.0
 40
1.0
 40
2.0
 40
2.0
 40
2.0
 40
3.0
 40
3.0
 40
3.0
 40
4.0
 40
4.0
 40
4.0
 40
5.0
 40
5.0
 40
5.0
 40
6.0
 40
6.0
 40
6.0
 40
7.0
 40
7.0
 40
7.0
 40
8.0
 40
8.0
 40
8.0
 40
9.0
 40
9.0
 40
9.0
 40
10.0
 40
10.0
 40
10.0
 40
11.0
 40
11.0
 40
11.0
 40
12.0
 40
12.0
 40
12.0
 40
13.0
 40
13.0
 40
13.0
 40
14.0
 40
14.0
 40
14.0
 40
15.0
 40
15.0
 40
15.0
 40
16.0
 40
16.0
 40
16.0
 40
16.0
 10
65.83732501609275
 20
-153.2667859859889
 30
0.0
 10
65.75894909380332
 20
-153.2667859859889
 30
0.0
 10
65.65749103176272
 20
-153.2495605085626
 30
0.0
 10
65.55586071494784
 20
-153.186170751634
 30
0.0
 10
65.38240015726551
 20
-153.075927696106
 30
0.0
 10
65.36121282003123
 20
-152.9450140676665
 30
0.0
 10
65.34226479486236
 20
-152.8371825789782
 30
0.0
 10
65.34226479486236
 20
-152.8371825789782
 30
0.0
 10
65.56430119888671
 20
-152.8371825789782
 30
0.0
 10
65.56430119888671
 20
-152.8371825789782
 30
0.0
 10
65.6194227266507
 20
-153.0359645884771
 30
0.0
 10
65.74637449528215
 20
-153.0655924096503
 30
0.0
 10
65.8393920733839
 20
-153.0655924096503
 30
0.0
 10
65.97909069531079
 20
-153.0655924096503
 30
0.0
 10
66.13136391575883
 20
-152.9663736596751
 30
0.0
 10
66.13136391575883
 20
-152.7334852048722
 30
0.0
 10
66.13136391575883
 20
-152.4775146103181
 30
0.0
 10
65.95152993142878
 20
-152.4075791719676
 30
0.0
 10
65.83095158944505
 20
-152.4075791719676
 30
0.0
 10
65.79925671098074
 20
-152.4075791719676
 30
0.0
 10
65.65749103176272
 20
-152.4075791719676
 30
0.0
 10
65.56860756824327
 20
-152.5367702526644
 30
0.0
 10
65.56860756824327
 20
-152.5367702526644
 30
0.0
 10
65.39307995326979
 20
-152.5178222274955
 30
0.0
 10
65.39307995326979
 20
-152.5178222274955
 30
0.0
 10
65.39307995326979
 20
-152.5178222274955
 30
0.0
 10
65.51365829525353
 20
-151.6717067763182
 30
0.0
 10
65.51365829525353
 20
-151.6717067763182
 30
0.0
 10
65.51365829525353
 20
-151.6717067763182
 30
0.0
 10
66.29207762014573
 20
-151.6717067763182
 30
0.0
 10
66.29207762014573
 20
-151.6717067763182
 30
0.0
 10
66.29207762014573
 20
-151.6717067763182
 30
0.0
 10
66.29207762014573
 20
-151.8660101616863
 30
0.0
 10
66.29207762014573
 20
-151.8660101616863
 30
0.0
 10
66.29207762014573
 20
-151.8660101616863
 30
0.0
 10
65.67643905693159
 20
-151.8660101616863
 30
0.0
 10
65.67643905693159
 20
-151.8660101616863
 30
0.0
 10
65.67643905693159
 20
-151.8660101616863
 30
0.0
 10
65.61098224271184
 20
-152.289067887275
 30
0.0
 10
65.61098224271184
 20
-152.289067887275
 30
0.0
 10
65.67230494234929
 20
-152.2553059515195
 30
0.0
 10
65.75481497922102
 20
-152.2153428438906
 30
0.0
 10
65.87315400913936
 20
-152.2153428438906
 30
0.0
 10
66.12705754640227
 20
-152.2153428438906
 30
0.0
 10
66.36408011578746
 20
-152.4013780000941
 30
0.0
 10
66.36408011578746
 20
-152.7141926701548
 30
0.0
 10
66.36408011578746
 20
-153.0318304738948
 30
0.0
 10
66.1398043996977
 20
-153.2667859859889
 30
0.0
 10
65.83732501609275
 20
-153.2667859859889
 30
0.0
  0
HATCH
  5
D9
330
CF
100
AcDbEntity
  8
_U+30EC_U+30A4_U+30E4_U+30FC 1
 62
   179
420
  2234388
100
AcDbHatch
 10
0.0
 20
0.0
 30
0.0
210
0.0
220
0.0
230
1.0
  2
SOLID
 70
     1
 71
     0
 91
        1
 92
        1
 93
        1
 72
     4
 94
        3
 73
     0
 74
     1
 95
       53
 96
       49
 40
0.0
 40
0.0
 40
0.0
 40
0.0
 40
1.0
 40
1.0
 40
1.0
 40
2.0
 40
2.0
 40
2.0
 40
3.0
 40
3.0
 40
3.0
 40
4.0
 40
4.0
 40
4.0
 40
5.0
 40
5.0
 40
5.0
 40
6.0
 40
6.0
 40
6.0
 40
7.0
 40
7.0
 40
7.0
 40
8.0
 40
8.0
 40
8.0
 40
9.0
 40
9.0
 40
9.0
 40
10.0
 40
10.0
 40
10.0
 40
11.0
 40
11.0
 40
11.0
 40
12.0
 40
12.0
 40
12.0
 40
13.0
 40
13.0
 40
13.0
 40
14.0
 40
14.0
 40
14.0
 40
15.0
 40
15.0
 40
15.0
 40
16.0
 40
16.0
 40
16.0
 40
16.0
 10
65.83732501609275
 20
-153.2667859859889
 10
65.75894909380332
 20
-153.2667859859889
 10
65.65749103176272
 20
-153.2495605085626
 10
65.55586071494784
 20
-153.186170751634
 10
65.38240015726551
 20
-153.075927696106
 10
65.36121282003123
 20
-152.9450140676665
 10
65.34226479486236
 20
-152.8371825789782
 10
65.34226479486236
 20
-152.8371825789782
 10
65.56430119888671
 20
-152.8371825789782
 10
65.56430119888671
 20
-152.8371825789782
 10
65.6194227266507
 20
-153.0359645884771
 10
65.74637449528215
 20
-153.0655924096503
 10
65.8393920733839
 20
-153.0655924096503
 10
65.97909069531079
 20
-153.0655924096503
 10
66.13136391575883
 20
-152.9663736596751
 10
66.13136391575883
 20
-152.7334852048722
 10
66.13136391575883
 20
-152.4775146103181
 10
65.95152993142878
 20
-152.4075791719676
 10
65.83095158944505
 20
-152.4075791719676
 10
65.79925671098074
 20
-152.4075791719676
 10
65.65749103176272
 20
-152.4075791719676
 10
65.56860756824327
 20
-152.5367702526644
 10
65.56860756824327
 20
-152.5367702526644
 10
65.39307995326979
 20
-152.5178222274955
 10
65.39307995326979
 20
-152.5178222274955
 10
65.39307995326979
 20
-152.5178222274955
 10
65.51365829525353
 20
-151.6717067763182
 10
65.51365829525353
 20
-151.6717067763182
 10
65.51365829525353
 20
-151.6717067763182
 10
66.29207762014573
 20
-151.6717067763182
 10
66.29207762014573
 20
-151.6717067763182
 10
66.29207762014573
 20
-151.6717067763182
 10
66.29207762014573
 20
-151.8660101616863
 10
66.29207762014573
 20
-151.8660101616863
 10
66.29207762014573
 20
-151.8660101616863
 10
65.67643905693159
 20
-151.8660101616863
 10
65.67643905693159
 20
-151.8660101616863
 10
65.67643905693159
 20
-151.8660101616863
 10
65.61098224271184
 20
-152.289067887275
 10
65.61098224271184
 20
-152.289067887275
 10
65.67230494234929
 20
-152.2553059515195
 10
65.75481497922102
 20
-152.2153428438906
 10
65.87315400913936
 20
-152.2153428438906
 10
66.12705754640227
 20
-152.2153428438906
 10
66.36408011578746
 20
-152.4013780000941
 10
66.36408011578746
 20
-152.7141926701548
 10
66.36408011578746
 20
-153.0318304738948
 10
66.1398043996977
 20
-153.2667859859889
 10
65.83732501609275
 20
-153.2667859859889
 97
        0
 97
        0
 75
     2
 76
     1
 98
        0
  0
ENDBLK
  5
D2
330
CF
100
AcDbEntity
  8
0
100
AcDbBlockEnd
  0
ENDSEC
  0
SECTION
  2
ENTITIES
  0
SPLINE
  5
41
330
1F
100
AcDbEntity
  8
_U+30EC_U+30A4_U+30E4_U+30FC 1
 62
   179
420
  2234388
370
     9
100
AcDbSpline
210
0.0
220
0.0
230
1.0
 70
    11
 71
     3
 72
    17
 73
    13
 74
     0
 42
0.0000000001
 43
0.0000000001
 12
1.0
 22
0.0
 32
0.0
 13
1.0
 23
0.0
 33
0.0
 40
0.0
 40
0.0
 40
0.0
 40
0.0
 40
1.0
 40
1.0
 40
1.0
 40
2.0
 40
2.0
 40
2.0
 40
3.0
 40
3.0
 40
3.0
 40
4.0
 40
4.0
 40
4.0
 40
4.0
 10
83.49946398086232
 20
-152.3810557952379
 30
0.0
 10
83.49946398086232
 20
-152.3259166285855
 30
0.0
 10
83.45469648200442
 20
-152.2811491285963
 30
0.0
 10
83.3988870389838
 20
-152.2811491285963
 30
0.0
 10
83.34374997916407
 20
-152.2811491285963
 30
0.0
 10
83.29894720139734
 20
-152.3259166285855
 30
0.0
 10
83.29894720139734
 20
-152.3810557952379
 30
0.0
 10
83.29894720139734
 20
-152.4361596841135
 30
0.0
 10
83.34374997916407
 20
-152.4809624618796
 30
0.0
 10
83.3988870389838
 20
-152.4809624618796
 30
0.0
 10
83.45469648200442
 20
-152.4809624618796
 30
0.0
 10
83.49946398086232
 20
-152.4361596841135
 30
0.0
 10
83.49946398086232
 20
-152.3810557952379
 30
0.0
  0
POLYLINE
  5
42
330
1F
100
AcDbEntity
  8
_U+30EC_U+30A4_U+30E4_U+30FC 1
 62
   179
420
  2234388
370
     9
100
AcDb2dPolyline
 66
     1
 10
0.0
 20
0.0
 30
0.0
  0
VERTEX
  5
43
330
42
100
AcDbEntity
  8
_U+30EC_U+30A4_U+30E4_U+30FC 1
 62
   179
420
  2234388
370
     9
100
AcDbVertex
100
AcDb2dVertex
 10
83.3988870389838
 20
-150.9210144067142
 30
0.0
  0
VERTEX
  5
44
330
42
100
AcDbEntity
  8
_U+30EC_U+30A4_U+30E4_U+30FC 1
 62
   179
420
  2234388
370
     9
100
AcDbVertex
100
AcDb2dVertex
 10
83.3988870389838
 20
-153.3808280172105
 30
0.0
  0
SEQEND
  5
45
330
42
100
AcDbEntity
  8
_U+30EC_U+30A4_U+30E4_U+30FC 1
 62
   179
420
  2234388
370
     9
  0
SPLINE
  5
46
330
1F
100
AcDbEntity
  8
_U+30EC_U+30A4_U+30E4_U+30FC 1
 62
   179
420
  2234388
370
     9
100
AcDbSpline
210
0.0
220
0.0
230
1.0
 70
    11
 71
     3
 72
    17
 73
    13
 74
     0
 42
0.0000000001
 43
0.0000000001
 12
1.0
 22
0.0
 32
0.0
 13
1.0
 23
0.0
 33
0.0
 40
0.0
 40
0.0
 40
0.0
 40
0.0
 40
1.0
 40
1.0
 40
1.0
 40
2.0
 40
2.0
 40
2.0
 40
3.0
 40
3.0
 40
3.0
 40
4.0
 40
4.0
 40
4.0
 40
4.0
 10
95.49874117473524
 20
-152.3807030174602
 30
0.0
 10
95.49874117473524
 20
-152.3255991285853
 30
0.0
 10
95.45393839810049
 20
-152.2807963508185
 30
0.0
 10
95.3988345106174
 20
-152.2807963508185
 30
0.0
 10
95.34369534535746
 20
-152.2807963508185
 30
0.0
 10
95.29892784649958
 20
-152.3255991285853
 30
0.0
 10
95.29892784649958
 20
-152.3807030174602
 30
0.0
 10
95.29892784649958
 20
-152.4358421841133
 30
0.0
 10
95.34369534535746
 20
-152.4806096841018
 30
0.0
 10
95.3988345106174
 20
-152.4806096841018
 30
0.0
 10
95.45393839810049
 20
-152.4806096841018
 30
0.0
 10
95.49874117473524
 20
-152.4358421841133
 30
0.0
 10
95.49874117473524
 20
-152.3807030174602
 30
0.0
  0
POLYLINE
  5
47
330
1F
100
AcDbEntity
  8
_U+30EC_U+30A4_U+30E4_U+30FC 1
 62
   179
420
  2234388
370
     9
100
AcDb2dPolyline
 66
     1
 10
0.0
 20
0.0
 30
0.0
  0
VERTEX
  5
48
330
47
100
AcDbEntity
  8
_U+30EC_U+30A4_U+30E4_U+30FC 1
 62
   179
420
  2234388
370
     9
100
AcDbVertex
100
AcDb2dVertex
 10
95.3988345106174
 20
-149.8809549625296
 30
0.0
  0
VERTEX
  5
49
330
47
100
AcDbEntity
  8
_U+30EC_U+30A4_U+30E4_U+30FC 1
 62
   179
420
  2234388
370
     9
100
AcDbVertex
100
AcDb2dVertex
 10
95.3988345106174
 20
-153.3808280172105
 30
0.0
  0
SEQEND
  5
4A
330
47
100
AcDbEntity
  8
_U+30EC_U+30A4_U+30E4_U+30FC 1
 62
   179
420
  2234388
370
     9
  0
SPLINE
  5
4B
330
1F
100
AcDbEntity
  8
_U+30EC_U+30A4_U+30E4_U+30FC 1
 62
   179
420
  2234388
370
     9
100
AcDbSpline
210
0.0
220
0.0
230
1.0
 70
    11
 71
     3
 72
    17
 73
    13
 74
     0
 42
0.0000000001
 43
0.0000000001
 12
1.0
 22
0.0
 32
0.0
 13
1.0
 23
0.0
 33
0.0
 40
0.0
 40
0.0
 40
0.0
 40
0.0
 40
1.0
 40
1.0
 40
1.0
 40
2.0
 40
2.0
 40
2.0
 40
3.0
 40
3.0
 40
3.0
 40
4.0
 40
4.0
 40
4.0
 40
4.0
 10
96.49918608698606
 20
-152.3807030174602
 30
0.0
 10
96.49918608698606
 20
-152.3255991285853
 30
0.0
 10
96.45441615035395
 20
-152.2807963508185
 30
0.0
 10
96.399276985094
 20
-152.2807963508185
 30
0.0
 10
96.34417309761092
 20
-152.2807963508185
 30
0.0
 10
96.29937032097617
 20
-152.3255991285853
 30
0.0
 10
96.29937032097617
 20
-152.3807030174602
 30
0.0
 10
96.29937032097617
 20
-152.4358421841133
 30
0.0
 10
96.34417309761092
 20
-152.4806096841018
 30
0.0
 10
96.399276985094
 20
-152.4806096841018
 30
0.0
 10
96.45441615035395
 20
-152.4806096841018
 30
0.0
 10
96.49918608698606
 20
-152.4358421841133
 30
0.0
 10
96.49918608698606
 20
-152.3807030174602
 30
0.0
  0
POLYLINE
  5
4C
330
1F
100
AcDbEntity
  8
_U+30EC_U+30A4_U+30E4_U+30FC 1
 62
   179
420
  2234388
370
     9
100
AcDb2dPolyline
 66
     1
 10
0.0
 20
0.0
 30
0.0
  0
VERTEX
  5
4D
330
4C
100
AcDbEntity
  8
_U+30EC_U+30A4_U+30E4_U+30FC 1
 62
   179
420
  2234388
370
     9
100
AcDbVertex
100
AcDb2dVertex
 10
96.399276985094
 20
-148.8808299627799
 30
0.0
  0
VERTEX
  5
4E
330
4C
100
AcDbEntity
  8
_U+30EC_U+30A4_U+30E4_U+30FC 1
 62
   179
420
  2234388
370
     9
100
AcDbVertex
100
AcDb2dVertex
 10
96.399276985094
 20
-153.3808280172105
 30
0.0
  0
SEQEND
  5
4F
330
4C
100
AcDbEntity
  8
_U+30EC_U+30A4_U+30E4_U+30FC 1
 62
   179
420
  2234388
370
     9
  0
POLYLINE
  5
50
330
1F
100
AcDbEntity
  8
_U+30EC_U+30A4_U+30E4_U+30FC 1
 62
   179
420
  2234388
370
     9
100
AcDb2dPolyline
 66
     1
 10
0.0
 20
0.0
 30
0.0
  0
VERTEX
  5
51
330
50
100
AcDbEntity
  8
_U+30EC_U+30A4_U+30E4_U+30FC 1
 62
   179
420
  2234388
370
     9
100
AcDbVertex
100
AcDb2dVertex
 10
68.3989174216649
 20
-139.3809830207103
 30
0.0
  0
VERTEX
  5
52
330
50
100
AcDbEntity
  8
_U+30EC_U+30A4_U+30E4_U+30FC 1
 62
   179
420
  2234388
370
     9
100
AcDbVertex
100
AcDb2dVertex
 10
68.3989174216649
 20
-153.3808280172105
 30
0.0
  0
SEQEND
  5
53
330
50
100
AcDbEntity
  8
_U+30EC_U+30A4_U+30E4_U+30FC 1
 62
   179
420
  2234388
370
     9
  0
SPLINE
  5
54
330
1F
100
AcDbEntity
  8
_U+30EC_U+30A4_U+30E4_U+30FC 1
 62
   179
420
  2234388
370
     9
100
AcDbSpline
210
0.0
220
0.0
230
1.0
 70
    11
 71
     3
 72
    17
 73
    13
 74
     0
 42
0.0000000001
 43
0.0000000001
 12
1.0
 22
0.0
 32
0.0
 13
1.0
 23
0.0
 33
0.0
 40
0.0
 40
0.0
 40
0.0
 40
0.0
 40
1.0
 40
1.0
 40
1.0
 40
2.0
 40
2.0
 40
2.0
 40
3.0
 40
3.0
 40
3.0
 40
4.0
 40
4.0
 40
4.0
 40
4.0
 10
116.9988881262208
 20
-133.8808952443075
 30
0.0
 10
116.9988881262208
 20
-133.8257560776545
 30
0.0
 10
116.954085349586
 20
-133.7809885776659
 30
0.0
 10
116.898981462103
 20
-133.7809885776659
 30
0.0
 10
116.843842296843
 20
-133.7809885776659
 30
0.0
 10
116.7990777485783
 20
-133.8257560776545
 30
0.0
 10
116.7990777485783
 20
-133.8808952443075
 30
0.0
 10
116.7990777485783
 20
-133.936704688738
 30
0.0
 10
116.843842296843
 20
-133.9814721887272
 30
0.0
 10
116.898981462103
 20
-133.9814721887272
 30
0.0
 10
116.954085349586
 20
-133.9814721887272
 30
0.0
 10
116.9988881262208
 20
-133.936704688738
 30
0.0
 10
116.9988881262208
 20
-133.8808952443075
 30
0.0
  0
SPLINE
  5
55
330
1F
100
AcDbEntity
  8
_U+30EC_U+30A4_U+30E4_U+30FC 1
 62
   179
420
  2234388
370
     9
100
AcDbSpline
210
0.0
220
0.0
230
1.0
 70
    11
 71
     3
 72
    17
 73
    13
 74
     0
 42
0.0000000001
 43
0.0000000001
 12
1.0
 22
0.0
 32
0.0
 13
1.0
 23
0.0
 33
0.0
 40
0.0
 40
0.0
 40
0.0
 40
0.0
 40
1.0
 40
1.0
 40
1.0
 40
2.0
 40
2.0
 40
2.0
 40
3.0
 40
3.0
 40
3.0
 40
4.0
 40
4.0
 40
4.0
 40
4.0
 10
116.9988881262208
 20
-148.3809438517939
 30
0.0
 10
116.9988881262208
 20
-148.3258399629184
 30
0.0
 10
116.954085349586
 20
-148.2810371851517
 30
0.0
 10
116.898981462103
 20
-148.2810371851517
 30
0.0
 10
116.843842296843
 20
-148.2810371851517
 30
0.0
 10
116.7990777485783
 20
-148.3258399629184
 30
0.0
 10
116.7990777485783
 20
-148.3809438517939
 30
0.0
 10
116.7990777485783
 20
-148.4367532962244
 30
0.0
 10
116.843842296843
 20
-148.4815560739904
 30
0.0
 10
116.898981462103
 20
-148.4815560739904
 30
0.0
 10
116.954085349586
 20
-148.4815560739904
 30
0.0
 10
116.9988881262208
 20
-148.4367532962244
 30
0.0
 10
116.9988881262208
 20
-148.3809438517939
 30
0.0
  0
POLYLINE
  5
56
330
1F
100
AcDbEntity
  8
_U+30EC_U+30A4_U+30E4_U+30FC 1
 62
   179
420
  2234388
370
     9
100
AcDb2dPolyline
 66
     1
 10
0.0
 20
0.0
 30
0.0
  0
VERTEX
  5
57
330
56
100
AcDbEntity
  8
_U+30EC_U+30A4_U+30E4_U+30FC 1
 62
   179
420
  2234388
370
     9
100
AcDbVertex
100
AcDb2dVertex
 10
116.898981462103
 20
-148.3809438517939
 30
0.0
  0
VERTEX
  5
58
330
56
100
AcDbEntity
  8
_U+30EC_U+30A4_U+30E4_U+30FC 1
 62
   179
420
  2234388
370
     9
100
AcDbVertex
100
AcDb2dVertex
 10
116.898981462103
 20
-102.8807244187243
 30
0.0
  0
SEQEND
  5
59
330
56
100
AcDbEntity
  8
_U+30EC_U+30A4_U+30E4_U+30FC 1
 62
   179
420
  2234388
370
     9
  0
POLYLINE
  5
5A
330
1F
100
AcDbEntity
  8
_U+30EC_U+30A4_U+30E4_U+30FC 1
 62
   179
420
  2234388
370
     9
100
AcDb2dPolyline
 66
     1
 10
0.0
 20
0.0
 30
0.0
  0
VERTEX
  5
5B
330
5A
100
AcDbEntity
  8
_U+30EC_U+30A4_U+30E4_U+30FC 1
 62
   179
420
  2234388
370
     9
100
AcDbVertex
100
AcDb2dVertex
 10
96.89881030568317
 20
-148.3809438517939
 30
0.0
  0
VERTEX
  5
5C
330
5A
100
AcDbEntity
  8
_U+30EC_U+30A4_U+30E4_U+30FC 1
 62
   179
420
  2234388
370
     9
100
AcDbVertex
100
AcDb2dVertex
 10
117.8987536588189
 20
-148.3809438517939
 30
0.0
  0
SEQEND
  5
5D
330
5A
100
AcDbEntity
  8
_U+30EC_U+30A4_U+30E4_U+30FC 1
 62
   179
420
  2234388
370
     9
  0
SPLINE
  5
5E
330
1F
100
AcDbEntity
  8
_U+30EC_U+30A4_U+30E4_U+30FC 1
 62
   179
420
  2234388
370
     9
100
AcDbSpline
210
0.0
220
0.0
230
1.0
 70
    11
 71
     3
 72
    17
 73
    13
 74
     0
 42
0.0000000001
 43
0.0000000001
 12
1.0
 22
0.0
 32
0.0
 13
1.0
 23
0.0
 33
0.0
 40
0.0
 40
0.0
 40
0.0
 40
0.0
 40
1.0
 40
1.0
 40
1.0
 40
2.0
 40
2.0
 40
2.0
 40
3.0
 40
3.0
 40
3.0
 40
4.0
 40
4.0
 40
4.0
 40
4.0
 10
116.9988881262208
 20
-146.8809680188352
 30
0.0
 10
116.9988881262208
 20
-146.8258288521821
 30
0.0
 10
116.954085349586
 20
-146.7810613521936
 30
0.0
 10
116.898981462103
 20
-146.7810613521936
 30
0.0
 10
116.843842296843
 20
-146.7810613521936
 30
0.0
 10
116.7990777485783
 20
-146.8258288521821
 30
0.0
 10
116.7990777485783
 20
-146.8809680188352
 30
0.0
 10
116.7990777485783
 20
-146.9367774632656
 30
0.0
 10
116.843842296843
 20
-146.9815449632548
 30
0.0
 10
116.898981462103
 20
-146.9815449632548
 30
0.0
 10
116.954085349586
 20
-146.9815449632548
 30
0.0
 10
116.9988881262208
 20
-146.9367774632656
 30
0.0
 10
116.9988881262208
 20
-146.8809680188352
 30
0.0
  0
POLYLINE
  5
5F
330
1F
100
AcDbEntity
  8
_U+30EC_U+30A4_U+30E4_U+30FC 1
 62
   179
420
  2234388
370
     9
100
AcDb2dPolyline
 66
     1
 10
0.0
 20
0.0
 30
0.0
  0
VERTEX
  5
60
330
5F
100
AcDbEntity
  8
_U+30EC_U+30A4_U+30E4_U+30FC 1
 62
   179
420
  2234388
370
     9
100
AcDbVertex
100
AcDb2dVertex
 10
97.54926195575544
 20
-146.8809680188352
 30
0.0
  0
VERTEX
  5
61
330
5F
100
AcDbEntity
  8
_U+30EC_U+30A4_U+30E4_U+30FC 1
 62
   179
420
  2234388
370
     9
100
AcDbVertex
100
AcDb2dVertex
 10
117.8987536588189
 20
-146.8809680188352
 30
0.0
  0
SEQEND
  5
62
330
5F
100
AcDbEntity
  8
_U+30EC_U+30A4_U+30E4_U+30FC 1
 62
   179
420
  2234388
370
     9
  0
POLYLINE
  5
63
330
1F
100
AcDbEntity
  8
_U+30EC_U+30A4_U+30E4_U+30FC 1
 62
   179
420
  2234388
370
     9
100
AcDb2dPolyline
 66
     1
 10
0.0
 20
0.0
 30
0.0
  0
VERTEX
  5
64
330
63
100
AcDbEntity
  8
_U+30EC_U+30A4_U+30E4_U+30FC 1
 62
   179
420
  2234388
370
     9
100
AcDbVertex
100
AcDb2dVertex
 10
115.4389401104628
 20
-133.8808952443075
 30
0.0
  0
VERTEX
  5
65
330
63
100
AcDbEntity
  8
_U+30EC_U+30A4_U+30E4_U+30FC 1
 62
   179
420
  2234388
370
     9
100
AcDbVertex
100
AcDb2dVertex
 10
117.8987536588189
 20
-133.8808952443075
 30
0.0
  0
SEQEND
  5
66
330
63
100
AcDbEntity
  8
_U+30EC_U+30A4_U+30E4_U+30FC 1
 62
   179
420
  2234388
370
     9
  0
SPLINE
  5
67
330
1F
100
AcDbEntity
  8
_U+30EC_U+30A4_U+30E4_U+30FC 1
 62
   179
420
  2234388
370
     9
100
AcDbSpline
210
0.0
220
0.0
230
1.0
 70
    11
 71
     3
 72
    17
 73
    13
 74
     0
 42
0.0000000001
 43
0.0000000001
 12
1.0
 22
0.0
 32
0.0
 13
1.0
 23
0.0
 33
0.0
 40
0.0
 40
0.0
 40
0.0
 40
0.0
 40
1.0
 40
1.0
 40
1.0
 40
2.0
 40
2.0
 40
2.0
 40
3.0
 40
3.0
 40
3.0
 40
4.0
 40
4.0
 40
4.0
 40
4.0
 10
116.9988881262208
 20
-132.8804174667801
 30
0.0
 10
116.9988881262208
 20
-132.8253135779046
 30
0.0
 10
116.954085349586
 20
-132.7805108001385
 30
0.0
 10
116.898981462103
 20
-132.7805108001385
 30
0.0
 10
116.843842296843
 20
-132.7805108001385
 30
0.0
 10
116.7990777485783
 20
-132.8253135779046
 30
0.0
 10
116.7990777485783
 20
-132.8804174667801
 30
0.0
 10
116.7990777485783
 20
-132.9362269112106
 30
0.0
 10
116.843842296843
 20
-132.9810296889773
 30
0.0
 10
116.898981462103
 20
-132.9810296889773
 30
0.0
 10
116.954085349586
 20
-132.9810296889773
 30
0.0
 10
116.9988881262208
 20
-132.9362269112106
 30
0.0
 10
116.9988881262208
 20
-132.8804174667801
 30
0.0
  0
POLYLINE
  5
68
330
1F
100
AcDbEntity
  8
_U+30EC_U+30A4_U+30E4_U+30FC 1
 62
   179
420
  2234388
370
     9
100
AcDb2dPolyline
 66
     1
 10
0.0
 20
0.0
 30
0.0
  0
VERTEX
  5
69
330
68
100
AcDbEntity
  8
_U+30EC_U+30A4_U+30E4_U+30FC 1
 62
   179
420
  2234388
370
     9
100
AcDbVertex
100
AcDb2dVertex
 10
115.4389401104628
 20
-132.8804174667801
 30
0.0
  0
VERTEX
  5
6A
330
68
100
AcDbEntity
  8
_U+30EC_U+30A4_U+30E4_U+30FC 1
 62
   179
420
  2234388
370
     9
100
AcDbVertex
100
AcDb2dVertex
 10
117.8987536588189
 20
-132.8804174667801
 30
0.0
  0
SEQEND
  5
6B
330
68
100
AcDbEntity
  8
_U+30EC_U+30A4_U+30E4_U+30FC 1
 62
   179
420
  2234388
370
     9
  0
SPLINE
  5
6C
330
1F
100
AcDbEntity
  8
_U+30EC_U+30A4_U+30E4_U+30FC 1
 62
   179
420
  2234388
370
     9
100
AcDbSpline
210
0.0
220
0.0
230
1.0
 70
    11
 71
     3
 72
    17
 73
    13
 74
     0
 42
0.0000000001
 43
0.0000000001
 12
1.0
 22
0.0
 32
0.0
 13
1.0
 23
0.0
 33
0.0
 40
0.0
 40
0.0
 40
0.0
 40
0.0
 40
1.0
 40
1.0
 40
1.0
 40
2.0
 40
2.0
 40
2.0
 40
3.0
 40
3.0
 40
3.0
 40
4.0
 40
4.0
 40
4.0
 40
4.0
 10
116.9988881262208
 20
-102.8807244187243
 30
0.0
 10
116.9988881262208
 20
-102.8255852520715
 30
0.0
 10
116.954085349586
 20
-102.7808177520826
 30
0.0
 10
116.898981462103
 20
-102.7808177520826
 30
0.0
 10
116.843842296843
 20
-102.7808177520826
 30
0.0
 10
116.7990777485783
 20
-102.8255852520715
 30
0.0
 10
116.7990777485783
 20
-102.8807244187243
 30
0.0
 10
116.7990777485783
 20
-102.9365338631547
 30
0.0
 10
116.843842296843
 20
-102.9813013631436
 30
0.0
 10
116.898981462103
 20
-102.9813013631436
 30
0.0
 10
116.954085349586
 20
-102.9813013631436
 30
0.0
 10
116.9988881262208
 20
-102.9365338631547
 30
0.0
 10
116.9988881262208
 20
-102.8807244187243
 30
0.0
  0
POLYLINE
  5
6D
330
1F
100
AcDbEntity
  8
_U+30EC_U+30A4_U+30E4_U+30FC 1
 62
   179
420
  2234388
370
     9
100
AcDb2dPolyline
 66
     1
 10
0.0
 20
0.0
 30
0.0
  0
VERTEX
  5
6E
330
6D
100
AcDbEntity
  8
_U+30EC_U+30A4_U+30E4_U+30FC 1
 62
   179
420
  2234388
370
     9
100
AcDbVertex
100
AcDb2dVertex
 10
85.43215698711076
 20
-102.8807244187243
 30
0.0
  0
VERTEX
  5
6F
330
6D
100
AcDbEntity
  8
_U+30EC_U+30A4_U+30E4_U+30FC 1
 62
   179
420
  2234388
370
     9
100
AcDbVertex
100
AcDb2dVertex
 10
117.8987536588189
 20
-102.8807244187243
 30
0.0
  0
SEQEND
  5
70
330
6D
100
AcDbEntity
  8
_U+30EC_U+30A4_U+30E4_U+30FC 1
 62
   179
420
  2234388
370
     9
  0
INSERT
  5
72
330
1F
100
AcDbEntity
  8
_U+30EC_U+30A4_U+30E4_U+30FC 1
100
AcDbBlockReference
  2
block 2
 10
0.0
 20
0.0
 30
0.0
  0
INSERT
  5
7A
330
1F
100
AcDbEntity
  8
_U+30EC_U+30A4_U+30E4_U+30FC 1
100
AcDbBlockReference
  2
block 3
 10
0.0
 20
0.0
 30
0.0
  0
INSERT
  5
80
330
1F
100
AcDbEntity
  8
_U+30EC_U+30A4_U+30E4_U+30FC 1
100
AcDbBlockReference
  2
block 4
 10
0.0
 20
0.0
 30
0.0
  0
INSERT
  5
89
330
1F
100
AcDbEntity
  8
_U+30EC_U+30A4_U+30E4_U+30FC 1
100
AcDbBlockReference
  2
block 5
 10
0.0
 20
0.0
 30
0.0
  0
SPLINE
  5
98
330
1F
100
AcDbEntity
  8
_U+30EC_U+30A4_U+30E4_U+30FC 1
 62
   179
420
  2234388
370
     9
100
AcDbSpline
210
0.0
220
0.0
230
1.0
 70
    11
 71
     3
 72
    17
 73
    13
 74
     0
 42
0.0000000001
 43
0.0000000001
 12
1.0
 22
0.0
 32
0.0
 13
1.0
 23
0.0
 33
0.0
 40
0.0
 40
0.0
 40
0.0
 40
0.0
 40
1.0
 40
1.0
 40
1.0
 40
2.0
 40
2.0
 40
2.0
 40
3.0
 40
3.0
 40
3.0
 40
4.0
 40
4.0
 40
4.0
 40
4.0
 10
64.49906665054202
 20
-148.3809438517939
 30
0.0
 10
64.49906665054202
 20
-148.3251344073629
 30
0.0
 10
64.45429752230055
 20
-148.2803669073743
 30
0.0
 10
64.39915835704059
 20
-148.2803669073743
 30
0.0
 10
64.34334891401997
 20
-148.2803669073743
 30
0.0
 10
64.29858141516208
 20
-148.3251344073629
 30
0.0
 10
64.29858141516208
 20
-148.3809438517939
 30
0.0
 10
64.29858141516208
 20
-148.4360830184464
 30
0.0
 10
64.34334891401997
 20
-148.4808505184356
 30
0.0
 10
64.39915835704059
 20
-148.4808505184356
 30
0.0
 10
64.45429752230055
 20
-148.4808505184356
 30
0.0
 10
64.49906665054202
 20
-148.4360830184464
 30
0.0
 10
64.49906665054202
 20
-148.3809438517939
 30
0.0
  0
SPLINE
  5
99
330
1F
100
AcDbEntity
  8
_U+30EC_U+30A4_U+30E4_U+30FC 1
 62
   179
420
  2234388
370
     9
100
AcDbSpline
210
0.0
220
0.0
230
1.0
 70
    11
 71
     3
 72
    17
 73
    13
 74
     0
 42
0.0000000001
 43
0.0000000001
 12
1.0
 22
0.0
 32
0.0
 13
1.0
 23
0.0
 33
0.0
 40
0.0
 40
0.0
 40
0.0
 40
0.0
 40
1.0
 40
1.0
 40
1.0
 40
2.0
 40
2.0
 40
2.0
 40
3.0
 40
3.0
 40
3.0
 40
4.0
 40
4.0
 40
4.0
 40
4.0
 10
64.49906665054202
 20
-120.4055602476764
 30
0.0
 10
64.49906665054202
 20
-120.3504563588012
 30
0.0
 10
64.45429752230055
 20
-120.3056535810347
 30
0.0
 10
64.39915835704059
 20
-120.3056535810347
 30
0.0
 10
64.34334891401997
 20
-120.3056535810347
 30
0.0
 10
64.29858141516208
 20
-120.3504563588012
 30
0.0
 10
64.29858141516208
 20
-120.4055602476764
 30
0.0
 10
64.29858141516208
 20
-120.4613696921068
 30
0.0
 10
64.34334891401997
 20
-120.5061724698735
 30
0.0
 10
64.39915835704059
 20
-120.5061724698735
 30
0.0
 10
64.45429752230055
 20
-120.5061724698735
 30
0.0
 10
64.49906665054202
 20
-120.4613696921068
 30
0.0
 10
64.49906665054202
 20
-120.4055602476764
 30
0.0
  0
POLYLINE
  5
9A
330
1F
100
AcDbEntity
  8
_U+30EC_U+30A4_U+30E4_U+30FC 1
 62
   179
420
  2234388
370
     9
100
AcDb2dPolyline
 66
     1
 10
0.0
 20
0.0
 30
0.0
  0
VERTEX
  5
9B
330
9A
100
AcDbEntity
  8
_U+30EC_U+30A4_U+30E4_U+30FC 1
 62
   179
420
  2234388
370
     9
100
AcDbVertex
100
AcDb2dVertex
 10
64.39915835704059
 20
-148.3805910740162
 30
0.0
  0
VERTEX
  5
9C
330
9A
100
AcDbEntity
  8
_U+30EC_U+30A4_U+30E4_U+30FC 1
 62
   179
420
  2234388
370
     9
100
AcDbVertex
100
AcDb2dVertex
 10
64.39915835704059
 20
-120.4055602476764
 30
0.0
  0
SEQEND
  5
9D
330
9A
100
AcDbEntity
  8
_U+30EC_U+30A4_U+30E4_U+30FC 1
 62
   179
420
  2234388
370
     9
  0
POLYLINE
  5
9E
330
1F
100
AcDbEntity
  8
_U+30EC_U+30A4_U+30E4_U+30FC 1
 62
   179
420
  2234388
370
     9
100
AcDb2dPolyline
 66
     1
 10
0.0
 20
0.0
 30
0.0
  0
VERTEX
  5
9F
330
9E
100
AcDbEntity
  8
_U+30EC_U+30A4_U+30E4_U+30FC 1
 62
   179
420
  2234388
370
     9
100
AcDbVertex
100
AcDb2dVertex
 10
77.39887802539012
 20
-148.3809438517939
 30
0.0
  0
VERTEX
  5
A0
330
9E
100
AcDbEntity
  8
_U+30EC_U+30A4_U+30E4_U+30FC 1
 62
   179
420
  2234388
370
     9
100
AcDbVertex
100
AcDb2dVertex
 10
63.39871588256401
 20
-148.3809438517939
 30
0.0
  0
SEQEND
  5
A1
330
9E
100
AcDbEntity
  8
_U+30EC_U+30A4_U+30E4_U+30FC 1
 62
   179
420
  2234388
370
     9
  0
POLYLINE
  5
A2
330
1F
100
AcDbEntity
  8
_U+30EC_U+30A4_U+30E4_U+30FC 1
 62
   179
420
  2234388
370
     9
100
AcDb2dPolyline
 66
     1
 10
0.0
 20
0.0
 30
0.0
  0
VERTEX
  5
A3
330
A2
100
AcDbEntity
  8
_U+30EC_U+30A4_U+30E4_U+30FC 1
 62
   179
420
  2234388
370
     9
100
AcDbVertex
100
AcDb2dVertex
 10
67.89903132330696
 20
-120.4055602476764
 30
0.0
  0
VERTEX
  5
A4
330
A2
100
AcDbEntity
  8
_U+30EC_U+30A4_U+30E4_U+30FC 1
 62
   179
420
  2234388
370
     9
100
AcDbVertex
100
AcDb2dVertex
 10
63.39871588256401
 20
-120.4055602476764
 30
0.0
  0
SEQEND
  5
A5
330
A2
100
AcDbEntity
  8
_U+30EC_U+30A4_U+30E4_U+30FC 1
 62
   179
420
  2234388
370
     9
  0
INSERT
  5
A7
330
1F
100
AcDbEntity
  8
_U+30EC_U+30A4_U+30E4_U+30FC 1
100
AcDbBlockReference
  2
block 6
 10
0.0
 20
0.0
 30
0.0
  0
SPLINE
  5
B0
330
1F
100
AcDbEntity
  8
_U+30EC_U+30A4_U+30E4_U+30FC 1
 62
   179
420
  2234388
370
     9
100
AcDbSpline
210
0.0
220
0.0
230
1.0
 70
    11
 71
     3
 72
    17
 73
    13
 74
     0
 42
0.0000000001
 43
0.0000000001
 12
1.0
 22
0.0
 32
0.0
 13
1.0
 23
0.0
 33
0.0
 40
0.0
 40
0.0
 40
0.0
 40
0.0
 40
1.0
 40
1.0
 40
1.0
 40
2.0
 40
2.0
 40
2.0
 40
3.0
 40
3.0
 40
3.0
 40
4.0
 40
4.0
 40
4.0
 40
4.0
 10
68.49882408578274
 20
-152.3807030174602
 30
0.0
 10
68.49882408578274
 20
-152.3255991285853
 30
0.0
 10
68.4540583162197
 20
-152.2807963508185
 30
0.0
 10
68.3989174216649
 20
-152.2807963508185
 30
0.0
 10
68.34381353418183
 20
-152.2807963508185
 30
0.0
 10
68.29901075754707
 20
-152.3255991285853
 30
0.0
 10
68.29901075754707
 20
-152.3807030174602
 30
0.0
 10
68.29901075754707
 20
-152.4358421841133
 30
0.0
 10
68.34381353418183
 20
-152.4806096841018
 30
0.0
 10
68.3989174216649
 20
-152.4806096841018
 30
0.0
 10
68.4540583162197
 20
-152.4806096841018
 30
0.0
 10
68.49882408578274
 20
-152.4358421841133
 30
0.0
 10
68.49882408578274
 20
-152.3807030174602
 30
0.0
  0
POLYLINE
  5
B1
330
1F
100
AcDbEntity
  8
_U+30EC_U+30A4_U+30E4_U+30FC 1
 62
   179
420
  2234388
370
     9
100
AcDb2dPolyline
 66
     1
 10
0.0
 20
0.0
 30
0.0
  0
VERTEX
  5
B2
330
B1
100
AcDbEntity
  8
_U+30EC_U+30A4_U+30E4_U+30FC 1
 62
   179
420
  2234388
370
     9
100
AcDbVertex
100
AcDb2dVertex
 10
68.39927019943369
 20
-152.3807030174602
 30
0.0
  0
VERTEX
  5
B3
330
B1
100
AcDbEntity
  8
_U+30EC_U+30A4_U+30E4_U+30FC 1
 62
   179
420
  2234388
370
     9
100
AcDbVertex
100
AcDb2dVertex
 10
96.399276985094
 20
-152.3807030174602
 30
0.0
  0
SEQEND
  5
B4
330
B1
100
AcDbEntity
  8
_U+30EC_U+30A4_U+30E4_U+30FC 1
 62
   179
420
  2234388
370
     9
  0
INSERT
  5
B6
330
1F
100
AcDbEntity
  8
_U+30EC_U+30A4_U+30E4_U+30FC 1
100
AcDbBlockReference
  2
block 7
 10
0.0
 20
0.0
 30
0.0
  0
INSERT
  5
BE
330
1F
100
AcDbEntity
  8
_U+30EC_U+30A4_U+30E4_U+30FC 1
100
AcDbBlockReference
  2
block 8
 10
0.0
 20
0.0
 30
0.0
  0
INSERT
  5
C6
330
1F
100
AcDbEntity
  8
_U+30EC_U+30A4_U+30E4_U+30FC 1
100
AcDbBlockReference
  2
block 9
 10
0.0
 20
0.0
 30
0.0
  0
POLYLINE
  5
CB
330
1F
100
AcDbEntity
  8
_U+30EC_U+30A4_U+30E4_U+30FC 1
 62
   179
420
  2234388
370
     9
100
AcDb2dPolyline
 66
     1
 10
0.0
 20
0.0
 30
0.0
  0
VERTEX
  5
CC
330
CB
100
AcDbEntity
  8
_U+30EC_U+30A4_U+30E4_U+30FC 1
 62
   179
420
  2234388
370
     9
100
AcDbVertex
100
AcDb2dVertex
 10
65.66869971354079
 20
-151.0781063511192
 30
0.0
  0
VERTEX
  5
CD
330
CB
100
AcDbEntity
  8
_U+30EC_U+30A4_U+30E4_U+30FC 1
 62
   179
420
  2234388
370
     9
100
AcDbVertex
100
AcDb2dVertex
 10
72.47671092874283
 20
-144.2712944083768
 30
0.0
  0
SEQEND
  5
CE
330
CB
100
AcDbEntity
  8
_U+30EC_U+30A4_U+30E4_U+30FC 1
 62
   179
420
  2234388
370
     9
  0
INSERT
  5
D0
330
1F
100
AcDbEntity
  8
_U+30EC_U+30A4_U+30E4_U+30FC 1
100
AcDbBlockReference
  2
block 10
 10
0.0
 20
0.0
 30
0.0
  0
SPLINE
  5
DA
330
1F
100
AcDbEntity
  8
_U+30EC_U+30A4_U+30E4_U+30FC 1
 62
   179
420
  2234388
370
    25
100
AcDbSpline
210
0.0
220
0.0
230
1.0
 70
    11
 71
     3
 72
    77
 73
    73
 74
     0
 42
0.0000000001
 43
0.0000000001
 12
1.0
 22
0.0
 32
0.0
 13
1.0
 23
0.0
 33
0.0
 40
0.0
 40
0.0
 40
0.0
 40
0.0
 40
1.0
 40
1.0
 40
1.0
 40
2.0
 40
2.0
 40
2.0
 40
3.0
 40
3.0
 40
3.0
 40
4.0
 40
4.0
 40
4.0
 40
5.0
 40
5.0
 40
5.0
 40
6.0
 40
6.0
 40
6.0
 40
7.0
 40
7.0
 40
7.0
 40
8.0
 40
8.0
 40
8.0
 40
9.0
 40
9.0
 40
9.0
 40
10.0
 40
10.0
 40
10.0
 40
11.0
 40
11.0
 40
11.0
 40
12.0
 40
12.0
 40
12.0
 40
13.0
 40
13.0
 40
13.0
 40
14.0
 40
14.0
 40
14.0
 40
15.0
 40
15.0
 40
15.0
 40
16.0
 40
16.0
 40
16.0
 40
17.0
 40
17.0
 40
17.0
 40
18.0
 40
18.0
 40
18.0
 40
19.0
 40
19.0
 40
19.0
 40
20.0
 40
20.0
 40
20.0
 40
21.0
 40
21.0
 40
21.0
 40
22.0
 40
22.0
 40
22.0
 40
23.0
 40
23.0
 40
23.0
 40
24.0
 40
24.0
 40
24.0
 40
24.0
 10
113.898289038657
 20
-133.8808952443075
 30
0.0
 10
113.898289038657
 20
-133.8808952443075
 30
0.0
 10
113.898289038657
 20
-132.8473621890101
 30
0.0
 10
113.898289038657
 20
-132.8473621890101
 30
0.0
 10
113.898289038657
 20
-132.8473621890101
 30
0.0
 10
83.93218331235018
 20
-132.8473621890101
 30
0.0
 10
83.93218331235018
 20
-132.8473621890101
 30
0.0
 10
83.93218331235018
 20
-132.8473621890101
 30
0.0
 10
83.93218331235018
 20
-102.8807244187243
 30
0.0
 10
83.93218331235018
 20
-102.8807244187243
 30
0.0
 10
83.93218331235018
 20
-102.8807244187243
 30
0.0
 10
82.89864816285707
 20
-102.8807244187243
 30
0.0
 10
82.89864816285707
 20
-102.8807244187243
 30
0.0
 10
82.89864816285707
 20
-102.8807244187243
 30
0.0
 10
82.89864816285707
 20
-133.1422491333809
 30
0.0
 10
82.89864816285707
 20
-133.1422491333809
 30
0.0
 10
82.89864816285707
 20
-133.1422491333809
 30
0.0
 10
73.13901591184603
 20
-142.9021991309413
 30
0.0
 10
73.13901591184603
 20
-142.9021991309413
 30
0.0
 10
70.81943331562833
 20
-140.4038269093435
 30
0.0
 10
69.3990423961496
 20
-137.0586469101795
 30
0.0
 10
69.3990423961496
 20
-133.3806563555438
 30
0.0
 10
69.3990423961496
 20
-133.3806563555438
 30
0.0
 10
69.3990423961496
 20
-121.3807085807658
 30
0.0
 10
69.3990423961496
 20
-121.3807085807658
 30
0.0
 10
69.3990423961496
 20
-121.3807085807658
 30
0.0
 10
69.89857571673876
 20
-121.3807085807658
 30
0.0
 10
69.89857571673876
 20
-121.3807085807658
 30
0.0
 10
69.89857571673876
 20
-121.3807085807658
 30
0.0
 10
69.89857571673876
 20
-120.3807599699047
 30
0.0
 10
69.89857571673876
 20
-120.3807599699047
 30
0.0
 10
69.89857571673876
 20
-120.3807599699047
 30
0.0
 10
69.3990423961496
 20
-120.3807599699047
 30
0.0
 10
69.3990423961496
 20
-120.3807599699047
 30
0.0
 10
69.3990423961496
 20
-120.3807599699047
 30
0.0
 10
68.39856464389612
 20
-121.3807085807658
 30
0.0
 10
68.39856464389612
 20
-121.3807085807658
 30
0.0
 10
68.39856464389612
 20
-121.3807085807658
 30
0.0
 10
68.39856464389612
 20
-133.3806563555438
 30
0.0
 10
68.39856464389612
 20
-133.3806563555438
 30
0.0
 10
68.39856464389612
 20
-133.3806563555438
 30
0.0
 10
68.3989174216649
 20
-133.3806563555438
 30
0.0
 10
68.3989174216649
 20
-133.3806563555438
 30
0.0
 10
68.3989174216649
 20
-141.6654307979169
 30
0.0
 10
75.11446558367034
 20
-148.3809438517939
 30
0.0
 10
83.3988870389838
 20
-148.3809438517939
 30
0.0
 10
83.3988870389838
 20
-148.3809438517939
 30
0.0
 10
95.3988345106174
 20
-148.3809438517939
 30
0.0
 10
95.3988345106174
 20
-148.3809438517939
 30
0.0
 10
95.3988345106174
 20
-148.3809438517939
 30
0.0
 10
96.399276985094
 20
-147.3808541298212
 30
0.0
 10
96.399276985094
 20
-147.3808541298212
 30
0.0
 10
96.399276985094
 20
-147.3808541298212
 30
0.0
 10
96.399276985094
 20
-146.8809680188352
 30
0.0
 10
96.399276985094
 20
-146.8809680188352
 30
0.0
 10
96.399276985094
 20
-146.8809680188352
 30
0.0
 10
95.3988345106174
 20
-146.8809680188352
 30
0.0
 10
95.3988345106174
 20
-146.8809680188352
 30
0.0
 10
95.3988345106174
 20
-146.8809680188352
 30
0.0
 10
95.3988345106174
 20
-147.3808541298212
 30
0.0
 10
95.3988345106174
 20
-147.3808541298212
 30
0.0
 10
95.3988345106174
 20
-147.3808541298212
 30
0.0
 10
83.3988870389838
 20
-147.3808541298212
 30
0.0
 10
83.3988870389838
 20
-147.3808541298212
 30
0.0
 10
79.7050215776666
 20
-147.3808541298212
 30
0.0
 10
76.34763555220954
 20
-145.9480119079575
 30
0.0
 10
73.84580617159209
 20
-143.6105416307637
 30
0.0
 10
73.84580617159209
 20
-143.6105416307637
 30
0.0
 10
83.57457036783508
 20
-133.8808952443075
 30
0.0
 10
83.57457036783508
 20
-133.8808952443075
 30
0.0
 10
83.57457036783508
 20
-133.8808952443075
 30
0.0
 10
113.898289038657
 20
-133.8808952443075
 30
0.0
 10
113.898289038657
 20
-133.8808952443075
 30
0.0
  0
HATCH
  5
DB
330
1F
100
AcDbEntity
  8
_U+30EC_U+30A4_U+30E4_U+30FC 1
 62
     9
420
 13224394
100
AcDbHatch
 10
0.0
 20
0.0
 30
0.0
210
0.0
220
0.0
230
1.0
  2
SOLID
 70
     1
 71
     0
 91
        1
 92
        1
 93
        1
 72
     4
 94
        3
 73
     0
 74
     1
 95
       77
 96
       73
 40
0.0
 40
0.0
 40
0.0
 40
0.0
 40
1.0
 40
1.0
 40
1.0
 40
2.0
 40
2.0
 40
2.0
 40
3.0
 40
3.0
 40
3.0
 40
4.0
 40
4.0
 40
4.0
 40
5.0
 40
5.0
 40
5.0
 40
6.0
 40
6.0
 40
6.0
 40
7.0
 40
7.0
 40
7.0
 40
8.0
 40
8.0
 40
8.0
 40
9.0
 40
9.0
 40
9.0
 40
10.0
 40
10.0
 40
10.0
 40
11.0
 40
11.0
 40
11.0
 40
12.0
 40
12.0
 40
12.0
 40
13.0
 40
13.0
 40
13.0
 40
14.0
 40
14.0
 40
14.0
 40
15.0
 40
15.0
 40
15.0
 40
16.0
 40
16.0
 40
16.0
 40
17.0
 40
17.0
 40
17.0
 40
18.0
 40
18.0
 40
18.0
 40
19.0
 40
19.0
 40
19.0
 40
20.0
 40
20.0
 40
20.0
 40
21.0
 40
21.0
 40
21.0
 40
22.0
 40
22.0
 40
22.0
 40
23.0
 40
23.0
 40
23.0
 40
24.0
 40
24.0
 40
24.0
 40
24.0
 10
113.898289038657
 20
-133.8808952443075
 10
113.898289038657
 20
-133.8808952443075
 10
113.898289038657
 20
-132.8473621890101
 10
113.898289038657
 20
-132.8473621890101
 10
113.898289038657
 20
-132.8473621890101
 10
83.93218331235018
 20
-132.8473621890101
 10
83.93218331235018
 20
-132.8473621890101
 10
83.93218331235018
 20
-132.8473621890101
 10
83.93218331235018
 20
-102.8807244187243
 10
83.93218331235018
 20
-102.8807244187243
 10
83.93218331235018
 20
-102.8807244187243
 10
82.89864816285707
 20
-102.8807244187243
 10
82.89864816285707
 20
-102.8807244187243
 10
82.89864816285707
 20
-102.8807244187243
 10
82.89864816285707
 20
-133.1422491333809
 10
82.89864816285707
 20
-133.1422491333809
 10
82.89864816285707
 20
-133.1422491333809
 10
73.13901591184603
 20
-142.9021991309413
 10
73.13901591184603
 20
-142.9021991309413
 10
70.81943331562833
 20
-140.4038269093435
 10
69.3990423961496
 20
-137.0586469101795
 10
69.3990423961496
 20
-133.3806563555438
 10
69.3990423961496
 20
-133.3806563555438
 10
69.3990423961496
 20
-121.3807085807658
 10
69.3990423961496
 20
-121.3807085807658
 10
69.3990423961496
 20
-121.3807085807658
 10
69.89857571673876
 20
-121.3807085807658
 10
69.89857571673876
 20
-121.3807085807658
 10
69.89857571673876
 20
-121.3807085807658
 10
69.89857571673876
 20
-120.3807599699047
 10
69.89857571673876
 20
-120.3807599699047
 10
69.89857571673876
 20
-120.3807599699047
 10
69.3990423961496
 20
-120.3807599699047
 10
69.3990423961496
 20
-120.3807599699047
 10
69.3990423961496
 20
-120.3807599699047
 10
68.39856464389612
 20
-121.3807085807658
 10
68.39856464389612
 20
-121.3807085807658
 10
68.39856464389612
 20
-121.3807085807658
 10
68.39856464389612
 20
-133.3806563555438
 10
68.39856464389612
 20
-133.3806563555438
 10
68.39856464389612
 20
-133.3806563555438
 10
68.3989174216649
 20
-133.3806563555438
 10
68.3989174216649
 20
-133.3806563555438
 10
68.3989174216649
 20
-141.6654307979169
 10
75.11446558367034
 20
-148.3809438517939
 10
83.3988870389838
 20
-148.3809438517939
 10
83.3988870389838
 20
-148.3809438517939
 10
95.3988345106174
 20
-148.3809438517939
 10
95.3988345106174
 20
-148.3809438517939
 10
95.3988345106174
 20
-148.3809438517939
 10
96.399276985094
 20
-147.3808541298212
 10
96.399276985094
 20
-147.3808541298212
 10
96.399276985094
 20
-147.3808541298212
 10
96.399276985094
 20
-146.8809680188352
 10
96.399276985094
 20
-146.8809680188352
 10
96.399276985094
 20
-146.8809680188352
 10
95.3988345106174
 20
-146.8809680188352
 10
95.3988345106174
 20
-146.8809680188352
 10
95.3988345106174
 20
-146.8809680188352
 10
95.3988345106174
 20
-147.3808541298212
 10
95.3988345106174
 20
-147.3808541298212
 10
95.3988345106174
 20
-147.3808541298212
 10
83.3988870389838
 20
-147.3808541298212
 10
83.3988870389838
 20
-147.3808541298212
 10
79.7050215776666
 20
-147.3808541298212
 10
76.34763555220954
 20
-145.9480119079575
 10
73.84580617159209
 20
-143.6105416307637
 10
73.84580617159209
 20
-143.6105416307637
 10
83.57457036783508
 20
-133.8808952443075
 10
83.57457036783508
 20
-133.8808952443075
 10
83.57457036783508
 20
-133.8808952443075
 10
113.898289038657
 20
-133.8808952443075
 10
113.898289038657
 20
-133.8808952443075
 97
        0
 97
        0
 75
     2
 76
     1
 98
        0
  0
POLYLINE
  5
DC
330
1F
100
AcDbEntity
  8
_U+30EC_U+30A4_U+30E4_U+30FC 1
 62
   179
420
  2234388
370
     9
100
AcDb2dPolyline
 66
     1
 10
0.0
 20
0.0
 30
0.0
  0
VERTEX
  5
DD
330
DC
100
AcDbEntity
  8
_U+30EC_U+30A4_U+30E4_U+30FC 1
 62
   179
420
  2234388
370
     9
100
AcDbVertex
100
AcDb2dVertex
 10
72.47671092874283
 20
-144.2712944083768
 30
0.0
  0
VERTEX
  5
DE
330
DC
100
AcDbEntity
  8
_U+30EC_U+30A4_U+30E4_U+30FC 1
 62
   179
420
  2234388
370
     9
100
AcDbVertex
100
AcDb2dVertex
 10
71.56478039645256
 20
-144.7777421860276
 30
0.0
  0
SEQEND
  5
DF
330
DC
100
AcDbEntity
  8
_U+30EC_U+30A4_U+30E4_U+30FC 1
 62
   179
420
  2234388
370
     9
  0
POLYLINE
  5
E0
330
1F
100
AcDbEntity
  8
_U+30EC_U+30A4_U+30E4_U+30FC 1
 62
   179
420
  2234388
370
     9
100
AcDb2dPolyline
 66
     1
 10
0.0
 20
0.0
 30
0.0
  0
VERTEX
  5
E1
330
E0
100
AcDbEntity
  8
_U+30EC_U+30A4_U+30E4_U+30FC 1
 62
   179
420
  2234388
370
     9
100
AcDbVertex
100
AcDb2dVertex
 10
72.47671092874283
 20
-144.2712944083768
 30
0.0
  0
VERTEX
  5
E2
330
E0
100
AcDbEntity
  8
_U+30EC_U+30A4_U+30E4_U+30FC 1
 62
   179
420
  2234388
370
     9
100
AcDbVertex
100
AcDb2dVertex
 10
71.93928927578693
 20
-145.1653038525978
 30
0.0
  0
SEQEND
  5
E3
330
E0
100
AcDbEntity
  8
_U+30EC_U+30A4_U+30E4_U+30FC 1
 62
   179
420
  2234388
370
     9
  0
ENDSEC
  0
SECTION
  2
OBJECTS
  0
DICTIONARY
  5
C
330
0
100
AcDbDictionary
281
     1
  3
ACAD_GROUP
350
D
  3
ACAD_LAYOUT
350
1A
  3
ACAD_MATERIAL
350
3B
  3
ACAD_MLEADERSTYLE
350
E5
  3
ACAD_MLINESTYLE
350
17
  3
ACAD_PLOTSETTINGS
350
19
  3
ACAD_PLOTSTYLENAME
350
E
  3
ACAD_TABLESTYLE
350
E4
  3
ACAD_VISUALSTYLE
350
2A
  0
SUN
  5
3F
330
29
100
AcDbSun
 90
        1
290
     0
 63
     7
421
 16777215
 40
1.0
291
     1
 91
  2455826
 92
 54000000
292
     0
 70
     2
 71
   256
280
     1
  0
DICTIONARY
  5
D
102
{ACAD_REACTORS
330
C
102
}
330
C
100
AcDbDictionary
281
     1
  0
DICTIONARY
  5
1A
102
{ACAD_REACTORS
330
C
102
}
330
C
100
AcDbDictionary
281
     1
  3
Layout1
350
1E
  3
Layout2
350
26
  3
Model
350
22
  0
DICTIONARY
  5
3B
102
{ACAD_REACTORS
330
C
102
}
330
C
100
AcDbDictionary
281
     1
  3
ByBlock
350
3D
  3
ByLayer
350
3C
  3
Global
350
3E
  0
DICTIONARY
  5
E5
102
{ACAD_REACTORS
330
C
102
}
330
C
100
AcDbDictionary
281
     1
  0
DICTIONARY
  5
17
102
{ACAD_REACTORS
330
C
102
}
330
C
100
AcDbDictionary
281
     1
  3
Standard
350
18
  0
DICTIONARY
  5
19
102
{ACAD_REACTORS
330
C
102
}
330
C
100
AcDbDictionary
281
     1
  0
ACDBDICTIONARYWDFLT
  5
E
102
{ACAD_REACTORS
330
C
102
}
330
C
100
AcDbDictionary
281
     1
  3
Normal
350
F
100
AcDbDictionaryWithDefault
340
F
  0
DICTIONARY
  5
E4
102
{ACAD_REACTORS
330
C
102
}
330
C
100
AcDbDictionary
281
     1
  0
DICTIONARY
  5
2A
102
{ACAD_REACTORS
330
C
102
}
330
C
100
AcDbDictionary
281
     1
  3
2dWireframe
350
2F
  3
3D Hidden
350
31
  3
3dWireframe
350
30
  3
Basic
350
32
  3
Brighten
350
36
  3
ColorChange
350
3A
  3
Conceptual
350
34
  3
Dim
350
35
  3
Facepattern
350
39
  3
Flat
350
2B
  3
FlatWithEdges
350
2C
  3
Gouraud
350
2D
  3
GouraudWithEdges
350
2E
  3
Linepattern
350
38
  3
Realistic
350
33
  3
Thicken
350
37
  0
LAYOUT
  5
1E
102
{ACAD_REACTORS
330
1A
102
}
330
1A
100
AcDbPlotSettings
  1

  2
none_device
  4

  6

 40
0.0
 41
0.0
 42
0.0
 43
0.0
 44
0.0
 45
0.0
 46
0.0
 47
0.0
 48
0.0
 49
0.0
140
0.0
141
0.0
142
1.0
143
1.0
 70
   688
 72
     0
 73
     0
 74
     5
  7

 75
    16
 76
     0
 77
     2
 78
   300
147
1.0
148
0.0
149
0.0
100
AcDbLayout
  1
Layout1
 70
     1
 71
     1
 10
0.0
 20
0.0
 11
12.0
 21
9.0
 12
0.0
 22
0.0
 32
0.0
 14
1.000000000000000E+20
 24
1.000000000000000E+20
 34
1.000000000000000E+20
 15
-1.000000000000000E+20
 25
-1.000000000000000E+20
 35
-1.000000000000000E+20
146
0.0
 13
0.0
 23
0.0
 33
0.0
 16
1.0
 26
0.0
 36
0.0
 17
0.0
 27
1.0
 37
0.0
 76
     0
330
1B
  0
LAYOUT
  5
26
102
{ACAD_REACTORS
330
1A
102
}
330
1A
100
AcDbPlotSettings
  1

  2
none_device
  4

  6

 40
0.0
 41
0.0
 42
0.0
 43
0.0
 44
0.0
 45
0.0
 46
0.0
 47
0.0
 48
0.0
 49
0.0
140
0.0
141
0.0
142
1.0
143
1.0
 70
   688
 72
     0
 73
     0
 74
     5
  7

 75
    16
 76
     0
 77
     2
 78
   300
147
1.0
148
0.0
149
0.0
100
AcDbLayout
  1
Layout2
 70
     1
 71
     2
 10
0.0
 20
0.0
 11
0.0
 21
0.0
 12
0.0
 22
0.0
 32
0.0
 14
0.0
 24
0.0
 34
0.0
 15
0.0
 25
0.0
 35
0.0
146
0.0
 13
0.0
 23
0.0
 33
0.0
 16
1.0
 26
0.0
 36
0.0
 17
0.0
 27
1.0
 37
0.0
 76
     0
330
23
  0
LAYOUT
  5
22
102
{ACAD_REACTORS
330
1A
102
}
330
1A
100
AcDbPlotSettings
  1

  2
none_device
  4

  6

 40
0.0
 41
0.0
 42
0.0
 43
0.0
 44
0.0
 45
0.0
 46
0.0
 47
0.0
 48
0.0
 49
0.0
140
0.0
141
0.0
142
1.0
143
1.0
 70
  1712
 72
     0
 73
     0
 74
     0
  7

 75
     0
 76
     0
 77
     2
 78
   300
147
1.0
148
0.0
149
0.0
100
AcDbLayout
  1
Model
 70
     1
 71
     0
 10
0.0
 20
0.0
 11
12.0
 21
9.0
 12
0.0
 22
0.0
 32
0.0
 14
1.000000000000000E+20
 24
1.000000000000000E+20
 34
1.000000000000000E+20
 15
-1.000000000000000E+20
 25
-1.000000000000000E+20
 35
-1.000000000000000E+20
146
0.0
 13
0.0
 23
0.0
 33
0.0
 16
1.0
 26
0.0
 36
0.0
 17
0.0
 27
1.0
 37
0.0
 76
     0
330
1F
331
29
  0
MATERIAL
  5
3D
102
{ACAD_REACTORS
330
3B
102
}
330
3B
100
AcDbMaterial
  1
ByBlock
 72
     1
 94
      127
  0
MATERIAL
  5
3C
102
{ACAD_REACTORS
330
3B
102
}
330
3B
100
AcDbMaterial
  1
ByLayer
 72
     1
 94
      127
  0
MATERIAL
  5
3E
102
{ACAD_REACTORS
330
3B
102
}
330
3B
100
AcDbMaterial
  1
Global
 72
     1
 94
      127
  0
MLINESTYLE
  5
18
102
{ACAD_REACTORS
330
17
102
}
330
17
100
AcDbMlineStyle
  2
Standard
 70
     0
  3

 62
   256
 51
90.0
 52
90.0
 71
     2
 49
0.5
 62
   256
  6
BYLAYER
 49
-0.5
 62
   256
  6
BYLAYER
  0
ACDBPLACEHOLDER
  5
F
102
{ACAD_REACTORS
330
E
102
}
330
E
  0
VISUALSTYLE
  5
2F
102
{ACAD_REACTORS
330
2A
102
}
330
2A
100
AcDbVisualStyle
  2
2dWireframe
 70
     4
177
     2
291
     0
 71
     0
176
     1
 72
     2
176
     1
 73
     0
176
     1
 90
        0
176
     1
 40
-0.6
176
     1
 41
-30.0
176
     1
 62
     5
 63
     7
421
 16777215
176
     1
 74
     1
176
     1
 91
        4
176
     1
 64
     7
176
     1
 65
   257
176
     1
 75
     1
176
     1
175
     1
176
     1
 42
1.0
176
     1
 92
        0
176
     1
 66
   257
176
     1
 43
1.0
176
     1
 76
     1
176
     1
 77
     6
176
     1
 78
     2
176
     1
 67
     7
176
     1
 79
     5
176
     1
170
     0
176
     1
171
     0
176
     1
290
     0
176
     1
 93
        1
176
     1
 44
0.0
176
     1
173
     0
176
     1
  0
VISUALSTYLE
  5
31
102
{ACAD_REACTORS
330
2A
102
}
330
2A
100
AcDbVisualStyle
  2
3D Hidden
 70
     6
177
     2
291
     0
 71
     1
176
     1
 72
     2
176
     1
 73
     2
176
     1
 90
        0
176
     1
 40
-0.6
176
     1
 41
-30.0
176
     1
 62
     5
 63
     7
421
 16777215
176
     1
 74
     2
176
     1
 91
        2
176
     1
 64
     7
176
     1
 65
   257
176
     1
 75
     2
176
     1
175
     1
176
     1
 42
40.0
176
     1
 92
        0
176
     1
 66
   257
176
     1
 43
1.0
176
     1
 76
     1
176
     1
 77
     6
176
     1
 78
     2
176
     1
 67
     7
176
     1
 79
     3
176
     1
170
     0
176
     1
171
     0
176
     1
290
     0
176
     1
 93
        1
176
     1
 44
0.0
176
     1
173
     0
176
     1
  0
VISUALSTYLE
  5
30
102
{ACAD_REACTORS
330
2A
102
}
330
2A
100
AcDbVisualStyle
  2
3dWireframe
 70
     5
177
     2
291
     0
 71
     0
176
     1
 72
     2
176
     1
 73
     0
176
     1
 90
        0
176
     1
 40
-0.6
176
     1
 41
-30.0
176
     1
 62
     5
 63
     7
421
 16777215
176
     1
 74
     1
176
     1
 91
        4
176
     1
 64
     7
176
     1
 65
   257
176
     1
 75
     1
176
     1
175
     1
176
     1
 42
1.0
176
     1
 92
        0
176
     1
 66
   257
176
     1
 43
1.0
176
     1
 76
     1
176
     1
 77
     6
176
     1
 78
     2
176
     1
 67
     7
176
     1
 79
     5
176
     1
170
     0
176
     1
171
     0
176
     1
290
     0
176
     1
 93
        1
176
     1
 44
0.0
176
     1
173
     0
176
     1
  0
VISUALSTYLE
  5
32
102
{ACAD_REACTORS
330
2A
102
}
330
2A
100
AcDbVisualStyle
  2
Basic
 70
     7
177
     2
291
     1
 71
     1
176
     1
 72
     0
176
     1
 73
     1
176
     1
 90
        0
176
     1
 40
-0.6
176
     1
 41
-30.0
176
     1
 62
     5
 63
     7
421
 16777215
176
     1
 74
     0
176
     1
 91
        4
176
     1
 64
     7
176
     1
 65
   257
176
     1
 75
     1
176
     1
175
     1
176
     1
 42
1.0
176
     1
 92
        8
176
     1
 66
     7
176
     1
 43
1.0
176
     1
 76
     1
176
     1
 77
     6
176
     1
 78
     2
176
     1
 67
     7
176
     1
 79
     5
176
     1
170
     0
176
     1
171
     0
176
     1
290
     0
176
     1
 93
        1
176
     1
 44
0.0
176
     1
173
     0
176
     1
  0
VISUALSTYLE
  5
36
102
{ACAD_REACTORS
330
2A
102
}
330
2A
100
AcDbVisualStyle
  2
Brighten
 70
    12
177
     2
291
     1
 71
     2
176
     1
 72
     2
176
     1
 73
     0
176
     1
 90
        0
176
     1
 40
-0.6
176
     1
 41
-30.0
176
     1
 62
     5
 63
     7
421
 16777215
176
     1
 74
     1
176
     1
 91
        4
176
     1
 64
     7
176
     1
 65
   257
176
     1
 75
     1
176
     1
175
     1
176
     1
 42
1.0
176
     1
 92
        8
176
     1
 66
     7
176
     1
 43
1.0
176
     1
 76
     1
176
     1
 77
     6
176
     1
 78
     2
176
     1
 67
     7
176
     1
 79
     5
176
     1
170
     0
176
     1
171
     0
176
     1
290
     0
176
     1
 93
        1
176
     1
 44
50.0
176
     1
173
     0
176
     1
  0
VISUALSTYLE
  5
3A
102
{ACAD_REACTORS
330
2A
102
}
330
2A
100
AcDbVisualStyle
  2
ColorChange
 70
    16
177
     2
291
     1
 71
     2
176
     1
 72
     2
176
     1
 73
     3
176
     1
 90
        0
176
     1
 40
-0.6
176
     1
 41
-30.0
176
     1
 62
     5
 63
     8
421
  8421504
176
     1
 74
     1
176
     1
 91
        4
176
     1
 64
     7
176
     1
 65
   257
176
     1
 75
     1
176
     1
175
     1
176
     1
 42
1.0
176
     1
 92
        8
176
     1
 66
     8
424
  8421504
176
     1
 43
1.0
176
     1
 76
     1
176
     1
 77
     6
176
     1
 78
     2
176
     1
 67
     7
176
     1
 79
     5
176
     1
170
     0
176
     1
171
     0
176
     1
290
     0
176
     1
 93
        1
176
     1
 44
0.0
176
     1
173
     0
176
     1
  0
VISUALSTYLE
  5
34
102
{ACAD_REACTORS
330
2A
102
}
330
2A
100
AcDbVisualStyle
  2
Conceptual
 70
     9
177
     2
291
     0
 71
     3
176
     1
 72
     2
176
     1
 73
     0
176
     1
 90
        0
176
     1
 40
-0.6
176
     1
 41
-30.0
176
     1
 62
     5
 63
     7
421
 16777215
176
     1
 74
     2
176
     1
 91
        2
176
     1
 64
     7
176
     1
 65
   257
176
     1
 75
     1
176
     1
175
     1
176
     1
 42
40.0
176
     1
 92
        8
176
     1
 66
     7
176
     1
 43
1.0
176
     1
 76
     1
176
     1
 77
     6
176
     1
 78
     2
176
     1
 67
     7
176
     1
 79
     3
176
     1
170
     0
176
     1
171
     0
176
     1
290
     0
176
     1
 93
        1
176
     1
 44
0.0
176
     1
173
     0
176
     1
  0
VISUALSTYLE
  5
35
102
{ACAD_REACTORS
330
2A
102
}
330
2A
100
AcDbVisualStyle
  2
Dim
 70
    11
177
     2
291
     1
 71
     2
176
     1
 72
     2
176
     1
 73
     0
176
     1
 90
        0
176
     1
 40
-0.6
176
     1
 41
-30.0
176
     1
 62
     5
 63
     7
421
 16777215
176
     1
 74
     1
176
     1
 91
        4
176
     1
 64
     7
176
     1
 65
   257
176
     1
 75
     1
176
     1
175
     1
176
     1
 42
1.0
176
     1
 92
        8
176
     1
 66
     7
176
     1
 43
1.0
176
     1
 76
     1
176
     1
 77
     6
176
     1
 78
     2
176
     1
 67
     7
176
     1
 79
     5
176
     1
170
     0
176
     1
171
     0
176
     1
290
     0
176
     1
 93
        1
176
     1
 44
-50.0
176
     1
173
     0
176
     1
  0
VISUALSTYLE
  5
39
102
{ACAD_REACTORS
330
2A
102
}
330
2A
100
AcDbVisualStyle
  2
Facepattern
 70
    15
177
     2
291
     1
 71
     2
176
     1
 72
     2
176
     1
 73
     0
176
     1
 90
        0
176
     1
 40
-0.6
176
     1
 41
-30.0
176
     1
 62
     5
 63
     7
421
 16777215
176
     1
 74
     1
176
     1
 91
        4
176
     1
 64
     7
176
     1
 65
   257
176
     1
 75
     1
176
     1
175
     1
176
     1
 42
1.0
176
     1
 92
        8
176
     1
 66
     7
176
     1
 43
1.0
176
     1
 76
     1
176
     1
 77
     6
176
     1
 78
     2
176
     1
 67
     7
176
     1
 79
     5
176
     1
170
     0
176
     1
171
     0
176
     1
290
     0
176
     1
 93
        1
176
     1
 44
0.0
176
     1
173
     0
176
     1
  0
VISUALSTYLE
  5
2B
102
{ACAD_REACTORS
330
2A
102
}
330
2A
100
AcDbVisualStyle
  2
Flat
 70
     0
177
     2
291
     1
 71
     2
176
     1
 72
     1
176
     1
 73
     1
176
     1
 90
        2
176
     1
 40
-0.6
176
     1
 41
30.0
176
     1
 62
     5
 63
     7
421
 16777215
176
     1
 74
     0
176
     1
 91
        4
176
     1
 64
     7
176
     1
 65
   257
176
     1
 75
     1
176
     1
175
     1
176
     1
 42
1.0
176
     1
 92
        8
176
     1
 66
     7
176
     1
 43
1.0
176
     1
 76
     1
176
     1
 77
     6
176
     1
 78
     2
176
     1
 67
     7
176
     1
 79
     5
176
     1
170
     0
176
     1
171
     0
176
     1
290
     0
176
     1
 93
       13
176
     1
 44
0.0
176
     1
173
     0
176
     1
  0
VISUALSTYLE
  5
2C
102
{ACAD_REACTORS
330
2A
102
}
330
2A
100
AcDbVisualStyle
  2
FlatWithEdges
 70
     1
177
     2
291
     1
 71
     2
176
     1
 72
     1
176
     1
 73
     1
176
     1
 90
        2
176
     1
 40
-0.6
176
     1
 41
30.0
176
     1
 62
     5
 63
     7
421
 16777215
176
     1
 74
     1
176
     1
 91
        4
176
     1
 64
     7
176
     1
 65
   257
176
     1
 75
     1
176
     1
175
     1
176
     1
 42
1.0
176
     1
 92
        0
176
     1
 66
   257
176
     1
 43
1.0
176
     1
 76
     1
176
     1
 77
     6
176
     1
 78
     2
176
     1
 67
     7
176
     1
 79
     5
176
     1
170
     0
176
     1
171
     0
176
     1
290
     0
176
     1
 93
       13
176
     1
 44
0.0
176
     1
173
     0
176
     1
  0
VISUALSTYLE
  5
2D
102
{ACAD_REACTORS
330
2A
102
}
330
2A
100
AcDbVisualStyle
  2
Gouraud
 70
     2
177
     2
291
     1
 71
     2
176
     1
 72
     2
176
     1
 73
     1
176
     1
 90
        2
176
     1
 40
-0.6
176
     1
 41
30.0
176
     1
 62
     5
 63
     7
421
 16777215
176
     1
 74
     0
176
     1
 91
        4
176
     1
 64
     7
176
     1
 65
   257
176
     1
 75
     1
176
     1
175
     1
176
     1
 42
1.0
176
     1
 92
        0
176
     1
 66
     7
176
     1
 43
1.0
176
     1
 76
     1
176
     1
 77
     6
176
     1
 78
     2
176
     1
 67
     7
176
     1
 79
     5
176
     1
170
     0
176
     1
171
     0
176
     1
290
     0
176
     1
 93
       13
176
     1
 44
0.0
176
     1
173
     0
176
     1
  0
VISUALSTYLE
  5
2E
102
{ACAD_REACTORS
330
2A
102
}
330
2A
100
AcDbVisualStyle
  2
GouraudWithEdges
 70
     3
177
     2
291
     1
 71
     2
176
     1
 72
     2
176
     1
 73
     1
176
     1
 90
        2
176
     1
 40
-0.6
176
     1
 41
30.0
176
     1
 62
     5
 63
     7
421
 16777215
176
     1
 74
     1
176
     1
 91
        4
176
     1
 64
     7
176
     1
 65
   257
176
     1
 75
     1
176
     1
175
     1
176
     1
 42
1.0
176
     1
 92
        0
176
     1
 66
   257
176
     1
 43
1.0
176
     1
 76
     1
176
     1
 77
     6
176
     1
 78
     2
176
     1
 67
     7
176
     1
 79
     5
176
     1
170
     0
176
     1
171
     0
176
     1
290
     0
176
     1
 93
       13
176
     1
 44
0.0
176
     1
173
     0
176
     1
  0
VISUALSTYLE
  5
38
102
{ACAD_REACTORS
330
2A
102
}
330
2A
100
AcDbVisualStyle
  2
Linepattern
 70
    14
177
     2
291
     1
 71
     2
176
     1
 72
     2
176
     1
 73
     0
176
     1
 90
        0
176
     1
 40
-0.6
176
     1
 41
-30.0
176
     1
 62
     5
 63
     7
421
 16777215
176
     1
 74
     1
176
     1
 91
        4
176
     1
 64
     7
176
     1
 65
   257
176
     1
 75
     7
176
     1
175
     7
176
     1
 42
1.0
176
     1
 92
        8
176
     1
 66
     7
176
     1
 43
1.0
176
     1
 76
     1
176
     1
 77
     6
176
     1
 78
     2
176
     1
 67
     7
176
     1
 79
     5
176
     1
170
     0
176
     1
171
     0
176
     1
290
     0
176
     1
 93
        1
176
     1
 44
0.0
176
     1
173
     0
176
     1
  0
VISUALSTYLE
  5
33
102
{ACAD_REACTORS
330
2A
102
}
330
2A
100
AcDbVisualStyle
  2
Realistic
 70
     8
177
     2
291
     0
 71
     2
176
     1
 72
     2
176
     1
 73
     0
176
     1
 90
        0
176
     1
 40
-0.6
176
     1
 41
-30.0
176
     1
 62
     5
 63
     7
421
 16777215
176
     1
 74
     1
176
     1
 91
        0
176
     1
 64
     7
176
     1
 65
   257
176
     1
 75
     1
176
     1
175
     1
176
     1
 42
1.0
176
     1
 92
        8
176
     1
 66
     8
424
  7895160
176
     1
 43
1.0
176
     1
 76
     1
176
     1
 77
     6
176
     1
 78
     2
176
     1
 67
     7
176
     1
 79
     5
176
     1
170
     0
176
     1
171
     0
176
     1
290
     0
176
     1
 93
       13
176
     1
 44
0.0
176
     1
173
     0
176
     1
  0
VISUALSTYLE
  5
37
102
{ACAD_REACTORS
330
2A
102
}
330
2A
100
AcDbVisualStyle
  2
Thicken
 70
    13
177
     2
291
     1
 71
     2
176
     1
 72
     2
176
     1
 73
     0
176
     1
 90
        0
176
     1
 40
-0.6
176
     1
 41
-30.0
176
     1
 62
     5
 63
     7
421
 16777215
176
     1
 74
     1
176
     1
 91
        4
176
     1
 64
     7
176
     1
 65
   257
176
     1
 75
     1
176
     1
175
     1
176
     1
 42
1.0
176
     1
 92
       12
176
     1
 66
     7
176
     1
 43
1.0
176
     1
 76
     1
176
     1
 77
     6
176
     1
 78
     2
176
     1
 67
     7
176
     1
 79
     5
176
     1
170
     0
176
     1
171
     0
176
     1
290
     0
176
     1
 93
        1
176
     1
 44
0.0
176
     1
173
     0
176
     1
  0
ENDSEC
  0
EOF
