  0
SECTION
  2
HEADER
  9
$ACADVER
  1
AC1024
  9
$ACADMAINTVER
 70
     6
  9
$DWGCODEPAGE
  3
UNDEFINED
  9
$INSBASE
 10
0.0
 20
0.0
 30
0.0
  9
$EXTMIN
 10
1.000000000000000E+20
 20
1.000000000000000E+20
 30
1.000000000000000E+20
  9
$EXTMAX
 10
-1.000000000000000E+20
 20
-1.000000000000000E+20
 30
-1.000000000000000E+20
  9
$LIMMIN
 10
0.0
 20
0.0
  9
$LIMMAX
 10
12.0
 20
9.0
  9
$ORTHOMODE
 70
     0
  9
$REGENMODE
 70
     1
  9
$FILLMODE
 70
     1
  9
$QTEXTMODE
 70
     0
  9
$MIRRTEXT
 70
     1
  9
$LTSCALE
 40
1.0
  9
$ATTMODE
 70
     1
  9
$TEXTSIZE
 40
0.2
  9
$TRACEWID
 40
0.05
  9
$TEXTSTYLE
  7
Standard
  9
$CLAYER
  8
0
  9
$CELTYPE
  6
ByLayer
  9
$CECOLOR
 62
   256
  9
$CELTSCALE
 40
1.0
  9
$DISPSILH
 70
     0
  9
$DIMSCALE
 40
1.0
  9
$DIMASZ
 40
0.18
  9
$DIMEXO
 40
0.0625
  9
$DIMDLI
 40
0.38
  9
$DIMRND
 40
0.0
  9
$DIMDLE
 40
0.0
  9
$DIMEXE
 40
0.18
  9
$DIMTP
 40
0.0
  9
$DIMTM
 40
0.0
  9
$DIMTXT
 40
0.18
  9
$DIMCEN
 40
0.09
  9
$DIMTSZ
 40
0.0
  9
$DIMTOL
 70
     0
  9
$DIMLIM
 70
     0
  9
$DIMTIH
 70
     1
  9
$DIMTOH
 70
     1
  9
$DIMSE1
 70
     0
  9
$DIMSE2
 70
     0
  9
$DIMTAD
 70
     0
  9
$DIMZIN
 70
     0
  9
$DIMBLK
  1

  9
$DIMASO
 70
     1
  9
$DIMSHO
 70
     1
  9
$DIMPOST
  1

  9
$DIMAPOST
  1

  9
$DIMALT
 70
     0
  9
$DIMALTD
 70
     2
  9
$DIMALTF
 40
25.4
  9
$DIMLFAC
 40
1.0
  9
$DIMTOFL
 70
     0
  9
$DIMTVP
 40
0.0
  9
$DIMTIX
 70
     0
  9
$DIMSOXD
 70
     0
  9
$DIMSAH
 70
     0
  9
$DIMBLK1
  1

  9
$DIMBLK2
  1

  9
$DIMSTYLE
  2
Standard
  9
$DIMCLRD
 70
     0
  9
$DIMCLRE
 70
     0
  9
$DIMCLRT
 70
     0
  9
$DIMTFAC
 40
1.0
  9
$DIMGAP
 40
0.09
  9
$DIMJUST
 70
     0
  9
$DIMSD1
 70
     0
  9
$DIMSD2
 70
     0
  9
$DIMTOLJ
 70
     1
  9
$DIMTZIN
 70
     0
  9
$DIMALTZ
 70
     0
  9
$DIMALTTZ
 70
     0
  9
$DIMUPT
 70
     0
  9
$DIMDEC
 70
     4
  9
$DIMTDEC
 70
     4
  9
$DIMALTU
 70
     2
  9
$DIMALTTD
 70
     2
  9
$DIMTXSTY
  7
Standard
  9
$DIMAUNIT
 70
     0
  9
$DIMADEC
 70
     0
  9
$DIMALTRND
 40
0.0
  9
$DIMAZIN
 70
     0
  9
$DIMDSEP
 70
    46
  9
$DIMATFIT
 70
     3
  9
$DIMFRAC
 70
     0
  9
$DIMLDRBLK
  1

  9
$DIMLUNIT
 70
     2
  9
$DIMLWD
 70
    -2
  9
$DIMLWE
 70
    -2
  9
$DIMTMOVE
 70
     0
  9
$DIMFXL
 40
1.0
  9
$DIMFXLON
 70
     0
  9
$DIMJOGANG
 40
0.7853981633974483
  9
$DIMTFILL
 70
     0
  9
$DIMTFILLCLR
 70
     0
  9
$DIMARCSYM
 70
     0
  9
$DIMLTYPE
  6

  9
$DIMLTEX1
  6

  9
$DIMLTEX2
  6

  9
$DIMTXTDIRECTION
 70
     0
  9
$LUNITS
 70
     2
  9
$LUPREC
 70
     4
  9
$SKETCHINC
 40
0.1
  9
$FILLETRAD
 40
0.5
  9
$AUNITS
 70
     0
  9
$AUPREC
 70
     0
  9
$MENU
  1
.
  9
$ELEVATION
 40
0.0
  9
$PELEVATION
 40
0.0
  9
$THICKNESS
 40
0.0
  9
$LIMCHECK
 70
     0
  9
$CHAMFERA
 40
0.5
  9
$CHAMFERB
 40
0.5
  9
$CHAMFERC
 40
1.0
  9
$CHAMFERD
 40
0.0
  9
$SKPOLY
 70
     0
  9
$TDCREATE
 40
2457917.620266204
  9
$TDUCREATE
 40
2457917.245266204
  9
$TDUPDATE
 40
2457917.620266204
  9
$TDUUPDATE
 40
2457917.245266204
  9
$TDINDWG
 40
0.0000000116
  9
$TDUSRTIMER
 40
0.0000000116
  9
$USRTIMER
 70
     1
  9
$ANGBASE
 50
0.0
  9
$ANGDIR
 70
     0
  9
$PDMODE
 70
     0
  9
$PDSIZE
 40
0.0
  9
$PLINEWID
 40
0.0
  9
$SPLFRAME
 70
     0
  9
$SPLINETYPE
 70
     6
  9
$SPLINESEGS
 70
     8
  9
$HANDSEED
  5
E7
  9
$SURFTAB1
 70
     6
  9
$SURFTAB2
 70
     6
  9
$SURFTYPE
 70
     6
  9
$SURFU
 70
     6
  9
$SURFV
 70
     6
  9
$UCSBASE
  2

  9
$UCSNAME
  2

  9
$UCSORG
 10
0.0
 20
0.0
 30
0.0
  9
$UCSXDIR
 10
1.0
 20
0.0
 30
0.0
  9
$UCSYDIR
 10
0.0
 20
1.0
 30
0.0
  9
$UCSORTHOREF
  2

  9
$UCSORTHOVIEW
 70
     0
  9
$UCSORGTOP
 10
0.0
 20
0.0
 30
0.0
  9
$UCSORGBOTTOM
 10
0.0
 20
0.0
 30
0.0
  9
$UCSORGLEFT
 10
0.0
 20
0.0
 30
0.0
  9
$UCSORGRIGHT
 10
0.0
 20
0.0
 30
0.0
  9
$UCSORGFRONT
 10
0.0
 20
0.0
 30
0.0
  9
$UCSORGBACK
 10
0.0
 20
0.0
 30
0.0
  9
$PUCSBASE
  2

  9
$PUCSNAME
  2

  9
$PUCSORG
 10
0.0
 20
0.0
 30
0.0
  9
$PUCSXDIR
 10
1.0
 20
0.0
 30
0.0
  9
$PUCSYDIR
 10
0.0
 20
1.0
 30
0.0
  9
$PUCSORTHOREF
  2

  9
$PUCSORTHOVIEW
 70
     0
  9
$PUCSORGTOP
 10
0.0
 20
0.0
 30
0.0
  9
$PUCSORGBOTTOM
 10
0.0
 20
0.0
 30
0.0
  9
$PUCSORGLEFT
 10
0.0
 20
0.0
 30
0.0
  9
$PUCSORGRIGHT
 10
0.0
 20
0.0
 30
0.0
  9
$PUCSORGFRONT
 10
0.0
 20
0.0
 30
0.0
  9
$PUCSORGBACK
 10
0.0
 20
0.0
 30
0.0
  9
$USERI1
 70
     0
  9
$USERI2
 70
     0
  9
$USERI3
 70
     0
  9
$USERI4
 70
     0
  9
$USERI5
 70
     0
  9
$USERR1
 40
0.0
  9
$USERR2
 40
0.0
  9
$USERR3
 40
0.0
  9
$USERR4
 40
0.0
  9
$USERR5
 40
0.0
  9
$WORLDVIEW
 70
     1
  9
$SHADEDGE
 70
     3
  9
$SHADEDIF
 70
    70
  9
$TILEMODE
 70
     1
  9
$MAXACTVP
 70
    64
  9
$PINSBASE
 10
0.0
 20
0.0
 30
0.0
  9
$PLIMCHECK
 70
     0
  9
$PEXTMIN
 10
1.000000000000000E+20
 20
1.000000000000000E+20
 30
1.000000000000000E+20
  9
$PEXTMAX
 10
-1.000000000000000E+20
 20
-1.000000000000000E+20
 30
-1.000000000000000E+20
  9
$PLIMMIN
 10
0.0
 20
0.0
  9
$PLIMMAX
 10
12.0
 20
9.0
  9
$UNITMODE
 70
     0
  9
$VISRETAIN
 70
     1
  9
$PLINEGEN
 70
     0
  9
$PSLTSCALE
 70
     1
  9
$TREEDEPTH
 70
  3020
  9
$CMLSTYLE
  2
Standard
  9
$CMLJUST
 70
     0
  9
$CMLSCALE
 40
1.0
  9
$PROXYGRAPHICS
 70
     1
  9
$MEASUREMENT
 70
     0
  9
$CELWEIGHT
370
    -1
  9
$ENDCAPS
280
     0
  9
$JOINSTYLE
280
     0
  9
$LWDISPLAY
290
     1
  9
$INSUNITS
 70
     1
  9
$HYPERLINKBASE
  1

  9
$STYLESHEET
  1

  9
$XEDIT
290
     1
  9
$CEPSNTYPE
380
     0
  9
$PSTYLEMODE
290
     1
  9
$FINGERPRINTGUID
  2
{C2B7C2AB-8CCF-7E2F-C323-62258B062D6D}
  9
$VERSIONGUID
  2
{FAEB1C32-E019-11D5-929B-00C0DF256EC4}
  9
$EXTNAMES
290
     1
  9
$PSVPSCALE
 40
0.0
  9
$OLESTARTUP
290
     0
  9
$SORTENTS
280
   127
  9
$INDEXCTL
280
     0
  9
$HIDETEXT
280
     1
  9
$XCLIPFRAME
280
     2
  9
$HALOGAP
280
     0
  9
$OBSCOLOR
 70
   257
  9
$OBSLTYPE
280
     0
  9
$INTERSECTIONDISPLAY
280
     0
  9
$INTERSECTIONCOLOR
 70
   257
  9
$DIMASSOC
280
     2
  9
$PROJECTNAME
  1

  9
$CAMERADISPLAY
290
     0
  9
$LENSLENGTH
 40
50.0
  9
$CAMERAHEIGHT
 40
0.0
  9
$STEPSPERSEC
 40
2.0
  9
$STEPSIZE
 40
6.0
  9
$3DDWFPREC
 40
2.0
  9
$PSOLWIDTH
 40
0.25
  9
$PSOLHEIGHT
 40
4.0
  9
$LOFTANG1
 40
1.570796326794897
  9
$LOFTANG2
 40
1.570796326794897
  9
$LOFTMAG1
 40
0.0
  9
$LOFTMAG2
 40
0.0
  9
$LOFTPARAM
 70
     7
  9
$LOFTNORMALS
280
     1
  9
$LATITUDE
 40
37.795
  9
$LONGITUDE
 40
-122.394
  9
$NORTHDIRECTION
 40
0.0
  9
$TIMEZONE
 70
 -8000
  9
$LIGHTGLYPHDISPLAY
280
     1
  9
$TILEMODELIGHTSYNCH
280
     1
  9
$CMATERIAL
347
3C
  9
$SOLIDHIST
280
     1
  9
$SHOWHIST
280
     1
  9
$DWFFRAME
280
     2
  9
$DGNFRAME
280
     2
  9
$REALWORLDSCALE
290
     1
  9
$INTERFERECOLOR
 62
   256
  9
$CSHADOW
280
     0
  9
$SHADOWPLANELOCATION
 40
0.0
  0
ENDSEC
  0
SECTION
  2
CLASSES
  0
CLASS
  1
ACDBDICTIONARYWDFLT
  2
AcDbDictionaryWithDefault
  3
ObjectDBX Classes
 90
        0
 91
        4
280
     0
281
     0
  0
CLASS
  1
VISUALSTYLE
  2
AcDbVisualStyle
  3
ObjectDBX Classes
 90
     4095
 91
        4
280
     0
281
     0
  0
CLASS
  1
MATERIAL
  2
AcDbMaterial
  3
ObjectDBX Classes
 90
     1153
 91
        4
280
     0
281
     0
  0
CLASS
  1
SUN
  2
AcDbSun
  3
SCENEOE
 90
     1024
 91
        4
280
     0
281
     0
  0
ENDSEC
  0
SECTION
  2
TABLES
  0
TABLE
  2
VPORT
  5
8
330
0
100
AcDbSymbolTable
 70
     1
  0
VPORT
  5
29
330
8
100
AcDbSymbolTableRecord
100
AcDbViewportTableRecord
  2
*Active
 70
     0
 10
0.0
 20
0.0
 11
1.0
 21
1.0
 12
0.0
 22
0.0
 13
0.0
 23
0.0
 14
0.5
 24
0.5
 15
0.5
 25
0.5
 16
0.0
 26
0.0
 36
1.0
 17
91.00082462281999
 27
-128.4993055234307
 37
0.0
 40
256.9986110468615
 41
0.7081814508812795
 42
50.0
 43
0.0
 44
0.0
 50
0.0
 51
0.0
 71
     0
 72
   100
 73
     1
 74
     3
 75
     0
 76
     0
 77
     0
 78
     0
281
     0
 65
     1
110
0.0
120
0.0
130
0.0
111
1.0
121
0.0
131
0.0
112
0.0
122
1.0
132
0.0
 79
     0
146
0.0
 60
     3
 61
     5
292
     1
282
     1
141
0.0
142
0.0
 63
   250
361
3F
  0
ENDTAB
  0
TABLE
  2
LTYPE
  5
5
330
0
100
AcDbSymbolTable
 70
     1
  0
LTYPE
  5
14
330
5
100
AcDbSymbolTableRecord
100
AcDbLinetypeTableRecord
  2
ByBlock
 70
     0
  3

 72
    65
 73
     0
 40
0.0
  0
LTYPE
  5
15
330
5
100
AcDbSymbolTableRecord
100
AcDbLinetypeTableRecord
  2
ByLayer
 70
     0
  3

 72
    65
 73
     0
 40
0.0
  0
LTYPE
  5
16
330
5
100
AcDbSymbolTableRecord
100
AcDbLinetypeTableRecord
  2
Continuous
 70
     0
  3
Solid line
 72
    65
 73
     0
 40
0.0
  0
ENDTAB
  0
TABLE
  2
LAYER
  5
2
330
0
100
AcDbSymbolTable
 70
     2
  0
LAYER
  5
10
330
2
100
AcDbSymbolTableRecord
100
AcDbLayerTableRecord
  2
0
 70
     0
 62
     7
  6
Continuous
370
    -3
390
F
347
3E
  0
LAYER
  5
40
330
2
100
AcDbSymbolTableRecord
100
AcDbLayerTableRecord
  2
_U+30EC_U+30A4_U+30E4_U+30FC 1
 70
     0
 62
     7
  6
Continuous
370
    -3
390
F
347
3E
  0
ENDTAB
  0
TABLE
  2
STYLE
  5
3
330
0
100
AcDbSymbolTable
 70
     1
  0
STYLE
  5
11
330
3
100
AcDbSymbolTableRecord
100
AcDbTextStyleTableRecord
  2
Standard
 70
     0
 40
0.0
 41
1.0
 50
0.0
 71
     0
 42
0.2
  3
txt
  4

  0
ENDTAB
  0
TABLE
  2
VIEW
  5
6
330
0
100
AcDbSymbolTable
 70
     0
  0
ENDTAB
  0
TABLE
  2
UCS
  5
7
330
0
100
AcDbSymbolTable
 70
     0
  0
ENDTAB
  0
TABLE
  2
APPID
  5
9
330
0
100
AcDbSymbolTable
 70
     1
  0
APPID
  5
12
330
9
100
AcDbSymbolTableRecord
100
AcDbRegAppTableRecord
  2
ACAD
 70
     0
  0
ENDTAB
  0
TABLE
  2
DIMSTYLE
  5
A
330
0
100
AcDbSymbolTable
 70
     1
100
AcDbDimStyleTable
  0
DIMSTYLE
105
27
330
A
100
AcDbSymbolTableRecord
100
AcDbDimStyleTableRecord
  2
Standard
 70
     0
178
     0
340
11
  0
ENDTAB
  0
TABLE
  2
BLOCK_RECORD
  5
1
330
0
100
AcDbSymbolTable
 70
    10
  0
BLOCK_RECORD
  5
1F
330
1
100
AcDbSymbolTableRecord
100
AcDbBlockTableRecord
  2
*Model_Space
340
22
 70
     0
280
     1
281
     0
  0
BLOCK_RECORD
  5
1B
330
1
100
AcDbSymbolTableRecord
100
AcDbBlockTableRecord
  2
*Paper_Space
340
1E
 70
     0
280
     1
281
     0
  0
BLOCK_RECORD
  5
23
330
1
100
AcDbSymbolTableRecord
100
AcDbBlockTableRecord
  2
*Paper_Space0
340
26
 70
     0
280
     1
281
     0
  0
BLOCK_RECORD
  5
71
330
1
100
AcDbSymbolTableRecord
100
AcDbBlockTableRecord
  2
block 2
340
0
102
{BLKREFS
331
72
102
}
 70
     0
280
     1
281
     0
  0
BLOCK_RECORD
  5
7A
330
1
100
AcDbSymbolTableRecord
100
AcDbBlockTableRecord
  2
block 3
340
0
102
{BLKREFS
331
7B
102
}
 70
     0
280
     1
281
     0
  0
BLOCK_RECORD
  5
80
330
1
100
AcDbSymbolTableRecord
100
AcDbBlockTableRecord
  2
block 4
340
0
102
{BLKREFS
331
81
102
}
 70
     0
280
     1
281
     0
  0
BLOCK_RECORD
  5
89
330
1
100
AcDbSymbolTableRecord
100
AcDbBlockTableRecord
  2
block 5
340
0
102
{BLKREFS
331
8A
102
}
 70
     0
280
     1
281
     0
  0
BLOCK_RECORD
  5
A7
330
1
100
AcDbSymbolTableRecord
100
AcDbBlockTableRecord
  2
block 6
340
0
102
{BLKREFS
331
A8
102
}
 70
     0
280
     1
281
     0
  0
BLOCK_RECORD
  5
B6
330
1
100
AcDbSymbolTableRecord
100
AcDbBlockTableRecord
  2
block 7
340
0
102
{BLKREFS
331
B7
102
}
 70
     0
280
     1
281
     0
  0
BLOCK_RECORD
  5
BE
330
1
100
AcDbSymbolTableRecord
100
AcDbBlockTableRecord
  2
block 8
340
0
102
{BLKREFS
331
BF
102
}
 70
     0
280
     1
281
     0
  0
BLOCK_RECORD
  5
C6
330
1
100
AcDbSymbolTableRecord
100
AcDbBlockTableRecord
  2
block 9
340
0
102
{BLKREFS
331
C7
102
}
 70
     0
280
     1
281
     0
  0
BLOCK_RECORD
  5
CE
330
1
100
AcDbSymbolTableRecord
100
AcDbBlockTableRecord
  2
block 10
340
0
102
{BLKREFS
331
CF
102
}
 70
     0
280
     1
281
     0
  0
ENDTAB
  0
ENDSEC
  0
SECTION
  2
BLOCKS
  0
BLOCK
  5
20
330
1F
100
AcDbEntity
  8
0
100
AcDbBlockBegin
  2
*Model_Space
 70
     0
 10
0.0
 20
0.0
 30
0.0
  3
*Model_Space
  1

  0
ENDBLK
  5
21
330
1F
100
AcDbEntity
  8
0
100
AcDbBlockEnd
  0
BLOCK
  5
1C
330
1B
100
AcDbEntity
 67
     1
  8
0
100
AcDbBlockBegin
  2
*Paper_Space
 70
     0
 10
0.0
 20
0.0
 30
0.0
  3
*Paper_Space
  1

  0
ENDBLK
  5
1D
330
1B
100
AcDbEntity
 67
     1
  8
0
100
AcDbBlockEnd
  0
BLOCK
  5
24
330
23
100
AcDbEntity
  8
0
100
AcDbBlockBegin
  2
*Paper_Space0
 70
     0
 10
0.0
 20
0.0
 30
0.0
  3
*Paper_Space0
  1

  0
ENDBLK
  5
25
330
23
100
AcDbEntity
  8
0
100
AcDbBlockEnd
  0
BLOCK
  5
73
330
71
100
AcDbEntity
  8
0
100
AcDbBlockBegin
  2
block 2
 70
     0
 10
0.0
 20
0.0
 30
0.0
  3
block 2
  1

  0
SPLINE
  5
75
330
71
100
AcDbEntity
  8
_U+30EC_U+30A4_U+30E4_U+30FC 1
370
     0
100
AcDbSpline
210
0.0
220
0.0
230
1.0
 70
    11
 71
     3
 72
    26
 73
    22
 74
     0
 42
0.0000000001
 43
0.0000000001
 12
1.0
 22
0.0
 32
0.0
 13
1.0
 23
0.0
 33
0.0
 40
0.0
 40
0.0
 40
0.0
 40
0.0
 40
1.0
 40
1.0
 40
1.0
 40
2.0
 40
2.0
 40
2.0
 40
3.0
 40
3.0
 40
3.0
 40
4.0
 40
4.0
 40
4.0
 40
5.0
 40
5.0
 40
5.0
 40
6.0
 40
6.0
 40
6.0
 40
7.0
 40
7.0
 40
7.0
 40
7.0
 10
117.7468180044175
 20
-141.2599392007961
 30
0.0
 10
117.7468180044175
 20
-141.2599392007961
 30
0.0
 10
116.6426649013949
 20
-141.2599392007961
 30
0.0
 10
116.6426649013949
 20
-141.2599392007961
 30
0.0
 10
116.6426649013949
 20
-141.2599392007961
 30
0.0
 10
116.6426649013949
 20
-141.5899793482831
 30
0.0
 10
116.6426649013949
 20
-141.5899793482831
 30
0.0
 10
116.6426649013949
 20
-141.5899793482831
 30
0.0
 10
116.4945257955292
 20
-141.5899793482831
 30
0.0
 10
116.4945257955292
 20
-141.5899793482831
 30
0.0
 10
116.4797118849426
 20
-141.257872143505
 30
0.0
 10
116.3167588684903
 20
-141.2113633544541
 30
0.0
 10
116.20238169838
 20
-141.181735533281
 30
0.0
 10
116.20238169838
 20
-141.181735533281
 30
0.0
 10
116.20238169838
 20
-141.0356634847064
 30
0.0
 10
116.20238169838
 20
-141.0356634847064
 30
0.0
 10
116.20238169838
 20
-141.0356634847064
 30
0.0
 10
117.7468180044175
 20
-141.0356634847064
 30
0.0
 10
117.7468180044175
 20
-141.0356634847064
 30
0.0
 10
117.7468180044175
 20
-141.0356634847064
 30
0.0
 10
117.7468180044175
 20
-141.2599392007961
 30
0.0
 10
117.7468180044175
 20
-141.2599392007961
 30
0.0
  0
HATCH
  5
76
330
71
100
AcDbEntity
  8
_U+30EC_U+30A4_U+30E4_U+30FC 1
 62
   179
420
  2234388
100
AcDbHatch
 10
0.0
 20
0.0
 30
0.0
210
0.0
220
0.0
230
1.0
  2
SOLID
 70
     1
 71
     0
 91
        1
 92
        1
 93
        1
 72
     4
 94
        3
 73
     0
 74
     1
 95
       26
 96
       22
 40
0.0
 40
0.0
 40
0.0
 40
0.0
 40
1.0
 40
1.0
 40
1.0
 40
2.0
 40
2.0
 40
2.0
 40
3.0
 40
3.0
 40
3.0
 40
4.0
 40
4.0
 40
4.0
 40
5.0
 40
5.0
 40
5.0
 40
6.0
 40
6.0
 40
6.0
 40
7.0
 40
7.0
 40
7.0
 40
7.0
 10
117.7468180044175
 20
-141.2599392007961
 10
117.7468180044175
 20
-141.2599392007961
 10
116.6426649013949
 20
-141.2599392007961
 10
116.6426649013949
 20
-141.2599392007961
 10
116.6426649013949
 20
-141.2599392007961
 10
116.6426649013949
 20
-141.5899793482831
 10
116.6426649013949
 20
-141.5899793482831
 10
116.6426649013949
 20
-141.5899793482831
 10
116.4945257955292
 20
-141.5899793482831
 10
116.4945257955292
 20
-141.5899793482831
 10
116.4797118849426
 20
-141.257872143505
 10
116.3167588684903
 20
-141.2113633544541
 10
116.20238169838
 20
-141.181735533281
 10
116.20238169838
 20
-141.181735533281
 10
116.20238169838
 20
-141.0356634847064
 10
116.20238169838
 20
-141.0356634847064
 10
116.20238169838
 20
-141.0356634847064
 10
117.7468180044175
 20
-141.0356634847064
 10
117.7468180044175
 20
-141.0356634847064
 10
117.7468180044175
 20
-141.0356634847064
 10
117.7468180044175
 20
-141.2599392007961
 10
117.7468180044175
 20
-141.2599392007961
 97
        0
 97
        0
 75
     2
 76
     1
 98
        0
  0
SPLINE
  5
77
330
71
100
AcDbEntity
  8
_U+30EC_U+30A4_U+30E4_U+30FC 1
370
     0
100
AcDbSpline
210
0.0
220
0.0
230
1.0
 70
    11
 71
     3
 72
    29
 73
    25
 74
     0
 42
0.0000000001
 43
0.0000000001
 12
1.0
 22
0.0
 32
0.0
 13
1.0
 23
0.0
 33
0.0
 40
0.0
 40
0.0
 40
0.0
 40
0.0
 40
1.0
 40
1.0
 40
1.0
 40
2.0
 40
2.0
 40
2.0
 40
3.0
 40
3.0
 40
3.0
 40
4.0
 40
4.0
 40
4.0
 40
5.0
 40
5.0
 40
5.0
 40
6.0
 40
6.0
 40
6.0
 40
7.0
 40
7.0
 40
7.0
 40
8.0
 40
8.0
 40
8.0
 40
8.0
 10
117.5690510773786
 20
-139.6366102081464
 30
0.0
 10
117.7785128828818
 20
-139.7447862063833
 30
0.0
 10
117.7974609080506
 20
-139.9180745092913
 30
0.0
 10
117.7974609080506
 20
-140.0345187366928
 30
0.0
 10
117.7974609080506
 20
-140.1954046958539
 30
0.0
 10
117.7509521189998
 20
-140.3369981202977
 30
0.0
 10
117.5690510773786
 20
-140.4320827556906
 30
0.0
 10
117.374403182462
 20
-140.5357801297966
 30
0.0
 10
117.1373806130768
 20
-140.555072664514
 30
0.0
 10
116.974772106173
 20
-140.555072664514
 30
0.0
 10
116.8307671148895
 20
-140.555072664514
 30
0.0
 10
116.5789306349178
 20
-140.5378471870878
 30
0.0
 10
116.3801486254189
 20
-140.4320827556906
 30
0.0
 10
116.1772325013376
 20
-140.3242512670023
 30
0.0
 10
116.1538058520379
 20
-140.1633653078411
 30
0.0
 10
116.1538058520379
 20
-140.0345187366928
 30
0.0
 10
116.1538058520379
 20
-139.8756998348227
 30
0.0
 10
116.1982475837977
 20
-139.7320393530878
 30
0.0
 10
116.3801486254189
 20
-139.6366102081464
 30
0.0
 10
116.5727294630443
 20
-139.5373914581712
 30
0.0
 10
116.8011392937164
 20
-139.5139648088715
 30
0.0
 10
116.974772106173
 20
-139.5139648088715
 30
0.0
 10
117.1459933517899
 20
-139.5139648088715
 30
0.0
 10
117.3764702397531
 20
-139.5353244008801
 30
0.0
 10
117.5690510773786
 20
-139.6366102081464
 30
0.0
  0
SPLINE
  5
78
330
71
100
AcDbEntity
  8
_U+30EC_U+30A4_U+30E4_U+30FC 1
370
     0
100
AcDbSpline
210
0.0
220
0.0
230
1.0
 70
    11
 71
     3
 72
    17
 73
    13
 74
     0
 42
0.0000000001
 43
0.0000000001
 12
1.0
 22
0.0
 32
0.0
 13
1.0
 23
0.0
 33
0.0
 40
0.0
 40
0.0
 40
0.0
 40
0.0
 40
1.0
 40
1.0
 40
1.0
 40
2.0
 40
2.0
 40
2.0
 40
3.0
 40
3.0
 40
3.0
 40
4.0
 40
4.0
 40
4.0
 40
4.0
 10
116.3463866896634
 20
-140.0345187366928
 30
0.0
 10
116.3463866896634
 20
-140.2842881593734
 30
0.0
 10
116.6299180480995
 20
-140.3307969484243
 30
0.0
 10
116.974772106173
 20
-140.3307969484243
 30
0.0
 10
117.2941324576556
 20
-140.3307969484243
 30
0.0
 10
117.602813013134
 20
-140.2946234458291
 30
0.0
 10
117.602813013134
 20
-140.0345187366928
 30
0.0
 10
117.602813013134
 20
-139.7868163713033
 30
0.0
 10
117.3216932215376
 20
-139.7382405249613
 30
0.0
 10
116.974772106173
 20
-139.7382405249613
 30
0.0
 10
116.6550672451418
 20
-139.7382405249613
 30
0.0
 10
116.3463866896634
 20
-139.7764810848475
 30
0.0
 10
116.3463866896634
 20
-140.0345187366928
 30
0.0
  0
HATCH
  5
79
330
71
100
AcDbEntity
  8
_U+30EC_U+30A4_U+30E4_U+30FC 1
 62
   179
420
  2234388
100
AcDbHatch
 10
0.0
 20
0.0
 30
0.0
210
0.0
220
0.0
230
1.0
  2
SOLID
 70
     1
 71
     0
 91
        2
 92
        1
 93
        1
 72
     4
 94
        3
 73
     0
 74
     1
 95
       29
 96
       25
 40
0.0
 40
0.0
 40
0.0
 40
0.0
 40
1.0
 40
1.0
 40
1.0
 40
2.0
 40
2.0
 40
2.0
 40
3.0
 40
3.0
 40
3.0
 40
4.0
 40
4.0
 40
4.0
 40
5.0
 40
5.0
 40
5.0
 40
6.0
 40
6.0
 40
6.0
 40
7.0
 40
7.0
 40
7.0
 40
8.0
 40
8.0
 40
8.0
 40
8.0
 10
117.5690510773786
 20
-139.6366102081464
 10
117.7785128828818
 20
-139.7447862063833
 10
117.7974609080506
 20
-139.9180745092913
 10
117.7974609080506
 20
-140.0345187366928
 10
117.7974609080506
 20
-140.1954046958539
 10
117.7509521189998
 20
-140.3369981202977
 10
117.5690510773786
 20
-140.4320827556906
 10
117.374403182462
 20
-140.5357801297966
 10
117.1373806130768
 20
-140.555072664514
 10
116.974772106173
 20
-140.555072664514
 10
116.8307671148895
 20
-140.555072664514
 10
116.5789306349178
 20
-140.5378471870878
 10
116.3801486254189
 20
-140.4320827556906
 10
116.1772325013376
 20
-140.3242512670023
 10
116.1538058520379
 20
-140.1633653078411
 10
116.1538058520379
 20
-140.0345187366928
 10
116.1538058520379
 20
-139.8756998348227
 10
116.1982475837977
 20
-139.7320393530878
 10
116.3801486254189
 20
-139.6366102081464
 10
116.5727294630443
 20
-139.5373914581712
 10
116.8011392937164
 20
-139.5139648088715
 10
116.974772106173
 20
-139.5139648088715
 10
117.1459933517899
 20
-139.5139648088715
 10
117.3764702397531
 20
-139.5353244008801
 10
117.5690510773786
 20
-139.6366102081464
 97
        0
 97
        0
 92
        1
 93
        1
 72
     4
 94
        3
 73
     0
 74
     1
 95
       17
 96
       13
 40
0.0
 40
0.0
 40
0.0
 40
0.0
 40
1.0
 40
1.0
 40
1.0
 40
2.0
 40
2.0
 40
2.0
 40
3.0
 40
3.0
 40
3.0
 40
4.0
 40
4.0
 40
4.0
 40
4.0
 10
116.3463866896634
 20
-140.0345187366928
 10
116.3463866896634
 20
-140.2842881593734
 10
116.6299180480995
 20
-140.3307969484243
 10
116.974772106173
 20
-140.3307969484243
 10
117.2941324576556
 20
-140.3307969484243
 10
117.602813013134
 20
-140.2946234458291
 10
117.602813013134
 20
-140.0345187366928
 10
117.602813013134
 20
-139.7868163713033
 10
117.3216932215376
 20
-139.7382405249613
 10
116.974772106173
 20
-139.7382405249613
 10
116.6550672451418
 20
-139.7382405249613
 10
116.3463866896634
 20
-139.7764810848475
 10
116.3463866896634
 20
-140.0345187366928
 97
        0
 97
        0
 75
     2
 76
     1
 98
        0
  0
ENDBLK
  5
74
330
71
100
AcDbEntity
  8
0
100
AcDbBlockEnd
  0
BLOCK
  5
7C
330
7A
100
AcDbEntity
  8
0
100
AcDbBlockBegin
  2
block 3
 70
     0
 10
0.0
 20
0.0
 30
0.0
  3
block 3
  1

  0
SPLINE
  5
7E
330
7A
100
AcDbEntity
  8
_U+30EC_U+30A4_U+30E4_U+30FC 1
370
     0
100
AcDbSpline
210
0.0
220
0.0
230
1.0
 70
    11
 71
     3
 72
    26
 73
    22
 74
     0
 42
0.0000000001
 43
0.0000000001
 12
1.0
 22
0.0
 32
0.0
 13
1.0
 23
0.0
 33
0.0
 40
0.0
 40
0.0
 40
0.0
 40
0.0
 40
1.0
 40
1.0
 40
1.0
 40
2.0
 40
2.0
 40
2.0
 40
3.0
 40
3.0
 40
3.0
 40
4.0
 40
4.0
 40
4.0
 40
5.0
 40
5.0
 40
5.0
 40
6.0
 40
6.0
 40
6.0
 40
7.0
 40
7.0
 40
7.0
 40
7.0
 10
117.7468180044175
 20
-135.2172417196679
 30
0.0
 10
117.7468180044175
 20
-135.2172417196679
 30
0.0
 10
116.6426649013949
 20
-135.2172417196679
 30
0.0
 10
116.6426649013949
 20
-135.2172417196679
 30
0.0
 10
116.6426649013949
 20
-135.2172417196679
 30
0.0
 10
116.6426649013949
 20
-135.5472818671549
 30
0.0
 10
116.6426649013949
 20
-135.5472818671549
 30
0.0
 10
116.6426649013949
 20
-135.5472818671549
 30
0.0
 10
116.4945257955292
 20
-135.5472818671549
 30
0.0
 10
116.4945257955292
 20
-135.5472818671549
 30
0.0
 10
116.4797118849426
 20
-135.2151746623768
 30
0.0
 10
116.3167588684903
 20
-135.1686658733259
 30
0.0
 10
116.20238169838
 20
-135.1390380521528
 30
0.0
 10
116.20238169838
 20
-135.1390380521528
 30
0.0
 10
116.20238169838
 20
-134.9929660035781
 30
0.0
 10
116.20238169838
 20
-134.9929660035781
 30
0.0
 10
116.20238169838
 20
-134.9929660035781
 30
0.0
 10
117.7468180044175
 20
-134.9929660035781
 30
0.0
 10
117.7468180044175
 20
-134.9929660035781
 30
0.0
 10
117.7468180044175
 20
-134.9929660035781
 30
0.0
 10
117.7468180044175
 20
-135.2172417196679
 30
0.0
 10
117.7468180044175
 20
-135.2172417196679
 30
0.0
  0
HATCH
  5
7F
330
7A
100
AcDbEntity
  8
_U+30EC_U+30A4_U+30E4_U+30FC 1
 62
   179
420
  2234388
100
AcDbHatch
 10
0.0
 20
0.0
 30
0.0
210
0.0
220
0.0
230
1.0
  2
SOLID
 70
     1
 71
     0
 91
        1
 92
        1
 93
        1
 72
     4
 94
        3
 73
     0
 74
     1
 95
       26
 96
       22
 40
0.0
 40
0.0
 40
0.0
 40
0.0
 40
1.0
 40
1.0
 40
1.0
 40
2.0
 40
2.0
 40
2.0
 40
3.0
 40
3.0
 40
3.0
 40
4.0
 40
4.0
 40
4.0
 40
5.0
 40
5.0
 40
5.0
 40
6.0
 40
6.0
 40
6.0
 40
7.0
 40
7.0
 40
7.0
 40
7.0
 10
117.7468180044175
 20
-135.2172417196679
 10
117.7468180044175
 20
-135.2172417196679
 10
116.6426649013949
 20
-135.2172417196679
 10
116.6426649013949
 20
-135.2172417196679
 10
116.6426649013949
 20
-135.2172417196679
 10
116.6426649013949
 20
-135.5472818671549
 10
116.6426649013949
 20
-135.5472818671549
 10
116.6426649013949
 20
-135.5472818671549
 10
116.4945257955292
 20
-135.5472818671549
 10
116.4945257955292
 20
-135.5472818671549
 10
116.4797118849426
 20
-135.2151746623768
 10
116.3167588684903
 20
-135.1686658733259
 10
116.20238169838
 20
-135.1390380521528
 10
116.20238169838
 20
-135.1390380521528
 10
116.20238169838
 20
-134.9929660035781
 10
116.20238169838
 20
-134.9929660035781
 10
116.20238169838
 20
-134.9929660035781
 10
117.7468180044175
 20
-134.9929660035781
 10
117.7468180044175
 20
-134.9929660035781
 10
117.7468180044175
 20
-134.9929660035781
 10
117.7468180044175
 20
-135.2172417196679
 10
117.7468180044175
 20
-135.2172417196679
 97
        0
 97
        0
 75
     2
 76
     1
 98
        0
  0
ENDBLK
  5
7D
330
7A
100
AcDbEntity
  8
0
100
AcDbBlockEnd
  0
BLOCK
  5
82
330
80
100
AcDbEntity
  8
0
100
AcDbBlockBegin
  2
block 4
 70
     0
 10
0.0
 20
0.0
 30
0.0
  3
block 4
  1

  0
SPLINE
  5
84
330
80
100
AcDbEntity
  8
_U+30EC_U+30A4_U+30E4_U+30FC 1
370
     0
100
AcDbSpline
210
0.0
220
0.0
230
1.0
 70
    11
 71
     3
 72
    62
 73
    58
 74
     0
 42
0.0000000001
 43
0.0000000001
 12
1.0
 22
0.0
 32
0.0
 13
1.0
 23
0.0
 33
0.0
 40
0.0
 40
0.0
 40
0.0
 40
0.0
 40
1.0
 40
1.0
 40
1.0
 40
2.0
 40
2.0
 40
2.0
 40
3.0
 40
3.0
 40
3.0
 40
4.0
 40
4.0
 40
4.0
 40
5.0
 40
5.0
 40
5.0
 40
6.0
 40
6.0
 40
6.0
 40
7.0
 40
7.0
 40
7.0
 40
8.0
 40
8.0
 40
8.0
 40
9.0
 40
9.0
 40
9.0
 40
10.0
 40
10.0
 40
10.0
 40
11.0
 40
11.0
 40
11.0
 40
12.0
 40
12.0
 40
12.0
 40
13.0
 40
13.0
 40
13.0
 40
14.0
 40
14.0
 40
14.0
 40
15.0
 40
15.0
 40
15.0
 40
16.0
 40
16.0
 40
16.0
 40
17.0
 40
17.0
 40
17.0
 40
18.0
 40
18.0
 40
18.0
 40
19.0
 40
19.0
 40
19.0
 40
19.0
 10
117.7974609080506
 20
-120.2169514673416
 30
0.0
 10
117.7974609080506
 20
-120.312380612283
 30
0.0
 10
117.7764458255906
 20
-120.5301106469508
 30
0.0
 10
117.5904106693871
 20
-120.6551676130654
 30
0.0
 10
117.478100556568
 20
-120.7292371659983
 30
0.0
 10
117.3788818065928
 20
-120.7333712805806
 30
0.0
 10
117.2941324576556
 20
-120.7375053951629
 30
0.0
 10
117.2941324576556
 20
-120.7375053951629
 30
0.0
 10
117.2941324576556
 20
-120.5173637936554
 30
0.0
 10
117.2941324576556
 20
-120.5173637936554
 30
0.0
 10
117.3682020105885
 20
-120.5152967363642
 30
0.0
 10
117.602813013134
 20
-120.5049614499085
 30
0.0
 10
117.602813013134
 20
-120.2214300914724
 30
0.0
 10
117.602813013134
 20
-120.083970781611
 30
0.0
 10
117.533222084332
 20
-119.9313530516144
 30
0.0
 10
117.3048122536599
 20
-119.9313530516144
 30
0.0
 10
117.1883680262585
 20
-119.9313530516144
 30
0.0
 10
117.1397921799164
 20
-119.9695936115007
 30
0.0
 10
117.1080973014521
 20
-120.001288489965
 30
0.0
 10
117.0340277485193
 20
-120.0753580428978
 30
0.0
 10
117.0212808952239
 20
-120.1918022702993
 30
0.0
 10
117.0212808952239
 20
-120.2465792885148
 30
0.0
 10
117.0212808952239
 20
-120.2658718232321
 30
0.0
 10
117.023347952515
 20
-120.3017008162788
 30
0.0
 10
117.0274820670973
 20
-120.3292615801607
 30
0.0
 10
117.0274820670973
 20
-120.3292615801607
 30
0.0
 10
116.8328341721807
 20
-120.3292615801607
 30
0.0
 10
116.8328341721807
 20
-120.3292615801607
 30
0.0
 10
116.8393798536027
 20
-120.2910210202745
 30
0.0
 10
116.8414469108938
 20
-120.2489908553544
 30
0.0
 10
116.8414469108938
 20
-120.2424451739325
 30
0.0
 10
116.8414469108938
 20
-120.1769883597127
 30
0.0
 10
116.8200873188853
 20
-119.9782063502138
 30
0.0
 10
116.5834092590486
 20
-119.9782063502138
 30
0.0
 10
116.4056423320097
 20
-119.9782063502138
 30
0.0
 10
116.3505208042457
 20
-120.1091199786533
 30
0.0
 10
116.3505208042457
 20
-120.2193630341813
 30
0.0
 10
116.3505208042457
 20
-120.4836018578999
 30
0.0
 10
116.5834092590486
 20
-120.4922145966131
 30
0.0
 10
116.6550672451418
 20
-120.4963487111954
 30
0.0
 10
116.6550672451418
 20
-120.4963487111954
 30
0.0
 10
116.6550672451418
 20
-120.6996093448251
 30
0.0
 10
116.6550672451418
 20
-120.6996093448251
 30
0.0
 10
116.5303547885757
 20
-120.690996606112
 30
0.0
 10
116.1538058520379
 20
-120.66343584223
 30
0.0
 10
116.1538058520379
 20
-120.2066161808858
 30
0.0
 10
116.1538058520379
 20
-119.9823404647961
 30
0.0
 10
116.2809298754437
 20
-119.7411837808286
 30
0.0
 10
116.5768635776266
 20
-119.7411837808286
 30
0.0
 10
116.7632432433786
 20
-119.7411837808286
 30
0.0
 10
116.8455810254761
 20
-119.8362684162215
 30
0.0
 10
116.9069037251136
 20
-119.9358316757452
 30
0.0
 10
116.9344644889956
 20
-119.8745089761078
 30
0.0
 10
117.0147352138019
 20
-119.6926079344866
 30
0.0
 10
117.2920654003645
 20
-119.6926079344866
 30
0.0
 10
117.630373777016
 20
-119.6926079344866
 30
0.0
 10
117.7974609080506
 20
-119.9399657903275
 30
0.0
 10
117.7974609080506
 20
-120.2169514673416
 30
0.0
  0
HATCH
  5
85
330
80
100
AcDbEntity
  8
_U+30EC_U+30A4_U+30E4_U+30FC 1
 62
   179
420
  2234388
100
AcDbHatch
 10
0.0
 20
0.0
 30
0.0
210
0.0
220
0.0
230
1.0
  2
SOLID
 70
     1
 71
     0
 91
        1
 92
        1
 93
        1
 72
     4
 94
        3
 73
     0
 74
     1
 95
       62
 96
       58
 40
0.0
 40
0.0
 40
0.0
 40
0.0
 40
1.0
 40
1.0
 40
1.0
 40
2.0
 40
2.0
 40
2.0
 40
3.0
 40
3.0
 40
3.0
 40
4.0
 40
4.0
 40
4.0
 40
5.0
 40
5.0
 40
5.0
 40
6.0
 40
6.0
 40
6.0
 40
7.0
 40
7.0
 40
7.0
 40
8.0
 40
8.0
 40
8.0
 40
9.0
 40
9.0
 40
9.0
 40
10.0
 40
10.0
 40
10.0
 40
11.0
 40
11.0
 40
11.0
 40
12.0
 40
12.0
 40
12.0
 40
13.0
 40
13.0
 40
13.0
 40
14.0
 40
14.0
 40
14.0
 40
15.0
 40
15.0
 40
15.0
 40
16.0
 40
16.0
 40
16.0
 40
17.0
 40
17.0
 40
17.0
 40
18.0
 40
18.0
 40
18.0
 40
19.0
 40
19.0
 40
19.0
 40
19.0
 10
117.7974609080506
 20
-120.2169514673416
 10
117.7974609080506
 20
-120.312380612283
 10
117.7764458255906
 20
-120.5301106469508
 10
117.5904106693871
 20
-120.6551676130654
 10
117.478100556568
 20
-120.7292371659983
 10
117.3788818065928
 20
-120.7333712805806
 10
117.2941324576556
 20
-120.7375053951629
 10
117.2941324576556
 20
-120.7375053951629
 10
117.2941324576556
 20
-120.5173637936554
 10
117.2941324576556
 20
-120.5173637936554
 10
117.3682020105885
 20
-120.5152967363642
 10
117.602813013134
 20
-120.5049614499085
 10
117.602813013134
 20
-120.2214300914724
 10
117.602813013134
 20
-120.083970781611
 10
117.533222084332
 20
-119.9313530516144
 10
117.3048122536599
 20
-119.9313530516144
 10
117.1883680262585
 20
-119.9313530516144
 10
117.1397921799164
 20
-119.9695936115007
 10
117.1080973014521
 20
-120.001288489965
 10
117.0340277485193
 20
-120.0753580428978
 10
117.0212808952239
 20
-120.1918022702993
 10
117.0212808952239
 20
-120.2465792885148
 10
117.0212808952239
 20
-120.2658718232321
 10
117.023347952515
 20
-120.3017008162788
 10
117.0274820670973
 20
-120.3292615801607
 10
117.0274820670973
 20
-120.3292615801607
 10
116.8328341721807
 20
-120.3292615801607
 10
116.8328341721807
 20
-120.3292615801607
 10
116.8393798536027
 20
-120.2910210202745
 10
116.8414469108938
 20
-120.2489908553544
 10
116.8414469108938
 20
-120.2424451739325
 10
116.8414469108938
 20
-120.1769883597127
 10
116.8200873188853
 20
-119.9782063502138
 10
116.5834092590486
 20
-119.9782063502138
 10
116.4056423320097
 20
-119.9782063502138
 10
116.3505208042457
 20
-120.1091199786533
 10
116.3505208042457
 20
-120.2193630341813
 10
116.3505208042457
 20
-120.4836018578999
 10
116.5834092590486
 20
-120.4922145966131
 10
116.6550672451418
 20
-120.4963487111954
 10
116.6550672451418
 20
-120.4963487111954
 10
116.6550672451418
 20
-120.6996093448251
 10
116.6550672451418
 20
-120.6996093448251
 10
116.5303547885757
 20
-120.690996606112
 10
116.1538058520379
 20
-120.66343584223
 10
116.1538058520379
 20
-120.2066161808858
 10
116.1538058520379
 20
-119.9823404647961
 10
116.2809298754437
 20
-119.7411837808286
 10
116.5768635776266
 20
-119.7411837808286
 10
116.7632432433786
 20
-119.7411837808286
 10
116.8455810254761
 20
-119.8362684162215
 10
116.9069037251136
 20
-119.9358316757452
 10
116.9344644889956
 20
-119.8745089761078
 10
117.0147352138019
 20
-119.6926079344866
 10
117.2920654003645
 20
-119.6926079344866
 10
117.630373777016
 20
-119.6926079344866
 10
117.7974609080506
 20
-119.9399657903275
 10
117.7974609080506
 20
-120.2169514673416
 97
        0
 97
        0
 75
     2
 76
     1
 98
        0
  0
SPLINE
  5
86
330
80
100
AcDbEntity
  8
_U+30EC_U+30A4_U+30E4_U+30FC 1
370
     0
100
AcDbSpline
210
0.0
220
0.0
230
1.0
 70
    11
 71
     3
 72
    29
 73
    25
 74
     0
 42
0.0000000001
 43
0.0000000001
 12
1.0
 22
0.0
 32
0.0
 13
1.0
 23
0.0
 33
0.0
 40
0.0
 40
0.0
 40
0.0
 40
0.0
 40
1.0
 40
1.0
 40
1.0
 40
2.0
 40
2.0
 40
2.0
 40
3.0
 40
3.0
 40
3.0
 40
4.0
 40
4.0
 40
4.0
 40
5.0
 40
5.0
 40
5.0
 40
6.0
 40
6.0
 40
6.0
 40
7.0
 40
7.0
 40
7.0
 40
8.0
 40
8.0
 40
8.0
 40
8.0
 10
117.5690510773786
 20
-118.6339300918693
 30
0.0
 10
117.7785128828818
 20
-118.7421060901061
 30
0.0
 10
117.7974609080506
 20
-118.9153943930142
 30
0.0
 10
117.7974609080506
 20
-119.0318386204157
 30
0.0
 10
117.7974609080506
 20
-119.1927245795768
 30
0.0
 10
117.7509521189998
 20
-119.3343180040206
 30
0.0
 10
117.5690510773786
 20
-119.4294026394135
 30
0.0
 10
117.374403182462
 20
-119.5331000135195
 30
0.0
 10
117.1373806130768
 20
-119.5523925482369
 30
0.0
 10
116.974772106173
 20
-119.5523925482369
 30
0.0
 10
116.8307671148895
 20
-119.5523925482369
 30
0.0
 10
116.5789306349178
 20
-119.5351670708107
 30
0.0
 10
116.3801486254189
 20
-119.4294026394135
 30
0.0
 10
116.1772325013376
 20
-119.3215711507252
 30
0.0
 10
116.1538058520379
 20
-119.160685191564
 30
0.0
 10
116.1538058520379
 20
-119.0318386204157
 30
0.0
 10
116.1538058520379
 20
-118.8730197185456
 30
0.0
 10
116.1982475837977
 20
-118.7293592368107
 30
0.0
 10
116.3801486254189
 20
-118.6339300918693
 30
0.0
 10
116.5727294630443
 20
-118.5347113418941
 30
0.0
 10
116.8011392937164
 20
-118.5112846925944
 30
0.0
 10
116.974772106173
 20
-118.5112846925944
 30
0.0
 10
117.1459933517899
 20
-118.5112846925944
 30
0.0
 10
117.3764702397531
 20
-118.532644284603
 30
0.0
 10
117.5690510773786
 20
-118.6339300918693
 30
0.0
  0
SPLINE
  5
87
330
80
100
AcDbEntity
  8
_U+30EC_U+30A4_U+30E4_U+30FC 1
370
     0
100
AcDbSpline
210
0.0
220
0.0
230
1.0
 70
    11
 71
     3
 72
    17
 73
    13
 74
     0
 42
0.0000000001
 43
0.0000000001
 12
1.0
 22
0.0
 32
0.0
 13
1.0
 23
0.0
 33
0.0
 40
0.0
 40
0.0
 40
0.0
 40
0.0
 40
1.0
 40
1.0
 40
1.0
 40
2.0
 40
2.0
 40
2.0
 40
3.0
 40
3.0
 40
3.0
 40
4.0
 40
4.0
 40
4.0
 40
4.0
 10
116.3463866896634
 20
-119.0318386204157
 30
0.0
 10
116.3463866896634
 20
-119.2816080430963
 30
0.0
 10
116.6299180480995
 20
-119.3281168321471
 30
0.0
 10
116.974772106173
 20
-119.3281168321471
 30
0.0
 10
117.2941324576556
 20
-119.3281168321471
 30
0.0
 10
117.602813013134
 20
-119.291943329552
 30
0.0
 10
117.602813013134
 20
-119.0318386204157
 30
0.0
 10
117.602813013134
 20
-118.7841362550262
 30
0.0
 10
117.3216932215376
 20
-118.7355604086842
 30
0.0
 10
116.974772106173
 20
-118.7355604086842
 30
0.0
 10
116.6550672451418
 20
-118.7355604086842
 30
0.0
 10
116.3463866896634
 20
-118.7738009685704
 30
0.0
 10
116.3463866896634
 20
-119.0318386204157
 30
0.0
  0
HATCH
  5
88
330
80
100
AcDbEntity
  8
_U+30EC_U+30A4_U+30E4_U+30FC 1
 62
   179
420
  2234388
100
AcDbHatch
 10
0.0
 20
0.0
 30
0.0
210
0.0
220
0.0
230
1.0
  2
SOLID
 70
     1
 71
     0
 91
        2
 92
        1
 93
        1
 72
     4
 94
        3
 73
     0
 74
     1
 95
       29
 96
       25
 40
0.0
 40
0.0
 40
0.0
 40
0.0
 40
1.0
 40
1.0
 40
1.0
 40
2.0
 40
2.0
 40
2.0
 40
3.0
 40
3.0
 40
3.0
 40
4.0
 40
4.0
 40
4.0
 40
5.0
 40
5.0
 40
5.0
 40
6.0
 40
6.0
 40
6.0
 40
7.0
 40
7.0
 40
7.0
 40
8.0
 40
8.0
 40
8.0
 40
8.0
 10
117.5690510773786
 20
-118.6339300918693
 10
117.7785128828818
 20
-118.7421060901061
 10
117.7974609080506
 20
-118.9153943930142
 10
117.7974609080506
 20
-119.0318386204157
 10
117.7974609080506
 20
-119.1927245795768
 10
117.7509521189998
 20
-119.3343180040206
 10
117.5690510773786
 20
-119.4294026394135
 10
117.374403182462
 20
-119.5331000135195
 10
117.1373806130768
 20
-119.5523925482369
 10
116.974772106173
 20
-119.5523925482369
 10
116.8307671148895
 20
-119.5523925482369
 10
116.5789306349178
 20
-119.5351670708107
 10
116.3801486254189
 20
-119.4294026394135
 10
116.1772325013376
 20
-119.3215711507252
 10
116.1538058520379
 20
-119.160685191564
 10
116.1538058520379
 20
-119.0318386204157
 10
116.1538058520379
 20
-118.8730197185456
 10
116.1982475837977
 20
-118.7293592368107
 10
116.3801486254189
 20
-118.6339300918693
 10
116.5727294630443
 20
-118.5347113418941
 10
116.8011392937164
 20
-118.5112846925944
 10
116.974772106173
 20
-118.5112846925944
 10
117.1459933517899
 20
-118.5112846925944
 10
117.3764702397531
 20
-118.532644284603
 10
117.5690510773786
 20
-118.6339300918693
 97
        0
 97
        0
 92
        1
 93
        1
 72
     4
 94
        3
 73
     0
 74
     1
 95
       17
 96
       13
 40
0.0
 40
0.0
 40
0.0
 40
0.0
 40
1.0
 40
1.0
 40
1.0
 40
2.0
 40
2.0
 40
2.0
 40
3.0
 40
3.0
 40
3.0
 40
4.0
 40
4.0
 40
4.0
 40
4.0
 10
116.3463866896634
 20
-119.0318386204157
 10
116.3463866896634
 20
-119.2816080430963
 10
116.6299180480995
 20
-119.3281168321471
 10
116.974772106173
 20
-119.3281168321471
 10
117.2941324576556
 20
-119.3281168321471
 10
117.602813013134
 20
-119.291943329552
 10
117.602813013134
 20
-119.0318386204157
 10
117.602813013134
 20
-118.7841362550262
 10
117.3216932215376
 20
-118.7355604086842
 10
116.974772106173
 20
-118.7355604086842
 10
116.6550672451418
 20
-118.7355604086842
 10
116.3463866896634
 20
-118.7738009685704
 10
116.3463866896634
 20
-119.0318386204157
 97
        0
 97
        0
 75
     2
 76
     1
 98
        0
  0
ENDBLK
  5
83
330
80
100
AcDbEntity
  8
0
100
AcDbBlockEnd
  0
BLOCK
  5
8B
330
89
100
AcDbEntity
  8
0
100
AcDbBlockBegin
  2
block 5
 70
     0
 10
0.0
 20
0.0
 30
0.0
  3
block 5
  1

  0
SPLINE
  5
8D
330
89
100
AcDbEntity
  8
_U+30EC_U+30A4_U+30E4_U+30FC 1
370
     0
100
AcDbSpline
210
0.0
220
0.0
230
1.0
 70
    11
 71
     3
 72
    26
 73
    22
 74
     0
 42
0.0000000001
 43
0.0000000001
 12
1.0
 22
0.0
 32
0.0
 13
1.0
 23
0.0
 33
0.0
 40
0.0
 40
0.0
 40
0.0
 40
0.0
 40
1.0
 40
1.0
 40
1.0
 40
2.0
 40
2.0
 40
2.0
 40
3.0
 40
3.0
 40
3.0
 40
4.0
 40
4.0
 40
4.0
 40
5.0
 40
5.0
 40
5.0
 40
6.0
 40
6.0
 40
6.0
 40
7.0
 40
7.0
 40
7.0
 40
7.0
 10
117.7468180044175
 20
-150.3394883521721
 30
0.0
 10
117.7468180044175
 20
-150.3394883521721
 30
0.0
 10
116.6426649013949
 20
-150.3394883521721
 30
0.0
 10
116.6426649013949
 20
-150.3394883521721
 30
0.0
 10
116.6426649013949
 20
-150.3394883521721
 30
0.0
 10
116.6426649013949
 20
-150.669528499659
 30
0.0
 10
116.6426649013949
 20
-150.669528499659
 30
0.0
 10
116.6426649013949
 20
-150.669528499659
 30
0.0
 10
116.4945257955292
 20
-150.669528499659
 30
0.0
 10
116.4945257955292
 20
-150.669528499659
 30
0.0
 10
116.4797118849426
 20
-150.3374212948809
 30
0.0
 10
116.3167588684903
 20
-150.2909125058301
 30
0.0
 10
116.20238169838
 20
-150.2612846846569
 30
0.0
 10
116.20238169838
 20
-150.2612846846569
 30
0.0
 10
116.20238169838
 20
-150.1152126360823
 30
0.0
 10
116.20238169838
 20
-150.1152126360823
 30
0.0
 10
116.20238169838
 20
-150.1152126360823
 30
0.0
 10
117.7468180044175
 20
-150.1152126360823
 30
0.0
 10
117.7468180044175
 20
-150.1152126360823
 30
0.0
 10
117.7468180044175
 20
-150.1152126360823
 30
0.0
 10
117.7468180044175
 20
-150.3394883521721
 30
0.0
 10
117.7468180044175
 20
-150.3394883521721
 30
0.0
  0
HATCH
  5
8E
330
89
100
AcDbEntity
  8
_U+30EC_U+30A4_U+30E4_U+30FC 1
 62
   179
420
  2234388
100
AcDbHatch
 10
0.0
 20
0.0
 30
0.0
210
0.0
220
0.0
230
1.0
  2
SOLID
 70
     1
 71
     0
 91
        1
 92
        1
 93
        1
 72
     4
 94
        3
 73
     0
 74
     1
 95
       26
 96
       22
 40
0.0
 40
0.0
 40
0.0
 40
0.0
 40
1.0
 40
1.0
 40
1.0
 40
2.0
 40
2.0
 40
2.0
 40
3.0
 40
3.0
 40
3.0
 40
4.0
 40
4.0
 40
4.0
 40
5.0
 40
5.0
 40
5.0
 40
6.0
 40
6.0
 40
6.0
 40
7.0
 40
7.0
 40
7.0
 40
7.0
 10
117.7468180044175
 20
-150.3394883521721
 10
117.7468180044175
 20
-150.3394883521721
 10
116.6426649013949
 20
-150.3394883521721
 10
116.6426649013949
 20
-150.3394883521721
 10
116.6426649013949
 20
-150.3394883521721
 10
116.6426649013949
 20
-150.669528499659
 10
116.6426649013949
 20
-150.669528499659
 10
116.6426649013949
 20
-150.669528499659
 10
116.4945257955292
 20
-150.669528499659
 10
116.4945257955292
 20
-150.669528499659
 10
116.4797118849426
 20
-150.3374212948809
 10
116.3167588684903
 20
-150.2909125058301
 10
116.20238169838
 20
-150.2612846846569
 10
116.20238169838
 20
-150.2612846846569
 10
116.20238169838
 20
-150.1152126360823
 10
116.20238169838
 20
-150.1152126360823
 10
116.20238169838
 20
-150.1152126360823
 10
117.7468180044175
 20
-150.1152126360823
 10
117.7468180044175
 20
-150.1152126360823
 10
117.7468180044175
 20
-150.1152126360823
 10
117.7468180044175
 20
-150.3394883521721
 10
117.7468180044175
 20
-150.3394883521721
 97
        0
 97
        0
 75
     2
 76
     1
 98
        0
  0
POLYLINE
  5
8F
330
89
100
AcDbEntity
  8
_U+30EC_U+30A4_U+30E4_U+30FC 1
370
     0
100
AcDb2dPolyline
 66
     1
 10
0.0
 20
0.0
 30
0.0
  0
VERTEX
  5
90
330
8F
100
AcDbEntity
  8
_U+30EC_U+30A4_U+30E4_U+30FC 1
370
     0
100
AcDbVertex
100
AcDb2dVertex
 10
117.7468180044175
 20
-149.5540065815351
 30
0.0
  0
VERTEX
  5
91
330
8F
100
AcDbEntity
  8
_U+30EC_U+30A4_U+30E4_U+30FC 1
370
     0
100
AcDbVertex
100
AcDb2dVertex
 10
117.4949815244457
 20
-149.5540065815351
 30
0.0
  0
VERTEX
  5
92
330
8F
100
AcDbEntity
  8
_U+30EC_U+30A4_U+30E4_U+30FC 1
370
     0
100
AcDbVertex
100
AcDb2dVertex
 10
117.4949815244457
 20
-149.3021701015633
 30
0.0
  0
VERTEX
  5
93
330
8F
100
AcDbEntity
  8
_U+30EC_U+30A4_U+30E4_U+30FC 1
370
     0
100
AcDbVertex
100
AcDb2dVertex
 10
117.7468180044175
 20
-149.3021701015633
 30
0.0
  0
VERTEX
  5
94
330
8F
100
AcDbEntity
  8
_U+30EC_U+30A4_U+30E4_U+30FC 1
370
     0
100
AcDbVertex
100
AcDb2dVertex
 10
117.7468180044175
 20
-149.5540065815351
 30
0.0
  0
SEQEND
  5
95
330
8F
100
AcDbEntity
  8
_U+30EC_U+30A4_U+30E4_U+30FC 1
370
     0
  0
HATCH
  5
96
330
89
100
AcDbEntity
  8
_U+30EC_U+30A4_U+30E4_U+30FC 1
 62
   179
420
  2234388
100
AcDbHatch
 10
0.0
 20
0.0
 30
0.0
210
0.0
220
0.0
230
1.0
  2
SOLID
 70
     1
 71
     0
 91
        1
 92
        1
 93
        4
 72
     1
 10
117.7468180044175
 20
-149.5540065815351
 11
117.4949815244457
 21
-149.5540065815351
 72
     1
 10
117.4949815244457
 20
-149.5540065815351
 11
117.4949815244457
 21
-149.3021701015633
 72
     1
 10
117.4949815244457
 20
-149.3021701015633
 11
117.7468180044175
 21
-149.3021701015633
 72
     1
 10
117.7468180044175
 20
-149.3021701015633
 11
117.7468180044175
 21
-149.5540065815351
 97
        0
 75
     2
 76
     1
 98
        0
  0
SPLINE
  5
97
330
89
100
AcDbEntity
  8
_U+30EC_U+30A4_U+30E4_U+30FC 1
370
     0
100
AcDbSpline
210
0.0
220
0.0
230
1.0
 70
    11
 71
     3
 72
    53
 73
    49
 74
     0
 42
0.0000000001
 43
0.0000000001
 12
1.0
 22
0.0
 32
0.0
 13
1.0
 23
0.0
 33
0.0
 40
0.0
 40
0.0
 40
0.0
 40
0.0
 40
1.0
 40
1.0
 40
1.0
 40
2.0
 40
2.0
 40
2.0
 40
3.0
 40
3.0
 40
3.0
 40
4.0
 40
4.0
 40
4.0
 40
5.0
 40
5.0
 40
5.0
 40
6.0
 40
6.0
 40
6.0
 40
7.0
 40
7.0
 40
7.0
 40
8.0
 40
8.0
 40
8.0
 40
9.0
 40
9.0
 40
9.0
 40
10.0
 40
10.0
 40
10.0
 40
11.0
 40
11.0
 40
11.0
 40
12.0
 40
12.0
 40
12.0
 40
13.0
 40
13.0
 40
13.0
 40
14.0
 40
14.0
 40
14.0
 40
15.0
 40
15.0
 40
15.0
 40
16.0
 40
16.0
 40
16.0
 40
16.0
 10
117.7974609080506
 20
-148.5849012215343
 30
0.0
 10
117.7974609080506
 20
-148.6631048890495
 30
0.0
 10
117.7805799401729
 20
-148.7647352058644
 30
0.0
 10
117.7171901832443
 20
-148.8663655226792
 30
0.0
 10
117.6072916372649
 20
-149.0396538255873
 30
0.0
 10
117.4760334992768
 20
-149.0610134175959
 30
0.0
 10
117.3682020105885
 20
-149.0799614427647
 30
0.0
 10
117.3682020105885
 20
-149.0799614427647
 30
0.0
 10
117.3682020105885
 20
-148.8577527839661
 30
0.0
 10
117.3682020105885
 20
-148.8577527839661
 30
0.0
 10
117.5669840200874
 20
-148.8029757657507
 30
0.0
 10
117.5966118412606
 20
-148.6758517423449
 30
0.0
 10
117.5966118412606
 20
-148.5828341642432
 30
0.0
 10
117.5966118412606
 20
-148.4433077970906
 30
0.0
 10
117.4970485817368
 20
-148.2910345766425
 30
0.0
 10
117.2645046364825
 20
-148.2910345766425
 30
0.0
 10
117.0085340419284
 20
-148.2910345766425
 30
0.0
 10
116.9385986035779
 20
-148.4708685609726
 30
0.0
 10
116.9385986035779
 20
-148.5914469029563
 30
0.0
 10
116.9385986035779
 20
-148.6231417814206
 30
0.0
 10
116.9385986035779
 20
-148.7647352058644
 30
0.0
 10
117.0677896842747
 20
-148.8536186693838
 30
0.0
 10
117.0677896842747
 20
-148.8536186693838
 30
0.0
 10
117.0488416591058
 20
-149.0293185391316
 30
0.0
 10
117.0488416591058
 20
-149.0293185391316
 30
0.0
 10
117.0488416591058
 20
-149.0293185391316
 30
0.0
 10
116.20238169838
 20
-148.9087401971478
 30
0.0
 10
116.20238169838
 20
-148.9087401971478
 30
0.0
 10
116.20238169838
 20
-148.9087401971478
 30
0.0
 10
116.20238169838
 20
-148.1301486174814
 30
0.0
 10
116.20238169838
 20
-148.1301486174814
 30
0.0
 10
116.20238169838
 20
-148.1301486174814
 30
0.0
 10
116.3970295932966
 20
-148.1301486174814
 30
0.0
 10
116.3970295932966
 20
-148.1301486174814
 30
0.0
 10
116.3970295932966
 20
-148.1301486174814
 30
0.0
 10
116.3970295932966
 20
-148.7457871806955
 30
0.0
 10
116.3970295932966
 20
-148.7457871806955
 30
0.0
 10
116.3970295932966
 20
-148.7457871806955
 30
0.0
 10
116.8200873188853
 20
-148.8112439949153
 30
0.0
 10
116.8200873188853
 20
-148.8112439949153
 30
0.0
 10
116.7863253831298
 20
-148.7499212952778
 30
0.0
 10
116.7460177659524
 20
-148.6675835131803
 30
0.0
 10
116.7460177659524
 20
-148.5490722284877
 30
0.0
 10
116.7460177659524
 20
-148.2951686912248
 30
0.0
 10
116.9323974317044
 20
-148.0581461218396
 30
0.0
 10
117.2455566113136
 20
-148.0581461218396
 30
0.0
 10
117.5628499055051
 20
-148.0581461218396
 30
0.0
 10
117.7974609080506
 20
-148.2824218379294
 30
0.0
 10
117.7974609080506
 20
-148.5849012215343
 30
0.0
  0
HATCH
  5
98
330
89
100
AcDbEntity
  8
_U+30EC_U+30A4_U+30E4_U+30FC 1
 62
   179
420
  2234388
100
AcDbHatch
 10
0.0
 20
0.0
 30
0.0
210
0.0
220
0.0
230
1.0
  2
SOLID
 70
     1
 71
     0
 91
        1
 92
        1
 93
        1
 72
     4
 94
        3
 73
     0
 74
     1
 95
       53
 96
       49
 40
0.0
 40
0.0
 40
0.0
 40
0.0
 40
1.0
 40
1.0
 40
1.0
 40
2.0
 40
2.0
 40
2.0
 40
3.0
 40
3.0
 40
3.0
 40
4.0
 40
4.0
 40
4.0
 40
5.0
 40
5.0
 40
5.0
 40
6.0
 40
6.0
 40
6.0
 40
7.0
 40
7.0
 40
7.0
 40
8.0
 40
8.0
 40
8.0
 40
9.0
 40
9.0
 40
9.0
 40
10.0
 40
10.0
 40
10.0
 40
11.0
 40
11.0
 40
11.0
 40
12.0
 40
12.0
 40
12.0
 40
13.0
 40
13.0
 40
13.0
 40
14.0
 40
14.0
 40
14.0
 40
15.0
 40
15.0
 40
15.0
 40
16.0
 40
16.0
 40
16.0
 40
16.0
 10
117.7974609080506
 20
-148.5849012215343
 10
117.7974609080506
 20
-148.6631048890495
 10
117.7805799401729
 20
-148.7647352058644
 10
117.7171901832443
 20
-148.8663655226792
 10
117.6072916372649
 20
-149.0396538255873
 10
117.4760334992768
 20
-149.0610134175959
 10
117.3682020105885
 20
-149.0799614427647
 10
117.3682020105885
 20
-149.0799614427647
 10
117.3682020105885
 20
-148.8577527839661
 10
117.3682020105885
 20
-148.8577527839661
 10
117.5669840200874
 20
-148.8029757657507
 10
117.5966118412606
 20
-148.6758517423449
 10
117.5966118412606
 20
-148.5828341642432
 10
117.5966118412606
 20
-148.4433077970906
 10
117.4970485817368
 20
-148.2910345766425
 10
117.2645046364825
 20
-148.2910345766425
 10
117.0085340419284
 20
-148.2910345766425
 10
116.9385986035779
 20
-148.4708685609726
 10
116.9385986035779
 20
-148.5914469029563
 10
116.9385986035779
 20
-148.6231417814206
 10
116.9385986035779
 20
-148.7647352058644
 10
117.0677896842747
 20
-148.8536186693838
 10
117.0677896842747
 20
-148.8536186693838
 10
117.0488416591058
 20
-149.0293185391316
 10
117.0488416591058
 20
-149.0293185391316
 10
117.0488416591058
 20
-149.0293185391316
 10
116.20238169838
 20
-148.9087401971478
 10
116.20238169838
 20
-148.9087401971478
 10
116.20238169838
 20
-148.9087401971478
 10
116.20238169838
 20
-148.1301486174814
 10
116.20238169838
 20
-148.1301486174814
 10
116.20238169838
 20
-148.1301486174814
 10
116.3970295932966
 20
-148.1301486174814
 10
116.3970295932966
 20
-148.1301486174814
 10
116.3970295932966
 20
-148.1301486174814
 10
116.3970295932966
 20
-148.7457871806955
 10
116.3970295932966
 20
-148.7457871806955
 10
116.3970295932966
 20
-148.7457871806955
 10
116.8200873188853
 20
-148.8112439949153
 10
116.8200873188853
 20
-148.8112439949153
 10
116.7863253831298
 20
-148.7499212952778
 10
116.7460177659524
 20
-148.6675835131803
 10
116.7460177659524
 20
-148.5490722284877
 10
116.7460177659524
 20
-148.2951686912248
 10
116.9323974317044
 20
-148.0581461218396
 10
117.2455566113136
 20
-148.0581461218396
 10
117.5628499055051
 20
-148.0581461218396
 10
117.7974609080506
 20
-148.2824218379294
 10
117.7974609080506
 20
-148.5849012215343
 97
        0
 97
        0
 75
     2
 76
     1
 98
        0
  0
ENDBLK
  5
8C
330
89
100
AcDbEntity
  8
0
100
AcDbBlockEnd
  0
BLOCK
  5
A9
330
A7
100
AcDbEntity
  8
0
100
AcDbBlockBegin
  2
block 6
 70
     0
 10
0.0
 20
0.0
 30
0.0
  3
block 6
  1

  0
SPLINE
  5
AB
330
A7
100
AcDbEntity
  8
_U+30EC_U+30A4_U+30E4_U+30FC 1
370
     0
100
AcDbSpline
210
0.0
220
0.0
230
1.0
 70
    11
 71
     3
 72
    44
 73
    40
 74
     0
 42
0.0000000001
 43
0.0000000001
 12
1.0
 22
0.0
 32
0.0
 13
1.0
 23
0.0
 33
0.0
 40
0.0
 40
0.0
 40
0.0
 40
0.0
 40
1.0
 40
1.0
 40
1.0
 40
2.0
 40
2.0
 40
2.0
 40
3.0
 40
3.0
 40
3.0
 40
4.0
 40
4.0
 40
4.0
 40
5.0
 40
5.0
 40
5.0
 40
6.0
 40
6.0
 40
6.0
 40
7.0
 40
7.0
 40
7.0
 40
8.0
 40
8.0
 40
8.0
 40
9.0
 40
9.0
 40
9.0
 40
10.0
 40
10.0
 40
10.0
 40
11.0
 40
11.0
 40
11.0
 40
12.0
 40
12.0
 40
12.0
 40
13.0
 40
13.0
 40
13.0
 40
13.0
 10
64.77589109708728
 20
-133.3441433043376
 30
0.0
 10
64.93453774418303
 20
-133.5618733390054
 30
0.0
 10
65.0086072971159
 20
-133.6548909171071
 30
0.0
 10
65.15244003362508
 20
-133.7038112729977
 30
0.0
 10
65.15244003362508
 20
-133.7038112729977
 30
0.0
 10
65.15244003362508
 20
-132.9252196933312
 30
0.0
 10
65.15244003362508
 20
-132.9252196933312
 30
0.0
 10
65.15244003362508
 20
-132.9252196933312
 30
0.0
 10
65.35759546977171
 20
-132.9252196933312
 30
0.0
 10
65.35759546977171
 20
-132.9252196933312
 30
0.0
 10
65.35759546977171
 20
-132.9252196933312
 30
0.0
 10
65.35759546977171
 20
-133.9532361861297
 30
0.0
 10
65.35759546977171
 20
-133.9532361861297
 30
0.0
 10
64.99999455840278
 20
-133.9215413076654
 30
0.0
 10
64.9217908908876
 20
-133.8560844934457
 30
0.0
 10
64.62344562186497
 20
-133.4709228181948
 30
0.0
 10
64.42466361236606
 20
-133.2149522236407
 30
0.0
 10
64.3569674860809
 20
-133.149495409421
 30
0.0
 10
64.21950817621943
 20
-133.149495409421
 30
0.0
 10
64.10099689152683
 20
-133.149495409421
 30
0.0
 10
63.96973875353882
 20
-133.2214979050627
 30
0.0
 10
63.96973875353882
 20
-133.4182128572704
 30
0.0
 10
63.96973875353882
 20
-133.6783175664068
 30
0.0
 10
64.2003878962763
 20
-133.6869303051199
 30
0.0
 10
64.31683212367774
 20
-133.6910644197022
 30
0.0
 10
64.31683212367774
 20
-133.6910644197022
 30
0.0
 10
64.31683212367774
 20
-133.915340135792
 30
0.0
 10
64.31683212367774
 20
-133.915340135792
 30
0.0
 10
64.18988035504628
 20
-133.9067273970789
 30
0.0
 10
64.0777424970014
 20
-133.8960476010746
 30
0.0
 10
63.95923121230881
 20
-133.8157768762683
 30
0.0
 10
63.7985175079219
 20
-133.7058783302888
 30
0.0
 10
63.76458331739219
 20
-133.5194986645368
 30
0.0
 10
63.76458331739219
 20
-133.4033989466839
 30
0.0
 10
63.76458331739219
 20
-133.1260687601213
 30
0.0
 10
63.9487236710788
 20
-132.9186740119092
 30
0.0
 10
64.22157523351058
 20
-132.9186740119092
 30
0.0
 10
64.44998506418264
 20
-132.9186740119092
 30
0.0
 10
64.54954832370636
 20
-133.0351182393107
 30
0.0
 10
64.77589109708728
 20
-133.3441433043376
 30
0.0
  0
HATCH
  5
AC
330
A7
100
AcDbEntity
  8
_U+30EC_U+30A4_U+30E4_U+30FC 1
 62
   179
420
  2234388
100
AcDbHatch
 10
0.0
 20
0.0
 30
0.0
210
0.0
220
0.0
230
1.0
  2
SOLID
 70
     1
 71
     0
 91
        1
 92
        1
 93
        1
 72
     4
 94
        3
 73
     0
 74
     1
 95
       44
 96
       40
 40
0.0
 40
0.0
 40
0.0
 40
0.0
 40
1.0
 40
1.0
 40
1.0
 40
2.0
 40
2.0
 40
2.0
 40
3.0
 40
3.0
 40
3.0
 40
4.0
 40
4.0
 40
4.0
 40
5.0
 40
5.0
 40
5.0
 40
6.0
 40
6.0
 40
6.0
 40
7.0
 40
7.0
 40
7.0
 40
8.0
 40
8.0
 40
8.0
 40
9.0
 40
9.0
 40
9.0
 40
10.0
 40
10.0
 40
10.0
 40
11.0
 40
11.0
 40
11.0
 40
12.0
 40
12.0
 40
12.0
 40
13.0
 40
13.0
 40
13.0
 40
13.0
 10
64.77589109708728
 20
-133.3441433043376
 10
64.93453774418303
 20
-133.5618733390054
 10
65.0086072971159
 20
-133.6548909171071
 10
65.15244003362508
 20
-133.7038112729977
 10
65.15244003362508
 20
-133.7038112729977
 10
65.15244003362508
 20
-132.9252196933312
 10
65.15244003362508
 20
-132.9252196933312
 10
65.15244003362508
 20
-132.9252196933312
 10
65.35759546977171
 20
-132.9252196933312
 10
65.35759546977171
 20
-132.9252196933312
 10
65.35759546977171
 20
-132.9252196933312
 10
65.35759546977171
 20
-133.9532361861297
 10
65.35759546977171
 20
-133.9532361861297
 10
64.99999455840278
 20
-133.9215413076654
 10
64.9217908908876
 20
-133.8560844934457
 10
64.62344562186497
 20
-133.4709228181948
 10
64.42466361236606
 20
-133.2149522236407
 10
64.3569674860809
 20
-133.149495409421
 10
64.21950817621943
 20
-133.149495409421
 10
64.10099689152683
 20
-133.149495409421
 10
63.96973875353882
 20
-133.2214979050627
 10
63.96973875353882
 20
-133.4182128572704
 10
63.96973875353882
 20
-133.6783175664068
 10
64.2003878962763
 20
-133.6869303051199
 10
64.31683212367774
 20
-133.6910644197022
 10
64.31683212367774
 20
-133.6910644197022
 10
64.31683212367774
 20
-133.915340135792
 10
64.31683212367774
 20
-133.915340135792
 10
64.18988035504628
 20
-133.9067273970789
 10
64.0777424970014
 20
-133.8960476010746
 10
63.95923121230881
 20
-133.8157768762683
 10
63.7985175079219
 20
-133.7058783302888
 10
63.76458331739219
 20
-133.5194986645368
 10
63.76458331739219
 20
-133.4033989466839
 10
63.76458331739219
 20
-133.1260687601213
 10
63.9487236710788
 20
-132.9186740119092
 10
64.22157523351058
 20
-132.9186740119092
 10
64.44998506418264
 20
-132.9186740119092
 10
64.54954832370636
 20
-133.0351182393107
 10
64.77589109708728
 20
-133.3441433043376
 97
        0
 97
        0
 75
     2
 76
     1
 98
        0
  0
SPLINE
  5
AD
330
A7
100
AcDbEntity
  8
_U+30EC_U+30A4_U+30E4_U+30FC 1
370
     0
100
AcDbSpline
210
0.0
220
0.0
230
1.0
 70
    11
 71
     3
 72
    29
 73
    25
 74
     0
 42
0.0000000001
 43
0.0000000001
 12
1.0
 22
0.0
 32
0.0
 13
1.0
 23
0.0
 33
0.0
 40
0.0
 40
0.0
 40
0.0
 40
0.0
 40
1.0
 40
1.0
 40
1.0
 40
2.0
 40
2.0
 40
2.0
 40
3.0
 40
3.0
 40
3.0
 40
4.0
 40
4.0
 40
4.0
 40
5.0
 40
5.0
 40
5.0
 40
6.0
 40
6.0
 40
6.0
 40
7.0
 40
7.0
 40
7.0
 40
8.0
 40
8.0
 40
8.0
 40
8.0
 10
65.40841062817915
 20
-132.260316264678
 30
0.0
 10
65.40841062817915
 20
-132.5269666552363
 30
0.0
 10
65.27077906354342
 20
-132.7808701924992
 30
0.0
 10
64.9217908908876
 20
-132.7808701924992
 30
0.0
 10
64.66582029633355
 20
-132.7808701924992
 30
0.0
 10
64.57056340616639
 20
-132.6389322585069
 30
0.0
 10
64.50924070652894
 20
-132.5331678271098
 30
0.0
 10
64.44998506418264
 20
-132.6578802836758
 30
0.0
 10
64.33578014884661
 20
-132.7340168938998
 30
0.0
 10
64.1750664444597
 20
-132.7340168938998
 30
0.0
 10
63.89997556996251
 20
-132.7340168938998
 30
0.0
 10
63.76458331739219
 20
-132.5352348844009
 30
0.0
 10
63.76458331739219
 20
-132.260316264678
 30
0.0
 10
63.76458331739219
 20
-131.9767849062419
 30
0.0
 10
63.90841605390137
 20
-131.7862711259076
 30
0.0
 10
64.1750664444597
 20
-131.7862711259076
 30
0.0
 10
64.33578014884661
 20
-131.7862711259076
 30
0.0
 10
64.44998506418264
 20
-131.8648193029713
 30
0.0
 10
64.50924070652894
 20
-131.9895317595374
 30
0.0
 10
64.56005586493637
 20
-131.9006482960179
 30
0.0
 10
64.65531275510354
 20
-131.7418293941479
 30
0.0
 10
64.91748452153105
 20
-131.7418293941479
 30
0.0
 10
65.29196640077771
 20
-131.7418293941479
 30
0.0
 10
65.40841062817915
 20
-132.0212266380017
 30
0.0
 10
65.40841062817915
 20
-132.260316264678
 30
0.0
  0
SPLINE
  5
AE
330
A7
100
AcDbEntity
  8
_U+30EC_U+30A4_U+30E4_U+30FC 1
370
     0
100
AcDbSpline
210
0.0
220
0.0
230
1.0
 70
    11
 71
     3
 72
    17
 73
    13
 74
     0
 42
0.0000000001
 43
0.0000000001
 12
1.0
 22
0.0
 32
0.0
 13
1.0
 23
0.0
 33
0.0
 40
0.0
 40
0.0
 40
0.0
 40
0.0
 40
1.0
 40
1.0
 40
1.0
 40
2.0
 40
2.0
 40
2.0
 40
3.0
 40
3.0
 40
3.0
 40
4.0
 40
4.0
 40
4.0
 40
4.0
 10
63.95716415501766
 20
-132.260316264678
 30
0.0
 10
63.95716415501766
 20
-132.4253363384215
 30
0.0
 10
64.05224879041056
 20
-132.5100856873586
 30
0.0
 10
64.18764104298087
 20
-132.5100856873586
 30
0.0
 10
64.31045869703003
 20
-132.5100856873586
 30
0.0
 10
64.42896998172262
 20
-132.4380831917169
 30
0.0
 10
64.42896998172262
 20
-132.260316264678
 30
0.0
 10
64.42896998172262
 20
-132.0825493376391
 30
0.0
 10
64.31045869703003
 20
-132.0105468419974
 30
0.0
 10
64.18764104298087
 20
-132.0105468419974
 30
0.0
 10
64.05224879041056
 20
-132.0105468419974
 30
0.0
 10
63.95716415501766
 20
-132.0973632482257
 30
0.0
 10
63.95716415501766
 20
-132.260316264678
 30
0.0
  0
SPLINE
  5
AF
330
A7
100
AcDbEntity
  8
_U+30EC_U+30A4_U+30E4_U+30FC 1
370
     0
100
AcDbSpline
210
0.0
220
0.0
230
1.0
 70
    11
 71
     3
 72
    17
 73
    13
 74
     0
 42
0.0000000001
 43
0.0000000001
 12
1.0
 22
0.0
 32
0.0
 13
1.0
 23
0.0
 33
0.0
 40
0.0
 40
0.0
 40
0.0
 40
0.0
 40
1.0
 40
1.0
 40
1.0
 40
2.0
 40
2.0
 40
2.0
 40
3.0
 40
3.0
 40
3.0
 40
4.0
 40
4.0
 40
4.0
 40
4.0
 10
64.61724444999153
 20
-132.260316264678
 30
0.0
 10
64.61724444999153
 20
-132.4039767464129
 30
0.0
 10
64.70388860144556
 20
-132.5565944764095
 30
0.0
 10
64.90697698030104
 20
-132.5565944764095
 30
0.0
 10
65.11213241644766
 20
-132.5565944764095
 30
0.0
 10
65.21376273326254
 20
-132.4294704530037
 30
0.0
 10
65.21376273326254
 20
-132.260316264678
 30
0.0
 10
65.21376273326254
 20
-132.0742811084745
 30
0.0
 10
65.09111733398764
 20
-131.9640380529465
 30
0.0
 10
64.91335040694875
 20
-131.9640380529465
 30
0.0
 10
64.69114174815013
 20
-131.9640380529465
 30
0.0
 10
64.61724444999153
 20
-132.1269910693988
 30
0.0
 10
64.61724444999153
 20
-132.260316264678
 30
0.0
  0
HATCH
  5
B0
330
A7
100
AcDbEntity
  8
_U+30EC_U+30A4_U+30E4_U+30FC 1
 62
   179
420
  2234388
100
AcDbHatch
 10
0.0
 20
0.0
 30
0.0
210
0.0
220
0.0
230
1.0
  2
SOLID
 70
     1
 71
     0
 91
        3
 92
        1
 93
        1
 72
     4
 94
        3
 73
     0
 74
     1
 95
       29
 96
       25
 40
0.0
 40
0.0
 40
0.0
 40
0.0
 40
1.0
 40
1.0
 40
1.0
 40
2.0
 40
2.0
 40
2.0
 40
3.0
 40
3.0
 40
3.0
 40
4.0
 40
4.0
 40
4.0
 40
5.0
 40
5.0
 40
5.0
 40
6.0
 40
6.0
 40
6.0
 40
7.0
 40
7.0
 40
7.0
 40
8.0
 40
8.0
 40
8.0
 40
8.0
 10
65.40841062817915
 20
-132.260316264678
 10
65.40841062817915
 20
-132.5269666552363
 10
65.27077906354342
 20
-132.7808701924992
 10
64.9217908908876
 20
-132.7808701924992
 10
64.66582029633355
 20
-132.7808701924992
 10
64.57056340616639
 20
-132.6389322585069
 10
64.50924070652894
 20
-132.5331678271098
 10
64.44998506418264
 20
-132.6578802836758
 10
64.33578014884661
 20
-132.7340168938998
 10
64.1750664444597
 20
-132.7340168938998
 10
63.89997556996251
 20
-132.7340168938998
 10
63.76458331739219
 20
-132.5352348844009
 10
63.76458331739219
 20
-132.260316264678
 10
63.76458331739219
 20
-131.9767849062419
 10
63.90841605390137
 20
-131.7862711259076
 10
64.1750664444597
 20
-131.7862711259076
 10
64.33578014884661
 20
-131.7862711259076
 10
64.44998506418264
 20
-131.8648193029713
 10
64.50924070652894
 20
-131.9895317595374
 10
64.56005586493637
 20
-131.9006482960179
 10
64.65531275510354
 20
-131.7418293941479
 10
64.91748452153105
 20
-131.7418293941479
 10
65.29196640077771
 20
-131.7418293941479
 10
65.40841062817915
 20
-132.0212266380017
 10
65.40841062817915
 20
-132.260316264678
 97
        0
 97
        0
 92
        1
 93
        1
 72
     4
 94
        3
 73
     0
 74
     1
 95
       17
 96
       13
 40
0.0
 40
0.0
 40
0.0
 40
0.0
 40
1.0
 40
1.0
 40
1.0
 40
2.0
 40
2.0
 40
2.0
 40
3.0
 40
3.0
 40
3.0
 40
4.0
 40
4.0
 40
4.0
 40
4.0
 10
63.95716415501766
 20
-132.260316264678
 10
63.95716415501766
 20
-132.4253363384215
 10
64.05224879041056
 20
-132.5100856873586
 10
64.18764104298087
 20
-132.5100856873586
 10
64.31045869703003
 20
-132.5100856873586
 10
64.42896998172262
 20
-132.4380831917169
 10
64.42896998172262
 20
-132.260316264678
 10
64.42896998172262
 20
-132.0825493376391
 10
64.31045869703003
 20
-132.0105468419974
 10
64.18764104298087
 20
-132.0105468419974
 10
64.05224879041056
 20
-132.0105468419974
 10
63.95716415501766
 20
-132.0973632482257
 10
63.95716415501766
 20
-132.260316264678
 97
        0
 97
        0
 92
        1
 93
        1
 72
     4
 94
        3
 73
     0
 74
     1
 95
       17
 96
       13
 40
0.0
 40
0.0
 40
0.0
 40
0.0
 40
1.0
 40
1.0
 40
1.0
 40
2.0
 40
2.0
 40
2.0
 40
3.0
 40
3.0
 40
3.0
 40
4.0
 40
4.0
 40
4.0
 40
4.0
 10
64.61724444999153
 20
-132.260316264678
 10
64.61724444999153
 20
-132.4039767464129
 10
64.70388860144556
 20
-132.5565944764095
 10
64.90697698030104
 20
-132.5565944764095
 10
65.11213241644766
 20
-132.5565944764095
 10
65.21376273326254
 20
-132.4294704530037
 10
65.21376273326254
 20
-132.260316264678
 10
65.21376273326254
 20
-132.0742811084745
 10
65.09111733398764
 20
-131.9640380529465
 10
64.91335040694875
 20
-131.9640380529465
 10
64.69114174815013
 20
-131.9640380529465
 10
64.61724444999153
 20
-132.1269910693988
 10
64.61724444999153
 20
-132.260316264678
 97
        0
 97
        0
 75
     2
 76
     1
 98
        0
  0
ENDBLK
  5
AA
330
A7
100
AcDbEntity
  8
0
100
AcDbBlockEnd
  0
BLOCK
  5
B8
330
B6
100
AcDbEntity
  8
0
100
AcDbBlockBegin
  2
block 7
 70
     0
 10
0.0
 20
0.0
 30
0.0
  3
block 7
  1

  0
SPLINE
  5
BA
330
B6
100
AcDbEntity
  8
_U+30EC_U+30A4_U+30E4_U+30FC 1
370
     0
100
AcDbSpline
210
0.0
220
0.0
230
1.0
 70
    11
 71
     3
 72
    26
 73
    22
 74
     0
 42
0.0000000001
 43
0.0000000001
 12
1.0
 22
0.0
 32
0.0
 13
1.0
 23
0.0
 33
0.0
 40
0.0
 40
0.0
 40
0.0
 40
0.0
 40
1.0
 40
1.0
 40
1.0
 40
2.0
 40
2.0
 40
2.0
 40
3.0
 40
3.0
 40
3.0
 40
4.0
 40
4.0
 40
4.0
 40
5.0
 40
5.0
 40
5.0
 40
6.0
 40
6.0
 40
6.0
 40
7.0
 40
7.0
 40
7.0
 40
7.0
 10
76.91640758710771
 20
-150.5138101837257
 30
0.0
 10
76.91640758710771
 20
-150.5138101837257
 30
0.0
 10
76.91640758710771
 20
-149.4096570807031
 30
0.0
 10
76.91640758710771
 20
-149.4096570807031
 30
0.0
 10
76.91640758710771
 20
-149.4096570807031
 30
0.0
 10
76.58636743962077
 20
-149.4096570807031
 30
0.0
 10
76.58636743962077
 20
-149.4096570807031
 30
0.0
 10
76.58636743962077
 20
-149.4096570807031
 30
0.0
 10
76.58636743962077
 20
-149.2615179748374
 30
0.0
 10
76.58636743962077
 20
-149.2615179748374
 30
0.0
 10
76.91847464439886
 20
-149.2467040642508
 30
0.0
 10
76.96498343344973
 20
-149.0837510477985
 30
0.0
 10
76.99461125462288
 20
-148.9693738776882
 30
0.0
 10
76.99461125462288
 20
-148.9693738776882
 30
0.0
 10
77.14068330319748
 20
-148.9693738776882
 30
0.0
 10
77.14068330319748
 20
-148.9693738776882
 30
0.0
 10
77.14068330319748
 20
-148.9693738776882
 30
0.0
 10
77.14068330319748
 20
-150.5138101837257
 30
0.0
 10
77.14068330319748
 20
-150.5138101837257
 30
0.0
 10
77.14068330319748
 20
-150.5138101837257
 30
0.0
 10
76.91640758710771
 20
-150.5138101837257
 30
0.0
 10
76.91640758710771
 20
-150.5138101837257
 30
0.0
  0
HATCH
  5
BB
330
B6
100
AcDbEntity
  8
_U+30EC_U+30A4_U+30E4_U+30FC 1
 62
   179
420
  2234388
100
AcDbHatch
 10
0.0
 20
0.0
 30
0.0
210
0.0
220
0.0
230
1.0
  2
SOLID
 70
     1
 71
     0
 91
        1
 92
        1
 93
        1
 72
     4
 94
        3
 73
     0
 74
     1
 95
       26
 96
       22
 40
0.0
 40
0.0
 40
0.0
 40
0.0
 40
1.0
 40
1.0
 40
1.0
 40
2.0
 40
2.0
 40
2.0
 40
3.0
 40
3.0
 40
3.0
 40
4.0
 40
4.0
 40
4.0
 40
5.0
 40
5.0
 40
5.0
 40
6.0
 40
6.0
 40
6.0
 40
7.0
 40
7.0
 40
7.0
 40
7.0
 10
76.91640758710771
 20
-150.5138101837257
 10
76.91640758710771
 20
-150.5138101837257
 10
76.91640758710771
 20
-149.4096570807031
 10
76.91640758710771
 20
-149.4096570807031
 10
76.91640758710771
 20
-149.4096570807031
 10
76.58636743962077
 20
-149.4096570807031
 10
76.58636743962077
 20
-149.4096570807031
 10
76.58636743962077
 20
-149.4096570807031
 10
76.58636743962077
 20
-149.2615179748374
 10
76.58636743962077
 20
-149.2615179748374
 10
76.91847464439886
 20
-149.2467040642508
 10
76.96498343344973
 20
-149.0837510477985
 10
76.99461125462288
 20
-148.9693738776882
 10
76.99461125462288
 20
-148.9693738776882
 10
77.14068330319748
 20
-148.9693738776882
 10
77.14068330319748
 20
-148.9693738776882
 10
77.14068330319748
 20
-148.9693738776882
 10
77.14068330319748
 20
-150.5138101837257
 10
77.14068330319748
 20
-150.5138101837257
 10
77.14068330319748
 20
-150.5138101837257
 10
76.91640758710771
 20
-150.5138101837257
 10
76.91640758710771
 20
-150.5138101837257
 97
        0
 97
        0
 75
     2
 76
     1
 98
        0
  0
SPLINE
  5
BC
330
B6
100
AcDbEntity
  8
_U+30EC_U+30A4_U+30E4_U+30FC 1
370
     0
100
AcDbSpline
210
0.0
220
0.0
230
1.0
 70
    11
 71
     3
 72
    53
 73
    49
 74
     0
 42
0.0000000001
 43
0.0000000001
 12
1.0
 22
0.0
 32
0.0
 13
1.0
 23
0.0
 33
0.0
 40
0.0
 40
0.0
 40
0.0
 40
0.0
 40
1.0
 40
1.0
 40
1.0
 40
2.0
 40
2.0
 40
2.0
 40
3.0
 40
3.0
 40
3.0
 40
4.0
 40
4.0
 40
4.0
 40
5.0
 40
5.0
 40
5.0
 40
6.0
 40
6.0
 40
6.0
 40
7.0
 40
7.0
 40
7.0
 40
8.0
 40
8.0
 40
8.0
 40
9.0
 40
9.0
 40
9.0
 40
10.0
 40
10.0
 40
10.0
 40
11.0
 40
11.0
 40
11.0
 40
12.0
 40
12.0
 40
12.0
 40
13.0
 40
13.0
 40
13.0
 40
14.0
 40
14.0
 40
14.0
 40
15.0
 40
15.0
 40
15.0
 40
16.0
 40
16.0
 40
16.0
 40
16.0
 10
78.1228800260422
 20
-150.5644530873589
 30
0.0
 10
78.04467635852703
 20
-150.5644530873589
 30
0.0
 10
77.94304604171217
 20
-150.5475721194812
 30
0.0
 10
77.84141572489729
 20
-150.4841823625526
 30
0.0
 10
77.66812742198923
 20
-150.3742838165731
 30
0.0
 10
77.64676782998067
 20
-150.2430256785851
 30
0.0
 10
77.62781980481179
 20
-150.1351941898968
 30
0.0
 10
77.62781980481179
 20
-150.1351941898968
 30
0.0
 10
77.85002846361041
 20
-150.1351941898968
 30
0.0
 10
77.85002846361041
 20
-150.1351941898968
 30
0.0
 10
77.90480548182589
 20
-150.3339761993957
 30
0.0
 10
78.0319295052316
 20
-150.3636040205688
 30
0.0
 10
78.12494708333335
 20
-150.3636040205688
 30
0.0
 10
78.26447345048597
 20
-150.3636040205688
 30
0.0
 10
78.41674667093402
 20
-150.2640407610451
 30
0.0
 10
78.41674667093402
 20
-150.0314968157907
 30
0.0
 10
78.41674667093402
 20
-149.7755262212367
 30
0.0
 10
78.23691268660397
 20
-149.7055907828861
 30
0.0
 10
78.11633434462023
 20
-149.7055907828861
 30
0.0
 10
78.08463946615592
 20
-149.7055907828861
 30
0.0
 10
77.94304604171217
 20
-149.7055907828861
 30
0.0
 10
77.85416257819271
 20
-149.834781863583
 30
0.0
 10
77.85416257819271
 20
-149.834781863583
 30
0.0
 10
77.67846270844497
 20
-149.8158338384141
 30
0.0
 10
77.67846270844497
 20
-149.8158338384141
 30
0.0
 10
77.67846270844497
 20
-149.8158338384141
 30
0.0
 10
77.79904105042871
 20
-148.9693738776882
 30
0.0
 10
77.79904105042871
 20
-148.9693738776882
 30
0.0
 10
77.79904105042871
 20
-148.9693738776882
 30
0.0
 10
78.57763263009518
 20
-148.9693738776882
 30
0.0
 10
78.57763263009518
 20
-148.9693738776882
 30
0.0
 10
78.57763263009518
 20
-148.9693738776882
 30
0.0
 10
78.57763263009518
 20
-149.1640217726048
 30
0.0
 10
78.57763263009518
 20
-149.1640217726048
 30
0.0
 10
78.57763263009518
 20
-149.1640217726048
 30
0.0
 10
77.96199406688103
 20
-149.1640217726048
 30
0.0
 10
77.96199406688103
 20
-149.1640217726048
 30
0.0
 10
77.96199406688103
 20
-149.1640217726048
 30
0.0
 10
77.89653725266129
 20
-149.5870794981935
 30
0.0
 10
77.89653725266129
 20
-149.5870794981935
 30
0.0
 10
77.95785995229873
 20
-149.5533175624381
 30
0.0
 10
78.0401977343962
 20
-149.5130099452606
 30
0.0
 10
78.1587090190888
 20
-149.5130099452606
 30
0.0
 10
78.41261255635172
 20
-149.5130099452606
 30
0.0
 10
78.6496351257369
 20
-149.6993896110127
 30
0.0
 10
78.6496351257369
 20
-150.0125487906219
 30
0.0
 10
78.6496351257369
 20
-150.3298420848134
 30
0.0
 10
78.42535940964713
 20
-150.5644530873589
 30
0.0
 10
78.1228800260422
 20
-150.5644530873589
 30
0.0
  0
HATCH
  5
BD
330
B6
100
AcDbEntity
  8
_U+30EC_U+30A4_U+30E4_U+30FC 1
 62
   179
420
  2234388
100
AcDbHatch
 10
0.0
 20
0.0
 30
0.0
210
0.0
220
0.0
230
1.0
  2
SOLID
 70
     1
 71
     0
 91
        1
 92
        1
 93
        1
 72
     4
 94
        3
 73
     0
 74
     1
 95
       53
 96
       49
 40
0.0
 40
0.0
 40
0.0
 40
0.0
 40
1.0
 40
1.0
 40
1.0
 40
2.0
 40
2.0
 40
2.0
 40
3.0
 40
3.0
 40
3.0
 40
4.0
 40
4.0
 40
4.0
 40
5.0
 40
5.0
 40
5.0
 40
6.0
 40
6.0
 40
6.0
 40
7.0
 40
7.0
 40
7.0
 40
8.0
 40
8.0
 40
8.0
 40
9.0
 40
9.0
 40
9.0
 40
10.0
 40
10.0
 40
10.0
 40
11.0
 40
11.0
 40
11.0
 40
12.0
 40
12.0
 40
12.0
 40
13.0
 40
13.0
 40
13.0
 40
14.0
 40
14.0
 40
14.0
 40
15.0
 40
15.0
 40
15.0
 40
16.0
 40
16.0
 40
16.0
 40
16.0
 10
78.1228800260422
 20
-150.5644530873589
 10
78.04467635852703
 20
-150.5644530873589
 10
77.94304604171217
 20
-150.5475721194812
 10
77.84141572489729
 20
-150.4841823625526
 10
77.66812742198923
 20
-150.3742838165731
 10
77.64676782998067
 20
-150.2430256785851
 10
77.62781980481179
 20
-150.1351941898968
 10
77.62781980481179
 20
-150.1351941898968
 10
77.85002846361041
 20
-150.1351941898968
 10
77.85002846361041
 20
-150.1351941898968
 10
77.90480548182589
 20
-150.3339761993957
 10
78.0319295052316
 20
-150.3636040205688
 10
78.12494708333335
 20
-150.3636040205688
 10
78.26447345048597
 20
-150.3636040205688
 10
78.41674667093402
 20
-150.2640407610451
 10
78.41674667093402
 20
-150.0314968157907
 10
78.41674667093402
 20
-149.7755262212367
 10
78.23691268660397
 20
-149.7055907828861
 10
78.11633434462023
 20
-149.7055907828861
 10
78.08463946615592
 20
-149.7055907828861
 10
77.94304604171217
 20
-149.7055907828861
 10
77.85416257819271
 20
-149.834781863583
 10
77.85416257819271
 20
-149.834781863583
 10
77.67846270844497
 20
-149.8158338384141
 10
77.67846270844497
 20
-149.8158338384141
 10
77.67846270844497
 20
-149.8158338384141
 10
77.79904105042871
 20
-148.9693738776882
 10
77.79904105042871
 20
-148.9693738776882
 10
77.79904105042871
 20
-148.9693738776882
 10
78.57763263009518
 20
-148.9693738776882
 10
78.57763263009518
 20
-148.9693738776882
 10
78.57763263009518
 20
-148.9693738776882
 10
78.57763263009518
 20
-149.1640217726048
 10
78.57763263009518
 20
-149.1640217726048
 10
78.57763263009518
 20
-149.1640217726048
 10
77.96199406688103
 20
-149.1640217726048
 10
77.96199406688103
 20
-149.1640217726048
 10
77.96199406688103
 20
-149.1640217726048
 10
77.89653725266129
 20
-149.5870794981935
 10
77.89653725266129
 20
-149.5870794981935
 10
77.95785995229873
 20
-149.5533175624381
 10
78.0401977343962
 20
-149.5130099452606
 10
78.1587090190888
 20
-149.5130099452606
 10
78.41261255635172
 20
-149.5130099452606
 10
78.6496351257369
 20
-149.6993896110127
 10
78.6496351257369
 20
-150.0125487906219
 10
78.6496351257369
 20
-150.3298420848134
 10
78.42535940964713
 20
-150.5644530873589
 10
78.1228800260422
 20
-150.5644530873589
 97
        0
 97
        0
 75
     2
 76
     1
 98
        0
  0
ENDBLK
  5
B9
330
B6
100
AcDbEntity
  8
0
100
AcDbBlockEnd
  0
BLOCK
  5
C0
330
BE
100
AcDbEntity
  8
0
100
AcDbBlockBegin
  2
block 8
 70
     0
 10
0.0
 20
0.0
 30
0.0
  3
block 8
  1

  0
SPLINE
  5
C2
330
BE
100
AcDbEntity
  8
_U+30EC_U+30A4_U+30E4_U+30FC 1
370
     0
100
AcDbSpline
210
0.0
220
0.0
230
1.0
 70
    11
 71
     3
 72
    26
 73
    22
 74
     0
 42
0.0000000001
 43
0.0000000001
 12
1.0
 22
0.0
 32
0.0
 13
1.0
 23
0.0
 33
0.0
 40
0.0
 40
0.0
 40
0.0
 40
0.0
 40
1.0
 40
1.0
 40
1.0
 40
2.0
 40
2.0
 40
2.0
 40
3.0
 40
3.0
 40
3.0
 40
4.0
 40
4.0
 40
4.0
 40
5.0
 40
5.0
 40
5.0
 40
6.0
 40
6.0
 40
6.0
 40
7.0
 40
7.0
 40
7.0
 40
7.0
 10
90.28027748394035
 20
-150.5138101837257
 30
0.0
 10
90.28027748394035
 20
-150.5138101837257
 30
0.0
 10
90.28027748394035
 20
-149.4096570807031
 30
0.0
 10
90.28027748394035
 20
-149.4096570807031
 30
0.0
 10
90.28027748394035
 20
-149.4096570807031
 30
0.0
 10
89.95023733645341
 20
-149.4096570807031
 30
0.0
 10
89.95023733645341
 20
-149.4096570807031
 30
0.0
 10
89.95023733645341
 20
-149.4096570807031
 30
0.0
 10
89.95023733645341
 20
-149.2615179748374
 30
0.0
 10
89.95023733645341
 20
-149.2615179748374
 30
0.0
 10
90.2823445412315
 20
-149.2467040642508
 30
0.0
 10
90.32885333028237
 20
-149.0837510477985
 30
0.0
 10
90.35848115145552
 20
-148.9693738776882
 30
0.0
 10
90.35848115145552
 20
-148.9693738776882
 30
0.0
 10
90.50455320003012
 20
-148.9693738776882
 30
0.0
 10
90.50455320003012
 20
-148.9693738776882
 30
0.0
 10
90.50455320003012
 20
-148.9693738776882
 30
0.0
 10
90.50455320003012
 20
-150.5138101837257
 30
0.0
 10
90.50455320003012
 20
-150.5138101837257
 30
0.0
 10
90.50455320003012
 20
-150.5138101837257
 30
0.0
 10
90.28027748394035
 20
-150.5138101837257
 30
0.0
 10
90.28027748394035
 20
-150.5138101837257
 30
0.0
  0
HATCH
  5
C3
330
BE
100
AcDbEntity
  8
_U+30EC_U+30A4_U+30E4_U+30FC 1
 62
   179
420
  2234388
100
AcDbHatch
 10
0.0
 20
0.0
 30
0.0
210
0.0
220
0.0
230
1.0
  2
SOLID
 70
     1
 71
     0
 91
        1
 92
        1
 93
        1
 72
     4
 94
        3
 73
     0
 74
     1
 95
       26
 96
       22
 40
0.0
 40
0.0
 40
0.0
 40
0.0
 40
1.0
 40
1.0
 40
1.0
 40
2.0
 40
2.0
 40
2.0
 40
3.0
 40
3.0
 40
3.0
 40
4.0
 40
4.0
 40
4.0
 40
5.0
 40
5.0
 40
5.0
 40
6.0
 40
6.0
 40
6.0
 40
7.0
 40
7.0
 40
7.0
 40
7.0
 10
90.28027748394035
 20
-150.5138101837257
 10
90.28027748394035
 20
-150.5138101837257
 10
90.28027748394035
 20
-149.4096570807031
 10
90.28027748394035
 20
-149.4096570807031
 10
90.28027748394035
 20
-149.4096570807031
 10
89.95023733645341
 20
-149.4096570807031
 10
89.95023733645341
 20
-149.4096570807031
 10
89.95023733645341
 20
-149.4096570807031
 10
89.95023733645341
 20
-149.2615179748374
 10
89.95023733645341
 20
-149.2615179748374
 10
90.2823445412315
 20
-149.2467040642508
 10
90.32885333028237
 20
-149.0837510477985
 10
90.35848115145552
 20
-148.9693738776882
 10
90.35848115145552
 20
-148.9693738776882
 10
90.50455320003012
 20
-148.9693738776882
 10
90.50455320003012
 20
-148.9693738776882
 10
90.50455320003012
 20
-148.9693738776882
 10
90.50455320003012
 20
-150.5138101837257
 10
90.50455320003012
 20
-150.5138101837257
 10
90.50455320003012
 20
-150.5138101837257
 10
90.28027748394035
 20
-150.5138101837257
 10
90.28027748394035
 20
-150.5138101837257
 97
        0
 97
        0
 75
     2
 76
     1
 98
        0
  0
SPLINE
  5
C4
330
BE
100
AcDbEntity
  8
_U+30EC_U+30A4_U+30E4_U+30FC 1
370
     0
100
AcDbSpline
210
0.0
220
0.0
230
1.0
 70
    11
 71
     3
 72
    44
 73
    40
 74
     0
 42
0.0000000001
 43
0.0000000001
 12
1.0
 22
0.0
 32
0.0
 13
1.0
 23
0.0
 33
0.0
 40
0.0
 40
0.0
 40
0.0
 40
0.0
 40
1.0
 40
1.0
 40
1.0
 40
2.0
 40
2.0
 40
2.0
 40
3.0
 40
3.0
 40
3.0
 40
4.0
 40
4.0
 40
4.0
 40
5.0
 40
5.0
 40
5.0
 40
6.0
 40
6.0
 40
6.0
 40
7.0
 40
7.0
 40
7.0
 40
8.0
 40
8.0
 40
8.0
 40
9.0
 40
9.0
 40
9.0
 40
10.0
 40
10.0
 40
10.0
 40
11.0
 40
11.0
 40
11.0
 40
12.0
 40
12.0
 40
12.0
 40
13.0
 40
13.0
 40
13.0
 40
13.0
 10
91.5985432713712
 20
-149.931933556267
 30
0.0
 10
91.38081323670342
 20
-150.090752458137
 30
0.0
 10
91.28796791337592
 20
-150.1648220110699
 30
0.0
 10
91.23904755748538
 20
-150.3084824928048
 30
0.0
 10
91.23904755748538
 20
-150.3084824928048
 30
0.0
 10
92.01746688237758
 20
-150.3084824928048
 30
0.0
 10
92.01746688237758
 20
-150.3084824928048
 30
0.0
 10
92.01746688237758
 20
-150.3084824928048
 30
0.0
 10
92.01746688237758
 20
-150.5138101837257
 30
0.0
 10
92.01746688237758
 20
-150.5138101837257
 30
0.0
 10
92.01746688237758
 20
-150.5138101837257
 30
0.0
 10
90.98962264435329
 20
-150.5138101837257
 30
0.0
 10
90.98962264435329
 20
-150.5138101837257
 30
0.0
 10
91.0213175228176
 20
-150.1562092723568
 30
0.0
 10
91.08677433703734
 20
-150.0780056048416
 30
0.0
 10
91.47176375751401
 20
-149.779660335819
 30
0.0
 10
91.72773435206807
 20
-149.5808783263201
 30
0.0
 10
91.79319116628781
 20
-149.5130099452606
 30
0.0
 10
91.79319116628781
 20
-149.3755506353992
 30
0.0
 10
91.79319116628781
 20
-149.2570393507066
 30
0.0
 10
91.7211886706461
 20
-149.1261257222671
 30
0.0
 10
91.52447371843833
 20
-149.1261257222671
 30
0.0
 10
91.26454126407623
 20
-149.1261257222671
 30
0.0
 10
91.25627303491163
 20
-149.3566026102303
 30
0.0
 10
91.2517944107808
 20
-149.4730468376318
 30
0.0
 10
91.2517944107808
 20
-149.4730468376318
 30
0.0
 10
91.02751869469104
 20
-149.4730468376318
 30
0.0
 10
91.02751869469104
 20
-149.4730468376318
 30
0.0
 10
91.03613143340417
 20
-149.345922814226
 30
0.0
 10
91.04681122940843
 20
-149.2339572109554
 30
0.0
 10
91.12708195421476
 20
-149.1154459262628
 30
0.0
 10
91.23698050019424
 20
-148.9545599671016
 30
0.0
 10
91.42318791117198
 20
-148.9207980313462
 30
0.0
 10
91.5392876290249
 20
-148.9207980313462
 30
0.0
 10
91.81661781558752
 20
-148.9207980313462
 30
0.0
 10
92.02401256379956
 20
-149.1047661302585
 30
0.0
 10
92.02401256379956
 20
-149.3776176926903
 30
0.0
 10
92.02401256379956
 20
-149.6063720329109
 30
0.0
 10
91.90756833639811
 20
-149.7055907828861
 30
0.0
 10
91.5985432713712
 20
-149.931933556267
 30
0.0
  0
HATCH
  5
C5
330
BE
100
AcDbEntity
  8
_U+30EC_U+30A4_U+30E4_U+30FC 1
 62
   179
420
  2234388
100
AcDbHatch
 10
0.0
 20
0.0
 30
0.0
210
0.0
220
0.0
230
1.0
  2
SOLID
 70
     1
 71
     0
 91
        1
 92
        1
 93
        1
 72
     4
 94
        3
 73
     0
 74
     1
 95
       44
 96
       40
 40
0.0
 40
0.0
 40
0.0
 40
0.0
 40
1.0
 40
1.0
 40
1.0
 40
2.0
 40
2.0
 40
2.0
 40
3.0
 40
3.0
 40
3.0
 40
4.0
 40
4.0
 40
4.0
 40
5.0
 40
5.0
 40
5.0
 40
6.0
 40
6.0
 40
6.0
 40
7.0
 40
7.0
 40
7.0
 40
8.0
 40
8.0
 40
8.0
 40
9.0
 40
9.0
 40
9.0
 40
10.0
 40
10.0
 40
10.0
 40
11.0
 40
11.0
 40
11.0
 40
12.0
 40
12.0
 40
12.0
 40
13.0
 40
13.0
 40
13.0
 40
13.0
 10
91.5985432713712
 20
-149.931933556267
 10
91.38081323670342
 20
-150.090752458137
 10
91.28796791337592
 20
-150.1648220110699
 10
91.23904755748538
 20
-150.3084824928048
 10
91.23904755748538
 20
-150.3084824928048
 10
92.01746688237758
 20
-150.3084824928048
 10
92.01746688237758
 20
-150.3084824928048
 10
92.01746688237758
 20
-150.3084824928048
 10
92.01746688237758
 20
-150.5138101837257
 10
92.01746688237758
 20
-150.5138101837257
 10
92.01746688237758
 20
-150.5138101837257
 10
90.98962264435329
 20
-150.5138101837257
 10
90.98962264435329
 20
-150.5138101837257
 10
91.0213175228176
 20
-150.1562092723568
 10
91.08677433703734
 20
-150.0780056048416
 10
91.47176375751401
 20
-149.779660335819
 10
91.72773435206807
 20
-149.5808783263201
 10
91.79319116628781
 20
-149.5130099452606
 10
91.79319116628781
 20
-149.3755506353992
 10
91.79319116628781
 20
-149.2570393507066
 10
91.7211886706461
 20
-149.1261257222671
 10
91.52447371843833
 20
-149.1261257222671
 10
91.26454126407623
 20
-149.1261257222671
 10
91.25627303491163
 20
-149.3566026102303
 10
91.2517944107808
 20
-149.4730468376318
 10
91.2517944107808
 20
-149.4730468376318
 10
91.02751869469104
 20
-149.4730468376318
 10
91.02751869469104
 20
-149.4730468376318
 10
91.03613143340417
 20
-149.345922814226
 10
91.04681122940843
 20
-149.2339572109554
 10
91.12708195421476
 20
-149.1154459262628
 10
91.23698050019424
 20
-148.9545599671016
 10
91.42318791117198
 20
-148.9207980313462
 10
91.5392876290249
 20
-148.9207980313462
 10
91.81661781558752
 20
-148.9207980313462
 10
92.02401256379956
 20
-149.1047661302585
 10
92.02401256379956
 20
-149.3776176926903
 10
92.02401256379956
 20
-149.6063720329109
 10
91.90756833639811
 20
-149.7055907828861
 10
91.5985432713712
 20
-149.931933556267
 97
        0
 97
        0
 75
     2
 76
     1
 98
        0
  0
ENDBLK
  5
C1
330
BE
100
AcDbEntity
  8
0
100
AcDbBlockEnd
  0
BLOCK
  5
C8
330
C6
100
AcDbEntity
  8
0
100
AcDbBlockBegin
  2
block 9
 70
     0
 10
0.0
 20
0.0
 30
0.0
  3
block 9
  1

  0
SPLINE
  5
CA
330
C6
100
AcDbEntity
  8
_U+30EC_U+30A4_U+30E4_U+30FC 1
370
     0
100
AcDbSpline
210
0.0
220
0.0
230
1.0
 70
    11
 71
     3
 72
    26
 73
    22
 74
     0
 42
0.0000000001
 43
0.0000000001
 12
1.0
 22
0.0
 32
0.0
 13
1.0
 23
0.0
 33
0.0
 40
0.0
 40
0.0
 40
0.0
 40
0.0
 40
1.0
 40
1.0
 40
1.0
 40
2.0
 40
2.0
 40
2.0
 40
3.0
 40
3.0
 40
3.0
 40
4.0
 40
4.0
 40
4.0
 40
5.0
 40
5.0
 40
5.0
 40
6.0
 40
6.0
 40
6.0
 40
7.0
 40
7.0
 40
7.0
 40
7.0
 10
99.07061086932957
 20
-150.5138101837257
 30
0.0
 10
99.07061086932957
 20
-150.5138101837257
 30
0.0
 10
99.07061086932957
 20
-149.4096570807031
 30
0.0
 10
99.07061086932957
 20
-149.4096570807031
 30
0.0
 10
99.07061086932957
 20
-149.4096570807031
 30
0.0
 10
98.74057072184264
 20
-149.4096570807031
 30
0.0
 10
98.74057072184264
 20
-149.4096570807031
 30
0.0
 10
98.74057072184264
 20
-149.4096570807031
 30
0.0
 10
98.74057072184264
 20
-149.2615179748374
 30
0.0
 10
98.74057072184264
 20
-149.2615179748374
 30
0.0
 10
99.07267792662073
 20
-149.2467040642508
 30
0.0
 10
99.1191867156716
 20
-149.0837510477985
 30
0.0
 10
99.14881453684474
 20
-148.9693738776882
 30
0.0
 10
99.14881453684474
 20
-148.9693738776882
 30
0.0
 10
99.29488658541933
 20
-148.9693738776882
 30
0.0
 10
99.29488658541933
 20
-148.9693738776882
 30
0.0
 10
99.29488658541933
 20
-148.9693738776882
 30
0.0
 10
99.29488658541933
 20
-150.5138101837257
 30
0.0
 10
99.29488658541933
 20
-150.5138101837257
 30
0.0
 10
99.29488658541933
 20
-150.5138101837257
 30
0.0
 10
99.07061086932957
 20
-150.5138101837257
 30
0.0
 10
99.07061086932957
 20
-150.5138101837257
 30
0.0
  0
HATCH
  5
CB
330
C6
100
AcDbEntity
  8
_U+30EC_U+30A4_U+30E4_U+30FC 1
 62
   179
420
  2234388
100
AcDbHatch
 10
0.0
 20
0.0
 30
0.0
210
0.0
220
0.0
230
1.0
  2
SOLID
 70
     1
 71
     0
 91
        1
 92
        1
 93
        1
 72
     4
 94
        3
 73
     0
 74
     1
 95
       26
 96
       22
 40
0.0
 40
0.0
 40
0.0
 40
0.0
 40
1.0
 40
1.0
 40
1.0
 40
2.0
 40
2.0
 40
2.0
 40
3.0
 40
3.0
 40
3.0
 40
4.0
 40
4.0
 40
4.0
 40
5.0
 40
5.0
 40
5.0
 40
6.0
 40
6.0
 40
6.0
 40
7.0
 40
7.0
 40
7.0
 40
7.0
 10
99.07061086932957
 20
-150.5138101837257
 10
99.07061086932957
 20
-150.5138101837257
 10
99.07061086932957
 20
-149.4096570807031
 10
99.07061086932957
 20
-149.4096570807031
 10
99.07061086932957
 20
-149.4096570807031
 10
98.74057072184264
 20
-149.4096570807031
 10
98.74057072184264
 20
-149.4096570807031
 10
98.74057072184264
 20
-149.4096570807031
 10
98.74057072184264
 20
-149.2615179748374
 10
98.74057072184264
 20
-149.2615179748374
 10
99.07267792662073
 20
-149.2467040642508
 10
99.1191867156716
 20
-149.0837510477985
 10
99.14881453684474
 20
-148.9693738776882
 10
99.14881453684474
 20
-148.9693738776882
 10
99.29488658541933
 20
-148.9693738776882
 10
99.29488658541933
 20
-148.9693738776882
 10
99.29488658541933
 20
-148.9693738776882
 10
99.29488658541933
 20
-150.5138101837257
 10
99.29488658541933
 20
-150.5138101837257
 10
99.29488658541933
 20
-150.5138101837257
 10
99.07061086932957
 20
-150.5138101837257
 10
99.07061086932957
 20
-150.5138101837257
 97
        0
 97
        0
 75
     2
 76
     1
 98
        0
  0
ENDBLK
  5
C9
330
C6
100
AcDbEntity
  8
0
100
AcDbBlockEnd
  0
BLOCK
  5
D0
330
CE
100
AcDbEntity
  8
0
100
AcDbBlockBegin
  2
block 10
 70
     0
 10
0.0
 20
0.0
 30
0.0
  3
block 10
  1

  0
SPLINE
  5
D2
330
CE
100
AcDbEntity
  8
_U+30EC_U+30A4_U+30E4_U+30FC 1
370
     0
100
AcDbSpline
210
0.0
220
0.0
230
1.0
 70
    11
 71
     3
 72
    44
 73
    40
 74
     0
 42
0.0000000001
 43
0.0000000001
 12
1.0
 22
0.0
 32
0.0
 13
1.0
 23
0.0
 33
0.0
 40
0.0
 40
0.0
 40
0.0
 40
0.0
 40
1.0
 40
1.0
 40
1.0
 40
2.0
 40
2.0
 40
2.0
 40
3.0
 40
3.0
 40
3.0
 40
4.0
 40
4.0
 40
4.0
 40
5.0
 40
5.0
 40
5.0
 40
6.0
 40
6.0
 40
6.0
 40
7.0
 40
7.0
 40
7.0
 40
8.0
 40
8.0
 40
8.0
 40
9.0
 40
9.0
 40
9.0
 40
10.0
 40
10.0
 40
10.0
 40
11.0
 40
11.0
 40
11.0
 40
12.0
 40
12.0
 40
12.0
 40
13.0
 40
13.0
 40
13.0
 40
13.0
 10
65.29920110129673
 20
-151.945247357847
 30
0.0
 10
65.27577445199704
 20
-151.9008056260873
 30
0.0
 10
65.25475936953701
 20
-151.848095665163
 30
0.0
 10
65.2525200574716
 20
-151.6172742676513
 30
0.0
 10
65.2483859428893
 20
-151.3740505263926
 30
0.0
 10
65.189130300543
 20
-151.3044595975906
 30
0.0
 10
65.01136337350411
 20
-151.3044595975906
 30
0.0
 10
65.01136337350411
 20
-151.3044595975906
 30
0.0
 10
64.603119558502
 20
-151.3044595975906
 30
0.0
 10
64.603119558502
 20
-151.3044595975906
 30
0.0
 10
64.603119558502
 20
-151.3044595975906
 30
0.0
 10
64.603119558502
 20
-151.945247357847
 30
0.0
 10
64.603119558502
 20
-151.945247357847
 30
0.0
 10
64.603119558502
 20
-151.945247357847
 30
0.0
 10
64.36833630118223
 20
-151.945247357847
 30
0.0
 10
64.36833630118223
 20
-151.945247357847
 30
0.0
 10
64.36833630118223
 20
-151.945247357847
 30
0.0
 10
64.36833630118223
 20
-150.4011555613581
 30
0.0
 10
64.36833630118223
 20
-150.4011555613581
 30
0.0
 10
64.36833630118223
 20
-150.4011555613581
 30
0.0
 10
65.0430582519684
 20
-150.4011555613581
 30
0.0
 10
65.0430582519684
 20
-150.4011555613581
 30
0.0
 10
65.3498440049299
 20
-150.4011555613581
 30
0.0
 10
65.51710339073878
 20
-150.5720322974264
 30
0.0
 10
65.51710339073878
 20
-150.828347401529
 30
0.0
 10
65.51710339073878
 20
-150.8789903051622
 30
0.0
 10
65.50849065202566
 20
-150.9613280872597
 30
0.0
 10
65.46404892026594
 20
-151.0419433216145
 30
0.0
 10
65.40496553269391
 20
-151.1456406957205
 30
0.0
 10
65.3393364636999
 20
-151.1645887208894
 30
0.0
 10
65.27801376406245
 20
-151.1814696887672
 30
0.0
 10
65.4154730739239
 20
-151.2238443632357
 30
0.0
 10
65.48316920020908
 20
-151.2727647191263
 30
0.0
 10
65.48747556956563
 20
-151.5876464464781
 30
0.0
 10
65.49160968414793
 20
-151.8584309516187
 30
0.0
 10
65.5276109319688
 20
-151.890125830083
 30
0.0
 10
65.59530705825395
 20
-151.945247357847
 30
0.0
 10
65.59530705825395
 20
-151.945247357847
 30
0.0
 10
65.29920110129673
 20
-151.945247357847
 30
0.0
 10
65.29920110129673
 20
-151.945247357847
 30
0.0
  0
SPLINE
  5
D3
330
CE
100
AcDbEntity
  8
_U+30EC_U+30A4_U+30E4_U+30FC 1
370
     0
100
AcDbSpline
210
0.0
220
0.0
230
1.0
 70
    11
 71
     3
 72
    20
 73
    16
 74
     0
 42
0.0000000001
 43
0.0000000001
 12
1.0
 22
0.0
 32
0.0
 13
1.0
 23
0.0
 33
0.0
 40
0.0
 40
0.0
 40
0.0
 40
0.0
 40
1.0
 40
1.0
 40
1.0
 40
2.0
 40
2.0
 40
2.0
 40
3.0
 40
3.0
 40
3.0
 40
4.0
 40
4.0
 40
4.0
 40
5.0
 40
5.0
 40
5.0
 40
5.0
 10
65.04736462132497
 20
-150.6126844241524
 30
0.0
 10
65.04736462132497
 20
-150.6126844241524
 30
0.0
 10
64.603119558502
 20
-150.6126844241524
 30
0.0
 10
64.603119558502
 20
-150.6126844241524
 30
0.0
 10
64.603119558502
 20
-150.6126844241524
 30
0.0
 10
64.603119558502
 20
-151.0929307347962
 30
0.0
 10
64.603119558502
 20
-151.0929307347962
 30
0.0
 10
64.603119558502
 20
-151.0929307347962
 30
0.0
 10
65.04529756403382
 20
-151.0929307347962
 30
0.0
 10
65.04529756403382
 20
-151.0929307347962
 30
0.0
 10
65.14468856878328
 20
-151.0929307347962
 30
0.0
 10
65.2800808213536
 20
-151.0164496150237
 30
0.0
 10
65.2800808213536
 20
-150.8452283694068
 30
0.0
 10
65.2800808213536
 20
-150.7670247018916
 30
0.0
 10
65.24631888559814
 20
-150.6126844241524
 30
0.0
 10
65.04736462132497
 20
-150.6126844241524
 30
0.0
  0
HATCH
  5
D4
330
CE
100
AcDbEntity
  8
_U+30EC_U+30A4_U+30E4_U+30FC 1
 62
   179
420
  2234388
100
AcDbHatch
 10
0.0
 20
0.0
 30
0.0
210
0.0
220
0.0
230
1.0
  2
SOLID
 70
     1
 71
     0
 91
        2
 92
        1
 93
        1
 72
     4
 94
        3
 73
     0
 74
     1
 95
       44
 96
       40
 40
0.0
 40
0.0
 40
0.0
 40
0.0
 40
1.0
 40
1.0
 40
1.0
 40
2.0
 40
2.0
 40
2.0
 40
3.0
 40
3.0
 40
3.0
 40
4.0
 40
4.0
 40
4.0
 40
5.0
 40
5.0
 40
5.0
 40
6.0
 40
6.0
 40
6.0
 40
7.0
 40
7.0
 40
7.0
 40
8.0
 40
8.0
 40
8.0
 40
9.0
 40
9.0
 40
9.0
 40
10.0
 40
10.0
 40
10.0
 40
11.0
 40
11.0
 40
11.0
 40
12.0
 40
12.0
 40
12.0
 40
13.0
 40
13.0
 40
13.0
 40
13.0
 10
65.29920110129673
 20
-151.945247357847
 10
65.27577445199704
 20
-151.9008056260873
 10
65.25475936953701
 20
-151.848095665163
 10
65.2525200574716
 20
-151.6172742676513
 10
65.2483859428893
 20
-151.3740505263926
 10
65.189130300543
 20
-151.3044595975906
 10
65.01136337350411
 20
-151.3044595975906
 10
65.01136337350411
 20
-151.3044595975906
 10
64.603119558502
 20
-151.3044595975906
 10
64.603119558502
 20
-151.3044595975906
 10
64.603119558502
 20
-151.3044595975906
 10
64.603119558502
 20
-151.945247357847
 10
64.603119558502
 20
-151.945247357847
 10
64.603119558502
 20
-151.945247357847
 10
64.36833630118223
 20
-151.945247357847
 10
64.36833630118223
 20
-151.945247357847
 10
64.36833630118223
 20
-151.945247357847
 10
64.36833630118223
 20
-150.4011555613581
 10
64.36833630118223
 20
-150.4011555613581
 10
64.36833630118223
 20
-150.4011555613581
 10
65.0430582519684
 20
-150.4011555613581
 10
65.0430582519684
 20
-150.4011555613581
 10
65.3498440049299
 20
-150.4011555613581
 10
65.51710339073878
 20
-150.5720322974264
 10
65.51710339073878
 20
-150.828347401529
 10
65.51710339073878
 20
-150.8789903051622
 10
65.50849065202566
 20
-150.9613280872597
 10
65.46404892026594
 20
-151.0419433216145
 10
65.40496553269391
 20
-151.1456406957205
 10
65.3393364636999
 20
-151.1645887208894
 10
65.27801376406245
 20
-151.1814696887672
 10
65.4154730739239
 20
-151.2238443632357
 10
65.48316920020908
 20
-151.2727647191263
 10
65.48747556956563
 20
-151.5876464464781
 10
65.49160968414793
 20
-151.8584309516187
 10
65.5276109319688
 20
-151.890125830083
 10
65.59530705825395
 20
-151.945247357847
 10
65.59530705825395
 20
-151.945247357847
 10
65.29920110129673
 20
-151.945247357847
 10
65.29920110129673
 20
-151.945247357847
 97
        0
 97
        0
 92
        1
 93
        1
 72
     4
 94
        3
 73
     0
 74
     1
 95
       20
 96
       16
 40
0.0
 40
0.0
 40
0.0
 40
0.0
 40
1.0
 40
1.0
 40
1.0
 40
2.0
 40
2.0
 40
2.0
 40
3.0
 40
3.0
 40
3.0
 40
4.0
 40
4.0
 40
4.0
 40
5.0
 40
5.0
 40
5.0
 40
5.0
 10
65.04736462132497
 20
-150.6126844241524
 10
65.04736462132497
 20
-150.6126844241524
 10
64.603119558502
 20
-150.6126844241524
 10
64.603119558502
 20
-150.6126844241524
 10
64.603119558502
 20
-150.6126844241524
 10
64.603119558502
 20
-151.0929307347962
 10
64.603119558502
 20
-151.0929307347962
 10
64.603119558502
 20
-151.0929307347962
 10
65.04529756403382
 20
-151.0929307347962
 10
65.04529756403382
 20
-151.0929307347962
 10
65.14468856878328
 20
-151.0929307347962
 10
65.2800808213536
 20
-151.0164496150237
 10
65.2800808213536
 20
-150.8452283694068
 10
65.2800808213536
 20
-150.7670247018916
 10
65.24631888559814
 20
-150.6126844241524
 10
65.04736462132497
 20
-150.6126844241524
 97
        0
 97
        0
 75
     2
 76
     1
 98
        0
  0
SPLINE
  5
D5
330
CE
100
AcDbEntity
  8
_U+30EC_U+30A4_U+30E4_U+30FC 1
370
     0
100
AcDbSpline
210
0.0
220
0.0
230
1.0
 70
    11
 71
     3
 72
    26
 73
    22
 74
     0
 42
0.0000000001
 43
0.0000000001
 12
1.0
 22
0.0
 32
0.0
 13
1.0
 23
0.0
 33
0.0
 40
0.0
 40
0.0
 40
0.0
 40
0.0
 40
1.0
 40
1.0
 40
1.0
 40
2.0
 40
2.0
 40
2.0
 40
3.0
 40
3.0
 40
3.0
 40
4.0
 40
4.0
 40
4.0
 40
5.0
 40
5.0
 40
5.0
 40
6.0
 40
6.0
 40
6.0
 40
7.0
 40
7.0
 40
7.0
 40
7.0
 10
66.18631318874856
 20
-151.945247357847
 30
0.0
 10
66.18631318874856
 20
-151.945247357847
 30
0.0
 10
66.18631318874856
 20
-150.8407497452759
 30
0.0
 10
66.18631318874856
 20
-150.8407497452759
 30
0.0
 10
66.18631318874856
 20
-150.8407497452759
 30
0.0
 10
65.85627304126163
 20
-150.8407497452759
 30
0.0
 10
65.85627304126163
 20
-150.8407497452759
 30
0.0
 10
65.85627304126163
 20
-150.8407497452759
 30
0.0
 10
65.85627304126163
 20
-150.6929551489587
 30
0.0
 10
65.85627304126163
 20
-150.6929551489587
 30
0.0
 10
66.18838024603971
 20
-150.6781412383721
 30
0.0
 10
66.23488903509059
 20
-150.5151882219198
 30
0.0
 10
66.26451685626374
 20
-150.4011555613581
 30
0.0
 10
66.26451685626374
 20
-150.4011555613581
 30
0.0
 10
66.41058890483833
 20
-150.4011555613581
 30
0.0
 10
66.41058890483833
 20
-150.4011555613581
 30
0.0
 10
66.41058890483833
 20
-150.4011555613581
 30
0.0
 10
66.41058890483833
 20
-151.945247357847
 30
0.0
 10
66.41058890483833
 20
-151.945247357847
 30
0.0
 10
66.41058890483833
 20
-151.945247357847
 30
0.0
 10
66.18631318874856
 20
-151.945247357847
 30
0.0
 10
66.18631318874856
 20
-151.945247357847
 30
0.0
  0
HATCH
  5
D6
330
CE
100
AcDbEntity
  8
_U+30EC_U+30A4_U+30E4_U+30FC 1
 62
   179
420
  2234388
100
AcDbHatch
 10
0.0
 20
0.0
 30
0.0
210
0.0
220
0.0
230
1.0
  2
SOLID
 70
     1
 71
     0
 91
        1
 92
        1
 93
        1
 72
     4
 94
        3
 73
     0
 74
     1
 95
       26
 96
       22
 40
0.0
 40
0.0
 40
0.0
 40
0.0
 40
1.0
 40
1.0
 40
1.0
 40
2.0
 40
2.0
 40
2.0
 40
3.0
 40
3.0
 40
3.0
 40
4.0
 40
4.0
 40
4.0
 40
5.0
 40
5.0
 40
5.0
 40
6.0
 40
6.0
 40
6.0
 40
7.0
 40
7.0
 40
7.0
 40
7.0
 10
66.18631318874856
 20
-151.945247357847
 10
66.18631318874856
 20
-151.945247357847
 10
66.18631318874856
 20
-150.8407497452759
 10
66.18631318874856
 20
-150.8407497452759
 10
66.18631318874856
 20
-150.8407497452759
 10
65.85627304126163
 20
-150.8407497452759
 10
65.85627304126163
 20
-150.8407497452759
 10
65.85627304126163
 20
-150.8407497452759
 10
65.85627304126163
 20
-150.6929551489587
 10
65.85627304126163
 20
-150.6929551489587
 10
66.18838024603971
 20
-150.6781412383721
 10
66.23488903509059
 20
-150.5151882219198
 10
66.26451685626374
 20
-150.4011555613581
 10
66.26451685626374
 20
-150.4011555613581
 10
66.41058890483833
 20
-150.4011555613581
 10
66.41058890483833
 20
-150.4011555613581
 10
66.41058890483833
 20
-150.4011555613581
 10
66.41058890483833
 20
-151.945247357847
 10
66.41058890483833
 20
-151.945247357847
 10
66.41058890483833
 20
-151.945247357847
 10
66.18631318874856
 20
-151.945247357847
 10
66.18631318874856
 20
-151.945247357847
 97
        0
 97
        0
 75
     2
 76
     1
 98
        0
  0
SPLINE
  5
D7
330
CE
100
AcDbEntity
  8
_U+30EC_U+30A4_U+30E4_U+30FC 1
370
     0
100
AcDbSpline
210
0.0
220
0.0
230
1.0
 70
    11
 71
     3
 72
    53
 73
    49
 74
     0
 42
0.0000000001
 43
0.0000000001
 12
1.0
 22
0.0
 32
0.0
 13
1.0
 23
0.0
 33
0.0
 40
0.0
 40
0.0
 40
0.0
 40
0.0
 40
1.0
 40
1.0
 40
1.0
 40
2.0
 40
2.0
 40
2.0
 40
3.0
 40
3.0
 40
3.0
 40
4.0
 40
4.0
 40
4.0
 40
5.0
 40
5.0
 40
5.0
 40
6.0
 40
6.0
 40
6.0
 40
7.0
 40
7.0
 40
7.0
 40
8.0
 40
8.0
 40
8.0
 40
9.0
 40
9.0
 40
9.0
 40
10.0
 40
10.0
 40
10.0
 40
11.0
 40
11.0
 40
11.0
 40
12.0
 40
12.0
 40
12.0
 40
13.0
 40
13.0
 40
13.0
 40
14.0
 40
14.0
 40
14.0
 40
15.0
 40
15.0
 40
15.0
 40
16.0
 40
16.0
 40
16.0
 40
16.0
 10
67.39278562768305
 20
-151.9962347710287
 30
0.0
 10
67.31440970539363
 20
-151.9962347710287
 30
0.0
 10
67.21295164335301
 20
-151.9790092936025
 30
0.0
 10
67.11132132653815
 20
-151.9156195366739
 30
0.0
 10
66.93786076885581
 20
-151.8053764811459
 30
0.0
 10
66.91667343162153
 20
-151.6744628527064
 30
0.0
 10
66.89772540645265
 20
-151.5666313640181
 30
0.0
 10
66.89772540645265
 20
-151.5666313640181
 30
0.0
 10
67.119761810477
 20
-151.5666313640181
 30
0.0
 10
67.119761810477
 20
-151.5666313640181
 30
0.0
 10
67.174883338241
 20
-151.765413373517
 30
0.0
 10
67.30183510687246
 20
-151.7950411946901
 30
0.0
 10
67.39485268497421
 20
-151.7950411946901
 30
0.0
 10
67.5345513069011
 20
-151.7950411946901
 30
0.0
 10
67.68682452734913
 20
-151.6958224447149
 30
0.0
 10
67.68682452734913
 20
-151.462933989912
 30
0.0
 10
67.68682452734913
 20
-151.206963395358
 30
0.0
 10
67.50699054301909
 20
-151.1370279570074
 30
0.0
 10
67.38641220103534
 20
-151.1370279570074
 30
0.0
 10
67.35471732257105
 20
-151.1370279570074
 30
0.0
 10
67.21295164335301
 20
-151.1370279570074
 30
0.0
 10
67.12406817983357
 20
-151.2662190377043
 30
0.0
 10
67.12406817983357
 20
-151.2662190377043
 30
0.0
 10
66.9485405648601
 20
-151.2472710125354
 30
0.0
 10
66.9485405648601
 20
-151.2472710125354
 30
0.0
 10
66.9485405648601
 20
-151.2472710125354
 30
0.0
 10
67.06911890684384
 20
-150.4011555613581
 30
0.0
 10
67.06911890684384
 20
-150.4011555613581
 30
0.0
 10
67.06911890684384
 20
-150.4011555613581
 30
0.0
 10
67.84753823173604
 20
-150.4011555613581
 30
0.0
 10
67.84753823173604
 20
-150.4011555613581
 30
0.0
 10
67.84753823173604
 20
-150.4011555613581
 30
0.0
 10
67.84753823173604
 20
-150.5954589467262
 30
0.0
 10
67.84753823173604
 20
-150.5954589467262
 30
0.0
 10
67.84753823173604
 20
-150.5954589467262
 30
0.0
 10
67.23189966852189
 20
-150.5954589467262
 30
0.0
 10
67.23189966852189
 20
-150.5954589467262
 30
0.0
 10
67.23189966852189
 20
-150.5954589467262
 30
0.0
 10
67.16644285430215
 20
-151.0185166723148
 30
0.0
 10
67.16644285430215
 20
-151.0185166723148
 30
0.0
 10
67.22776555393959
 20
-150.9847547365594
 30
0.0
 10
67.31027559081133
 20
-150.9447916289305
 30
0.0
 10
67.42861462072966
 20
-150.9447916289305
 30
0.0
 10
67.68251815799256
 20
-150.9447916289305
 30
0.0
 10
67.91954072737775
 20
-151.130826785134
 30
0.0
 10
67.91954072737775
 20
-151.4436414551947
 30
0.0
 10
67.91954072737775
 20
-151.7612792589347
 30
0.0
 10
67.69526501128799
 20
-151.9962347710287
 30
0.0
 10
67.39278562768305
 20
-151.9962347710287
 30
0.0
  0
HATCH
  5
D8
330
CE
100
AcDbEntity
  8
_U+30EC_U+30A4_U+30E4_U+30FC 1
 62
   179
420
  2234388
100
AcDbHatch
 10
0.0
 20
0.0
 30
0.0
210
0.0
220
0.0
230
1.0
  2
SOLID
 70
     1
 71
     0
 91
        1
 92
        1
 93
        1
 72
     4
 94
        3
 73
     0
 74
     1
 95
       53
 96
       49
 40
0.0
 40
0.0
 40
0.0
 40
0.0
 40
1.0
 40
1.0
 40
1.0
 40
2.0
 40
2.0
 40
2.0
 40
3.0
 40
3.0
 40
3.0
 40
4.0
 40
4.0
 40
4.0
 40
5.0
 40
5.0
 40
5.0
 40
6.0
 40
6.0
 40
6.0
 40
7.0
 40
7.0
 40
7.0
 40
8.0
 40
8.0
 40
8.0
 40
9.0
 40
9.0
 40
9.0
 40
10.0
 40
10.0
 40
10.0
 40
11.0
 40
11.0
 40
11.0
 40
12.0
 40
12.0
 40
12.0
 40
13.0
 40
13.0
 40
13.0
 40
14.0
 40
14.0
 40
14.0
 40
15.0
 40
15.0
 40
15.0
 40
16.0
 40
16.0
 40
16.0
 40
16.0
 10
67.39278562768305
 20
-151.9962347710287
 10
67.31440970539363
 20
-151.9962347710287
 10
67.21295164335301
 20
-151.9790092936025
 10
67.11132132653815
 20
-151.9156195366739
 10
66.93786076885581
 20
-151.8053764811459
 10
66.91667343162153
 20
-151.6744628527064
 10
66.89772540645265
 20
-151.5666313640181
 10
66.89772540645265
 20
-151.5666313640181
 10
67.119761810477
 20
-151.5666313640181
 10
67.119761810477
 20
-151.5666313640181
 10
67.174883338241
 20
-151.765413373517
 10
67.30183510687246
 20
-151.7950411946901
 10
67.39485268497421
 20
-151.7950411946901
 10
67.5345513069011
 20
-151.7950411946901
 10
67.68682452734913
 20
-151.6958224447149
 10
67.68682452734913
 20
-151.462933989912
 10
67.68682452734913
 20
-151.206963395358
 10
67.50699054301909
 20
-151.1370279570074
 10
67.38641220103534
 20
-151.1370279570074
 10
67.35471732257105
 20
-151.1370279570074
 10
67.21295164335301
 20
-151.1370279570074
 10
67.12406817983357
 20
-151.2662190377043
 10
67.12406817983357
 20
-151.2662190377043
 10
66.9485405648601
 20
-151.2472710125354
 10
66.9485405648601
 20
-151.2472710125354
 10
66.9485405648601
 20
-151.2472710125354
 10
67.06911890684384
 20
-150.4011555613581
 10
67.06911890684384
 20
-150.4011555613581
 10
67.06911890684384
 20
-150.4011555613581
 10
67.84753823173604
 20
-150.4011555613581
 10
67.84753823173604
 20
-150.4011555613581
 10
67.84753823173604
 20
-150.4011555613581
 10
67.84753823173604
 20
-150.5954589467262
 10
67.84753823173604
 20
-150.5954589467262
 10
67.84753823173604
 20
-150.5954589467262
 10
67.23189966852189
 20
-150.5954589467262
 10
67.23189966852189
 20
-150.5954589467262
 10
67.23189966852189
 20
-150.5954589467262
 10
67.16644285430215
 20
-151.0185166723148
 10
67.16644285430215
 20
-151.0185166723148
 10
67.22776555393959
 20
-150.9847547365594
 10
67.31027559081133
 20
-150.9447916289305
 10
67.42861462072966
 20
-150.9447916289305
 10
67.68251815799256
 20
-150.9447916289305
 10
67.91954072737775
 20
-151.130826785134
 10
67.91954072737775
 20
-151.4436414551947
 10
67.91954072737775
 20
-151.7612792589347
 10
67.69526501128799
 20
-151.9962347710287
 10
67.39278562768305
 20
-151.9962347710287
 97
        0
 97
        0
 75
     2
 76
     1
 98
        0
  0
ENDBLK
  5
D1
330
CE
100
AcDbEntity
  8
0
100
AcDbBlockEnd
  0
ENDSEC
  0
SECTION
  2
ENTITIES
  0
SPLINE
  5
41
330
1F
100
AcDbEntity
  8
_U+30EC_U+30A4_U+30E4_U+30FC 1
 62
   179
420
  2234388
370
     9
100
AcDbSpline
210
0.0
220
0.0
230
1.0
 70
    11
 71
     3
 72
    17
 73
    13
 74
     0
 42
0.0000000001
 43
0.0000000001
 12
1.0
 22
0.0
 32
0.0
 13
1.0
 23
0.0
 33
0.0
 40
0.0
 40
0.0
 40
0.0
 40
0.0
 40
1.0
 40
1.0
 40
1.0
 40
2.0
 40
2.0
 40
2.0
 40
3.0
 40
3.0
 40
3.0
 40
4.0
 40
4.0
 40
4.0
 40
4.0
 10
85.05457894118803
 20
-151.1104913511111
 30
0.0
 10
85.05457894118803
 20
-151.0553874622362
 30
0.0
 10
85.00981144233013
 20
-151.0105846844695
 30
0.0
 10
84.95400199930951
 20
-151.0105846844695
 30
0.0
 10
84.89886283404957
 20
-151.0105846844695
 30
0.0
 10
84.85409533519167
 20
-151.0553874622362
 30
0.0
 10
84.85409533519167
 20
-151.1104913511111
 30
0.0
 10
84.85409533519167
 20
-151.1656305177642
 30
0.0
 10
84.89886283404957
 20
-151.2103980177528
 30
0.0
 10
84.95400199930951
 20
-151.2103980177528
 30
0.0
 10
85.00981144233013
 20
-151.2103980177528
 30
0.0
 10
85.05457894118803
 20
-151.1656305177642
 30
0.0
 10
85.05457894118803
 20
-151.1104913511111
 30
0.0
  0
POLYLINE
  5
42
330
1F
100
AcDbEntity
  8
_U+30EC_U+30A4_U+30E4_U+30FC 1
 62
   179
420
  2234388
370
     9
100
AcDb2dPolyline
 66
     1
 10
0.0
 20
0.0
 30
0.0
  0
VERTEX
  5
43
330
42
100
AcDbEntity
  8
_U+30EC_U+30A4_U+30E4_U+30FC 1
 62
   179
420
  2234388
370
     9
100
AcDbVertex
100
AcDb2dVertex
 10
84.95400199930951
 20
-149.650485240365
 30
0.0
  0
VERTEX
  5
44
330
42
100
AcDbEntity
  8
_U+30EC_U+30A4_U+30E4_U+30FC 1
 62
   179
420
  2234388
370
     9
100
AcDbVertex
100
AcDb2dVertex
 10
84.95400199930951
 20
-152.1102635730837
 30
0.0
  0
SEQEND
  5
45
330
42
100
AcDbEntity
  8
_U+30EC_U+30A4_U+30E4_U+30FC 1
 62
   179
420
  2234388
370
     9
  0
SPLINE
  5
46
330
1F
100
AcDbEntity
  8
_U+30EC_U+30A4_U+30E4_U+30FC 1
 62
   179
420
  2234388
370
     9
100
AcDbSpline
210
0.0
220
0.0
230
1.0
 70
    11
 71
     3
 72
    17
 73
    13
 74
     0
 42
0.0000000001
 43
0.0000000001
 12
1.0
 22
0.0
 32
0.0
 13
1.0
 23
0.0
 33
0.0
 40
0.0
 40
0.0
 40
0.0
 40
0.0
 40
1.0
 40
1.0
 40
1.0
 40
2.0
 40
2.0
 40
2.0
 40
3.0
 40
3.0
 40
3.0
 40
4.0
 40
4.0
 40
4.0
 40
4.0
 10
97.05385613506095
 20
-151.1101738511115
 30
0.0
 10
97.05385613506095
 20
-151.0550346844585
 30
0.0
 10
97.0090533584262
 20
-151.0102319066918
 30
0.0
 10
96.95394947094313
 20
-151.0102319066918
 30
0.0
 10
96.89881030568317
 20
-151.0102319066918
 30
0.0
 10
96.85404280682529
 20
-151.0550346844585
 30
0.0
 10
96.85404280682529
 20
-151.1101738511115
 30
0.0
 10
96.85404280682529
 20
-151.1652777399865
 30
0.0
 10
96.89881030568317
 20
-151.2100805177532
 30
0.0
 10
96.95394947094313
 20
-151.2100805177532
 30
0.0
 10
97.0090533584262
 20
-151.2100805177532
 30
0.0
 10
97.05385613506095
 20
-151.1652777399865
 30
0.0
 10
97.05385613506095
 20
-151.1101738511115
 30
0.0
  0
POLYLINE
  5
47
330
1F
100
AcDbEntity
  8
_U+30EC_U+30A4_U+30E4_U+30FC 1
 62
   179
420
  2234388
370
     9
100
AcDb2dPolyline
 66
     1
 10
0.0
 20
0.0
 30
0.0
  0
VERTEX
  5
48
330
47
100
AcDbEntity
  8
_U+30EC_U+30A4_U+30E4_U+30FC 1
 62
   179
420
  2234388
370
     9
100
AcDbVertex
100
AcDb2dVertex
 10
96.95394947094313
 20
-148.6103905184028
 30
0.0
  0
VERTEX
  5
49
330
47
100
AcDbEntity
  8
_U+30EC_U+30A4_U+30E4_U+30FC 1
 62
   179
420
  2234388
370
     9
100
AcDbVertex
100
AcDb2dVertex
 10
96.95394947094313
 20
-152.1102635730837
 30
0.0
  0
SEQEND
  5
4A
330
47
100
AcDbEntity
  8
_U+30EC_U+30A4_U+30E4_U+30FC 1
 62
   179
420
  2234388
370
     9
  0
SPLINE
  5
4B
330
1F
100
AcDbEntity
  8
_U+30EC_U+30A4_U+30E4_U+30FC 1
 62
   179
420
  2234388
370
     9
100
AcDbSpline
210
0.0
220
0.0
230
1.0
 70
    11
 71
     3
 72
    17
 73
    13
 74
     0
 42
0.0000000001
 43
0.0000000001
 12
1.0
 22
0.0
 32
0.0
 13
1.0
 23
0.0
 33
0.0
 40
0.0
 40
0.0
 40
0.0
 40
0.0
 40
1.0
 40
1.0
 40
1.0
 40
2.0
 40
2.0
 40
2.0
 40
3.0
 40
3.0
 40
3.0
 40
4.0
 40
4.0
 40
4.0
 40
4.0
 10
98.05429860953754
 20
-151.1101738511115
 30
0.0
 10
98.05429860953754
 20
-151.0550346844585
 30
0.0
 10
98.00953111067966
 20
-151.0102319066918
 30
0.0
 10
97.95439441995559
 20
-151.0102319066918
 30
0.0
 10
97.89928805793664
 20
-151.0102319066918
 30
0.0
 10
97.85448528130188
 20
-151.0550346844585
 30
0.0
 10
97.85448528130188
 20
-151.1101738511115
 30
0.0
 10
97.85448528130188
 20
-151.1652777399865
 30
0.0
 10
97.89928805793664
 20
-151.2100805177532
 30
0.0
 10
97.95439441995559
 20
-151.2100805177532
 30
0.0
 10
98.00953111067966
 20
-151.2100805177532
 30
0.0
 10
98.05429860953754
 20
-151.1652777399865
 30
0.0
 10
98.05429860953754
 20
-151.1101738511115
 30
0.0
  0
POLYLINE
  5
4C
330
1F
100
AcDbEntity
  8
_U+30EC_U+30A4_U+30E4_U+30FC 1
 62
   179
420
  2234388
370
     9
100
AcDb2dPolyline
 66
     1
 10
0.0
 20
0.0
 30
0.0
  0
VERTEX
  5
4D
330
4C
100
AcDbEntity
  8
_U+30EC_U+30A4_U+30E4_U+30FC 1
 62
   179
420
  2234388
370
     9
100
AcDbVertex
100
AcDb2dVertex
 10
97.95439441995559
 20
-147.6103007964306
 30
0.0
  0
VERTEX
  5
4E
330
4C
100
AcDbEntity
  8
_U+30EC_U+30A4_U+30E4_U+30FC 1
 62
   179
420
  2234388
370
     9
100
AcDbVertex
100
AcDb2dVertex
 10
97.95439441995559
 20
-152.1102635730837
 30
0.0
  0
SEQEND
  5
4F
330
4C
100
AcDbEntity
  8
_U+30EC_U+30A4_U+30E4_U+30FC 1
 62
   179
420
  2234388
370
     9
  0
POLYLINE
  5
50
330
1F
100
AcDbEntity
  8
_U+30EC_U+30A4_U+30E4_U+30FC 1
 62
   179
420
  2234388
370
     9
100
AcDb2dPolyline
 66
     1
 10
0.0
 20
0.0
 30
0.0
  0
VERTEX
  5
51
330
50
100
AcDbEntity
  8
_U+30EC_U+30A4_U+30E4_U+30FC 1
 62
   179
420
  2234388
370
     9
100
AcDbVertex
100
AcDb2dVertex
 10
69.95403238199061
 20
-138.1104185765835
 30
0.0
  0
VERTEX
  5
52
330
50
100
AcDbEntity
  8
_U+30EC_U+30A4_U+30E4_U+30FC 1
 62
   179
420
  2234388
370
     9
100
AcDbVertex
100
AcDb2dVertex
 10
69.95403238199061
 20
-152.1102635730837
 30
0.0
  0
SEQEND
  5
53
330
50
100
AcDbEntity
  8
_U+30EC_U+30A4_U+30E4_U+30FC 1
 62
   179
420
  2234388
370
     9
  0
SPLINE
  5
54
330
1F
100
AcDbEntity
  8
_U+30EC_U+30A4_U+30E4_U+30FC 1
 62
   179
420
  2234388
370
     9
100
AcDbSpline
210
0.0
220
0.0
230
1.0
 70
    11
 71
     3
 72
    17
 73
    13
 74
     0
 42
0.0000000001
 43
0.0000000001
 12
1.0
 22
0.0
 32
0.0
 13
1.0
 23
0.0
 33
0.0
 40
0.0
 40
0.0
 40
0.0
 40
0.0
 40
1.0
 40
1.0
 40
1.0
 40
2.0
 40
2.0
 40
2.0
 40
3.0
 40
3.0
 40
3.0
 40
4.0
 40
4.0
 40
4.0
 40
4.0
 10
115.5546864963988
 20
-135.6106705216528
 30
0.0
 10
115.5546864963988
 20
-135.5555666327779
 30
0.0
 10
115.5099189975409
 20
-135.5107638550112
 30
0.0
 10
115.4547798322809
 20
-135.5107638550112
 30
0.0
 10
115.3996759447979
 20
-135.5107638550112
 30
0.0
 10
115.3548731681631
 20
-135.5555666327779
 30
0.0
 10
115.3548731681631
 20
-135.6106705216528
 30
0.0
 10
115.3548731681631
 20
-135.6664799660833
 30
0.0
 10
115.3996759447979
 20
-135.71128274385
 30
0.0
 10
115.4547798322809
 20
-135.71128274385
 30
0.0
 10
115.5099189975409
 20
-135.71128274385
 30
0.0
 10
115.5546864963988
 20
-135.6664799660833
 30
0.0
 10
115.5546864963988
 20
-135.6106705216528
 30
0.0
  0
SPLINE
  5
55
330
1F
100
AcDbEntity
  8
_U+30EC_U+30A4_U+30E4_U+30FC 1
 62
   179
420
  2234388
370
     9
100
AcDbSpline
210
0.0
220
0.0
230
1.0
 70
    11
 71
     3
 72
    17
 73
    13
 74
     0
 42
0.0000000001
 43
0.0000000001
 12
1.0
 22
0.0
 32
0.0
 13
1.0
 23
0.0
 33
0.0
 40
0.0
 40
0.0
 40
0.0
 40
0.0
 40
1.0
 40
1.0
 40
1.0
 40
2.0
 40
2.0
 40
2.0
 40
3.0
 40
3.0
 40
3.0
 40
4.0
 40
4.0
 40
4.0
 40
4.0
 10
115.5546864963988
 20
-147.1104146854447
 30
0.0
 10
115.5546864963988
 20
-147.0552755187916
 30
0.0
 10
115.5099189975409
 20
-147.010508018803
 30
0.0
 10
115.4547798322809
 20
-147.010508018803
 30
0.0
 10
115.3996759447979
 20
-147.010508018803
 30
0.0
 10
115.3548731681631
 20
-147.0552755187916
 30
0.0
 10
115.3548731681631
 20
-147.1104146854447
 30
0.0
 10
115.3548731681631
 20
-147.1662241298751
 30
0.0
 10
115.3996759447979
 20
-147.2109916298637
 30
0.0
 10
115.4547798322809
 20
-147.2109916298637
 30
0.0
 10
115.5099189975409
 20
-147.2109916298637
 30
0.0
 10
115.5546864963988
 20
-147.1662241298751
 30
0.0
 10
115.5546864963988
 20
-147.1104146854447
 30
0.0
  0
POLYLINE
  5
56
330
1F
100
AcDbEntity
  8
_U+30EC_U+30A4_U+30E4_U+30FC 1
 62
   179
420
  2234388
370
     9
100
AcDb2dPolyline
 66
     1
 10
0.0
 20
0.0
 30
0.0
  0
VERTEX
  5
57
330
56
100
AcDbEntity
  8
_U+30EC_U+30A4_U+30E4_U+30FC 1
 62
   179
420
  2234388
370
     9
100
AcDbVertex
100
AcDb2dVertex
 10
115.4547798322809
 20
-147.1104146854447
 30
0.0
  0
VERTEX
  5
58
330
56
100
AcDbEntity
  8
_U+30EC_U+30A4_U+30E4_U+30FC 1
 62
   179
420
  2234388
370
     9
100
AcDbVertex
100
AcDb2dVertex
 10
115.4547798322809
 20
-104.6104996960696
 30
0.0
  0
SEQEND
  5
59
330
56
100
AcDbEntity
  8
_U+30EC_U+30A4_U+30E4_U+30FC 1
 62
   179
420
  2234388
370
     9
  0
POLYLINE
  5
5A
330
1F
100
AcDbEntity
  8
_U+30EC_U+30A4_U+30E4_U+30FC 1
 62
   179
420
  2234388
370
     9
100
AcDb2dPolyline
 66
     1
 10
0.0
 20
0.0
 30
0.0
  0
VERTEX
  5
5B
330
5A
100
AcDbEntity
  8
_U+30EC_U+30A4_U+30E4_U+30FC 1
 62
   179
420
  2234388
370
     9
100
AcDbVertex
100
AcDb2dVertex
 10
98.45392775316442
 20
-147.1104146854447
 30
0.0
  0
VERTEX
  5
5C
330
5A
100
AcDbEntity
  8
_U+30EC_U+30A4_U+30E4_U+30FC 1
 62
   179
420
  2234388
370
     9
100
AcDbVertex
100
AcDb2dVertex
 10
116.4545520289969
 20
-147.1104146854447
 30
0.0
  0
SEQEND
  5
5D
330
5A
100
AcDbEntity
  8
_U+30EC_U+30A4_U+30E4_U+30FC 1
 62
   179
420
  2234388
370
     9
  0
SPLINE
  5
5E
330
1F
100
AcDbEntity
  8
_U+30EC_U+30A4_U+30E4_U+30FC 1
 62
   179
420
  2234388
370
     9
100
AcDbSpline
210
0.0
220
0.0
230
1.0
 70
    11
 71
     3
 72
    17
 73
    13
 74
     0
 42
0.0000000001
 43
0.0000000001
 12
1.0
 22
0.0
 32
0.0
 13
1.0
 23
0.0
 33
0.0
 40
0.0
 40
0.0
 40
0.0
 40
0.0
 40
1.0
 40
1.0
 40
1.0
 40
2.0
 40
2.0
 40
2.0
 40
3.0
 40
3.0
 40
3.0
 40
4.0
 40
4.0
 40
4.0
 40
4.0
 10
115.5546864963988
 20
-145.6104035747084
 30
0.0
 10
115.5546864963988
 20
-145.5552996858335
 30
0.0
 10
115.5099189975409
 20
-145.5104969080668
 30
0.0
 10
115.4547798322809
 20
-145.5104969080668
 30
0.0
 10
115.3996759447979
 20
-145.5104969080668
 30
0.0
 10
115.3548731681631
 20
-145.5552996858335
 30
0.0
 10
115.3548731681631
 20
-145.6104035747084
 30
0.0
 10
115.3548731681631
 20
-145.6662130191389
 30
0.0
 10
115.3996759447979
 20
-145.7110157969056
 30
0.0
 10
115.4547798322809
 20
-145.7110157969056
 30
0.0
 10
115.5099189975409
 20
-145.7110157969056
 30
0.0
 10
115.5546864963988
 20
-145.6662130191389
 30
0.0
 10
115.5546864963988
 20
-145.6104035747084
 30
0.0
  0
POLYLINE
  5
5F
330
1F
100
AcDbEntity
  8
_U+30EC_U+30A4_U+30E4_U+30FC 1
 62
   179
420
  2234388
370
     9
100
AcDb2dPolyline
 66
     1
 10
0.0
 20
0.0
 30
0.0
  0
VERTEX
  5
60
330
5F
100
AcDbEntity
  8
_U+30EC_U+30A4_U+30E4_U+30FC 1
 62
   179
420
  2234388
370
     9
100
AcDbVertex
100
AcDb2dVertex
 10
99.10437691608115
 20
-145.6104035747084
 30
0.0
  0
VERTEX
  5
61
330
5F
100
AcDbEntity
  8
_U+30EC_U+30A4_U+30E4_U+30FC 1
 62
   179
420
  2234388
370
     9
100
AcDbVertex
100
AcDb2dVertex
 10
116.4545520289969
 20
-145.6104035747084
 30
0.0
  0
SEQEND
  5
62
330
5F
100
AcDbEntity
  8
_U+30EC_U+30A4_U+30E4_U+30FC 1
 62
   179
420
  2234388
370
     9
  0
POLYLINE
  5
63
330
1F
100
AcDbEntity
  8
_U+30EC_U+30A4_U+30E4_U+30FC 1
 62
   179
420
  2234388
370
     9
100
AcDb2dPolyline
 66
     1
 10
0.0
 20
0.0
 30
0.0
  0
VERTEX
  5
64
330
63
100
AcDbEntity
  8
_U+30EC_U+30A4_U+30E4_U+30FC 1
 62
   179
420
  2234388
370
     9
100
AcDbVertex
100
AcDb2dVertex
 10
113.9947737584177
 20
-135.6106705216528
 30
0.0
  0
VERTEX
  5
65
330
63
100
AcDbEntity
  8
_U+30EC_U+30A4_U+30E4_U+30FC 1
 62
   179
420
  2234388
370
     9
100
AcDbVertex
100
AcDb2dVertex
 10
116.4545520289969
 20
-135.6106705216528
 30
0.0
  0
SEQEND
  5
66
330
63
100
AcDbEntity
  8
_U+30EC_U+30A4_U+30E4_U+30FC 1
 62
   179
420
  2234388
370
     9
  0
SPLINE
  5
67
330
1F
100
AcDbEntity
  8
_U+30EC_U+30A4_U+30E4_U+30FC 1
 62
   179
420
  2234388
370
     9
100
AcDbSpline
210
0.0
220
0.0
230
1.0
 70
    11
 71
     3
 72
    17
 73
    13
 74
     0
 42
0.0000000001
 43
0.0000000001
 12
1.0
 22
0.0
 32
0.0
 13
1.0
 23
0.0
 33
0.0
 40
0.0
 40
0.0
 40
0.0
 40
0.0
 40
1.0
 40
1.0
 40
1.0
 40
2.0
 40
2.0
 40
2.0
 40
3.0
 40
3.0
 40
3.0
 40
4.0
 40
4.0
 40
4.0
 40
4.0
 10
115.5546864963988
 20
-134.6102280219029
 30
0.0
 10
115.5546864963988
 20
-134.5550888552499
 30
0.0
 10
115.5099189975409
 20
-134.5103213552613
 30
0.0
 10
115.4547798322809
 20
-134.5103213552613
 30
0.0
 10
115.3996759447979
 20
-134.5103213552613
 30
0.0
 10
115.3548731681631
 20
-134.5550888552499
 30
0.0
 10
115.3548731681631
 20
-134.6102280219029
 30
0.0
 10
115.3548731681631
 20
-134.6660374663334
 30
0.0
 10
115.3996759447979
 20
-134.7108049663226
 30
0.0
 10
115.4547798322809
 20
-134.7108049663226
 30
0.0
 10
115.5099189975409
 20
-134.7108049663226
 30
0.0
 10
115.5546864963988
 20
-134.6660374663334
 30
0.0
 10
115.5546864963988
 20
-134.6102280219029
 30
0.0
  0
POLYLINE
  5
68
330
1F
100
AcDbEntity
  8
_U+30EC_U+30A4_U+30E4_U+30FC 1
 62
   179
420
  2234388
370
     9
100
AcDb2dPolyline
 66
     1
 10
0.0
 20
0.0
 30
0.0
  0
VERTEX
  5
69
330
68
100
AcDbEntity
  8
_U+30EC_U+30A4_U+30E4_U+30FC 1
 62
   179
420
  2234388
370
     9
100
AcDbVertex
100
AcDb2dVertex
 10
113.9947737584177
 20
-134.6102280219029
 30
0.0
  0
VERTEX
  5
6A
330
68
100
AcDbEntity
  8
_U+30EC_U+30A4_U+30E4_U+30FC 1
 62
   179
420
  2234388
370
     9
100
AcDbVertex
100
AcDb2dVertex
 10
116.4545520289969
 20
-134.6102280219029
 30
0.0
  0
SEQEND
  5
6B
330
68
100
AcDbEntity
  8
_U+30EC_U+30A4_U+30E4_U+30FC 1
 62
   179
420
  2234388
370
     9
  0
SPLINE
  5
6C
330
1F
100
AcDbEntity
  8
_U+30EC_U+30A4_U+30E4_U+30FC 1
 62
   179
420
  2234388
370
     9
100
AcDbSpline
210
0.0
220
0.0
230
1.0
 70
    11
 71
     3
 72
    17
 73
    13
 74
     0
 42
0.0000000001
 43
0.0000000001
 12
1.0
 22
0.0
 32
0.0
 13
1.0
 23
0.0
 33
0.0
 40
0.0
 40
0.0
 40
0.0
 40
0.0
 40
1.0
 40
1.0
 40
1.0
 40
2.0
 40
2.0
 40
2.0
 40
3.0
 40
3.0
 40
3.0
 40
4.0
 40
4.0
 40
4.0
 40
4.0
 10
115.5546864963988
 20
-104.6101469182918
 30
0.0
 10
115.5546864963988
 20
-104.5550430294169
 30
0.0
 10
115.5099189975409
 20
-104.5102402516502
 30
0.0
 10
115.4547798322809
 20
-104.5102402516502
 30
0.0
 10
115.3996759447979
 20
-104.5102402516502
 30
0.0
 10
115.3548731681631
 20
-104.5550430294169
 30
0.0
 10
115.3548731681631
 20
-104.6101469182918
 30
0.0
 10
115.3548731681631
 20
-104.6659563627223
 30
0.0
 10
115.3996759447979
 20
-104.710759140489
 30
0.0
 10
115.4547798322809
 20
-104.710759140489
 30
0.0
 10
115.5099189975409
 20
-104.710759140489
 30
0.0
 10
115.5546864963988
 20
-104.6659563627223
 30
0.0
 10
115.5546864963988
 20
-104.6101469182918
 30
0.0
  0
POLYLINE
  5
6D
330
1F
100
AcDbEntity
  8
_U+30EC_U+30A4_U+30E4_U+30FC 1
 62
   179
420
  2234388
370
     9
100
AcDb2dPolyline
 66
     1
 10
0.0
 20
0.0
 30
0.0
  0
VERTEX
  5
6E
330
6D
100
AcDbEntity
  8
_U+30EC_U+30A4_U+30E4_U+30FC 1
 62
   179
420
  2234388
370
     9
100
AcDbVertex
100
AcDb2dVertex
 10
83.98728507952806
 20
-104.6101469182918
 30
0.0
  0
VERTEX
  5
6F
330
6D
100
AcDbEntity
  8
_U+30EC_U+30A4_U+30E4_U+30FC 1
 62
   179
420
  2234388
370
     9
100
AcDbVertex
100
AcDb2dVertex
 10
116.4545520289969
 20
-104.6101469182918
 30
0.0
  0
SEQEND
  5
70
330
6D
100
AcDbEntity
  8
_U+30EC_U+30A4_U+30E4_U+30FC 1
 62
   179
420
  2234388
370
     9
  0
INSERT
  5
72
330
1F
100
AcDbEntity
  8
_U+30EC_U+30A4_U+30E4_U+30FC 1
100
AcDbBlockReference
  2
block 2
 10
0.0
 20
0.0
 30
0.0
  0
INSERT
  5
7B
330
1F
100
AcDbEntity
  8
_U+30EC_U+30A4_U+30E4_U+30FC 1
100
AcDbBlockReference
  2
block 3
 10
0.0
 20
0.0
 30
0.0
  0
INSERT
  5
81
330
1F
100
AcDbEntity
  8
_U+30EC_U+30A4_U+30E4_U+30FC 1
100
AcDbBlockReference
  2
block 4
 10
0.0
 20
0.0
 30
0.0
  0
INSERT
  5
8A
330
1F
100
AcDbEntity
  8
_U+30EC_U+30A4_U+30E4_U+30FC 1
100
AcDbBlockReference
  2
block 5
 10
0.0
 20
0.0
 30
0.0
  0
SPLINE
  5
99
330
1F
100
AcDbEntity
  8
_U+30EC_U+30A4_U+30E4_U+30FC 1
 62
   179
420
  2234388
370
     9
100
AcDbSpline
210
0.0
220
0.0
230
1.0
 70
    11
 71
     3
 72
    17
 73
    13
 74
     0
 42
0.0000000001
 43
0.0000000001
 12
1.0
 22
0.0
 32
0.0
 13
1.0
 23
0.0
 33
0.0
 40
0.0
 40
0.0
 40
0.0
 40
0.0
 40
1.0
 40
1.0
 40
1.0
 40
2.0
 40
2.0
 40
2.0
 40
3.0
 40
3.0
 40
3.0
 40
4.0
 40
4.0
 40
4.0
 40
4.0
 10
66.05417998148414
 20
-147.1104146854447
 30
0.0
 10
66.05417998148414
 20
-147.0546052410142
 30
0.0
 10
66.00941248262626
 20
-147.0098024632475
 30
0.0
 10
65.95427498351155
 20
-147.0098024632475
 30
0.0
 10
65.89846387434568
 20
-147.0098024632475
 30
0.0
 10
65.8536963754878
 20
-147.0546052410142
 30
0.0
 10
65.8536963754878
 20
-147.1104146854447
 30
0.0
 10
65.8536963754878
 20
-147.1655185743196
 30
0.0
 10
65.89846387434568
 20
-147.2103213520863
 30
0.0
 10
65.95427498351155
 20
-147.2103213520863
 30
0.0
 10
66.00941248262626
 20
-147.2103213520863
 30
0.0
 10
66.05417998148414
 20
-147.1655185743196
 30
0.0
 10
66.05417998148414
 20
-147.1104146854447
 30
0.0
  0
SPLINE
  5
9A
330
1F
100
AcDbEntity
  8
_U+30EC_U+30A4_U+30E4_U+30FC 1
 62
   179
420
  2234388
370
     9
100
AcDbSpline
210
0.0
220
0.0
230
1.0
 70
    11
 71
     3
 72
    17
 73
    13
 74
     0
 42
0.0000000001
 43
0.0000000001
 12
1.0
 22
0.0
 32
0.0
 13
1.0
 23
0.0
 33
0.0
 40
0.0
 40
0.0
 40
0.0
 40
0.0
 40
1.0
 40
1.0
 40
1.0
 40
2.0
 40
2.0
 40
2.0
 40
3.0
 40
3.0
 40
3.0
 40
4.0
 40
4.0
 40
4.0
 40
4.0
 10
66.05417998148414
 20
-119.1352074702163
 30
0.0
 10
66.05417998148414
 20
-119.0800683035632
 30
0.0
 10
66.00941248262626
 20
-119.0353008035744
 30
0.0
 10
65.95427498351155
 20
-119.0353008035744
 30
0.0
 10
65.89846387434568
 20
-119.0353008035744
 30
0.0
 10
65.8536963754878
 20
-119.0800683035632
 30
0.0
 10
65.8536963754878
 20
-119.1352074702163
 30
0.0
 10
65.8536963754878
 20
-119.1910169146468
 30
0.0
 10
65.89846387434568
 20
-119.2357844146356
 30
0.0
 10
65.95427498351155
 20
-119.2357844146356
 30
0.0
 10
66.00941248262626
 20
-119.2357844146356
 30
0.0
 10
66.05417998148414
 20
-119.1910169146468
 30
0.0
 10
66.05417998148414
 20
-119.1352074702163
 30
0.0
  0
POLYLINE
  5
9B
330
1F
100
AcDbEntity
  8
_U+30EC_U+30A4_U+30E4_U+30FC 1
 62
   179
420
  2234388
370
     9
100
AcDb2dPolyline
 66
     1
 10
0.0
 20
0.0
 30
0.0
  0
VERTEX
  5
9C
330
9B
100
AcDbEntity
  8
_U+30EC_U+30A4_U+30E4_U+30FC 1
 62
   179
420
  2234388
370
     9
100
AcDbVertex
100
AcDb2dVertex
 10
65.95427498351155
 20
-147.1100619076669
 30
0.0
  0
VERTEX
  5
9D
330
9B
100
AcDbEntity
  8
_U+30EC_U+30A4_U+30E4_U+30FC 1
 62
   179
420
  2234388
370
     9
100
AcDbVertex
100
AcDb2dVertex
 10
65.95427498351155
 20
-119.1352074702163
 30
0.0
  0
SEQEND
  5
9E
330
9B
100
AcDbEntity
  8
_U+30EC_U+30A4_U+30E4_U+30FC 1
 62
   179
420
  2234388
370
     9
  0
POLYLINE
  5
9F
330
1F
100
AcDbEntity
  8
_U+30EC_U+30A4_U+30E4_U+30FC 1
 62
   179
420
  2234388
370
     9
100
AcDb2dPolyline
 66
     1
 10
0.0
 20
0.0
 30
0.0
  0
VERTEX
  5
A0
330
9F
100
AcDbEntity
  8
_U+30EC_U+30A4_U+30E4_U+30FC 1
 62
   179
420
  2234388
370
     9
100
AcDbVertex
100
AcDb2dVertex
 10
78.95399298571583
 20
-147.1104146854447
 30
0.0
  0
VERTEX
  5
A1
330
9F
100
AcDbEntity
  8
_U+30EC_U+30A4_U+30E4_U+30FC 1
 62
   179
420
  2234388
370
     9
100
AcDbVertex
100
AcDb2dVertex
 10
64.95383084288972
 20
-147.1104146854447
 30
0.0
  0
SEQEND
  5
A2
330
9F
100
AcDbEntity
  8
_U+30EC_U+30A4_U+30E4_U+30FC 1
 62
   179
420
  2234388
370
     9
  0
POLYLINE
  5
A3
330
1F
100
AcDbEntity
  8
_U+30EC_U+30A4_U+30E4_U+30FC 1
 62
   179
420
  2234388
370
     9
100
AcDb2dPolyline
 66
     1
 10
0.0
 20
0.0
 30
0.0
  0
VERTEX
  5
A4
330
A3
100
AcDbEntity
  8
_U+30EC_U+30A4_U+30E4_U+30FC 1
 62
   179
420
  2234388
370
     9
100
AcDbVertex
100
AcDb2dVertex
 10
69.45449906140144
 20
-119.1352074702163
 30
0.0
  0
VERTEX
  5
A5
330
A3
100
AcDbEntity
  8
_U+30EC_U+30A4_U+30E4_U+30FC 1
 62
   179
420
  2234388
370
     9
100
AcDbVertex
100
AcDb2dVertex
 10
64.95383084288972
 20
-119.1352074702163
 30
0.0
  0
SEQEND
  5
A6
330
A3
100
AcDbEntity
  8
_U+30EC_U+30A4_U+30E4_U+30FC 1
 62
   179
420
  2234388
370
     9
  0
INSERT
  5
A8
330
1F
100
AcDbEntity
  8
_U+30EC_U+30A4_U+30E4_U+30FC 1
100
AcDbBlockReference
  2
block 6
 10
0.0
 20
0.0
 30
0.0
  0
SPLINE
  5
B1
330
1F
100
AcDbEntity
  8
_U+30EC_U+30A4_U+30E4_U+30FC 1
 62
   179
420
  2234388
370
     9
100
AcDbSpline
210
0.0
220
0.0
230
1.0
 70
    11
 71
     3
 72
    17
 73
    13
 74
     0
 42
0.0000000001
 43
0.0000000001
 12
1.0
 22
0.0
 32
0.0
 13
1.0
 23
0.0
 33
0.0
 40
0.0
 40
0.0
 40
0.0
 40
0.0
 40
1.0
 40
1.0
 40
1.0
 40
2.0
 40
2.0
 40
2.0
 40
3.0
 40
3.0
 40
3.0
 40
4.0
 40
4.0
 40
4.0
 40
4.0
 10
70.05393904610845
 20
-151.1101738511115
 30
0.0
 10
70.05393904610845
 20
-151.0550346844585
 30
0.0
 10
70.00917154725057
 20
-151.0102319066918
 30
0.0
 10
69.95403238199061
 20
-151.0102319066918
 30
0.0
 10
69.89892849450754
 20
-151.0102319066918
 30
0.0
 10
69.85412571787278
 20
-151.0550346844585
 30
0.0
 10
69.85412571787278
 20
-151.1101738511115
 30
0.0
 10
69.85412571787278
 20
-151.1652777399865
 30
0.0
 10
69.89892849450754
 20
-151.2100805177532
 30
0.0
 10
69.95403238199061
 20
-151.2100805177532
 30
0.0
 10
70.00917154725057
 20
-151.2100805177532
 30
0.0
 10
70.05393904610845
 20
-151.1652777399865
 30
0.0
 10
70.05393904610845
 20
-151.1101738511115
 30
0.0
  0
POLYLINE
  5
B2
330
1F
100
AcDbEntity
  8
_U+30EC_U+30A4_U+30E4_U+30FC 1
 62
   179
420
  2234388
370
     9
100
AcDb2dPolyline
 66
     1
 10
0.0
 20
0.0
 30
0.0
  0
VERTEX
  5
B3
330
B2
100
AcDbEntity
  8
_U+30EC_U+30A4_U+30E4_U+30FC 1
 62
   179
420
  2234388
370
     9
100
AcDbVertex
100
AcDb2dVertex
 10
69.95473793752818
 20
-151.1101738511115
 30
0.0
  0
VERTEX
  5
B4
330
B2
100
AcDbEntity
  8
_U+30EC_U+30A4_U+30E4_U+30FC 1
 62
   179
420
  2234388
370
     9
100
AcDbVertex
100
AcDb2dVertex
 10
97.95439441995559
 20
-151.1101738511115
 30
0.0
  0
SEQEND
  5
B5
330
B2
100
AcDbEntity
  8
_U+30EC_U+30A4_U+30E4_U+30FC 1
 62
   179
420
  2234388
370
     9
  0
INSERT
  5
B7
330
1F
100
AcDbEntity
  8
_U+30EC_U+30A4_U+30E4_U+30FC 1
100
AcDbBlockReference
  2
block 7
 10
0.0
 20
0.0
 30
0.0
  0
INSERT
  5
BF
330
1F
100
AcDbEntity
  8
_U+30EC_U+30A4_U+30E4_U+30FC 1
100
AcDbBlockReference
  2
block 8
 10
0.0
 20
0.0
 30
0.0
  0
INSERT
  5
C7
330
1F
100
AcDbEntity
  8
_U+30EC_U+30A4_U+30E4_U+30FC 1
100
AcDbBlockReference
  2
block 9
 10
0.0
 20
0.0
 30
0.0
  0
SPLINE
  5
CC
330
1F
100
AcDbEntity
  8
_U+30EC_U+30A4_U+30E4_U+30FC 1
 62
   179
420
  2234388
370
    25
100
AcDbSpline
210
0.0
220
0.0
230
1.0
 70
    11
 71
     3
 72
    77
 73
    73
 74
     0
 42
0.0000000001
 43
0.0000000001
 12
1.0
 22
0.0
 32
0.0
 13
1.0
 23
0.0
 33
0.0
 40
0.0
 40
0.0
 40
0.0
 40
0.0
 40
1.0
 40
1.0
 40
1.0
 40
2.0
 40
2.0
 40
2.0
 40
3.0
 40
3.0
 40
3.0
 40
4.0
 40
4.0
 40
4.0
 40
5.0
 40
5.0
 40
5.0
 40
6.0
 40
6.0
 40
6.0
 40
7.0
 40
7.0
 40
7.0
 40
8.0
 40
8.0
 40
8.0
 40
9.0
 40
9.0
 40
9.0
 40
10.0
 40
10.0
 40
10.0
 40
11.0
 40
11.0
 40
11.0
 40
12.0
 40
12.0
 40
12.0
 40
13.0
 40
13.0
 40
13.0
 40
14.0
 40
14.0
 40
14.0
 40
15.0
 40
15.0
 40
15.0
 40
16.0
 40
16.0
 40
16.0
 40
17.0
 40
17.0
 40
17.0
 40
18.0
 40
18.0
 40
18.0
 40
19.0
 40
19.0
 40
19.0
 40
20.0
 40
20.0
 40
20.0
 40
21.0
 40
21.0
 40
21.0
 40
22.0
 40
22.0
 40
22.0
 40
23.0
 40
23.0
 40
23.0
 40
24.0
 40
24.0
 40
24.0
 40
24.0
 10
112.4541226866119
 20
-135.6106705216528
 30
0.0
 10
112.4541226866119
 20
-135.6106705216528
 30
0.0
 10
112.4541226866119
 20
-134.5771374663555
 30
0.0
 10
112.4541226866119
 20
-134.5771374663555
 30
0.0
 10
112.4541226866119
 20
-134.5771374663555
 30
0.0
 10
82.48730928446231
 20
-134.5771374663555
 30
0.0
 10
82.48730928446231
 20
-134.5771374663555
 30
0.0
 10
82.48730928446231
 20
-134.5771374663555
 30
0.0
 10
82.48730928446231
 20
-104.6104996960696
 30
0.0
 10
82.48730928446231
 20
-104.6104996960696
 30
0.0
 10
82.48730928446231
 20
-104.6104996960696
 30
0.0
 10
81.45444653303505
 20
-104.6104996960696
 30
0.0
 10
81.45444653303505
 20
-104.6104996960696
 30
0.0
 10
81.45444653303505
 20
-104.6104996960696
 30
0.0
 10
81.45444653303505
 20
-134.8703310773937
 30
0.0
 10
81.45444653303505
 20
-134.8703310773937
 30
0.0
 10
81.45444653303505
 20
-134.8703310773937
 30
0.0
 10
74.69381337217985
 20
-141.6309644090365
 30
0.0
 10
74.69381337217985
 20
-141.6309644090365
 30
0.0
 10
72.37458176468171
 20
-139.1325921874394
 30
0.0
 10
70.95451013424409
 20
-135.7877649660531
 30
0.0
 10
70.95451013424409
 20
-132.1101271891945
 30
0.0
 10
70.95451013424409
 20
-132.1101271891945
 30
0.0
 10
70.95451013424409
 20
-120.1104969144168
 30
0.0
 10
70.95451013424409
 20
-120.1104969144168
 30
0.0
 10
70.95451013424409
 20
-120.1104969144168
 30
0.0
 10
71.45404345483325
 20
-120.1104969144168
 30
0.0
 10
71.45404345483325
 20
-120.1104969144168
 30
0.0
 10
71.45404345483325
 20
-120.1104969144168
 30
0.0
 10
71.45404345483325
 20
-119.1103719146668
 30
0.0
 10
71.45404345483325
 20
-119.1103719146668
 30
0.0
 10
71.45404345483325
 20
-119.1103719146668
 30
0.0
 10
70.95451013424409
 20
-119.1103719146668
 30
0.0
 10
70.95451013424409
 20
-119.1103719146668
 30
0.0
 10
70.95451013424409
 20
-119.1103719146668
 30
0.0
 10
69.95403238199061
 20
-120.1104969144168
 30
0.0
 10
69.95403238199061
 20
-120.1104969144168
 30
0.0
 10
69.95403238199061
 20
-120.1104969144168
 30
0.0
 10
69.95403238199061
 20
-132.1104446891948
 30
0.0
 10
69.95403238199061
 20
-132.1104446891948
 30
0.0
 10
69.95403238199061
 20
-132.1104446891948
 30
0.0
 10
69.95403238199061
 20
-132.1104446891948
 30
0.0
 10
69.95403238199061
 20
-132.1104446891948
 30
0.0
 10
69.95403238199061
 20
-140.3948663537901
 30
0.0
 10
76.66989998083265
 20
-147.1104146854447
 30
0.0
 10
84.95400199930951
 20
-147.1104146854447
 30
0.0
 10
84.95400199930951
 20
-147.1104146854447
 30
0.0
 10
96.95394947094313
 20
-147.1104146854447
 30
0.0
 10
96.95394947094313
 20
-147.1104146854447
 30
0.0
 10
96.95394947094313
 20
-147.1104146854447
 30
0.0
 10
97.95439441995559
 20
-146.1102896856944
 30
0.0
 10
97.95439441995559
 20
-146.1102896856944
 30
0.0
 10
97.95439441995559
 20
-146.1102896856944
 30
0.0
 10
97.95439441995559
 20
-145.6104035747084
 30
0.0
 10
97.95439441995559
 20
-145.6104035747084
 30
0.0
 10
97.95439441995559
 20
-145.6104035747084
 30
0.0
 10
96.95394947094313
 20
-145.6104035747084
 30
0.0
 10
96.95394947094313
 20
-145.6104035747084
 30
0.0
 10
96.95394947094313
 20
-145.6104035747084
 30
0.0
 10
96.95394947094313
 20
-146.1102896856944
 30
0.0
 10
96.95394947094313
 20
-146.1102896856944
 30
0.0
 10
96.95394947094313
 20
-146.1102896856944
 30
0.0
 10
84.95400199930951
 20
-146.1102896856944
 30
0.0
 10
84.95400199930951
 20
-146.1102896856944
 30
0.0
 10
81.2601718157692
 20
-146.1102896856944
 30
0.0
 10
77.90186856811331
 20
-144.6767771860533
 30
0.0
 10
75.40003918749585
 20
-142.3389541310818
 30
0.0
 10
75.40003918749585
 20
-142.3389541310818
 30
0.0
 10
82.12832262695416
 20
-135.6106705216528
 30
0.0
 10
82.12832262695416
 20
-135.6106705216528
 30
0.0
 10
82.12832262695416
 20
-135.6106705216528
 30
0.0
 10
112.4541226866119
 20
-135.6106705216528
 30
0.0
 10
112.4541226866119
 20
-135.6106705216528
 30
0.0
  0
HATCH
  5
CD
330
1F
100
AcDbEntity
  8
_U+30EC_U+30A4_U+30E4_U+30FC 1
 62
     9
420
 13224394
100
AcDbHatch
 10
0.0
 20
0.0
 30
0.0
210
0.0
220
0.0
230
1.0
  2
SOLID
 70
     1
 71
     0
 91
        1
 92
        1
 93
        1
 72
     4
 94
        3
 73
     0
 74
     1
 95
       77
 96
       73
 40
0.0
 40
0.0
 40
0.0
 40
0.0
 40
1.0
 40
1.0
 40
1.0
 40
2.0
 40
2.0
 40
2.0
 40
3.0
 40
3.0
 40
3.0
 40
4.0
 40
4.0
 40
4.0
 40
5.0
 40
5.0
 40
5.0
 40
6.0
 40
6.0
 40
6.0
 40
7.0
 40
7.0
 40
7.0
 40
8.0
 40
8.0
 40
8.0
 40
9.0
 40
9.0
 40
9.0
 40
10.0
 40
10.0
 40
10.0
 40
11.0
 40
11.0
 40
11.0
 40
12.0
 40
12.0
 40
12.0
 40
13.0
 40
13.0
 40
13.0
 40
14.0
 40
14.0
 40
14.0
 40
15.0
 40
15.0
 40
15.0
 40
16.0
 40
16.0
 40
16.0
 40
17.0
 40
17.0
 40
17.0
 40
18.0
 40
18.0
 40
18.0
 40
19.0
 40
19.0
 40
19.0
 40
20.0
 40
20.0
 40
20.0
 40
21.0
 40
21.0
 40
21.0
 40
22.0
 40
22.0
 40
22.0
 40
23.0
 40
23.0
 40
23.0
 40
24.0
 40
24.0
 40
24.0
 40
24.0
 10
112.4541226866119
 20
-135.6106705216528
 10
112.4541226866119
 20
-135.6106705216528
 10
112.4541226866119
 20
-134.5771374663555
 10
112.4541226866119
 20
-134.5771374663555
 10
112.4541226866119
 20
-134.5771374663555
 10
82.48730928446231
 20
-134.5771374663555
 10
82.48730928446231
 20
-134.5771374663555
 10
82.48730928446231
 20
-134.5771374663555
 10
82.48730928446231
 20
-104.6104996960696
 10
82.48730928446231
 20
-104.6104996960696
 10
82.48730928446231
 20
-104.6104996960696
 10
81.45444653303505
 20
-104.6104996960696
 10
81.45444653303505
 20
-104.6104996960696
 10
81.45444653303505
 20
-104.6104996960696
 10
81.45444653303505
 20
-134.8703310773937
 10
81.45444653303505
 20
-134.8703310773937
 10
81.45444653303505
 20
-134.8703310773937
 10
74.69381337217985
 20
-141.6309644090365
 10
74.69381337217985
 20
-141.6309644090365
 10
72.37458176468171
 20
-139.1325921874394
 10
70.95451013424409
 20
-135.7877649660531
 10
70.95451013424409
 20
-132.1101271891945
 10
70.95451013424409
 20
-132.1101271891945
 10
70.95451013424409
 20
-120.1104969144168
 10
70.95451013424409
 20
-120.1104969144168
 10
70.95451013424409
 20
-120.1104969144168
 10
71.45404345483325
 20
-120.1104969144168
 10
71.45404345483325
 20
-120.1104969144168
 10
71.45404345483325
 20
-120.1104969144168
 10
71.45404345483325
 20
-119.1103719146668
 10
71.45404345483325
 20
-119.1103719146668
 10
71.45404345483325
 20
-119.1103719146668
 10
70.95451013424409
 20
-119.1103719146668
 10
70.95451013424409
 20
-119.1103719146668
 10
70.95451013424409
 20
-119.1103719146668
 10
69.95403238199061
 20
-120.1104969144168
 10
69.95403238199061
 20
-120.1104969144168
 10
69.95403238199061
 20
-120.1104969144168
 10
69.95403238199061
 20
-132.1104446891948
 10
69.95403238199061
 20
-132.1104446891948
 10
69.95403238199061
 20
-132.1104446891948
 10
69.95403238199061
 20
-132.1104446891948
 10
69.95403238199061
 20
-132.1104446891948
 10
69.95403238199061
 20
-140.3948663537901
 10
76.66989998083265
 20
-147.1104146854447
 10
84.95400199930951
 20
-147.1104146854447
 10
84.95400199930951
 20
-147.1104146854447
 10
96.95394947094313
 20
-147.1104146854447
 10
96.95394947094313
 20
-147.1104146854447
 10
96.95394947094313
 20
-147.1104146854447
 10
97.95439441995559
 20
-146.1102896856944
 10
97.95439441995559
 20
-146.1102896856944
 10
97.95439441995559
 20
-146.1102896856944
 10
97.95439441995559
 20
-145.6104035747084
 10
97.95439441995559
 20
-145.6104035747084
 10
97.95439441995559
 20
-145.6104035747084
 10
96.95394947094313
 20
-145.6104035747084
 10
96.95394947094313
 20
-145.6104035747084
 10
96.95394947094313
 20
-145.6104035747084
 10
96.95394947094313
 20
-146.1102896856944
 10
96.95394947094313
 20
-146.1102896856944
 10
96.95394947094313
 20
-146.1102896856944
 10
84.95400199930951
 20
-146.1102896856944
 10
84.95400199930951
 20
-146.1102896856944
 10
81.2601718157692
 20
-146.1102896856944
 10
77.90186856811331
 20
-144.6767771860533
 10
75.40003918749585
 20
-142.3389541310818
 10
75.40003918749585
 20
-142.3389541310818
 10
82.12832262695416
 20
-135.6106705216528
 10
82.12832262695416
 20
-135.6106705216528
 10
82.12832262695416
 20
-135.6106705216528
 10
112.4541226866119
 20
-135.6106705216528
 10
112.4541226866119
 20
-135.6106705216528
 97
        0
 97
        0
 75
     2
 76
     1
 98
        0
  0
INSERT
  5
CF
330
1F
100
AcDbEntity
  8
_U+30EC_U+30A4_U+30E4_U+30FC 1
100
AcDbBlockReference
  2
block 10
 10
0.0
 20
0.0
 30
0.0
  0
POLYLINE
  5
D9
330
1F
100
AcDbEntity
  8
_U+30EC_U+30A4_U+30E4_U+30FC 1
 62
   179
420
  2234388
370
     9
100
AcDb2dPolyline
 66
     1
 10
0.0
 20
0.0
 30
0.0
  0
VERTEX
  5
DA
330
D9
100
AcDbEntity
  8
_U+30EC_U+30A4_U+30E4_U+30FC 1
 62
   179
420
  2234388
370
     9
100
AcDbVertex
100
AcDb2dVertex
 10
67.2241321738584
 20
-149.8075771847706
 30
0.0
  0
VERTEX
  5
DB
330
D9
100
AcDbEntity
  8
_U+30EC_U+30A4_U+30E4_U+30FC 1
 62
   179
420
  2234388
370
     9
100
AcDbVertex
100
AcDb2dVertex
 10
74.03235505572171
 20
-143.00072996425
 30
0.0
  0
SEQEND
  5
DC
330
D9
100
AcDbEntity
  8
_U+30EC_U+30A4_U+30E4_U+30FC 1
 62
   179
420
  2234388
370
     9
  0
POLYLINE
  5
DD
330
1F
100
AcDbEntity
  8
_U+30EC_U+30A4_U+30E4_U+30FC 1
 62
   179
420
  2234388
370
     9
100
AcDb2dPolyline
 66
     1
 10
0.0
 20
0.0
 30
0.0
  0
VERTEX
  5
DE
330
DD
100
AcDbEntity
  8
_U+30EC_U+30A4_U+30E4_U+30FC 1
 62
   179
420
  2234388
370
     9
100
AcDbVertex
100
AcDb2dVertex
 10
74.03235505572171
 20
-143.00072996425
 30
0.0
  0
VERTEX
  5
DF
330
DD
100
AcDbEntity
  8
_U+30EC_U+30A4_U+30E4_U+30FC 1
 62
   179
420
  2234388
370
     9
100
AcDbVertex
100
AcDb2dVertex
 10
73.12007174566267
 20
-143.5071777419008
 30
0.0
  0
SEQEND
  5
E0
330
DD
100
AcDbEntity
  8
_U+30EC_U+30A4_U+30E4_U+30FC 1
 62
   179
420
  2234388
370
     9
  0
POLYLINE
  5
E1
330
1F
100
AcDbEntity
  8
_U+30EC_U+30A4_U+30E4_U+30FC 1
 62
   179
420
  2234388
370
     9
100
AcDb2dPolyline
 66
     1
 10
0.0
 20
0.0
 30
0.0
  0
VERTEX
  5
E2
330
E1
100
AcDbEntity
  8
_U+30EC_U+30A4_U+30E4_U+30FC 1
 62
   179
420
  2234388
370
     9
100
AcDbVertex
100
AcDb2dVertex
 10
74.03235505572171
 20
-143.00072996425
 30
0.0
  0
VERTEX
  5
E3
330
E1
100
AcDbEntity
  8
_U+30EC_U+30A4_U+30E4_U+30FC 1
 62
   179
420
  2234388
370
     9
100
AcDbVertex
100
AcDb2dVertex
 10
73.4948999816264
 20
-143.894739408471
 30
0.0
  0
SEQEND
  5
E4
330
E1
100
AcDbEntity
  8
_U+30EC_U+30A4_U+30E4_U+30FC 1
 62
   179
420
  2234388
370
     9
  0
ENDSEC
  0
SECTION
  2
OBJECTS
  0
DICTIONARY
  5
C
330
0
100
AcDbDictionary
281
     1
  3
ACAD_GROUP
350
D
  3
ACAD_LAYOUT
350
1A
  3
ACAD_MATERIAL
350
3B
  3
ACAD_MLEADERSTYLE
350
E6
  3
ACAD_MLINESTYLE
350
17
  3
ACAD_PLOTSETTINGS
350
19
  3
ACAD_PLOTSTYLENAME
350
E
  3
ACAD_TABLESTYLE
350
E5
  3
ACAD_VISUALSTYLE
350
2A
  0
SUN
  5
3F
330
29
100
AcDbSun
 90
        1
290
     0
 63
     7
421
 16777215
 40
1.0
291
     1
 91
  2455826
 92
 54000000
292
     0
 70
     2
 71
   256
280
     1
  0
DICTIONARY
  5
D
102
{ACAD_REACTORS
330
C
102
}
330
C
100
AcDbDictionary
281
     1
  0
DICTIONARY
  5
1A
102
{ACAD_REACTORS
330
C
102
}
330
C
100
AcDbDictionary
281
     1
  3
Layout1
350
1E
  3
Layout2
350
26
  3
Model
350
22
  0
DICTIONARY
  5
3B
102
{ACAD_REACTORS
330
C
102
}
330
C
100
AcDbDictionary
281
     1
  3
ByBlock
350
3D
  3
ByLayer
350
3C
  3
Global
350
3E
  0
DICTIONARY
  5
E6
102
{ACAD_REACTORS
330
C
102
}
330
C
100
AcDbDictionary
281
     1
  0
DICTIONARY
  5
17
102
{ACAD_REACTORS
330
C
102
}
330
C
100
AcDbDictionary
281
     1
  3
Standard
350
18
  0
DICTIONARY
  5
19
102
{ACAD_REACTORS
330
C
102
}
330
C
100
AcDbDictionary
281
     1
  0
ACDBDICTIONARYWDFLT
  5
E
102
{ACAD_REACTORS
330
C
102
}
330
C
100
AcDbDictionary
281
     1
  3
Normal
350
F
100
AcDbDictionaryWithDefault
340
F
  0
DICTIONARY
  5
E5
102
{ACAD_REACTORS
330
C
102
}
330
C
100
AcDbDictionary
281
     1
  0
DICTIONARY
  5
2A
102
{ACAD_REACTORS
330
C
102
}
330
C
100
AcDbDictionary
281
     1
  3
2dWireframe
350
2F
  3
3D Hidden
350
31
  3
3dWireframe
350
30
  3
Basic
350
32
  3
Brighten
350
36
  3
ColorChange
350
3A
  3
Conceptual
350
34
  3
Dim
350
35
  3
Facepattern
350
39
  3
Flat
350
2B
  3
FlatWithEdges
350
2C
  3
Gouraud
350
2D
  3
GouraudWithEdges
350
2E
  3
Linepattern
350
38
  3
Realistic
350
33
  3
Thicken
350
37
  0
LAYOUT
  5
1E
102
{ACAD_REACTORS
330
1A
102
}
330
1A
100
AcDbPlotSettings
  1

  2
none_device
  4

  6

 40
0.0
 41
0.0
 42
0.0
 43
0.0
 44
0.0
 45
0.0
 46
0.0
 47
0.0
 48
0.0
 49
0.0
140
0.0
141
0.0
142
1.0
143
1.0
 70
   688
 72
     0
 73
     0
 74
     5
  7

 75
    16
 76
     0
 77
     2
 78
   300
147
1.0
148
0.0
149
0.0
100
AcDbLayout
  1
Layout1
 70
     1
 71
     1
 10
0.0
 20
0.0
 11
12.0
 21
9.0
 12
0.0
 22
0.0
 32
0.0
 14
1.000000000000000E+20
 24
1.000000000000000E+20
 34
1.000000000000000E+20
 15
-1.000000000000000E+20
 25
-1.000000000000000E+20
 35
-1.000000000000000E+20
146
0.0
 13
0.0
 23
0.0
 33
0.0
 16
1.0
 26
0.0
 36
0.0
 17
0.0
 27
1.0
 37
0.0
 76
     0
330
1B
  0
LAYOUT
  5
26
102
{ACAD_REACTORS
330
1A
102
}
330
1A
100
AcDbPlotSettings
  1

  2
none_device
  4

  6

 40
0.0
 41
0.0
 42
0.0
 43
0.0
 44
0.0
 45
0.0
 46
0.0
 47
0.0
 48
0.0
 49
0.0
140
0.0
141
0.0
142
1.0
143
1.0
 70
   688
 72
     0
 73
     0
 74
     5
  7

 75
    16
 76
     0
 77
     2
 78
   300
147
1.0
148
0.0
149
0.0
100
AcDbLayout
  1
Layout2
 70
     1
 71
     2
 10
0.0
 20
0.0
 11
0.0
 21
0.0
 12
0.0
 22
0.0
 32
0.0
 14
0.0
 24
0.0
 34
0.0
 15
0.0
 25
0.0
 35
0.0
146
0.0
 13
0.0
 23
0.0
 33
0.0
 16
1.0
 26
0.0
 36
0.0
 17
0.0
 27
1.0
 37
0.0
 76
     0
330
23
  0
LAYOUT
  5
22
102
{ACAD_REACTORS
330
1A
102
}
330
1A
100
AcDbPlotSettings
  1

  2
none_device
  4

  6

 40
0.0
 41
0.0
 42
0.0
 43
0.0
 44
0.0
 45
0.0
 46
0.0
 47
0.0
 48
0.0
 49
0.0
140
0.0
141
0.0
142
1.0
143
1.0
 70
  1712
 72
     0
 73
     0
 74
     0
  7

 75
     0
 76
     0
 77
     2
 78
   300
147
1.0
148
0.0
149
0.0
100
AcDbLayout
  1
Model
 70
     1
 71
     0
 10
0.0
 20
0.0
 11
12.0
 21
9.0
 12
0.0
 22
0.0
 32
0.0
 14
1.000000000000000E+20
 24
1.000000000000000E+20
 34
1.000000000000000E+20
 15
-1.000000000000000E+20
 25
-1.000000000000000E+20
 35
-1.000000000000000E+20
146
0.0
 13
0.0
 23
0.0
 33
0.0
 16
1.0
 26
0.0
 36
0.0
 17
0.0
 27
1.0
 37
0.0
 76
     0
330
1F
331
29
  0
MATERIAL
  5
3D
102
{ACAD_REACTORS
330
3B
102
}
330
3B
100
AcDbMaterial
  1
ByBlock
 72
     1
 94
      127
  0
MATERIAL
  5
3C
102
{ACAD_REACTORS
330
3B
102
}
330
3B
100
AcDbMaterial
  1
ByLayer
 72
     1
 94
      127
  0
MATERIAL
  5
3E
102
{ACAD_REACTORS
330
3B
102
}
330
3B
100
AcDbMaterial
  1
Global
 72
     1
 94
      127
  0
MLINESTYLE
  5
18
102
{ACAD_REACTORS
330
17
102
}
330
17
100
AcDbMlineStyle
  2
Standard
 70
     0
  3

 62
   256
 51
90.0
 52
90.0
 71
     2
 49
0.5
 62
   256
  6
BYLAYER
 49
-0.5
 62
   256
  6
BYLAYER
  0
ACDBPLACEHOLDER
  5
F
102
{ACAD_REACTORS
330
E
102
}
330
E
  0
VISUALSTYLE
  5
2F
102
{ACAD_REACTORS
330
2A
102
}
330
2A
100
AcDbVisualStyle
  2
2dWireframe
 70
     4
177
     2
291
     0
 71
     0
176
     1
 72
     2
176
     1
 73
     0
176
     1
 90
        0
176
     1
 40
-0.6
176
     1
 41
-30.0
176
     1
 62
     5
 63
     7
421
 16777215
176
     1
 74
     1
176
     1
 91
        4
176
     1
 64
     7
176
     1
 65
   257
176
     1
 75
     1
176
     1
175
     1
176
     1
 42
1.0
176
     1
 92
        0
176
     1
 66
   257
176
     1
 43
1.0
176
     1
 76
     1
176
     1
 77
     6
176
     1
 78
     2
176
     1
 67
     7
176
     1
 79
     5
176
     1
170
     0
176
     1
171
     0
176
     1
290
     0
176
     1
 93
        1
176
     1
 44
0.0
176
     1
173
     0
176
     1
  0
VISUALSTYLE
  5
31
102
{ACAD_REACTORS
330
2A
102
}
330
2A
100
AcDbVisualStyle
  2
3D Hidden
 70
     6
177
     2
291
     0
 71
     1
176
     1
 72
     2
176
     1
 73
     2
176
     1
 90
        0
176
     1
 40
-0.6
176
     1
 41
-30.0
176
     1
 62
     5
 63
     7
421
 16777215
176
     1
 74
     2
176
     1
 91
        2
176
     1
 64
     7
176
     1
 65
   257
176
     1
 75
     2
176
     1
175
     1
176
     1
 42
40.0
176
     1
 92
        0
176
     1
 66
   257
176
     1
 43
1.0
176
     1
 76
     1
176
     1
 77
     6
176
     1
 78
     2
176
     1
 67
     7
176
     1
 79
     3
176
     1
170
     0
176
     1
171
     0
176
     1
290
     0
176
     1
 93
        1
176
     1
 44
0.0
176
     1
173
     0
176
     1
  0
VISUALSTYLE
  5
30
102
{ACAD_REACTORS
330
2A
102
}
330
2A
100
AcDbVisualStyle
  2
3dWireframe
 70
     5
177
     2
291
     0
 71
     0
176
     1
 72
     2
176
     1
 73
     0
176
     1
 90
        0
176
     1
 40
-0.6
176
     1
 41
-30.0
176
     1
 62
     5
 63
     7
421
 16777215
176
     1
 74
     1
176
     1
 91
        4
176
     1
 64
     7
176
     1
 65
   257
176
     1
 75
     1
176
     1
175
     1
176
     1
 42
1.0
176
     1
 92
        0
176
     1
 66
   257
176
     1
 43
1.0
176
     1
 76
     1
176
     1
 77
     6
176
     1
 78
     2
176
     1
 67
     7
176
     1
 79
     5
176
     1
170
     0
176
     1
171
     0
176
     1
290
     0
176
     1
 93
        1
176
     1
 44
0.0
176
     1
173
     0
176
     1
  0
VISUALSTYLE
  5
32
102
{ACAD_REACTORS
330
2A
102
}
330
2A
100
AcDbVisualStyle
  2
Basic
 70
     7
177
     2
291
     1
 71
     1
176
     1
 72
     0
176
     1
 73
     1
176
     1
 90
        0
176
     1
 40
-0.6
176
     1
 41
-30.0
176
     1
 62
     5
 63
     7
421
 16777215
176
     1
 74
     0
176
     1
 91
        4
176
     1
 64
     7
176
     1
 65
   257
176
     1
 75
     1
176
     1
175
     1
176
     1
 42
1.0
176
     1
 92
        8
176
     1
 66
     7
176
     1
 43
1.0
176
     1
 76
     1
176
     1
 77
     6
176
     1
 78
     2
176
     1
 67
     7
176
     1
 79
     5
176
     1
170
     0
176
     1
171
     0
176
     1
290
     0
176
     1
 93
        1
176
     1
 44
0.0
176
     1
173
     0
176
     1
  0
VISUALSTYLE
  5
36
102
{ACAD_REACTORS
330
2A
102
}
330
2A
100
AcDbVisualStyle
  2
Brighten
 70
    12
177
     2
291
     1
 71
     2
176
     1
 72
     2
176
     1
 73
     0
176
     1
 90
        0
176
     1
 40
-0.6
176
     1
 41
-30.0
176
     1
 62
     5
 63
     7
421
 16777215
176
     1
 74
     1
176
     1
 91
        4
176
     1
 64
     7
176
     1
 65
   257
176
     1
 75
     1
176
     1
175
     1
176
     1
 42
1.0
176
     1
 92
        8
176
     1
 66
     7
176
     1
 43
1.0
176
     1
 76
     1
176
     1
 77
     6
176
     1
 78
     2
176
     1
 67
     7
176
     1
 79
     5
176
     1
170
     0
176
     1
171
     0
176
     1
290
     0
176
     1
 93
        1
176
     1
 44
50.0
176
     1
173
     0
176
     1
  0
VISUALSTYLE
  5
3A
102
{ACAD_REACTORS
330
2A
102
}
330
2A
100
AcDbVisualStyle
  2
ColorChange
 70
    16
177
     2
291
     1
 71
     2
176
     1
 72
     2
176
     1
 73
     3
176
     1
 90
        0
176
     1
 40
-0.6
176
     1
 41
-30.0
176
     1
 62
     5
 63
     8
421
  8421504
176
     1
 74
     1
176
     1
 91
        4
176
     1
 64
     7
176
     1
 65
   257
176
     1
 75
     1
176
     1
175
     1
176
     1
 42
1.0
176
     1
 92
        8
176
     1
 66
     8
424
  8421504
176
     1
 43
1.0
176
     1
 76
     1
176
     1
 77
     6
176
     1
 78
     2
176
     1
 67
     7
176
     1
 79
     5
176
     1
170
     0
176
     1
171
     0
176
     1
290
     0
176
     1
 93
        1
176
     1
 44
0.0
176
     1
173
     0
176
     1
  0
VISUALSTYLE
  5
34
102
{ACAD_REACTORS
330
2A
102
}
330
2A
100
AcDbVisualStyle
  2
Conceptual
 70
     9
177
     2
291
     0
 71
     3
176
     1
 72
     2
176
     1
 73
     0
176
     1
 90
        0
176
     1
 40
-0.6
176
     1
 41
-30.0
176
     1
 62
     5
 63
     7
421
 16777215
176
     1
 74
     2
176
     1
 91
        2
176
     1
 64
     7
176
     1
 65
   257
176
     1
 75
     1
176
     1
175
     1
176
     1
 42
40.0
176
     1
 92
        8
176
     1
 66
     7
176
     1
 43
1.0
176
     1
 76
     1
176
     1
 77
     6
176
     1
 78
     2
176
     1
 67
     7
176
     1
 79
     3
176
     1
170
     0
176
     1
171
     0
176
     1
290
     0
176
     1
 93
        1
176
     1
 44
0.0
176
     1
173
     0
176
     1
  0
VISUALSTYLE
  5
35
102
{ACAD_REACTORS
330
2A
102
}
330
2A
100
AcDbVisualStyle
  2
Dim
 70
    11
177
     2
291
     1
 71
     2
176
     1
 72
     2
176
     1
 73
     0
176
     1
 90
        0
176
     1
 40
-0.6
176
     1
 41
-30.0
176
     1
 62
     5
 63
     7
421
 16777215
176
     1
 74
     1
176
     1
 91
        4
176
     1
 64
     7
176
     1
 65
   257
176
     1
 75
     1
176
     1
175
     1
176
     1
 42
1.0
176
     1
 92
        8
176
     1
 66
     7
176
     1
 43
1.0
176
     1
 76
     1
176
     1
 77
     6
176
     1
 78
     2
176
     1
 67
     7
176
     1
 79
     5
176
     1
170
     0
176
     1
171
     0
176
     1
290
     0
176
     1
 93
        1
176
     1
 44
-50.0
176
     1
173
     0
176
     1
  0
VISUALSTYLE
  5
39
102
{ACAD_REACTORS
330
2A
102
}
330
2A
100
AcDbVisualStyle
  2
Facepattern
 70
    15
177
     2
291
     1
 71
     2
176
     1
 72
     2
176
     1
 73
     0
176
     1
 90
        0
176
     1
 40
-0.6
176
     1
 41
-30.0
176
     1
 62
     5
 63
     7
421
 16777215
176
     1
 74
     1
176
     1
 91
        4
176
     1
 64
     7
176
     1
 65
   257
176
     1
 75
     1
176
     1
175
     1
176
     1
 42
1.0
176
     1
 92
        8
176
     1
 66
     7
176
     1
 43
1.0
176
     1
 76
     1
176
     1
 77
     6
176
     1
 78
     2
176
     1
 67
     7
176
     1
 79
     5
176
     1
170
     0
176
     1
171
     0
176
     1
290
     0
176
     1
 93
        1
176
     1
 44
0.0
176
     1
173
     0
176
     1
  0
VISUALSTYLE
  5
2B
102
{ACAD_REACTORS
330
2A
102
}
330
2A
100
AcDbVisualStyle
  2
Flat
 70
     0
177
     2
291
     1
 71
     2
176
     1
 72
     1
176
     1
 73
     1
176
     1
 90
        2
176
     1
 40
-0.6
176
     1
 41
30.0
176
     1
 62
     5
 63
     7
421
 16777215
176
     1
 74
     0
176
     1
 91
        4
176
     1
 64
     7
176
     1
 65
   257
176
     1
 75
     1
176
     1
175
     1
176
     1
 42
1.0
176
     1
 92
        8
176
     1
 66
     7
176
     1
 43
1.0
176
     1
 76
     1
176
     1
 77
     6
176
     1
 78
     2
176
     1
 67
     7
176
     1
 79
     5
176
     1
170
     0
176
     1
171
     0
176
     1
290
     0
176
     1
 93
       13
176
     1
 44
0.0
176
     1
173
     0
176
     1
  0
VISUALSTYLE
  5
2C
102
{ACAD_REACTORS
330
2A
102
}
330
2A
100
AcDbVisualStyle
  2
FlatWithEdges
 70
     1
177
     2
291
     1
 71
     2
176
     1
 72
     1
176
     1
 73
     1
176
     1
 90
        2
176
     1
 40
-0.6
176
     1
 41
30.0
176
     1
 62
     5
 63
     7
421
 16777215
176
     1
 74
     1
176
     1
 91
        4
176
     1
 64
     7
176
     1
 65
   257
176
     1
 75
     1
176
     1
175
     1
176
     1
 42
1.0
176
     1
 92
        0
176
     1
 66
   257
176
     1
 43
1.0
176
     1
 76
     1
176
     1
 77
     6
176
     1
 78
     2
176
     1
 67
     7
176
     1
 79
     5
176
     1
170
     0
176
     1
171
     0
176
     1
290
     0
176
     1
 93
       13
176
     1
 44
0.0
176
     1
173
     0
176
     1
  0
VISUALSTYLE
  5
2D
102
{ACAD_REACTORS
330
2A
102
}
330
2A
100
AcDbVisualStyle
  2
Gouraud
 70
     2
177
     2
291
     1
 71
     2
176
     1
 72
     2
176
     1
 73
     1
176
     1
 90
        2
176
     1
 40
-0.6
176
     1
 41
30.0
176
     1
 62
     5
 63
     7
421
 16777215
176
     1
 74
     0
176
     1
 91
        4
176
     1
 64
     7
176
     1
 65
   257
176
     1
 75
     1
176
     1
175
     1
176
     1
 42
1.0
176
     1
 92
        0
176
     1
 66
     7
176
     1
 43
1.0
176
     1
 76
     1
176
     1
 77
     6
176
     1
 78
     2
176
     1
 67
     7
176
     1
 79
     5
176
     1
170
     0
176
     1
171
     0
176
     1
290
     0
176
     1
 93
       13
176
     1
 44
0.0
176
     1
173
     0
176
     1
  0
VISUALSTYLE
  5
2E
102
{ACAD_REACTORS
330
2A
102
}
330
2A
100
AcDbVisualStyle
  2
GouraudWithEdges
 70
     3
177
     2
291
     1
 71
     2
176
     1
 72
     2
176
     1
 73
     1
176
     1
 90
        2
176
     1
 40
-0.6
176
     1
 41
30.0
176
     1
 62
     5
 63
     7
421
 16777215
176
     1
 74
     1
176
     1
 91
        4
176
     1
 64
     7
176
     1
 65
   257
176
     1
 75
     1
176
     1
175
     1
176
     1
 42
1.0
176
     1
 92
        0
176
     1
 66
   257
176
     1
 43
1.0
176
     1
 76
     1
176
     1
 77
     6
176
     1
 78
     2
176
     1
 67
     7
176
     1
 79
     5
176
     1
170
     0
176
     1
171
     0
176
     1
290
     0
176
     1
 93
       13
176
     1
 44
0.0
176
     1
173
     0
176
     1
  0
VISUALSTYLE
  5
38
102
{ACAD_REACTORS
330
2A
102
}
330
2A
100
AcDbVisualStyle
  2
Linepattern
 70
    14
177
     2
291
     1
 71
     2
176
     1
 72
     2
176
     1
 73
     0
176
     1
 90
        0
176
     1
 40
-0.6
176
     1
 41
-30.0
176
     1
 62
     5
 63
     7
421
 16777215
176
     1
 74
     1
176
     1
 91
        4
176
     1
 64
     7
176
     1
 65
   257
176
     1
 75
     7
176
     1
175
     7
176
     1
 42
1.0
176
     1
 92
        8
176
     1
 66
     7
176
     1
 43
1.0
176
     1
 76
     1
176
     1
 77
     6
176
     1
 78
     2
176
     1
 67
     7
176
     1
 79
     5
176
     1
170
     0
176
     1
171
     0
176
     1
290
     0
176
     1
 93
        1
176
     1
 44
0.0
176
     1
173
     0
176
     1
  0
VISUALSTYLE
  5
33
102
{ACAD_REACTORS
330
2A
102
}
330
2A
100
AcDbVisualStyle
  2
Realistic
 70
     8
177
     2
291
     0
 71
     2
176
     1
 72
     2
176
     1
 73
     0
176
     1
 90
        0
176
     1
 40
-0.6
176
     1
 41
-30.0
176
     1
 62
     5
 63
     7
421
 16777215
176
     1
 74
     1
176
     1
 91
        0
176
     1
 64
     7
176
     1
 65
   257
176
     1
 75
     1
176
     1
175
     1
176
     1
 42
1.0
176
     1
 92
        8
176
     1
 66
     8
424
  7895160
176
     1
 43
1.0
176
     1
 76
     1
176
     1
 77
     6
176
     1
 78
     2
176
     1
 67
     7
176
     1
 79
     5
176
     1
170
     0
176
     1
171
     0
176
     1
290
     0
176
     1
 93
       13
176
     1
 44
0.0
176
     1
173
     0
176
     1
  0
VISUALSTYLE
  5
37
102
{ACAD_REACTORS
330
2A
102
}
330
2A
100
AcDbVisualStyle
  2
Thicken
 70
    13
177
     2
291
     1
 71
     2
176
     1
 72
     2
176
     1
 73
     0
176
     1
 90
        0
176
     1
 40
-0.6
176
     1
 41
-30.0
176
     1
 62
     5
 63
     7
421
 16777215
176
     1
 74
     1
176
     1
 91
        4
176
     1
 64
     7
176
     1
 65
   257
176
     1
 75
     1
176
     1
175
     1
176
     1
 42
1.0
176
     1
 92
       12
176
     1
 66
     7
176
     1
 43
1.0
176
     1
 76
     1
176
     1
 77
     6
176
     1
 78
     2
176
     1
 67
     7
176
     1
 79
     5
176
     1
170
     0
176
     1
171
     0
176
     1
290
     0
176
     1
 93
        1
176
     1
 44
0.0
176
     1
173
     0
176
     1
  0
ENDSEC
  0
EOF
