  0
SECTION
  2
HEADER
  9
$ACADVER
  1
AC1024
  9
$ACADMAINTVER
 70
     6
  9
$DWGCODEPAGE
  3
UNDEFINED
  9
$INSBASE
 10
0.0
 20
0.0
 30
0.0
  9
$EXTMIN
 10
1.000000000000000E+20
 20
1.000000000000000E+20
 30
1.000000000000000E+20
  9
$EXTMAX
 10
-1.000000000000000E+20
 20
-1.000000000000000E+20
 30
-1.000000000000000E+20
  9
$LIMMIN
 10
0.0
 20
0.0
  9
$LIMMAX
 10
12.0
 20
9.0
  9
$ORTHOMODE
 70
     0
  9
$REGENMODE
 70
     1
  9
$FILLMODE
 70
     1
  9
$QTEXTMODE
 70
     0
  9
$MIRRTEXT
 70
     1
  9
$LTSCALE
 40
1.0
  9
$ATTMODE
 70
     1
  9
$TEXTSIZE
 40
0.2
  9
$TRACEWID
 40
0.05
  9
$TEXTSTYLE
  7
Standard
  9
$CLAYER
  8
0
  9
$CELTYPE
  6
ByLayer
  9
$CECOLOR
 62
   256
  9
$CELTSCALE
 40
1.0
  9
$DISPSILH
 70
     0
  9
$DIMSCALE
 40
1.0
  9
$DIMASZ
 40
0.18
  9
$DIMEXO
 40
0.0625
  9
$DIMDLI
 40
0.38
  9
$DIMRND
 40
0.0
  9
$DIMDLE
 40
0.0
  9
$DIMEXE
 40
0.18
  9
$DIMTP
 40
0.0
  9
$DIMTM
 40
0.0
  9
$DIMTXT
 40
0.18
  9
$DIMCEN
 40
0.09
  9
$DIMTSZ
 40
0.0
  9
$DIMTOL
 70
     0
  9
$DIMLIM
 70
     0
  9
$DIMTIH
 70
     1
  9
$DIMTOH
 70
     1
  9
$DIMSE1
 70
     0
  9
$DIMSE2
 70
     0
  9
$DIMTAD
 70
     0
  9
$DIMZIN
 70
     0
  9
$DIMBLK
  1

  9
$DIMASO
 70
     1
  9
$DIMSHO
 70
     1
  9
$DIMPOST
  1

  9
$DIMAPOST
  1

  9
$DIMALT
 70
     0
  9
$DIMALTD
 70
     2
  9
$DIMALTF
 40
25.4
  9
$DIMLFAC
 40
1.0
  9
$DIMTOFL
 70
     0
  9
$DIMTVP
 40
0.0
  9
$DIMTIX
 70
     0
  9
$DIMSOXD
 70
     0
  9
$DIMSAH
 70
     0
  9
$DIMBLK1
  1

  9
$DIMBLK2
  1

  9
$DIMSTYLE
  2
Standard
  9
$DIMCLRD
 70
     0
  9
$DIMCLRE
 70
     0
  9
$DIMCLRT
 70
     0
  9
$DIMTFAC
 40
1.0
  9
$DIMGAP
 40
0.09
  9
$DIMJUST
 70
     0
  9
$DIMSD1
 70
     0
  9
$DIMSD2
 70
     0
  9
$DIMTOLJ
 70
     1
  9
$DIMTZIN
 70
     0
  9
$DIMALTZ
 70
     0
  9
$DIMALTTZ
 70
     0
  9
$DIMUPT
 70
     0
  9
$DIMDEC
 70
     4
  9
$DIMTDEC
 70
     4
  9
$DIMALTU
 70
     2
  9
$DIMALTTD
 70
     2
  9
$DIMTXSTY
  7
Standard
  9
$DIMAUNIT
 70
     0
  9
$DIMADEC
 70
     0
  9
$DIMALTRND
 40
0.0
  9
$DIMAZIN
 70
     0
  9
$DIMDSEP
 70
    46
  9
$DIMATFIT
 70
     3
  9
$DIMFRAC
 70
     0
  9
$DIMLDRBLK
  1

  9
$DIMLUNIT
 70
     2
  9
$DIMLWD
 70
    -2
  9
$DIMLWE
 70
    -2
  9
$DIMTMOVE
 70
     0
  9
$DIMFXL
 40
1.0
  9
$DIMFXLON
 70
     0
  9
$DIMJOGANG
 40
0.7853981633974483
  9
$DIMTFILL
 70
     0
  9
$DIMTFILLCLR
 70
     0
  9
$DIMARCSYM
 70
     0
  9
$DIMLTYPE
  6

  9
$DIMLTEX1
  6

  9
$DIMLTEX2
  6

  9
$DIMTXTDIRECTION
 70
     0
  9
$LUNITS
 70
     2
  9
$LUPREC
 70
     4
  9
$SKETCHINC
 40
0.1
  9
$FILLETRAD
 40
0.5
  9
$AUNITS
 70
     0
  9
$AUPREC
 70
     0
  9
$MENU
  1
.
  9
$ELEVATION
 40
0.0
  9
$PELEVATION
 40
0.0
  9
$THICKNESS
 40
0.0
  9
$LIMCHECK
 70
     0
  9
$CHAMFERA
 40
0.5
  9
$CHAMFERB
 40
0.5
  9
$CHAMFERC
 40
1.0
  9
$CHAMFERD
 40
0.0
  9
$SKPOLY
 70
     0
  9
$TDCREATE
 40
2457917.620243056
  9
$TDUCREATE
 40
2457917.245243056
  9
$TDUPDATE
 40
2457917.620243056
  9
$TDUUPDATE
 40
2457917.245243056
  9
$TDINDWG
 40
0.0000000116
  9
$TDUSRTIMER
 40
0.0000000116
  9
$USRTIMER
 70
     1
  9
$ANGBASE
 50
0.0
  9
$ANGDIR
 70
     0
  9
$PDMODE
 70
     0
  9
$PDSIZE
 40
0.0
  9
$PLINEWID
 40
0.0
  9
$SPLFRAME
 70
     0
  9
$SPLINETYPE
 70
     6
  9
$SPLINESEGS
 70
     8
  9
$HANDSEED
  5
EF
  9
$SURFTAB1
 70
     6
  9
$SURFTAB2
 70
     6
  9
$SURFTYPE
 70
     6
  9
$SURFU
 70
     6
  9
$SURFV
 70
     6
  9
$UCSBASE
  2

  9
$UCSNAME
  2

  9
$UCSORG
 10
0.0
 20
0.0
 30
0.0
  9
$UCSXDIR
 10
1.0
 20
0.0
 30
0.0
  9
$UCSYDIR
 10
0.0
 20
1.0
 30
0.0
  9
$UCSORTHOREF
  2

  9
$UCSORTHOVIEW
 70
     0
  9
$UCSORGTOP
 10
0.0
 20
0.0
 30
0.0
  9
$UCSORGBOTTOM
 10
0.0
 20
0.0
 30
0.0
  9
$UCSORGLEFT
 10
0.0
 20
0.0
 30
0.0
  9
$UCSORGRIGHT
 10
0.0
 20
0.0
 30
0.0
  9
$UCSORGFRONT
 10
0.0
 20
0.0
 30
0.0
  9
$UCSORGBACK
 10
0.0
 20
0.0
 30
0.0
  9
$PUCSBASE
  2

  9
$PUCSNAME
  2

  9
$PUCSORG
 10
0.0
 20
0.0
 30
0.0
  9
$PUCSXDIR
 10
1.0
 20
0.0
 30
0.0
  9
$PUCSYDIR
 10
0.0
 20
1.0
 30
0.0
  9
$PUCSORTHOREF
  2

  9
$PUCSORTHOVIEW
 70
     0
  9
$PUCSORGTOP
 10
0.0
 20
0.0
 30
0.0
  9
$PUCSORGBOTTOM
 10
0.0
 20
0.0
 30
0.0
  9
$PUCSORGLEFT
 10
0.0
 20
0.0
 30
0.0
  9
$PUCSORGRIGHT
 10
0.0
 20
0.0
 30
0.0
  9
$PUCSORGFRONT
 10
0.0
 20
0.0
 30
0.0
  9
$PUCSORGBACK
 10
0.0
 20
0.0
 30
0.0
  9
$USERI1
 70
     0
  9
$USERI2
 70
     0
  9
$USERI3
 70
     0
  9
$USERI4
 70
     0
  9
$USERI5
 70
     0
  9
$USERR1
 40
0.0
  9
$USERR2
 40
0.0
  9
$USERR3
 40
0.0
  9
$USERR4
 40
0.0
  9
$USERR5
 40
0.0
  9
$WORLDVIEW
 70
     1
  9
$SHADEDGE
 70
     3
  9
$SHADEDIF
 70
    70
  9
$TILEMODE
 70
     1
  9
$MAXACTVP
 70
    64
  9
$PINSBASE
 10
0.0
 20
0.0
 30
0.0
  9
$PLIMCHECK
 70
     0
  9
$PEXTMIN
 10
1.000000000000000E+20
 20
1.000000000000000E+20
 30
1.000000000000000E+20
  9
$PEXTMAX
 10
-1.000000000000000E+20
 20
-1.000000000000000E+20
 30
-1.000000000000000E+20
  9
$PLIMMIN
 10
0.0
 20
0.0
  9
$PLIMMAX
 10
12.0
 20
9.0
  9
$UNITMODE
 70
     0
  9
$VISRETAIN
 70
     1
  9
$PLINEGEN
 70
     0
  9
$PSLTSCALE
 70
     1
  9
$TREEDEPTH
 70
  3020
  9
$CMLSTYLE
  2
Standard
  9
$CMLJUST
 70
     0
  9
$CMLSCALE
 40
1.0
  9
$PROXYGRAPHICS
 70
     1
  9
$MEASUREMENT
 70
     0
  9
$CELWEIGHT
370
    -1
  9
$ENDCAPS
280
     0
  9
$JOINSTYLE
280
     0
  9
$LWDISPLAY
290
     1
  9
$INSUNITS
 70
     1
  9
$HYPERLINKBASE
  1

  9
$STYLESHEET
  1

  9
$XEDIT
290
     1
  9
$CEPSNTYPE
380
     0
  9
$PSTYLEMODE
290
     1
  9
$FINGERPRINTGUID
  2
{92B5942E-B599-49DA-8035-C719BF26D2C5}
  9
$VERSIONGUID
  2
{FAEB1C32-E019-11D5-929B-00C0DF256EC4}
  9
$EXTNAMES
290
     1
  9
$PSVPSCALE
 40
0.0
  9
$OLESTARTUP
290
     0
  9
$SORTENTS
280
   127
  9
$INDEXCTL
280
     0
  9
$HIDETEXT
280
     1
  9
$XCLIPFRAME
280
     2
  9
$HALOGAP
280
     0
  9
$OBSCOLOR
 70
   257
  9
$OBSLTYPE
280
     0
  9
$INTERSECTIONDISPLAY
280
     0
  9
$INTERSECTIONCOLOR
 70
   257
  9
$DIMASSOC
280
     2
  9
$PROJECTNAME
  1

  9
$CAMERADISPLAY
290
     0
  9
$LENSLENGTH
 40
50.0
  9
$CAMERAHEIGHT
 40
0.0
  9
$STEPSPERSEC
 40
2.0
  9
$STEPSIZE
 40
6.0
  9
$3DDWFPREC
 40
2.0
  9
$PSOLWIDTH
 40
0.25
  9
$PSOLHEIGHT
 40
4.0
  9
$LOFTANG1
 40
1.570796326794897
  9
$LOFTANG2
 40
1.570796326794897
  9
$LOFTMAG1
 40
0.0
  9
$LOFTMAG2
 40
0.0
  9
$LOFTPARAM
 70
     7
  9
$LOFTNORMALS
280
     1
  9
$LATITUDE
 40
37.795
  9
$LONGITUDE
 40
-122.394
  9
$NORTHDIRECTION
 40
0.0
  9
$TIMEZONE
 70
 -8000
  9
$LIGHTGLYPHDISPLAY
280
     1
  9
$TILEMODELIGHTSYNCH
280
     1
  9
$CMATERIAL
347
3C
  9
$SOLIDHIST
280
     1
  9
$SHOWHIST
280
     1
  9
$DWFFRAME
280
     2
  9
$DGNFRAME
280
     2
  9
$REALWORLDSCALE
290
     1
  9
$INTERFERECOLOR
 62
   256
  9
$CSHADOW
280
     0
  9
$SHADOWPLANELOCATION
 40
0.0
  0
ENDSEC
  0
SECTION
  2
CLASSES
  0
CLASS
  1
ACDBDICTIONARYWDFLT
  2
AcDbDictionaryWithDefault
  3
ObjectDBX Classes
 90
        0
 91
        4
280
     0
281
     0
  0
CLASS
  1
VISUALSTYLE
  2
AcDbVisualStyle
  3
ObjectDBX Classes
 90
     4095
 91
        4
280
     0
281
     0
  0
CLASS
  1
MATERIAL
  2
AcDbMaterial
  3
ObjectDBX Classes
 90
     1153
 91
        4
280
     0
281
     0
  0
CLASS
  1
SUN
  2
AcDbSun
  3
SCENEOE
 90
     1024
 91
        4
280
     0
281
     0
  0
ENDSEC
  0
SECTION
  2
TABLES
  0
TABLE
  2
VPORT
  5
8
330
0
100
AcDbSymbolTable
 70
     1
  0
VPORT
  5
29
330
8
100
AcDbSymbolTableRecord
100
AcDbViewportTableRecord
  2
*Active
 70
     0
 10
0.0
 20
0.0
 11
1.0
 21
1.0
 12
0.0
 22
0.0
 13
0.0
 23
0.0
 14
0.5
 24
0.5
 15
0.5
 25
0.5
 16
0.0
 26
0.0
 36
1.0
 17
91.00082462281999
 27
-128.4993055234307
 37
0.0
 40
256.9986110468615
 41
0.7081814508812795
 42
50.0
 43
0.0
 44
0.0
 50
0.0
 51
0.0
 71
     0
 72
   100
 73
     1
 74
     3
 75
     0
 76
     0
 77
     0
 78
     0
281
     0
 65
     1
110
0.0
120
0.0
130
0.0
111
1.0
121
0.0
131
0.0
112
0.0
122
1.0
132
0.0
 79
     0
146
0.0
 60
     3
 61
     5
292
     1
282
     1
141
0.0
142
0.0
 63
   250
361
3F
  0
ENDTAB
  0
TABLE
  2
LTYPE
  5
5
330
0
100
AcDbSymbolTable
 70
     1
  0
LTYPE
  5
14
330
5
100
AcDbSymbolTableRecord
100
AcDbLinetypeTableRecord
  2
ByBlock
 70
     0
  3

 72
    65
 73
     0
 40
0.0
  0
LTYPE
  5
15
330
5
100
AcDbSymbolTableRecord
100
AcDbLinetypeTableRecord
  2
ByLayer
 70
     0
  3

 72
    65
 73
     0
 40
0.0
  0
LTYPE
  5
16
330
5
100
AcDbSymbolTableRecord
100
AcDbLinetypeTableRecord
  2
Continuous
 70
     0
  3
Solid line
 72
    65
 73
     0
 40
0.0
  0
ENDTAB
  0
TABLE
  2
LAYER
  5
2
330
0
100
AcDbSymbolTable
 70
     2
  0
LAYER
  5
10
330
2
100
AcDbSymbolTableRecord
100
AcDbLayerTableRecord
  2
0
 70
     0
 62
     7
  6
Continuous
370
    -3
390
F
347
3E
  0
LAYER
  5
40
330
2
100
AcDbSymbolTableRecord
100
AcDbLayerTableRecord
  2
_U+30EC_U+30A4_U+30E4_U+30FC 1
 70
     0
 62
     7
  6
Continuous
370
    -3
390
F
347
3E
  0
ENDTAB
  0
TABLE
  2
STYLE
  5
3
330
0
100
AcDbSymbolTable
 70
     1
  0
STYLE
  5
11
330
3
100
AcDbSymbolTableRecord
100
AcDbTextStyleTableRecord
  2
Standard
 70
     0
 40
0.0
 41
1.0
 50
0.0
 71
     0
 42
0.2
  3
txt
  4

  0
ENDTAB
  0
TABLE
  2
VIEW
  5
6
330
0
100
AcDbSymbolTable
 70
     0
  0
ENDTAB
  0
TABLE
  2
UCS
  5
7
330
0
100
AcDbSymbolTable
 70
     0
  0
ENDTAB
  0
TABLE
  2
APPID
  5
9
330
0
100
AcDbSymbolTable
 70
     1
  0
APPID
  5
12
330
9
100
AcDbSymbolTableRecord
100
AcDbRegAppTableRecord
  2
ACAD
 70
     0
  0
ENDTAB
  0
TABLE
  2
DIMSTYLE
  5
A
330
0
100
AcDbSymbolTable
 70
     1
100
AcDbDimStyleTable
  0
DIMSTYLE
105
27
330
A
100
AcDbSymbolTableRecord
100
AcDbDimStyleTableRecord
  2
Standard
 70
     0
178
     0
340
11
  0
ENDTAB
  0
TABLE
  2
BLOCK_RECORD
  5
1
330
0
100
AcDbSymbolTable
 70
    10
  0
BLOCK_RECORD
  5
1F
330
1
100
AcDbSymbolTableRecord
100
AcDbBlockTableRecord
  2
*Model_Space
340
22
 70
     0
280
     1
281
     0
  0
BLOCK_RECORD
  5
1B
330
1
100
AcDbSymbolTableRecord
100
AcDbBlockTableRecord
  2
*Paper_Space
340
1E
 70
     0
280
     1
281
     0
  0
BLOCK_RECORD
  5
23
330
1
100
AcDbSymbolTableRecord
100
AcDbBlockTableRecord
  2
*Paper_Space0
340
26
 70
     0
280
     1
281
     0
  0
BLOCK_RECORD
  5
71
330
1
100
AcDbSymbolTableRecord
100
AcDbBlockTableRecord
  2
block 2
340
0
102
{BLKREFS
331
72
102
}
 70
     0
280
     1
281
     0
  0
BLOCK_RECORD
  5
82
330
1
100
AcDbSymbolTableRecord
100
AcDbBlockTableRecord
  2
block 3
340
0
102
{BLKREFS
331
83
102
}
 70
     0
280
     1
281
     0
  0
BLOCK_RECORD
  5
88
330
1
100
AcDbSymbolTableRecord
100
AcDbBlockTableRecord
  2
block 4
340
0
102
{BLKREFS
331
89
102
}
 70
     0
280
     1
281
     0
  0
BLOCK_RECORD
  5
91
330
1
100
AcDbSymbolTableRecord
100
AcDbBlockTableRecord
  2
block 5
340
0
102
{BLKREFS
331
92
102
}
 70
     0
280
     1
281
     0
  0
BLOCK_RECORD
  5
AF
330
1
100
AcDbSymbolTableRecord
100
AcDbBlockTableRecord
  2
block 6
340
0
102
{BLKREFS
331
B0
102
}
 70
     0
280
     1
281
     0
  0
BLOCK_RECORD
  5
BE
330
1
100
AcDbSymbolTableRecord
100
AcDbBlockTableRecord
  2
block 7
340
0
102
{BLKREFS
331
BF
102
}
 70
     0
280
     1
281
     0
  0
BLOCK_RECORD
  5
C6
330
1
100
AcDbSymbolTableRecord
100
AcDbBlockTableRecord
  2
block 8
340
0
102
{BLKREFS
331
C7
102
}
 70
     0
280
     1
281
     0
  0
BLOCK_RECORD
  5
CE
330
1
100
AcDbSymbolTableRecord
100
AcDbBlockTableRecord
  2
block 9
340
0
102
{BLKREFS
331
CF
102
}
 70
     0
280
     1
281
     0
  0
BLOCK_RECORD
  5
D6
330
1
100
AcDbSymbolTableRecord
100
AcDbBlockTableRecord
  2
block 10
340
0
102
{BLKREFS
331
D7
102
}
 70
     0
280
     1
281
     0
  0
ENDTAB
  0
ENDSEC
  0
SECTION
  2
BLOCKS
  0
BLOCK
  5
20
330
1F
100
AcDbEntity
  8
0
100
AcDbBlockBegin
  2
*Model_Space
 70
     0
 10
0.0
 20
0.0
 30
0.0
  3
*Model_Space
  1

  0
ENDBLK
  5
21
330
1F
100
AcDbEntity
  8
0
100
AcDbBlockEnd
  0
BLOCK
  5
1C
330
1B
100
AcDbEntity
 67
     1
  8
0
100
AcDbBlockBegin
  2
*Paper_Space
 70
     0
 10
0.0
 20
0.0
 30
0.0
  3
*Paper_Space
  1

  0
ENDBLK
  5
1D
330
1B
100
AcDbEntity
 67
     1
  8
0
100
AcDbBlockEnd
  0
BLOCK
  5
24
330
23
100
AcDbEntity
  8
0
100
AcDbBlockBegin
  2
*Paper_Space0
 70
     0
 10
0.0
 20
0.0
 30
0.0
  3
*Paper_Space0
  1

  0
ENDBLK
  5
25
330
23
100
AcDbEntity
  8
0
100
AcDbBlockEnd
  0
BLOCK
  5
73
330
71
100
AcDbEntity
  8
0
100
AcDbBlockBegin
  2
block 2
 70
     0
 10
0.0
 20
0.0
 30
0.0
  3
block 2
  1

  0
SPLINE
  5
75
330
71
100
AcDbEntity
  8
_U+30EC_U+30A4_U+30E4_U+30FC 1
370
     0
100
AcDbSpline
210
0.0
220
0.0
230
1.0
 70
    11
 71
     3
 72
    32
 73
    28
 74
     0
 42
0.0000000001
 43
0.0000000001
 12
1.0
 22
0.0
 32
0.0
 13
1.0
 23
0.0
 33
0.0
 40
0.0
 40
0.0
 40
0.0
 40
0.0
 40
1.0
 40
1.0
 40
1.0
 40
2.0
 40
2.0
 40
2.0
 40
3.0
 40
3.0
 40
3.0
 40
4.0
 40
4.0
 40
4.0
 40
5.0
 40
5.0
 40
5.0
 40
6.0
 40
6.0
 40
6.0
 40
7.0
 40
7.0
 40
7.0
 40
8.0
 40
8.0
 40
8.0
 40
9.0
 40
9.0
 40
9.0
 40
9.0
 10
116.2275308954223
 20
-141.4669894394596
 30
0.0
 10
116.2275308954223
 20
-141.9830647431501
 30
0.0
 10
115.6735595413941
 20
-141.9916774818632
 30
0.0
 10
115.4596191117601
 20
-141.9916774818632
 30
0.0
 10
115.2291422237969
 20
-141.9916774818632
 30
0.0
 10
114.5818087821184
 20
-141.9723849471458
 30
0.0
 10
114.5818087821184
 20
-141.4287488795734
 30
0.0
 10
114.5818087821184
 20
-141.2554605766653
 30
0.0
 10
114.651744220469
 20
-141.009825268567
 30
0.0
 10
114.9838514252471
 20
-140.9719292182292
 30
0.0
 10
114.9838514252471
 20
-140.9719292182292
 30
0.0
 10
114.9838514252471
 20
-141.1855251383147
 30
0.0
 10
114.9838514252471
 20
-141.1855251383147
 30
0.0
 10
114.926662840192
 20
-141.196204934319
 30
0.0
 10
114.7785237343262
 20
-141.2278998127833
 30
0.0
 10
114.7785237343262
 20
-141.4308159368645
 30
0.0
 10
114.7785237343262
 20
-141.7229600340137
 30
0.0
 10
115.106496824522
 20
-141.7629231416426
 30
0.0
 10
115.3114800058944
 20
-141.775669994938
 30
0.0
 10
115.2332763383792
 20
-141.6826524168363
 30
0.0
 10
115.1740206960329
 20
-141.6147840357769
 30
0.0
 10
115.1740206960329
 20
-141.4328829941557
 30
0.0
 10
115.1740206960329
 20
-141.2530490098256
 30
0.0
 10
115.2821966942697
 20
-140.9505696262207
 30
0.0
 10
115.6883734519807
 20
-140.9505696262207
 30
0.0
 10
116.0077338034634
 20
-140.9505696262207
 30
0.0
 10
116.2275308954223
 20
-141.1496961452681
 30
0.0
 10
116.2275308954223
 20
-141.4669894394596
 30
0.0
  0
SPLINE
  5
76
330
71
100
AcDbEntity
  8
_U+30EC_U+30A4_U+30E4_U+30FC 1
370
     0
100
AcDbSpline
210
0.0
220
0.0
230
1.0
 70
    11
 71
     3
 72
    17
 73
    13
 74
     0
 42
0.0000000001
 43
0.0000000001
 12
1.0
 22
0.0
 32
0.0
 13
1.0
 23
0.0
 33
0.0
 40
0.0
 40
0.0
 40
0.0
 40
0.0
 40
1.0
 40
1.0
 40
1.0
 40
2.0
 40
2.0
 40
2.0
 40
3.0
 40
3.0
 40
3.0
 40
4.0
 40
4.0
 40
4.0
 40
4.0
 10
115.3686685909495
 20
-141.4501084715819
 30
0.0
 10
115.3686685909495
 20
-141.7122802380094
 30
0.0
 10
115.5801974537438
 20
-141.7501762883472
 30
0.0
 10
115.6966416811453
 20
-141.7501762883472
 30
0.0
 10
115.872341550893
 20
-141.7501762883472
 30
0.0
 10
116.0352945673453
 20
-141.6550916529543
 30
0.0
 10
116.0352945673453
 20
-141.471123554042
 30
0.0
 10
116.0352945673453
 20
-141.3505452120582
 30
0.0
 10
115.976038924999
 20
-141.1748453423104
 30
0.0
 10
115.6904405092718
 20
-141.1748453423104
 30
0.0
 10
115.4661647931821
 20
-141.1748453423104
 30
0.0
 10
115.3686685909495
 20
-141.3143717094631
 30
0.0
 10
115.3686685909495
 20
-141.4501084715819
 30
0.0
  0
HATCH
  5
77
330
71
100
AcDbEntity
  8
_U+30EC_U+30A4_U+30E4_U+30FC 1
 62
   179
420
  2234388
100
AcDbHatch
 10
0.0
 20
0.0
 30
0.0
210
0.0
220
0.0
230
1.0
  2
SOLID
 70
     1
 71
     0
 91
        2
 92
        1
 93
        1
 72
     4
 94
        3
 73
     0
 74
     1
 95
       32
 96
       28
 40
0.0
 40
0.0
 40
0.0
 40
0.0
 40
1.0
 40
1.0
 40
1.0
 40
2.0
 40
2.0
 40
2.0
 40
3.0
 40
3.0
 40
3.0
 40
4.0
 40
4.0
 40
4.0
 40
5.0
 40
5.0
 40
5.0
 40
6.0
 40
6.0
 40
6.0
 40
7.0
 40
7.0
 40
7.0
 40
8.0
 40
8.0
 40
8.0
 40
9.0
 40
9.0
 40
9.0
 40
9.0
 10
116.2275308954223
 20
-141.4669894394596
 10
116.2275308954223
 20
-141.9830647431501
 10
115.6735595413941
 20
-141.9916774818632
 10
115.4596191117601
 20
-141.9916774818632
 10
115.2291422237969
 20
-141.9916774818632
 10
114.5818087821184
 20
-141.9723849471458
 10
114.5818087821184
 20
-141.4287488795734
 10
114.5818087821184
 20
-141.2554605766653
 10
114.651744220469
 20
-141.009825268567
 10
114.9838514252471
 20
-140.9719292182292
 10
114.9838514252471
 20
-140.9719292182292
 10
114.9838514252471
 20
-141.1855251383147
 10
114.9838514252471
 20
-141.1855251383147
 10
114.926662840192
 20
-141.196204934319
 10
114.7785237343262
 20
-141.2278998127833
 10
114.7785237343262
 20
-141.4308159368645
 10
114.7785237343262
 20
-141.7229600340137
 10
115.106496824522
 20
-141.7629231416426
 10
115.3114800058944
 20
-141.775669994938
 10
115.2332763383792
 20
-141.6826524168363
 10
115.1740206960329
 20
-141.6147840357769
 10
115.1740206960329
 20
-141.4328829941557
 10
115.1740206960329
 20
-141.2530490098256
 10
115.2821966942697
 20
-140.9505696262207
 10
115.6883734519807
 20
-140.9505696262207
 10
116.0077338034634
 20
-140.9505696262207
 10
116.2275308954223
 20
-141.1496961452681
 10
116.2275308954223
 20
-141.4669894394596
 97
        0
 97
        0
 92
        1
 93
        1
 72
     4
 94
        3
 73
     0
 74
     1
 95
       17
 96
       13
 40
0.0
 40
0.0
 40
0.0
 40
0.0
 40
1.0
 40
1.0
 40
1.0
 40
2.0
 40
2.0
 40
2.0
 40
3.0
 40
3.0
 40
3.0
 40
4.0
 40
4.0
 40
4.0
 40
4.0
 10
115.3686685909495
 20
-141.4501084715819
 10
115.3686685909495
 20
-141.7122802380094
 10
115.5801974537438
 20
-141.7501762883472
 10
115.6966416811453
 20
-141.7501762883472
 10
115.872341550893
 20
-141.7501762883472
 10
116.0352945673453
 20
-141.6550916529543
 10
116.0352945673453
 20
-141.471123554042
 10
116.0352945673453
 20
-141.3505452120582
 10
115.976038924999
 20
-141.1748453423104
 10
115.6904405092718
 20
-141.1748453423104
 10
115.4661647931821
 20
-141.1748453423104
 10
115.3686685909495
 20
-141.3143717094631
 10
115.3686685909495
 20
-141.4501084715819
 97
        0
 97
        0
 75
     2
 76
     1
 98
        0
  0
POLYLINE
  5
78
330
71
100
AcDbEntity
  8
_U+30EC_U+30A4_U+30E4_U+30FC 1
370
     0
100
AcDb2dPolyline
 66
     1
 10
0.0
 20
0.0
 30
0.0
  0
VERTEX
  5
79
330
78
100
AcDbEntity
  8
_U+30EC_U+30A4_U+30E4_U+30FC 1
370
     0
100
AcDbVertex
100
AcDb2dVertex
 10
116.1768879917891
 20
-140.734217629747
 30
0.0
  0
VERTEX
  5
7A
330
78
100
AcDbEntity
  8
_U+30EC_U+30A4_U+30E4_U+30FC 1
370
     0
100
AcDbVertex
100
AcDb2dVertex
 10
115.9250515118174
 20
-140.734217629747
 30
0.0
  0
VERTEX
  5
7B
330
78
100
AcDbEntity
  8
_U+30EC_U+30A4_U+30E4_U+30FC 1
370
     0
100
AcDbVertex
100
AcDb2dVertex
 10
115.9250515118174
 20
-140.4823811497753
 30
0.0
  0
VERTEX
  5
7C
330
78
100
AcDbEntity
  8
_U+30EC_U+30A4_U+30E4_U+30FC 1
370
     0
100
AcDbVertex
100
AcDb2dVertex
 10
116.1768879917891
 20
-140.4823811497753
 30
0.0
  0
VERTEX
  5
7D
330
78
100
AcDbEntity
  8
_U+30EC_U+30A4_U+30E4_U+30FC 1
370
     0
100
AcDbVertex
100
AcDb2dVertex
 10
116.1768879917891
 20
-140.734217629747
 30
0.0
  0
SEQEND
  5
7E
330
78
100
AcDbEntity
  8
_U+30EC_U+30A4_U+30E4_U+30FC 1
370
     0
  0
HATCH
  5
7F
330
71
100
AcDbEntity
  8
_U+30EC_U+30A4_U+30E4_U+30FC 1
 62
   179
420
  2234388
100
AcDbHatch
 10
0.0
 20
0.0
 30
0.0
210
0.0
220
0.0
230
1.0
  2
SOLID
 70
     1
 71
     0
 91
        1
 92
        1
 93
        4
 72
     1
 10
116.1768879917891
 20
-140.734217629747
 11
115.9250515118174
 21
-140.734217629747
 72
     1
 10
115.9250515118174
 20
-140.734217629747
 11
115.9250515118174
 21
-140.4823811497753
 72
     1
 10
115.9250515118174
 20
-140.4823811497753
 11
116.1768879917891
 21
-140.4823811497753
 72
     1
 10
116.1768879917891
 20
-140.4823811497753
 11
116.1768879917891
 21
-140.734217629747
 97
        0
 75
     2
 76
     1
 98
        0
  0
SPLINE
  5
80
330
71
100
AcDbEntity
  8
_U+30EC_U+30A4_U+30E4_U+30FC 1
370
     0
100
AcDbSpline
210
0.0
220
0.0
230
1.0
 70
    11
 71
     3
 72
    53
 73
    49
 74
     0
 42
0.0000000001
 43
0.0000000001
 12
1.0
 22
0.0
 32
0.0
 13
1.0
 23
0.0
 33
0.0
 40
0.0
 40
0.0
 40
0.0
 40
0.0
 40
1.0
 40
1.0
 40
1.0
 40
2.0
 40
2.0
 40
2.0
 40
3.0
 40
3.0
 40
3.0
 40
4.0
 40
4.0
 40
4.0
 40
5.0
 40
5.0
 40
5.0
 40
6.0
 40
6.0
 40
6.0
 40
7.0
 40
7.0
 40
7.0
 40
8.0
 40
8.0
 40
8.0
 40
9.0
 40
9.0
 40
9.0
 40
10.0
 40
10.0
 40
10.0
 40
11.0
 40
11.0
 40
11.0
 40
12.0
 40
12.0
 40
12.0
 40
13.0
 40
13.0
 40
13.0
 40
14.0
 40
14.0
 40
14.0
 40
15.0
 40
15.0
 40
15.0
 40
16.0
 40
16.0
 40
16.0
 40
16.0
 10
116.2275308954223
 20
-139.7651122697462
 30
0.0
 10
116.2275308954223
 20
-139.8433159372614
 30
0.0
 10
116.2106499275446
 20
-139.9449462540763
 30
0.0
 10
116.147260170616
 20
-140.0465765708911
 30
0.0
 10
116.0373616246365
 20
-140.2198648737992
 30
0.0
 10
115.9061034866485
 20
-140.2412244658078
 30
0.0
 10
115.7982719979602
 20
-140.2601724909766
 30
0.0
 10
115.7982719979602
 20
-140.2601724909766
 30
0.0
 10
115.7982719979602
 20
-140.037963832178
 30
0.0
 10
115.7982719979602
 20
-140.037963832178
 30
0.0
 10
115.9970540074591
 20
-139.9831868139625
 30
0.0
 10
116.0266818286322
 20
-139.8560627905568
 30
0.0
 10
116.0266818286322
 20
-139.7630452124551
 30
0.0
 10
116.0266818286322
 20
-139.6235188453025
 30
0.0
 10
115.9271185691085
 20
-139.4712456248544
 30
0.0
 10
115.6945746238541
 20
-139.4712456248544
 30
0.0
 10
115.4386040293001
 20
-139.4712456248544
 30
0.0
 10
115.3686685909495
 20
-139.6510796091844
 30
0.0
 10
115.3686685909495
 20
-139.7716579511682
 30
0.0
 10
115.3686685909495
 20
-139.8033528296325
 30
0.0
 10
115.3686685909495
 20
-139.9449462540763
 30
0.0
 10
115.4978596716464
 20
-140.0338297175957
 30
0.0
 10
115.4978596716464
 20
-140.0338297175957
 30
0.0
 10
115.4789116464775
 20
-140.2095295873435
 30
0.0
 10
115.4789116464775
 20
-140.2095295873435
 30
0.0
 10
115.4789116464775
 20
-140.2095295873435
 30
0.0
 10
114.6324516857516
 20
-140.0889512453597
 30
0.0
 10
114.6324516857516
 20
-140.0889512453597
 30
0.0
 10
114.6324516857516
 20
-140.0889512453597
 30
0.0
 10
114.6324516857516
 20
-139.3103596656933
 30
0.0
 10
114.6324516857516
 20
-139.3103596656933
 30
0.0
 10
114.6324516857516
 20
-139.3103596656933
 30
0.0
 10
114.8270995806682
 20
-139.3103596656933
 30
0.0
 10
114.8270995806682
 20
-139.3103596656933
 30
0.0
 10
114.8270995806682
 20
-139.3103596656933
 30
0.0
 10
114.8270995806682
 20
-139.9259982289074
 30
0.0
 10
114.8270995806682
 20
-139.9259982289074
 30
0.0
 10
114.8270995806682
 20
-139.9259982289074
 30
0.0
 10
115.2501573062569
 20
-139.9914550431271
 30
0.0
 10
115.2501573062569
 20
-139.9914550431271
 30
0.0
 10
115.2163953705015
 20
-139.9301323434897
 30
0.0
 10
115.176087753324
 20
-139.8477945613922
 30
0.0
 10
115.176087753324
 20
-139.7292832766996
 30
0.0
 10
115.176087753324
 20
-139.4753797394367
 30
0.0
 10
115.3624674190761
 20
-139.2383571700515
 30
0.0
 10
115.6756265986853
 20
-139.2383571700515
 30
0.0
 10
115.9929198928768
 20
-139.2383571700515
 30
0.0
 10
116.2275308954223
 20
-139.4626328861413
 30
0.0
 10
116.2275308954223
 20
-139.7651122697462
 30
0.0
  0
HATCH
  5
81
330
71
100
AcDbEntity
  8
_U+30EC_U+30A4_U+30E4_U+30FC 1
 62
   179
420
  2234388
100
AcDbHatch
 10
0.0
 20
0.0
 30
0.0
210
0.0
220
0.0
230
1.0
  2
SOLID
 70
     1
 71
     0
 91
        1
 92
        1
 93
        1
 72
     4
 94
        3
 73
     0
 74
     1
 95
       53
 96
       49
 40
0.0
 40
0.0
 40
0.0
 40
0.0
 40
1.0
 40
1.0
 40
1.0
 40
2.0
 40
2.0
 40
2.0
 40
3.0
 40
3.0
 40
3.0
 40
4.0
 40
4.0
 40
4.0
 40
5.0
 40
5.0
 40
5.0
 40
6.0
 40
6.0
 40
6.0
 40
7.0
 40
7.0
 40
7.0
 40
8.0
 40
8.0
 40
8.0
 40
9.0
 40
9.0
 40
9.0
 40
10.0
 40
10.0
 40
10.0
 40
11.0
 40
11.0
 40
11.0
 40
12.0
 40
12.0
 40
12.0
 40
13.0
 40
13.0
 40
13.0
 40
14.0
 40
14.0
 40
14.0
 40
15.0
 40
15.0
 40
15.0
 40
16.0
 40
16.0
 40
16.0
 40
16.0
 10
116.2275308954223
 20
-139.7651122697462
 10
116.2275308954223
 20
-139.8433159372614
 10
116.2106499275446
 20
-139.9449462540763
 10
116.147260170616
 20
-140.0465765708911
 10
116.0373616246365
 20
-140.2198648737992
 10
115.9061034866485
 20
-140.2412244658078
 10
115.7982719979602
 20
-140.2601724909766
 10
115.7982719979602
 20
-140.2601724909766
 10
115.7982719979602
 20
-140.037963832178
 10
115.7982719979602
 20
-140.037963832178
 10
115.9970540074591
 20
-139.9831868139625
 10
116.0266818286322
 20
-139.8560627905568
 10
116.0266818286322
 20
-139.7630452124551
 10
116.0266818286322
 20
-139.6235188453025
 10
115.9271185691085
 20
-139.4712456248544
 10
115.6945746238541
 20
-139.4712456248544
 10
115.4386040293001
 20
-139.4712456248544
 10
115.3686685909495
 20
-139.6510796091844
 10
115.3686685909495
 20
-139.7716579511682
 10
115.3686685909495
 20
-139.8033528296325
 10
115.3686685909495
 20
-139.9449462540763
 10
115.4978596716464
 20
-140.0338297175957
 10
115.4978596716464
 20
-140.0338297175957
 10
115.4789116464775
 20
-140.2095295873435
 10
115.4789116464775
 20
-140.2095295873435
 10
115.4789116464775
 20
-140.2095295873435
 10
114.6324516857516
 20
-140.0889512453597
 10
114.6324516857516
 20
-140.0889512453597
 10
114.6324516857516
 20
-140.0889512453597
 10
114.6324516857516
 20
-139.3103596656933
 10
114.6324516857516
 20
-139.3103596656933
 10
114.6324516857516
 20
-139.3103596656933
 10
114.8270995806682
 20
-139.3103596656933
 10
114.8270995806682
 20
-139.3103596656933
 10
114.8270995806682
 20
-139.3103596656933
 10
114.8270995806682
 20
-139.9259982289074
 10
114.8270995806682
 20
-139.9259982289074
 10
114.8270995806682
 20
-139.9259982289074
 10
115.2501573062569
 20
-139.9914550431271
 10
115.2501573062569
 20
-139.9914550431271
 10
115.2163953705015
 20
-139.9301323434897
 10
115.176087753324
 20
-139.8477945613922
 10
115.176087753324
 20
-139.7292832766996
 10
115.176087753324
 20
-139.4753797394367
 10
115.3624674190761
 20
-139.2383571700515
 10
115.6756265986853
 20
-139.2383571700515
 10
115.9929198928768
 20
-139.2383571700515
 10
116.2275308954223
 20
-139.4626328861413
 10
116.2275308954223
 20
-139.7651122697462
 97
        0
 97
        0
 75
     2
 76
     1
 98
        0
  0
ENDBLK
  5
74
330
71
100
AcDbEntity
  8
0
100
AcDbBlockEnd
  0
BLOCK
  5
84
330
82
100
AcDbEntity
  8
0
100
AcDbBlockBegin
  2
block 3
 70
     0
 10
0.0
 20
0.0
 30
0.0
  3
block 3
  1

  0
SPLINE
  5
86
330
82
100
AcDbEntity
  8
_U+30EC_U+30A4_U+30E4_U+30FC 1
370
     0
100
AcDbSpline
210
0.0
220
0.0
230
1.0
 70
    11
 71
     3
 72
    26
 73
    22
 74
     0
 42
0.0000000001
 43
0.0000000001
 12
1.0
 22
0.0
 32
0.0
 13
1.0
 23
0.0
 33
0.0
 40
0.0
 40
0.0
 40
0.0
 40
0.0
 40
1.0
 40
1.0
 40
1.0
 40
2.0
 40
2.0
 40
2.0
 40
3.0
 40
3.0
 40
3.0
 40
4.0
 40
4.0
 40
4.0
 40
5.0
 40
5.0
 40
5.0
 40
6.0
 40
6.0
 40
6.0
 40
7.0
 40
7.0
 40
7.0
 40
7.0
 10
116.1768879917891
 20
-136.9528808251368
 30
0.0
 10
116.1768879917891
 20
-136.9528808251368
 30
0.0
 10
115.0727348887665
 20
-136.9528808251368
 30
0.0
 10
115.0727348887665
 20
-136.9528808251368
 30
0.0
 10
115.0727348887665
 20
-136.9528808251368
 30
0.0
 10
115.0727348887665
 20
-137.2829209726237
 30
0.0
 10
115.0727348887665
 20
-137.2829209726237
 30
0.0
 10
115.0727348887665
 20
-137.2829209726237
 30
0.0
 10
114.9245957829008
 20
-137.2829209726237
 30
0.0
 10
114.9245957829008
 20
-137.2829209726237
 30
0.0
 10
114.9097818723142
 20
-136.9508137678456
 30
0.0
 10
114.7468288558619
 20
-136.9043049787948
 30
0.0
 10
114.6324516857516
 20
-136.8746771576216
 30
0.0
 10
114.6324516857516
 20
-136.8746771576216
 30
0.0
 10
114.6324516857516
 20
-136.728605109047
 30
0.0
 10
114.6324516857516
 20
-136.728605109047
 30
0.0
 10
114.6324516857516
 20
-136.728605109047
 30
0.0
 10
116.1768879917891
 20
-136.728605109047
 30
0.0
 10
116.1768879917891
 20
-136.728605109047
 30
0.0
 10
116.1768879917891
 20
-136.728605109047
 30
0.0
 10
116.1768879917891
 20
-136.9528808251368
 30
0.0
 10
116.1768879917891
 20
-136.9528808251368
 30
0.0
  0
HATCH
  5
87
330
82
100
AcDbEntity
  8
_U+30EC_U+30A4_U+30E4_U+30FC 1
 62
   179
420
  2234388
100
AcDbHatch
 10
0.0
 20
0.0
 30
0.0
210
0.0
220
0.0
230
1.0
  2
SOLID
 70
     1
 71
     0
 91
        1
 92
        1
 93
        1
 72
     4
 94
        3
 73
     0
 74
     1
 95
       26
 96
       22
 40
0.0
 40
0.0
 40
0.0
 40
0.0
 40
1.0
 40
1.0
 40
1.0
 40
2.0
 40
2.0
 40
2.0
 40
3.0
 40
3.0
 40
3.0
 40
4.0
 40
4.0
 40
4.0
 40
5.0
 40
5.0
 40
5.0
 40
6.0
 40
6.0
 40
6.0
 40
7.0
 40
7.0
 40
7.0
 40
7.0
 10
116.1768879917891
 20
-136.9528808251368
 10
116.1768879917891
 20
-136.9528808251368
 10
115.0727348887665
 20
-136.9528808251368
 10
115.0727348887665
 20
-136.9528808251368
 10
115.0727348887665
 20
-136.9528808251368
 10
115.0727348887665
 20
-137.2829209726237
 10
115.0727348887665
 20
-137.2829209726237
 10
115.0727348887665
 20
-137.2829209726237
 10
114.9245957829008
 20
-137.2829209726237
 10
114.9245957829008
 20
-137.2829209726237
 10
114.9097818723142
 20
-136.9508137678456
 10
114.7468288558619
 20
-136.9043049787948
 10
114.6324516857516
 20
-136.8746771576216
 10
114.6324516857516
 20
-136.8746771576216
 10
114.6324516857516
 20
-136.728605109047
 10
114.6324516857516
 20
-136.728605109047
 10
114.6324516857516
 20
-136.728605109047
 10
116.1768879917891
 20
-136.728605109047
 10
116.1768879917891
 20
-136.728605109047
 10
116.1768879917891
 20
-136.728605109047
 10
116.1768879917891
 20
-136.9528808251368
 10
116.1768879917891
 20
-136.9528808251368
 97
        0
 97
        0
 75
     2
 76
     1
 98
        0
  0
ENDBLK
  5
85
330
82
100
AcDbEntity
  8
0
100
AcDbBlockEnd
  0
BLOCK
  5
8A
330
88
100
AcDbEntity
  8
0
100
AcDbBlockBegin
  2
block 4
 70
     0
 10
0.0
 20
0.0
 30
0.0
  3
block 4
  1

  0
SPLINE
  5
8C
330
88
100
AcDbEntity
  8
_U+30EC_U+30A4_U+30E4_U+30FC 1
370
     0
100
AcDbSpline
210
0.0
220
0.0
230
1.0
 70
    11
 71
     3
 72
    62
 73
    58
 74
     0
 42
0.0000000001
 43
0.0000000001
 12
1.0
 22
0.0
 32
0.0
 13
1.0
 23
0.0
 33
0.0
 40
0.0
 40
0.0
 40
0.0
 40
0.0
 40
1.0
 40
1.0
 40
1.0
 40
2.0
 40
2.0
 40
2.0
 40
3.0
 40
3.0
 40
3.0
 40
4.0
 40
4.0
 40
4.0
 40
5.0
 40
5.0
 40
5.0
 40
6.0
 40
6.0
 40
6.0
 40
7.0
 40
7.0
 40
7.0
 40
8.0
 40
8.0
 40
8.0
 40
9.0
 40
9.0
 40
9.0
 40
10.0
 40
10.0
 40
10.0
 40
11.0
 40
11.0
 40
11.0
 40
12.0
 40
12.0
 40
12.0
 40
13.0
 40
13.0
 40
13.0
 40
14.0
 40
14.0
 40
14.0
 40
15.0
 40
15.0
 40
15.0
 40
16.0
 40
16.0
 40
16.0
 40
17.0
 40
17.0
 40
17.0
 40
18.0
 40
18.0
 40
18.0
 40
19.0
 40
19.0
 40
19.0
 40
19.0
 10
116.2275308954223
 20
-121.9522460632619
 30
0.0
 10
116.2275308954223
 20
-122.0476752082034
 30
0.0
 10
116.2065158129623
 20
-122.2654052428712
 30
0.0
 10
116.0204806567588
 20
-122.3904622089857
 30
0.0
 10
115.9081705439396
 20
-122.4645317619186
 30
0.0
 10
115.8089517939644
 20
-122.4686658765009
 30
0.0
 10
115.7242024450273
 20
-122.4727999910832
 30
0.0
 10
115.7242024450273
 20
-122.4727999910832
 30
0.0
 10
115.7242024450273
 20
-122.2526583895757
 30
0.0
 10
115.7242024450273
 20
-122.2526583895757
 30
0.0
 10
115.7982719979602
 20
-122.2505913322846
 30
0.0
 10
116.0328830005057
 20
-122.2402560458288
 30
0.0
 10
116.0328830005057
 20
-121.9567246873928
 30
0.0
 10
116.0328830005057
 20
-121.8192653775313
 30
0.0
 10
115.9632920717036
 20
-121.6666476475347
 30
0.0
 10
115.7348822410316
 20
-121.6666476475347
 30
0.0
 10
115.6184380136301
 20
-121.6666476475347
 30
0.0
 10
115.5698621672881
 20
-121.704888207421
 30
0.0
 10
115.5381672888238
 20
-121.7365830858853
 30
0.0
 10
115.4640977358909
 20
-121.8106526388182
 30
0.0
 10
115.4513508825955
 20
-121.9270968662196
 30
0.0
 10
115.4513508825955
 20
-121.9818738844351
 30
0.0
 10
115.4513508825955
 20
-122.0011664191525
 30
0.0
 10
115.4534179398866
 20
-122.0369954121991
 30
0.0
 10
115.4575520544689
 20
-122.0645561760811
 30
0.0
 10
115.4575520544689
 20
-122.0645561760811
 30
0.0
 10
115.2629041595523
 20
-122.0645561760811
 30
0.0
 10
115.2629041595523
 20
-122.0645561760811
 30
0.0
 10
115.2694498409743
 20
-122.0263156161948
 30
0.0
 10
115.2715168982655
 20
-121.9842854512748
 30
0.0
 10
115.2715168982655
 20
-121.9777397698528
 30
0.0
 10
115.2715168982655
 20
-121.912282955633
 30
0.0
 10
115.2501573062569
 20
-121.7135009461341
 30
0.0
 10
115.0134792464202
 20
-121.7135009461341
 30
0.0
 10
114.8357123193814
 20
-121.7135009461341
 30
0.0
 10
114.7805907916174
 20
-121.8444145745736
 30
0.0
 10
114.7805907916174
 20
-121.9546576301016
 30
0.0
 10
114.7805907916174
 20
-122.2188964538203
 30
0.0
 10
115.0134792464202
 20
-122.2275091925334
 30
0.0
 10
115.0851372325134
 20
-122.2316433071157
 30
0.0
 10
115.0851372325134
 20
-122.2316433071157
 30
0.0
 10
115.0851372325134
 20
-122.4349039407454
 30
0.0
 10
115.0851372325134
 20
-122.4349039407454
 30
0.0
 10
114.9604247759474
 20
-122.4262912020323
 30
0.0
 10
114.5838758394096
 20
-122.3987304381503
 30
0.0
 10
114.5838758394096
 20
-121.9419107768062
 30
0.0
 10
114.5838758394096
 20
-121.7176350607164
 30
0.0
 10
114.7109998628153
 20
-121.4764783767489
 30
0.0
 10
115.0069335649983
 20
-121.4764783767489
 30
0.0
 10
115.1933132307503
 20
-121.4764783767489
 30
0.0
 10
115.2756510128478
 20
-121.5715630121418
 30
0.0
 10
115.3369737124852
 20
-121.6711262716656
 30
0.0
 10
115.3645344763672
 20
-121.6098035720281
 30
0.0
 10
115.4448052011735
 20
-121.4279025304069
 30
0.0
 10
115.7221353877361
 20
-121.4279025304069
 30
0.0
 10
116.0604437643877
 20
-121.4279025304069
 30
0.0
 10
116.2275308954223
 20
-121.6752603862479
 30
0.0
 10
116.2275308954223
 20
-121.9522460632619
 30
0.0
  0
HATCH
  5
8D
330
88
100
AcDbEntity
  8
_U+30EC_U+30A4_U+30E4_U+30FC 1
 62
   179
420
  2234388
100
AcDbHatch
 10
0.0
 20
0.0
 30
0.0
210
0.0
220
0.0
230
1.0
  2
SOLID
 70
     1
 71
     0
 91
        1
 92
        1
 93
        1
 72
     4
 94
        3
 73
     0
 74
     1
 95
       62
 96
       58
 40
0.0
 40
0.0
 40
0.0
 40
0.0
 40
1.0
 40
1.0
 40
1.0
 40
2.0
 40
2.0
 40
2.0
 40
3.0
 40
3.0
 40
3.0
 40
4.0
 40
4.0
 40
4.0
 40
5.0
 40
5.0
 40
5.0
 40
6.0
 40
6.0
 40
6.0
 40
7.0
 40
7.0
 40
7.0
 40
8.0
 40
8.0
 40
8.0
 40
9.0
 40
9.0
 40
9.0
 40
10.0
 40
10.0
 40
10.0
 40
11.0
 40
11.0
 40
11.0
 40
12.0
 40
12.0
 40
12.0
 40
13.0
 40
13.0
 40
13.0
 40
14.0
 40
14.0
 40
14.0
 40
15.0
 40
15.0
 40
15.0
 40
16.0
 40
16.0
 40
16.0
 40
17.0
 40
17.0
 40
17.0
 40
18.0
 40
18.0
 40
18.0
 40
19.0
 40
19.0
 40
19.0
 40
19.0
 10
116.2275308954223
 20
-121.9522460632619
 10
116.2275308954223
 20
-122.0476752082034
 10
116.2065158129623
 20
-122.2654052428712
 10
116.0204806567588
 20
-122.3904622089857
 10
115.9081705439396
 20
-122.4645317619186
 10
115.8089517939644
 20
-122.4686658765009
 10
115.7242024450273
 20
-122.4727999910832
 10
115.7242024450273
 20
-122.4727999910832
 10
115.7242024450273
 20
-122.2526583895757
 10
115.7242024450273
 20
-122.2526583895757
 10
115.7982719979602
 20
-122.2505913322846
 10
116.0328830005057
 20
-122.2402560458288
 10
116.0328830005057
 20
-121.9567246873928
 10
116.0328830005057
 20
-121.8192653775313
 10
115.9632920717036
 20
-121.6666476475347
 10
115.7348822410316
 20
-121.6666476475347
 10
115.6184380136301
 20
-121.6666476475347
 10
115.5698621672881
 20
-121.704888207421
 10
115.5381672888238
 20
-121.7365830858853
 10
115.4640977358909
 20
-121.8106526388182
 10
115.4513508825955
 20
-121.9270968662196
 10
115.4513508825955
 20
-121.9818738844351
 10
115.4513508825955
 20
-122.0011664191525
 10
115.4534179398866
 20
-122.0369954121991
 10
115.4575520544689
 20
-122.0645561760811
 10
115.4575520544689
 20
-122.0645561760811
 10
115.2629041595523
 20
-122.0645561760811
 10
115.2629041595523
 20
-122.0645561760811
 10
115.2694498409743
 20
-122.0263156161948
 10
115.2715168982655
 20
-121.9842854512748
 10
115.2715168982655
 20
-121.9777397698528
 10
115.2715168982655
 20
-121.912282955633
 10
115.2501573062569
 20
-121.7135009461341
 10
115.0134792464202
 20
-121.7135009461341
 10
114.8357123193814
 20
-121.7135009461341
 10
114.7805907916174
 20
-121.8444145745736
 10
114.7805907916174
 20
-121.9546576301016
 10
114.7805907916174
 20
-122.2188964538203
 10
115.0134792464202
 20
-122.2275091925334
 10
115.0851372325134
 20
-122.2316433071157
 10
115.0851372325134
 20
-122.2316433071157
 10
115.0851372325134
 20
-122.4349039407454
 10
115.0851372325134
 20
-122.4349039407454
 10
114.9604247759474
 20
-122.4262912020323
 10
114.5838758394096
 20
-122.3987304381503
 10
114.5838758394096
 20
-121.9419107768062
 10
114.5838758394096
 20
-121.7176350607164
 10
114.7109998628153
 20
-121.4764783767489
 10
115.0069335649983
 20
-121.4764783767489
 10
115.1933132307503
 20
-121.4764783767489
 10
115.2756510128478
 20
-121.5715630121418
 10
115.3369737124852
 20
-121.6711262716656
 10
115.3645344763672
 20
-121.6098035720281
 10
115.4448052011735
 20
-121.4279025304069
 10
115.7221353877361
 20
-121.4279025304069
 10
116.0604437643877
 20
-121.4279025304069
 10
116.2275308954223
 20
-121.6752603862479
 10
116.2275308954223
 20
-121.9522460632619
 97
        0
 97
        0
 75
     2
 76
     1
 98
        0
  0
SPLINE
  5
8E
330
88
100
AcDbEntity
  8
_U+30EC_U+30A4_U+30E4_U+30FC 1
370
     0
100
AcDbSpline
210
0.0
220
0.0
230
1.0
 70
    11
 71
     3
 72
    29
 73
    25
 74
     0
 42
0.0000000001
 43
0.0000000001
 12
1.0
 22
0.0
 32
0.0
 13
1.0
 23
0.0
 33
0.0
 40
0.0
 40
0.0
 40
0.0
 40
0.0
 40
1.0
 40
1.0
 40
1.0
 40
2.0
 40
2.0
 40
2.0
 40
3.0
 40
3.0
 40
3.0
 40
4.0
 40
4.0
 40
4.0
 40
5.0
 40
5.0
 40
5.0
 40
6.0
 40
6.0
 40
6.0
 40
7.0
 40
7.0
 40
7.0
 40
8.0
 40
8.0
 40
8.0
 40
8.0
 10
115.9991210647502
 20
-120.3692246877896
 30
0.0
 10
116.2085828702534
 20
-120.4774006860265
 30
0.0
 10
116.2275308954223
 20
-120.6506889889346
 30
0.0
 10
116.2275308954223
 20
-120.767133216336
 30
0.0
 10
116.2275308954223
 20
-120.9280191754972
 30
0.0
 10
116.1810221063714
 20
-121.0696125999409
 30
0.0
 10
115.9991210647502
 20
-121.1646972353338
 30
0.0
 10
115.8044731698336
 20
-121.2683946094399
 30
0.0
 10
115.5674506004484
 20
-121.2876871441572
 30
0.0
 10
115.4048420935446
 20
-121.2876871441572
 30
0.0
 10
115.2608371022612
 20
-121.2876871441572
 30
0.0
 10
115.0090006222894
 20
-121.270461666731
 30
0.0
 10
114.8102186127905
 20
-121.1646972353338
 30
0.0
 10
114.6073024887093
 20
-121.0568657466455
 30
0.0
 10
114.5838758394096
 20
-120.8959797874844
 30
0.0
 10
114.5838758394096
 20
-120.767133216336
 30
0.0
 10
114.5838758394096
 20
-120.608314314466
 30
0.0
 10
114.6283175711693
 20
-120.4646538327311
 30
0.0
 10
114.8102186127905
 20
-120.3692246877896
 30
0.0
 10
115.002799450416
 20
-120.2700059378144
 30
0.0
 10
115.231209281088
 20
-120.2465792885148
 30
0.0
 10
115.4048420935446
 20
-120.2465792885148
 30
0.0
 10
115.5760633391615
 20
-120.2465792885148
 30
0.0
 10
115.8065402271248
 20
-120.2679388805233
 30
0.0
 10
115.9991210647502
 20
-120.3692246877896
 30
0.0
  0
SPLINE
  5
8F
330
88
100
AcDbEntity
  8
_U+30EC_U+30A4_U+30E4_U+30FC 1
370
     0
100
AcDbSpline
210
0.0
220
0.0
230
1.0
 70
    11
 71
     3
 72
    17
 73
    13
 74
     0
 42
0.0000000001
 43
0.0000000001
 12
1.0
 22
0.0
 32
0.0
 13
1.0
 23
0.0
 33
0.0
 40
0.0
 40
0.0
 40
0.0
 40
0.0
 40
1.0
 40
1.0
 40
1.0
 40
2.0
 40
2.0
 40
2.0
 40
3.0
 40
3.0
 40
3.0
 40
4.0
 40
4.0
 40
4.0
 40
4.0
 10
114.7764566770351
 20
-120.767133216336
 30
0.0
 10
114.7764566770351
 20
-121.0169026390166
 30
0.0
 10
115.0599880354711
 20
-121.0634114280675
 30
0.0
 10
115.4048420935446
 20
-121.0634114280675
 30
0.0
 10
115.7242024450273
 20
-121.0634114280675
 30
0.0
 10
116.0328830005057
 20
-121.0272379254724
 30
0.0
 10
116.0328830005057
 20
-120.767133216336
 30
0.0
 10
116.0328830005057
 20
-120.5194308509465
 30
0.0
 10
115.7517632089093
 20
-120.4708550046045
 30
0.0
 10
115.4048420935446
 20
-120.4708550046045
 30
0.0
 10
115.0851372325134
 20
-120.4708550046045
 30
0.0
 10
114.7764566770351
 20
-120.5090955644908
 30
0.0
 10
114.7764566770351
 20
-120.767133216336
 30
0.0
  0
HATCH
  5
90
330
88
100
AcDbEntity
  8
_U+30EC_U+30A4_U+30E4_U+30FC 1
 62
   179
420
  2234388
100
AcDbHatch
 10
0.0
 20
0.0
 30
0.0
210
0.0
220
0.0
230
1.0
  2
SOLID
 70
     1
 71
     0
 91
        2
 92
        1
 93
        1
 72
     4
 94
        3
 73
     0
 74
     1
 95
       29
 96
       25
 40
0.0
 40
0.0
 40
0.0
 40
0.0
 40
1.0
 40
1.0
 40
1.0
 40
2.0
 40
2.0
 40
2.0
 40
3.0
 40
3.0
 40
3.0
 40
4.0
 40
4.0
 40
4.0
 40
5.0
 40
5.0
 40
5.0
 40
6.0
 40
6.0
 40
6.0
 40
7.0
 40
7.0
 40
7.0
 40
8.0
 40
8.0
 40
8.0
 40
8.0
 10
115.9991210647502
 20
-120.3692246877896
 10
116.2085828702534
 20
-120.4774006860265
 10
116.2275308954223
 20
-120.6506889889346
 10
116.2275308954223
 20
-120.767133216336
 10
116.2275308954223
 20
-120.9280191754972
 10
116.1810221063714
 20
-121.0696125999409
 10
115.9991210647502
 20
-121.1646972353338
 10
115.8044731698336
 20
-121.2683946094399
 10
115.5674506004484
 20
-121.2876871441572
 10
115.4048420935446
 20
-121.2876871441572
 10
115.2608371022612
 20
-121.2876871441572
 10
115.0090006222894
 20
-121.270461666731
 10
114.8102186127905
 20
-121.1646972353338
 10
114.6073024887093
 20
-121.0568657466455
 10
114.5838758394096
 20
-120.8959797874844
 10
114.5838758394096
 20
-120.767133216336
 10
114.5838758394096
 20
-120.608314314466
 10
114.6283175711693
 20
-120.4646538327311
 10
114.8102186127905
 20
-120.3692246877896
 10
115.002799450416
 20
-120.2700059378144
 10
115.231209281088
 20
-120.2465792885148
 10
115.4048420935446
 20
-120.2465792885148
 10
115.5760633391615
 20
-120.2465792885148
 10
115.8065402271248
 20
-120.2679388805233
 10
115.9991210647502
 20
-120.3692246877896
 97
        0
 97
        0
 92
        1
 93
        1
 72
     4
 94
        3
 73
     0
 74
     1
 95
       17
 96
       13
 40
0.0
 40
0.0
 40
0.0
 40
0.0
 40
1.0
 40
1.0
 40
1.0
 40
2.0
 40
2.0
 40
2.0
 40
3.0
 40
3.0
 40
3.0
 40
4.0
 40
4.0
 40
4.0
 40
4.0
 10
114.7764566770351
 20
-120.767133216336
 10
114.7764566770351
 20
-121.0169026390166
 10
115.0599880354711
 20
-121.0634114280675
 10
115.4048420935446
 20
-121.0634114280675
 10
115.7242024450273
 20
-121.0634114280675
 10
116.0328830005057
 20
-121.0272379254724
 10
116.0328830005057
 20
-120.767133216336
 10
116.0328830005057
 20
-120.5194308509465
 10
115.7517632089093
 20
-120.4708550046045
 10
115.4048420935446
 20
-120.4708550046045
 10
115.0851372325134
 20
-120.4708550046045
 10
114.7764566770351
 20
-120.5090955644908
 10
114.7764566770351
 20
-120.767133216336
 97
        0
 97
        0
 75
     2
 76
     1
 98
        0
  0
ENDBLK
  5
8B
330
88
100
AcDbEntity
  8
0
100
AcDbBlockEnd
  0
BLOCK
  5
93
330
91
100
AcDbEntity
  8
0
100
AcDbBlockBegin
  2
block 5
 70
     0
 10
0.0
 20
0.0
 30
0.0
  3
block 5
  1

  0
SPLINE
  5
95
330
91
100
AcDbEntity
  8
_U+30EC_U+30A4_U+30E4_U+30FC 1
370
     0
100
AcDbSpline
210
0.0
220
0.0
230
1.0
 70
    11
 71
     3
 72
    26
 73
    22
 74
     0
 42
0.0000000001
 43
0.0000000001
 12
1.0
 22
0.0
 32
0.0
 13
1.0
 23
0.0
 33
0.0
 40
0.0
 40
0.0
 40
0.0
 40
0.0
 40
1.0
 40
1.0
 40
1.0
 40
2.0
 40
2.0
 40
2.0
 40
3.0
 40
3.0
 40
3.0
 40
4.0
 40
4.0
 40
4.0
 40
5.0
 40
5.0
 40
5.0
 40
6.0
 40
6.0
 40
6.0
 40
7.0
 40
7.0
 40
7.0
 40
7.0
 10
116.1768879917891
 20
-148.5749104446271
 30
0.0
 10
116.1768879917891
 20
-148.5749104446271
 30
0.0
 10
115.0727348887665
 20
-148.5749104446271
 30
0.0
 10
115.0727348887665
 20
-148.5749104446271
 30
0.0
 10
115.0727348887665
 20
-148.5749104446271
 30
0.0
 10
115.0727348887665
 20
-148.904950592114
 30
0.0
 10
115.0727348887665
 20
-148.904950592114
 30
0.0
 10
115.0727348887665
 20
-148.904950592114
 30
0.0
 10
114.9245957829008
 20
-148.904950592114
 30
0.0
 10
114.9245957829008
 20
-148.904950592114
 30
0.0
 10
114.9097818723142
 20
-148.572843387336
 30
0.0
 10
114.7468288558619
 20
-148.5263345982851
 30
0.0
 10
114.6324516857516
 20
-148.4967067771119
 30
0.0
 10
114.6324516857516
 20
-148.4967067771119
 30
0.0
 10
114.6324516857516
 20
-148.3506347285374
 30
0.0
 10
114.6324516857516
 20
-148.3506347285374
 30
0.0
 10
114.6324516857516
 20
-148.3506347285374
 30
0.0
 10
116.1768879917891
 20
-148.3506347285374
 30
0.0
 10
116.1768879917891
 20
-148.3506347285374
 30
0.0
 10
116.1768879917891
 20
-148.3506347285374
 30
0.0
 10
116.1768879917891
 20
-148.5749104446271
 30
0.0
 10
116.1768879917891
 20
-148.5749104446271
 30
0.0
  0
HATCH
  5
96
330
91
100
AcDbEntity
  8
_U+30EC_U+30A4_U+30E4_U+30FC 1
 62
   179
420
  2234388
100
AcDbHatch
 10
0.0
 20
0.0
 30
0.0
210
0.0
220
0.0
230
1.0
  2
SOLID
 70
     1
 71
     0
 91
        1
 92
        1
 93
        1
 72
     4
 94
        3
 73
     0
 74
     1
 95
       26
 96
       22
 40
0.0
 40
0.0
 40
0.0
 40
0.0
 40
1.0
 40
1.0
 40
1.0
 40
2.0
 40
2.0
 40
2.0
 40
3.0
 40
3.0
 40
3.0
 40
4.0
 40
4.0
 40
4.0
 40
5.0
 40
5.0
 40
5.0
 40
6.0
 40
6.0
 40
6.0
 40
7.0
 40
7.0
 40
7.0
 40
7.0
 10
116.1768879917891
 20
-148.5749104446271
 10
116.1768879917891
 20
-148.5749104446271
 10
115.0727348887665
 20
-148.5749104446271
 10
115.0727348887665
 20
-148.5749104446271
 10
115.0727348887665
 20
-148.5749104446271
 10
115.0727348887665
 20
-148.904950592114
 10
115.0727348887665
 20
-148.904950592114
 10
115.0727348887665
 20
-148.904950592114
 10
114.9245957829008
 20
-148.904950592114
 10
114.9245957829008
 20
-148.904950592114
 10
114.9097818723142
 20
-148.572843387336
 10
114.7468288558619
 20
-148.5263345982851
 10
114.6324516857516
 20
-148.4967067771119
 10
114.6324516857516
 20
-148.4967067771119
 10
114.6324516857516
 20
-148.3506347285374
 10
114.6324516857516
 20
-148.3506347285374
 10
114.6324516857516
 20
-148.3506347285374
 10
116.1768879917891
 20
-148.3506347285374
 10
116.1768879917891
 20
-148.3506347285374
 10
116.1768879917891
 20
-148.3506347285374
 10
116.1768879917891
 20
-148.5749104446271
 10
116.1768879917891
 20
-148.5749104446271
 97
        0
 97
        0
 75
     2
 76
     1
 98
        0
  0
POLYLINE
  5
97
330
91
100
AcDbEntity
  8
_U+30EC_U+30A4_U+30E4_U+30FC 1
370
     0
100
AcDb2dPolyline
 66
     1
 10
0.0
 20
0.0
 30
0.0
  0
VERTEX
  5
98
330
97
100
AcDbEntity
  8
_U+30EC_U+30A4_U+30E4_U+30FC 1
370
     0
100
AcDbVertex
100
AcDb2dVertex
 10
116.1768879917891
 20
-147.7894286739902
 30
0.0
  0
VERTEX
  5
99
330
97
100
AcDbEntity
  8
_U+30EC_U+30A4_U+30E4_U+30FC 1
370
     0
100
AcDbVertex
100
AcDb2dVertex
 10
115.9250515118174
 20
-147.7894286739902
 30
0.0
  0
VERTEX
  5
9A
330
97
100
AcDbEntity
  8
_U+30EC_U+30A4_U+30E4_U+30FC 1
370
     0
100
AcDbVertex
100
AcDb2dVertex
 10
115.9250515118174
 20
-147.5375921940184
 30
0.0
  0
VERTEX
  5
9B
330
97
100
AcDbEntity
  8
_U+30EC_U+30A4_U+30E4_U+30FC 1
370
     0
100
AcDbVertex
100
AcDb2dVertex
 10
116.1768879917891
 20
-147.5375921940184
 30
0.0
  0
VERTEX
  5
9C
330
97
100
AcDbEntity
  8
_U+30EC_U+30A4_U+30E4_U+30FC 1
370
     0
100
AcDbVertex
100
AcDb2dVertex
 10
116.1768879917891
 20
-147.7894286739902
 30
0.0
  0
SEQEND
  5
9D
330
97
100
AcDbEntity
  8
_U+30EC_U+30A4_U+30E4_U+30FC 1
370
     0
  0
HATCH
  5
9E
330
91
100
AcDbEntity
  8
_U+30EC_U+30A4_U+30E4_U+30FC 1
 62
   179
420
  2234388
100
AcDbHatch
 10
0.0
 20
0.0
 30
0.0
210
0.0
220
0.0
230
1.0
  2
SOLID
 70
     1
 71
     0
 91
        1
 92
        1
 93
        4
 72
     1
 10
116.1768879917891
 20
-147.7894286739902
 11
115.9250515118174
 21
-147.7894286739902
 72
     1
 10
115.9250515118174
 20
-147.7894286739902
 11
115.9250515118174
 21
-147.5375921940184
 72
     1
 10
115.9250515118174
 20
-147.5375921940184
 11
116.1768879917891
 21
-147.5375921940184
 72
     1
 10
116.1768879917891
 20
-147.5375921940184
 11
116.1768879917891
 21
-147.7894286739902
 97
        0
 75
     2
 76
     1
 98
        0
  0
SPLINE
  5
9F
330
91
100
AcDbEntity
  8
_U+30EC_U+30A4_U+30E4_U+30FC 1
370
     0
100
AcDbSpline
210
0.0
220
0.0
230
1.0
 70
    11
 71
     3
 72
    53
 73
    49
 74
     0
 42
0.0000000001
 43
0.0000000001
 12
1.0
 22
0.0
 32
0.0
 13
1.0
 23
0.0
 33
0.0
 40
0.0
 40
0.0
 40
0.0
 40
0.0
 40
1.0
 40
1.0
 40
1.0
 40
2.0
 40
2.0
 40
2.0
 40
3.0
 40
3.0
 40
3.0
 40
4.0
 40
4.0
 40
4.0
 40
5.0
 40
5.0
 40
5.0
 40
6.0
 40
6.0
 40
6.0
 40
7.0
 40
7.0
 40
7.0
 40
8.0
 40
8.0
 40
8.0
 40
9.0
 40
9.0
 40
9.0
 40
10.0
 40
10.0
 40
10.0
 40
11.0
 40
11.0
 40
11.0
 40
12.0
 40
12.0
 40
12.0
 40
13.0
 40
13.0
 40
13.0
 40
14.0
 40
14.0
 40
14.0
 40
15.0
 40
15.0
 40
15.0
 40
16.0
 40
16.0
 40
16.0
 40
16.0
 10
116.2275308954223
 20
-146.8203233139894
 30
0.0
 10
116.2275308954223
 20
-146.8985269815045
 30
0.0
 10
116.2106499275446
 20
-147.0001572983194
 30
0.0
 10
116.147260170616
 20
-147.1017876151343
 30
0.0
 10
116.0373616246365
 20
-147.2750759180423
 30
0.0
 10
115.9061034866485
 20
-147.2964355100509
 30
0.0
 10
115.7982719979602
 20
-147.3153835352198
 30
0.0
 10
115.7982719979602
 20
-147.3153835352198
 30
0.0
 10
115.7982719979602
 20
-147.0931748764212
 30
0.0
 10
115.7982719979602
 20
-147.0931748764212
 30
0.0
 10
115.9970540074591
 20
-147.0383978582057
 30
0.0
 10
116.0266818286322
 20
-146.9112738348
 30
0.0
 10
116.0266818286322
 20
-146.8182562566982
 30
0.0
 10
116.0266818286322
 20
-146.6787298895456
 30
0.0
 10
115.9271185691085
 20
-146.5264566690976
 30
0.0
 10
115.6945746238541
 20
-146.5264566690976
 30
0.0
 10
115.4386040293001
 20
-146.5264566690976
 30
0.0
 10
115.3686685909495
 20
-146.7062906534276
 30
0.0
 10
115.3686685909495
 20
-146.8268689954113
 30
0.0
 10
115.3686685909495
 20
-146.8585638738757
 30
0.0
 10
115.3686685909495
 20
-147.0001572983194
 30
0.0
 10
115.4978596716464
 20
-147.0890407618388
 30
0.0
 10
115.4978596716464
 20
-147.0890407618388
 30
0.0
 10
115.4789116464775
 20
-147.2647406315866
 30
0.0
 10
115.4789116464775
 20
-147.2647406315866
 30
0.0
 10
115.4789116464775
 20
-147.2647406315866
 30
0.0
 10
114.6324516857516
 20
-147.1441622896029
 30
0.0
 10
114.6324516857516
 20
-147.1441622896029
 30
0.0
 10
114.6324516857516
 20
-147.1441622896029
 30
0.0
 10
114.6324516857516
 20
-146.3655707099364
 30
0.0
 10
114.6324516857516
 20
-146.3655707099364
 30
0.0
 10
114.6324516857516
 20
-146.3655707099364
 30
0.0
 10
114.8270995806682
 20
-146.3655707099364
 30
0.0
 10
114.8270995806682
 20
-146.3655707099364
 30
0.0
 10
114.8270995806682
 20
-146.3655707099364
 30
0.0
 10
114.8270995806682
 20
-146.9812092731505
 30
0.0
 10
114.8270995806682
 20
-146.9812092731505
 30
0.0
 10
114.8270995806682
 20
-146.9812092731505
 30
0.0
 10
115.2501573062569
 20
-147.0466660873703
 30
0.0
 10
115.2501573062569
 20
-147.0466660873703
 30
0.0
 10
115.2163953705015
 20
-146.9853433877328
 30
0.0
 10
115.176087753324
 20
-146.9030056056354
 30
0.0
 10
115.176087753324
 20
-146.7844943209428
 30
0.0
 10
115.176087753324
 20
-146.5305907836799
 30
0.0
 10
115.3624674190761
 20
-146.2935682142947
 30
0.0
 10
115.6756265986853
 20
-146.2935682142947
 30
0.0
 10
115.9929198928768
 20
-146.2935682142947
 30
0.0
 10
116.2275308954223
 20
-146.5178439303844
 30
0.0
 10
116.2275308954223
 20
-146.8203233139894
 30
0.0
  0
HATCH
  5
A0
330
91
100
AcDbEntity
  8
_U+30EC_U+30A4_U+30E4_U+30FC 1
 62
   179
420
  2234388
100
AcDbHatch
 10
0.0
 20
0.0
 30
0.0
210
0.0
220
0.0
230
1.0
  2
SOLID
 70
     1
 71
     0
 91
        1
 92
        1
 93
        1
 72
     4
 94
        3
 73
     0
 74
     1
 95
       53
 96
       49
 40
0.0
 40
0.0
 40
0.0
 40
0.0
 40
1.0
 40
1.0
 40
1.0
 40
2.0
 40
2.0
 40
2.0
 40
3.0
 40
3.0
 40
3.0
 40
4.0
 40
4.0
 40
4.0
 40
5.0
 40
5.0
 40
5.0
 40
6.0
 40
6.0
 40
6.0
 40
7.0
 40
7.0
 40
7.0
 40
8.0
 40
8.0
 40
8.0
 40
9.0
 40
9.0
 40
9.0
 40
10.0
 40
10.0
 40
10.0
 40
11.0
 40
11.0
 40
11.0
 40
12.0
 40
12.0
 40
12.0
 40
13.0
 40
13.0
 40
13.0
 40
14.0
 40
14.0
 40
14.0
 40
15.0
 40
15.0
 40
15.0
 40
16.0
 40
16.0
 40
16.0
 40
16.0
 10
116.2275308954223
 20
-146.8203233139894
 10
116.2275308954223
 20
-146.8985269815045
 10
116.2106499275446
 20
-147.0001572983194
 10
116.147260170616
 20
-147.1017876151343
 10
116.0373616246365
 20
-147.2750759180423
 10
115.9061034866485
 20
-147.2964355100509
 10
115.7982719979602
 20
-147.3153835352198
 10
115.7982719979602
 20
-147.3153835352198
 10
115.7982719979602
 20
-147.0931748764212
 10
115.7982719979602
 20
-147.0931748764212
 10
115.9970540074591
 20
-147.0383978582057
 10
116.0266818286322
 20
-146.9112738348
 10
116.0266818286322
 20
-146.8182562566982
 10
116.0266818286322
 20
-146.6787298895456
 10
115.9271185691085
 20
-146.5264566690976
 10
115.6945746238541
 20
-146.5264566690976
 10
115.4386040293001
 20
-146.5264566690976
 10
115.3686685909495
 20
-146.7062906534276
 10
115.3686685909495
 20
-146.8268689954113
 10
115.3686685909495
 20
-146.8585638738757
 10
115.3686685909495
 20
-147.0001572983194
 10
115.4978596716464
 20
-147.0890407618388
 10
115.4978596716464
 20
-147.0890407618388
 10
115.4789116464775
 20
-147.2647406315866
 10
115.4789116464775
 20
-147.2647406315866
 10
115.4789116464775
 20
-147.2647406315866
 10
114.6324516857516
 20
-147.1441622896029
 10
114.6324516857516
 20
-147.1441622896029
 10
114.6324516857516
 20
-147.1441622896029
 10
114.6324516857516
 20
-146.3655707099364
 10
114.6324516857516
 20
-146.3655707099364
 10
114.6324516857516
 20
-146.3655707099364
 10
114.8270995806682
 20
-146.3655707099364
 10
114.8270995806682
 20
-146.3655707099364
 10
114.8270995806682
 20
-146.3655707099364
 10
114.8270995806682
 20
-146.9812092731505
 10
114.8270995806682
 20
-146.9812092731505
 10
114.8270995806682
 20
-146.9812092731505
 10
115.2501573062569
 20
-147.0466660873703
 10
115.2501573062569
 20
-147.0466660873703
 10
115.2163953705015
 20
-146.9853433877328
 10
115.176087753324
 20
-146.9030056056354
 10
115.176087753324
 20
-146.7844943209428
 10
115.176087753324
 20
-146.5305907836799
 10
115.3624674190761
 20
-146.2935682142947
 10
115.6756265986853
 20
-146.2935682142947
 10
115.9929198928768
 20
-146.2935682142947
 10
116.2275308954223
 20
-146.5178439303844
 10
116.2275308954223
 20
-146.8203233139894
 97
        0
 97
        0
 75
     2
 76
     1
 98
        0
  0
ENDBLK
  5
94
330
91
100
AcDbEntity
  8
0
100
AcDbBlockEnd
  0
BLOCK
  5
B1
330
AF
100
AcDbEntity
  8
0
100
AcDbBlockBegin
  2
block 6
 70
     0
 10
0.0
 20
0.0
 30
0.0
  3
block 6
  1

  0
SPLINE
  5
B3
330
AF
100
AcDbEntity
  8
_U+30EC_U+30A4_U+30E4_U+30FC 1
370
     0
100
AcDbSpline
210
0.0
220
0.0
230
1.0
 70
    11
 71
     3
 72
    44
 73
    40
 74
     0
 42
0.0000000001
 43
0.0000000001
 12
1.0
 22
0.0
 32
0.0
 13
1.0
 23
0.0
 33
0.0
 40
0.0
 40
0.0
 40
0.0
 40
0.0
 40
1.0
 40
1.0
 40
1.0
 40
2.0
 40
2.0
 40
2.0
 40
3.0
 40
3.0
 40
3.0
 40
4.0
 40
4.0
 40
4.0
 40
5.0
 40
5.0
 40
5.0
 40
6.0
 40
6.0
 40
6.0
 40
7.0
 40
7.0
 40
7.0
 40
8.0
 40
8.0
 40
8.0
 40
9.0
 40
9.0
 40
9.0
 40
10.0
 40
10.0
 40
10.0
 40
11.0
 40
11.0
 40
11.0
 40
12.0
 40
12.0
 40
12.0
 40
13.0
 40
13.0
 40
13.0
 40
13.0
 10
66.77249618556382
 20
-131.8217556094057
 30
0.0
 10
66.93114283265957
 20
-132.0394856440735
 30
0.0
 10
67.00521238559244
 20
-132.1325032221752
 30
0.0
 10
67.14904512210163
 20
-132.1814235780658
 30
0.0
 10
67.14904512210163
 20
-132.1814235780658
 30
0.0
 10
67.14904512210163
 20
-131.4028319983993
 30
0.0
 10
67.14904512210163
 20
-131.4028319983993
 30
0.0
 10
67.14904512210163
 20
-131.4028319983993
 30
0.0
 10
67.35420055824825
 20
-131.4028319983993
 30
0.0
 10
67.35420055824825
 20
-131.4028319983993
 30
0.0
 10
67.35420055824825
 20
-131.4028319983993
 30
0.0
 10
67.35420055824825
 20
-132.4308484911978
 30
0.0
 10
67.35420055824825
 20
-132.4308484911978
 30
0.0
 10
66.99659964687933
 20
-132.3991536127336
 30
0.0
 10
66.91839597936415
 20
-132.3336967985138
 30
0.0
 10
66.62005071034152
 20
-131.9485351232629
 30
0.0
 10
66.4212687008426
 20
-131.6925645287088
 30
0.0
 10
66.35357257455745
 20
-131.6271077144891
 30
0.0
 10
66.21611326469598
 20
-131.6271077144891
 30
0.0
 10
66.09760198000338
 20
-131.6271077144891
 30
0.0
 10
65.96634384201536
 20
-131.6991102101308
 30
0.0
 10
65.96634384201536
 20
-131.8958251623386
 30
0.0
 10
65.96634384201536
 20
-132.1559298714749
 30
0.0
 10
66.19699298475284
 20
-132.1645426101881
 30
0.0
 10
66.31343721215428
 20
-132.1686767247703
 30
0.0
 10
66.31343721215428
 20
-132.1686767247703
 30
0.0
 10
66.31343721215428
 20
-132.3929524408601
 30
0.0
 10
66.31343721215428
 20
-132.3929524408601
 30
0.0
 10
66.18648544352283
 20
-132.384339702147
 30
0.0
 10
66.07434758547794
 20
-132.3736599061427
 30
0.0
 10
65.95583630078535
 20
-132.2933891813364
 30
0.0
 10
65.79512259639844
 20
-132.1834906353569
 30
0.0
 10
65.76118840586874
 20
-131.9971109696049
 30
0.0
 10
65.76118840586874
 20
-131.881011251752
 30
0.0
 10
65.76118840586874
 20
-131.6036810651894
 30
0.0
 10
65.94532875955534
 20
-131.3962863169773
 30
0.0
 10
66.21818032198712
 20
-131.3962863169773
 30
0.0
 10
66.44659015265918
 20
-131.3962863169773
 30
0.0
 10
66.5461534121829
 20
-131.5127305443788
 30
0.0
 10
66.77249618556382
 20
-131.8217556094057
 30
0.0
  0
HATCH
  5
B4
330
AF
100
AcDbEntity
  8
_U+30EC_U+30A4_U+30E4_U+30FC 1
 62
   179
420
  2234388
100
AcDbHatch
 10
0.0
 20
0.0
 30
0.0
210
0.0
220
0.0
230
1.0
  2
SOLID
 70
     1
 71
     0
 91
        1
 92
        1
 93
        1
 72
     4
 94
        3
 73
     0
 74
     1
 95
       44
 96
       40
 40
0.0
 40
0.0
 40
0.0
 40
0.0
 40
1.0
 40
1.0
 40
1.0
 40
2.0
 40
2.0
 40
2.0
 40
3.0
 40
3.0
 40
3.0
 40
4.0
 40
4.0
 40
4.0
 40
5.0
 40
5.0
 40
5.0
 40
6.0
 40
6.0
 40
6.0
 40
7.0
 40
7.0
 40
7.0
 40
8.0
 40
8.0
 40
8.0
 40
9.0
 40
9.0
 40
9.0
 40
10.0
 40
10.0
 40
10.0
 40
11.0
 40
11.0
 40
11.0
 40
12.0
 40
12.0
 40
12.0
 40
13.0
 40
13.0
 40
13.0
 40
13.0
 10
66.77249618556382
 20
-131.8217556094057
 10
66.93114283265957
 20
-132.0394856440735
 10
67.00521238559244
 20
-132.1325032221752
 10
67.14904512210163
 20
-132.1814235780658
 10
67.14904512210163
 20
-132.1814235780658
 10
67.14904512210163
 20
-131.4028319983993
 10
67.14904512210163
 20
-131.4028319983993
 10
67.14904512210163
 20
-131.4028319983993
 10
67.35420055824825
 20
-131.4028319983993
 10
67.35420055824825
 20
-131.4028319983993
 10
67.35420055824825
 20
-131.4028319983993
 10
67.35420055824825
 20
-132.4308484911978
 10
67.35420055824825
 20
-132.4308484911978
 10
66.99659964687933
 20
-132.3991536127336
 10
66.91839597936415
 20
-132.3336967985138
 10
66.62005071034152
 20
-131.9485351232629
 10
66.4212687008426
 20
-131.6925645287088
 10
66.35357257455745
 20
-131.6271077144891
 10
66.21611326469598
 20
-131.6271077144891
 10
66.09760198000338
 20
-131.6271077144891
 10
65.96634384201536
 20
-131.6991102101308
 10
65.96634384201536
 20
-131.8958251623386
 10
65.96634384201536
 20
-132.1559298714749
 10
66.19699298475284
 20
-132.1645426101881
 10
66.31343721215428
 20
-132.1686767247703
 10
66.31343721215428
 20
-132.1686767247703
 10
66.31343721215428
 20
-132.3929524408601
 10
66.31343721215428
 20
-132.3929524408601
 10
66.18648544352283
 20
-132.384339702147
 10
66.07434758547794
 20
-132.3736599061427
 10
65.95583630078535
 20
-132.2933891813364
 10
65.79512259639844
 20
-132.1834906353569
 10
65.76118840586874
 20
-131.9971109696049
 10
65.76118840586874
 20
-131.881011251752
 10
65.76118840586874
 20
-131.6036810651894
 10
65.94532875955534
 20
-131.3962863169773
 10
66.21818032198712
 20
-131.3962863169773
 10
66.44659015265918
 20
-131.3962863169773
 10
66.5461534121829
 20
-131.5127305443788
 10
66.77249618556382
 20
-131.8217556094057
 97
        0
 97
        0
 75
     2
 76
     1
 98
        0
  0
SPLINE
  5
B5
330
AF
100
AcDbEntity
  8
_U+30EC_U+30A4_U+30E4_U+30FC 1
370
     0
100
AcDbSpline
210
0.0
220
0.0
230
1.0
 70
    11
 71
     3
 72
    29
 73
    25
 74
     0
 42
0.0000000001
 43
0.0000000001
 12
1.0
 22
0.0
 32
0.0
 13
1.0
 23
0.0
 33
0.0
 40
0.0
 40
0.0
 40
0.0
 40
0.0
 40
1.0
 40
1.0
 40
1.0
 40
2.0
 40
2.0
 40
2.0
 40
3.0
 40
3.0
 40
3.0
 40
4.0
 40
4.0
 40
4.0
 40
5.0
 40
5.0
 40
5.0
 40
6.0
 40
6.0
 40
6.0
 40
7.0
 40
7.0
 40
7.0
 40
8.0
 40
8.0
 40
8.0
 40
8.0
 10
67.4050157166557
 20
-130.7379285697461
 30
0.0
 10
67.4050157166557
 20
-131.0045789603044
 30
0.0
 10
67.26738415201996
 20
-131.2584824975673
 30
0.0
 10
66.91839597936415
 20
-131.2584824975673
 30
0.0
 10
66.66242538481009
 20
-131.2584824975673
 30
0.0
 10
66.56716849464293
 20
-131.116544563575
 30
0.0
 10
66.50584579500548
 20
-131.0107801321779
 30
0.0
 10
66.44659015265918
 20
-131.1354925887439
 30
0.0
 10
66.33238523732315
 20
-131.2116291989679
 30
0.0
 10
66.17167153293626
 20
-131.2116291989679
 30
0.0
 10
65.89658065843905
 20
-131.2116291989679
 30
0.0
 10
65.76118840586874
 20
-131.012847189469
 30
0.0
 10
65.76118840586874
 20
-130.7379285697461
 30
0.0
 10
65.76118840586874
 20
-130.45439721131
 30
0.0
 10
65.90502114237792
 20
-130.2638834309757
 30
0.0
 10
66.17167153293626
 20
-130.2638834309757
 30
0.0
 10
66.33238523732315
 20
-130.2638834309757
 30
0.0
 10
66.44659015265918
 20
-130.3424316080394
 30
0.0
 10
66.50584579500548
 20
-130.4671440646054
 30
0.0
 10
66.55666095341292
 20
-130.378260601086
 30
0.0
 10
66.65191784358008
 20
-130.219441699216
 30
0.0
 10
66.9140896100076
 20
-130.219441699216
 30
0.0
 10
67.28857148925425
 20
-130.219441699216
 30
0.0
 10
67.4050157166557
 20
-130.4988389430697
 30
0.0
 10
67.4050157166557
 20
-130.7379285697461
 30
0.0
  0
SPLINE
  5
B6
330
AF
100
AcDbEntity
  8
_U+30EC_U+30A4_U+30E4_U+30FC 1
370
     0
100
AcDbSpline
210
0.0
220
0.0
230
1.0
 70
    11
 71
     3
 72
    17
 73
    13
 74
     0
 42
0.0000000001
 43
0.0000000001
 12
1.0
 22
0.0
 32
0.0
 13
1.0
 23
0.0
 33
0.0
 40
0.0
 40
0.0
 40
0.0
 40
0.0
 40
1.0
 40
1.0
 40
1.0
 40
2.0
 40
2.0
 40
2.0
 40
3.0
 40
3.0
 40
3.0
 40
4.0
 40
4.0
 40
4.0
 40
4.0
 10
65.9537692434942
 20
-130.7379285697461
 30
0.0
 10
65.9537692434942
 20
-130.9029486434895
 30
0.0
 10
66.0488538788871
 20
-130.9876979924267
 30
0.0
 10
66.18424613145741
 20
-130.9876979924267
 30
0.0
 10
66.30706378550657
 20
-130.9876979924267
 30
0.0
 10
66.42557507019916
 20
-130.915695496785
 30
0.0
 10
66.42557507019916
 20
-130.7379285697461
 30
0.0
 10
66.42557507019916
 20
-130.5601616427072
 30
0.0
 10
66.30706378550657
 20
-130.4881591470655
 30
0.0
 10
66.18424613145741
 20
-130.4881591470655
 30
0.0
 10
66.0488538788871
 20
-130.4881591470655
 30
0.0
 10
65.9537692434942
 20
-130.5749755532938
 30
0.0
 10
65.9537692434942
 20
-130.7379285697461
 30
0.0
  0
SPLINE
  5
B7
330
AF
100
AcDbEntity
  8
_U+30EC_U+30A4_U+30E4_U+30FC 1
370
     0
100
AcDbSpline
210
0.0
220
0.0
230
1.0
 70
    11
 71
     3
 72
    17
 73
    13
 74
     0
 42
0.0000000001
 43
0.0000000001
 12
1.0
 22
0.0
 32
0.0
 13
1.0
 23
0.0
 33
0.0
 40
0.0
 40
0.0
 40
0.0
 40
0.0
 40
1.0
 40
1.0
 40
1.0
 40
2.0
 40
2.0
 40
2.0
 40
3.0
 40
3.0
 40
3.0
 40
4.0
 40
4.0
 40
4.0
 40
4.0
 10
66.61384953846807
 20
-130.7379285697461
 30
0.0
 10
66.61384953846807
 20
-130.881589051481
 30
0.0
 10
66.7004936899221
 20
-131.0342067814776
 30
0.0
 10
66.90358206877758
 20
-131.0342067814776
 30
0.0
 10
67.1087375049242
 20
-131.0342067814776
 30
0.0
 10
67.21036782173908
 20
-130.9070827580719
 30
0.0
 10
67.21036782173908
 20
-130.7379285697461
 30
0.0
 10
67.21036782173908
 20
-130.5518934135426
 30
0.0
 10
67.08772242246418
 20
-130.4416503580146
 30
0.0
 10
66.9099554954253
 20
-130.4416503580146
 30
0.0
 10
66.68774683662667
 20
-130.4416503580146
 30
0.0
 10
66.61384953846807
 20
-130.6046033744669
 30
0.0
 10
66.61384953846807
 20
-130.7379285697461
 30
0.0
  0
HATCH
  5
B8
330
AF
100
AcDbEntity
  8
_U+30EC_U+30A4_U+30E4_U+30FC 1
 62
   179
420
  2234388
100
AcDbHatch
 10
0.0
 20
0.0
 30
0.0
210
0.0
220
0.0
230
1.0
  2
SOLID
 70
     1
 71
     0
 91
        3
 92
        1
 93
        1
 72
     4
 94
        3
 73
     0
 74
     1
 95
       29
 96
       25
 40
0.0
 40
0.0
 40
0.0
 40
0.0
 40
1.0
 40
1.0
 40
1.0
 40
2.0
 40
2.0
 40
2.0
 40
3.0
 40
3.0
 40
3.0
 40
4.0
 40
4.0
 40
4.0
 40
5.0
 40
5.0
 40
5.0
 40
6.0
 40
6.0
 40
6.0
 40
7.0
 40
7.0
 40
7.0
 40
8.0
 40
8.0
 40
8.0
 40
8.0
 10
67.4050157166557
 20
-130.7379285697461
 10
67.4050157166557
 20
-131.0045789603044
 10
67.26738415201996
 20
-131.2584824975673
 10
66.91839597936415
 20
-131.2584824975673
 10
66.66242538481009
 20
-131.2584824975673
 10
66.56716849464293
 20
-131.116544563575
 10
66.50584579500548
 20
-131.0107801321779
 10
66.44659015265918
 20
-131.1354925887439
 10
66.33238523732315
 20
-131.2116291989679
 10
66.17167153293626
 20
-131.2116291989679
 10
65.89658065843905
 20
-131.2116291989679
 10
65.76118840586874
 20
-131.012847189469
 10
65.76118840586874
 20
-130.7379285697461
 10
65.76118840586874
 20
-130.45439721131
 10
65.90502114237792
 20
-130.2638834309757
 10
66.17167153293626
 20
-130.2638834309757
 10
66.33238523732315
 20
-130.2638834309757
 10
66.44659015265918
 20
-130.3424316080394
 10
66.50584579500548
 20
-130.4671440646054
 10
66.55666095341292
 20
-130.378260601086
 10
66.65191784358008
 20
-130.219441699216
 10
66.9140896100076
 20
-130.219441699216
 10
67.28857148925425
 20
-130.219441699216
 10
67.4050157166557
 20
-130.4988389430697
 10
67.4050157166557
 20
-130.7379285697461
 97
        0
 97
        0
 92
        1
 93
        1
 72
     4
 94
        3
 73
     0
 74
     1
 95
       17
 96
       13
 40
0.0
 40
0.0
 40
0.0
 40
0.0
 40
1.0
 40
1.0
 40
1.0
 40
2.0
 40
2.0
 40
2.0
 40
3.0
 40
3.0
 40
3.0
 40
4.0
 40
4.0
 40
4.0
 40
4.0
 10
65.9537692434942
 20
-130.7379285697461
 10
65.9537692434942
 20
-130.9029486434895
 10
66.0488538788871
 20
-130.9876979924267
 10
66.18424613145741
 20
-130.9876979924267
 10
66.30706378550657
 20
-130.9876979924267
 10
66.42557507019916
 20
-130.915695496785
 10
66.42557507019916
 20
-130.7379285697461
 10
66.42557507019916
 20
-130.5601616427072
 10
66.30706378550657
 20
-130.4881591470655
 10
66.18424613145741
 20
-130.4881591470655
 10
66.0488538788871
 20
-130.4881591470655
 10
65.9537692434942
 20
-130.5749755532938
 10
65.9537692434942
 20
-130.7379285697461
 97
        0
 97
        0
 92
        1
 93
        1
 72
     4
 94
        3
 73
     0
 74
     1
 95
       17
 96
       13
 40
0.0
 40
0.0
 40
0.0
 40
0.0
 40
1.0
 40
1.0
 40
1.0
 40
2.0
 40
2.0
 40
2.0
 40
3.0
 40
3.0
 40
3.0
 40
4.0
 40
4.0
 40
4.0
 40
4.0
 10
66.61384953846807
 20
-130.7379285697461
 10
66.61384953846807
 20
-130.881589051481
 10
66.7004936899221
 20
-131.0342067814776
 10
66.90358206877758
 20
-131.0342067814776
 10
67.1087375049242
 20
-131.0342067814776
 10
67.21036782173908
 20
-130.9070827580719
 10
67.21036782173908
 20
-130.7379285697461
 10
67.21036782173908
 20
-130.5518934135426
 10
67.08772242246418
 20
-130.4416503580146
 10
66.9099554954253
 20
-130.4416503580146
 10
66.68774683662667
 20
-130.4416503580146
 10
66.61384953846807
 20
-130.6046033744669
 10
66.61384953846807
 20
-130.7379285697461
 97
        0
 97
        0
 75
     2
 76
     1
 98
        0
  0
ENDBLK
  5
B2
330
AF
100
AcDbEntity
  8
0
100
AcDbBlockEnd
  0
BLOCK
  5
C0
330
BE
100
AcDbEntity
  8
0
100
AcDbBlockBegin
  2
block 7
 70
     0
 10
0.0
 20
0.0
 30
0.0
  3
block 7
  1

  0
SPLINE
  5
C2
330
BE
100
AcDbEntity
  8
_U+30EC_U+30A4_U+30E4_U+30FC 1
370
     0
100
AcDbSpline
210
0.0
220
0.0
230
1.0
 70
    11
 71
     3
 72
    26
 73
    22
 74
     0
 42
0.0000000001
 43
0.0000000001
 12
1.0
 22
0.0
 32
0.0
 13
1.0
 23
0.0
 33
0.0
 40
0.0
 40
0.0
 40
0.0
 40
0.0
 40
1.0
 40
1.0
 40
1.0
 40
2.0
 40
2.0
 40
2.0
 40
3.0
 40
3.0
 40
3.0
 40
4.0
 40
4.0
 40
4.0
 40
5.0
 40
5.0
 40
5.0
 40
6.0
 40
6.0
 40
6.0
 40
7.0
 40
7.0
 40
7.0
 40
7.0
 10
78.91301267558426
 20
-148.7492322761807
 30
0.0
 10
78.91301267558426
 20
-148.7492322761807
 30
0.0
 10
78.91301267558426
 20
-147.6450791731582
 30
0.0
 10
78.91301267558426
 20
-147.6450791731582
 30
0.0
 10
78.91301267558426
 20
-147.6450791731582
 30
0.0
 10
78.58297252809732
 20
-147.6450791731582
 30
0.0
 10
78.58297252809732
 20
-147.6450791731582
 30
0.0
 10
78.58297252809732
 20
-147.6450791731582
 30
0.0
 10
78.58297252809732
 20
-147.4969400672924
 30
0.0
 10
78.58297252809732
 20
-147.4969400672924
 30
0.0
 10
78.9150797328754
 20
-147.4821261567059
 30
0.0
 10
78.96158852192627
 20
-147.3191731402536
 30
0.0
 10
78.99121634309942
 20
-147.2047959701433
 30
0.0
 10
78.99121634309942
 20
-147.2047959701433
 30
0.0
 10
79.13728839167402
 20
-147.2047959701433
 30
0.0
 10
79.13728839167402
 20
-147.2047959701433
 30
0.0
 10
79.13728839167402
 20
-147.2047959701433
 30
0.0
 10
79.13728839167402
 20
-148.7492322761807
 30
0.0
 10
79.13728839167402
 20
-148.7492322761807
 30
0.0
 10
79.13728839167402
 20
-148.7492322761807
 30
0.0
 10
78.91301267558426
 20
-148.7492322761807
 30
0.0
 10
78.91301267558426
 20
-148.7492322761807
 30
0.0
  0
HATCH
  5
C3
330
BE
100
AcDbEntity
  8
_U+30EC_U+30A4_U+30E4_U+30FC 1
 62
   179
420
  2234388
100
AcDbHatch
 10
0.0
 20
0.0
 30
0.0
210
0.0
220
0.0
230
1.0
  2
SOLID
 70
     1
 71
     0
 91
        1
 92
        1
 93
        1
 72
     4
 94
        3
 73
     0
 74
     1
 95
       26
 96
       22
 40
0.0
 40
0.0
 40
0.0
 40
0.0
 40
1.0
 40
1.0
 40
1.0
 40
2.0
 40
2.0
 40
2.0
 40
3.0
 40
3.0
 40
3.0
 40
4.0
 40
4.0
 40
4.0
 40
5.0
 40
5.0
 40
5.0
 40
6.0
 40
6.0
 40
6.0
 40
7.0
 40
7.0
 40
7.0
 40
7.0
 10
78.91301267558426
 20
-148.7492322761807
 10
78.91301267558426
 20
-148.7492322761807
 10
78.91301267558426
 20
-147.6450791731582
 10
78.91301267558426
 20
-147.6450791731582
 10
78.91301267558426
 20
-147.6450791731582
 10
78.58297252809732
 20
-147.6450791731582
 10
78.58297252809732
 20
-147.6450791731582
 10
78.58297252809732
 20
-147.6450791731582
 10
78.58297252809732
 20
-147.4969400672924
 10
78.58297252809732
 20
-147.4969400672924
 10
78.9150797328754
 20
-147.4821261567059
 10
78.96158852192627
 20
-147.3191731402536
 10
78.99121634309942
 20
-147.2047959701433
 10
78.99121634309942
 20
-147.2047959701433
 10
79.13728839167402
 20
-147.2047959701433
 10
79.13728839167402
 20
-147.2047959701433
 10
79.13728839167402
 20
-147.2047959701433
 10
79.13728839167402
 20
-148.7492322761807
 10
79.13728839167402
 20
-148.7492322761807
 10
79.13728839167402
 20
-148.7492322761807
 10
78.91301267558426
 20
-148.7492322761807
 10
78.91301267558426
 20
-148.7492322761807
 97
        0
 97
        0
 75
     2
 76
     1
 98
        0
  0
SPLINE
  5
C4
330
BE
100
AcDbEntity
  8
_U+30EC_U+30A4_U+30E4_U+30FC 1
370
     0
100
AcDbSpline
210
0.0
220
0.0
230
1.0
 70
    11
 71
     3
 72
    53
 73
    49
 74
     0
 42
0.0000000001
 43
0.0000000001
 12
1.0
 22
0.0
 32
0.0
 13
1.0
 23
0.0
 33
0.0
 40
0.0
 40
0.0
 40
0.0
 40
0.0
 40
1.0
 40
1.0
 40
1.0
 40
2.0
 40
2.0
 40
2.0
 40
3.0
 40
3.0
 40
3.0
 40
4.0
 40
4.0
 40
4.0
 40
5.0
 40
5.0
 40
5.0
 40
6.0
 40
6.0
 40
6.0
 40
7.0
 40
7.0
 40
7.0
 40
8.0
 40
8.0
 40
8.0
 40
9.0
 40
9.0
 40
9.0
 40
10.0
 40
10.0
 40
10.0
 40
11.0
 40
11.0
 40
11.0
 40
12.0
 40
12.0
 40
12.0
 40
13.0
 40
13.0
 40
13.0
 40
14.0
 40
14.0
 40
14.0
 40
15.0
 40
15.0
 40
15.0
 40
16.0
 40
16.0
 40
16.0
 40
16.0
 10
80.11948511451874
 20
-148.7998751798139
 30
0.0
 10
80.04128144700357
 20
-148.7998751798139
 30
0.0
 10
79.93965113018871
 20
-148.7829942119362
 30
0.0
 10
79.83802081337383
 20
-148.7196044550076
 30
0.0
 10
79.66473251046577
 20
-148.6097059090281
 30
0.0
 10
79.64337291845722
 20
-148.4784477710401
 30
0.0
 10
79.62442489328834
 20
-148.3706162823518
 30
0.0
 10
79.62442489328834
 20
-148.3706162823518
 30
0.0
 10
79.84663355208696
 20
-148.3706162823518
 30
0.0
 10
79.84663355208696
 20
-148.3706162823518
 30
0.0
 10
79.90141057030243
 20
-148.5693982918507
 30
0.0
 10
80.02853459370814
 20
-148.5990261130239
 30
0.0
 10
80.1215521718099
 20
-148.5990261130239
 30
0.0
 10
80.26107853896251
 20
-148.5990261130239
 30
0.0
 10
80.41335175941056
 20
-148.4994628535001
 30
0.0
 10
80.41335175941056
 20
-148.2669189082458
 30
0.0
 10
80.41335175941056
 20
-148.0109483136917
 30
0.0
 10
80.23351777508051
 20
-147.9410128753411
 30
0.0
 10
80.11293943309677
 20
-147.9410128753411
 30
0.0
 10
80.08124455463248
 20
-147.9410128753411
 30
0.0
 10
79.93965113018871
 20
-147.9410128753411
 30
0.0
 10
79.85076766666926
 20
-148.070203956038
 30
0.0
 10
79.85076766666926
 20
-148.070203956038
 30
0.0
 10
79.67506779692151
 20
-148.0512559308691
 30
0.0
 10
79.67506779692151
 20
-148.0512559308691
 30
0.0
 10
79.67506779692151
 20
-148.0512559308691
 30
0.0
 10
79.79564613890525
 20
-147.2047959701433
 30
0.0
 10
79.79564613890525
 20
-147.2047959701433
 30
0.0
 10
79.79564613890525
 20
-147.2047959701433
 30
0.0
 10
80.57423771857172
 20
-147.2047959701433
 30
0.0
 10
80.57423771857172
 20
-147.2047959701433
 30
0.0
 10
80.57423771857172
 20
-147.2047959701433
 30
0.0
 10
80.57423771857172
 20
-147.3994438650599
 30
0.0
 10
80.57423771857172
 20
-147.3994438650599
 30
0.0
 10
80.57423771857172
 20
-147.3994438650599
 30
0.0
 10
79.95859915535758
 20
-147.3994438650599
 30
0.0
 10
79.95859915535758
 20
-147.3994438650599
 30
0.0
 10
79.95859915535758
 20
-147.3994438650599
 30
0.0
 10
79.89314234113783
 20
-147.8225015906486
 30
0.0
 10
79.89314234113783
 20
-147.8225015906486
 30
0.0
 10
79.95446504077528
 20
-147.7887396548931
 30
0.0
 10
80.03680282287274
 20
-147.7484320377157
 30
0.0
 10
80.15531410756535
 20
-147.7484320377157
 30
0.0
 10
80.40921764482826
 20
-147.7484320377157
 30
0.0
 10
80.64624021421345
 20
-147.9348117034677
 30
0.0
 10
80.64624021421345
 20
-148.2479708830769
 30
0.0
 10
80.64624021421345
 20
-148.5652641772684
 30
0.0
 10
80.42196449812369
 20
-148.7998751798139
 30
0.0
 10
80.11948511451874
 20
-148.7998751798139
 30
0.0
  0
HATCH
  5
C5
330
BE
100
AcDbEntity
  8
_U+30EC_U+30A4_U+30E4_U+30FC 1
 62
   179
420
  2234388
100
AcDbHatch
 10
0.0
 20
0.0
 30
0.0
210
0.0
220
0.0
230
1.0
  2
SOLID
 70
     1
 71
     0
 91
        1
 92
        1
 93
        1
 72
     4
 94
        3
 73
     0
 74
     1
 95
       53
 96
       49
 40
0.0
 40
0.0
 40
0.0
 40
0.0
 40
1.0
 40
1.0
 40
1.0
 40
2.0
 40
2.0
 40
2.0
 40
3.0
 40
3.0
 40
3.0
 40
4.0
 40
4.0
 40
4.0
 40
5.0
 40
5.0
 40
5.0
 40
6.0
 40
6.0
 40
6.0
 40
7.0
 40
7.0
 40
7.0
 40
8.0
 40
8.0
 40
8.0
 40
9.0
 40
9.0
 40
9.0
 40
10.0
 40
10.0
 40
10.0
 40
11.0
 40
11.0
 40
11.0
 40
12.0
 40
12.0
 40
12.0
 40
13.0
 40
13.0
 40
13.0
 40
14.0
 40
14.0
 40
14.0
 40
15.0
 40
15.0
 40
15.0
 40
16.0
 40
16.0
 40
16.0
 40
16.0
 10
80.11948511451874
 20
-148.7998751798139
 10
80.04128144700357
 20
-148.7998751798139
 10
79.93965113018871
 20
-148.7829942119362
 10
79.83802081337383
 20
-148.7196044550076
 10
79.66473251046577
 20
-148.6097059090281
 10
79.64337291845722
 20
-148.4784477710401
 10
79.62442489328834
 20
-148.3706162823518
 10
79.62442489328834
 20
-148.3706162823518
 10
79.84663355208696
 20
-148.3706162823518
 10
79.84663355208696
 20
-148.3706162823518
 10
79.90141057030243
 20
-148.5693982918507
 10
80.02853459370814
 20
-148.5990261130239
 10
80.1215521718099
 20
-148.5990261130239
 10
80.26107853896251
 20
-148.5990261130239
 10
80.41335175941056
 20
-148.4994628535001
 10
80.41335175941056
 20
-148.2669189082458
 10
80.41335175941056
 20
-148.0109483136917
 10
80.23351777508051
 20
-147.9410128753411
 10
80.11293943309677
 20
-147.9410128753411
 10
80.08124455463248
 20
-147.9410128753411
 10
79.93965113018871
 20
-147.9410128753411
 10
79.85076766666926
 20
-148.070203956038
 10
79.85076766666926
 20
-148.070203956038
 10
79.67506779692151
 20
-148.0512559308691
 10
79.67506779692151
 20
-148.0512559308691
 10
79.67506779692151
 20
-148.0512559308691
 10
79.79564613890525
 20
-147.2047959701433
 10
79.79564613890525
 20
-147.2047959701433
 10
79.79564613890525
 20
-147.2047959701433
 10
80.57423771857172
 20
-147.2047959701433
 10
80.57423771857172
 20
-147.2047959701433
 10
80.57423771857172
 20
-147.2047959701433
 10
80.57423771857172
 20
-147.3994438650599
 10
80.57423771857172
 20
-147.3994438650599
 10
80.57423771857172
 20
-147.3994438650599
 10
79.95859915535758
 20
-147.3994438650599
 10
79.95859915535758
 20
-147.3994438650599
 10
79.95859915535758
 20
-147.3994438650599
 10
79.89314234113783
 20
-147.8225015906486
 10
79.89314234113783
 20
-147.8225015906486
 10
79.95446504077528
 20
-147.7887396548931
 10
80.03680282287274
 20
-147.7484320377157
 10
80.15531410756535
 20
-147.7484320377157
 10
80.40921764482826
 20
-147.7484320377157
 10
80.64624021421345
 20
-147.9348117034677
 10
80.64624021421345
 20
-148.2479708830769
 10
80.64624021421345
 20
-148.5652641772684
 10
80.42196449812369
 20
-148.7998751798139
 10
80.11948511451874
 20
-148.7998751798139
 97
        0
 97
        0
 75
     2
 76
     1
 98
        0
  0
ENDBLK
  5
C1
330
BE
100
AcDbEntity
  8
0
100
AcDbBlockEnd
  0
BLOCK
  5
C8
330
C6
100
AcDbEntity
  8
0
100
AcDbBlockBegin
  2
block 8
 70
     0
 10
0.0
 20
0.0
 30
0.0
  3
block 8
  1

  0
SPLINE
  5
CA
330
C6
100
AcDbEntity
  8
_U+30EC_U+30A4_U+30E4_U+30FC 1
370
     0
100
AcDbSpline
210
0.0
220
0.0
230
1.0
 70
    11
 71
     3
 72
    26
 73
    22
 74
     0
 42
0.0000000001
 43
0.0000000001
 12
1.0
 22
0.0
 32
0.0
 13
1.0
 23
0.0
 33
0.0
 40
0.0
 40
0.0
 40
0.0
 40
0.0
 40
1.0
 40
1.0
 40
1.0
 40
2.0
 40
2.0
 40
2.0
 40
3.0
 40
3.0
 40
3.0
 40
4.0
 40
4.0
 40
4.0
 40
5.0
 40
5.0
 40
5.0
 40
6.0
 40
6.0
 40
6.0
 40
7.0
 40
7.0
 40
7.0
 40
7.0
 10
92.2768825724169
 20
-148.7492322761807
 30
0.0
 10
92.2768825724169
 20
-148.7492322761807
 30
0.0
 10
92.2768825724169
 20
-147.6450791731582
 30
0.0
 10
92.2768825724169
 20
-147.6450791731582
 30
0.0
 10
92.2768825724169
 20
-147.6450791731582
 30
0.0
 10
91.94684242492995
 20
-147.6450791731582
 30
0.0
 10
91.94684242492995
 20
-147.6450791731582
 30
0.0
 10
91.94684242492995
 20
-147.6450791731582
 30
0.0
 10
91.94684242492995
 20
-147.4969400672924
 30
0.0
 10
91.94684242492995
 20
-147.4969400672924
 30
0.0
 10
92.27894962970804
 20
-147.4821261567059
 30
0.0
 10
92.32545841875891
 20
-147.3191731402536
 30
0.0
 10
92.35508623993206
 20
-147.2047959701433
 30
0.0
 10
92.35508623993206
 20
-147.2047959701433
 30
0.0
 10
92.50115828850666
 20
-147.2047959701433
 30
0.0
 10
92.50115828850666
 20
-147.2047959701433
 30
0.0
 10
92.50115828850666
 20
-147.2047959701433
 30
0.0
 10
92.50115828850666
 20
-148.7492322761807
 30
0.0
 10
92.50115828850666
 20
-148.7492322761807
 30
0.0
 10
92.50115828850666
 20
-148.7492322761807
 30
0.0
 10
92.2768825724169
 20
-148.7492322761807
 30
0.0
 10
92.2768825724169
 20
-148.7492322761807
 30
0.0
  0
HATCH
  5
CB
330
C6
100
AcDbEntity
  8
_U+30EC_U+30A4_U+30E4_U+30FC 1
 62
   179
420
  2234388
100
AcDbHatch
 10
0.0
 20
0.0
 30
0.0
210
0.0
220
0.0
230
1.0
  2
SOLID
 70
     1
 71
     0
 91
        1
 92
        1
 93
        1
 72
     4
 94
        3
 73
     0
 74
     1
 95
       26
 96
       22
 40
0.0
 40
0.0
 40
0.0
 40
0.0
 40
1.0
 40
1.0
 40
1.0
 40
2.0
 40
2.0
 40
2.0
 40
3.0
 40
3.0
 40
3.0
 40
4.0
 40
4.0
 40
4.0
 40
5.0
 40
5.0
 40
5.0
 40
6.0
 40
6.0
 40
6.0
 40
7.0
 40
7.0
 40
7.0
 40
7.0
 10
92.2768825724169
 20
-148.7492322761807
 10
92.2768825724169
 20
-148.7492322761807
 10
92.2768825724169
 20
-147.6450791731582
 10
92.2768825724169
 20
-147.6450791731582
 10
92.2768825724169
 20
-147.6450791731582
 10
91.94684242492995
 20
-147.6450791731582
 10
91.94684242492995
 20
-147.6450791731582
 10
91.94684242492995
 20
-147.6450791731582
 10
91.94684242492995
 20
-147.4969400672924
 10
91.94684242492995
 20
-147.4969400672924
 10
92.27894962970804
 20
-147.4821261567059
 10
92.32545841875891
 20
-147.3191731402536
 10
92.35508623993206
 20
-147.2047959701433
 10
92.35508623993206
 20
-147.2047959701433
 10
92.50115828850666
 20
-147.2047959701433
 10
92.50115828850666
 20
-147.2047959701433
 10
92.50115828850666
 20
-147.2047959701433
 10
92.50115828850666
 20
-148.7492322761807
 10
92.50115828850666
 20
-148.7492322761807
 10
92.50115828850666
 20
-148.7492322761807
 10
92.2768825724169
 20
-148.7492322761807
 10
92.2768825724169
 20
-148.7492322761807
 97
        0
 97
        0
 75
     2
 76
     1
 98
        0
  0
SPLINE
  5
CC
330
C6
100
AcDbEntity
  8
_U+30EC_U+30A4_U+30E4_U+30FC 1
370
     0
100
AcDbSpline
210
0.0
220
0.0
230
1.0
 70
    11
 71
     3
 72
    44
 73
    40
 74
     0
 42
0.0000000001
 43
0.0000000001
 12
1.0
 22
0.0
 32
0.0
 13
1.0
 23
0.0
 33
0.0
 40
0.0
 40
0.0
 40
0.0
 40
0.0
 40
1.0
 40
1.0
 40
1.0
 40
2.0
 40
2.0
 40
2.0
 40
3.0
 40
3.0
 40
3.0
 40
4.0
 40
4.0
 40
4.0
 40
5.0
 40
5.0
 40
5.0
 40
6.0
 40
6.0
 40
6.0
 40
7.0
 40
7.0
 40
7.0
 40
8.0
 40
8.0
 40
8.0
 40
9.0
 40
9.0
 40
9.0
 40
10.0
 40
10.0
 40
10.0
 40
11.0
 40
11.0
 40
11.0
 40
12.0
 40
12.0
 40
12.0
 40
13.0
 40
13.0
 40
13.0
 40
13.0
 10
93.59532061462201
 20
-148.1673556487221
 30
0.0
 10
93.37759057995422
 20
-148.3261745505921
 30
0.0
 10
93.28457300185248
 20
-148.400244103525
 30
0.0
 10
93.23565264596192
 20
-148.5439045852599
 30
0.0
 10
93.23565264596192
 20
-148.5439045852599
 30
0.0
 10
94.01424422562839
 20
-148.5439045852599
 30
0.0
 10
94.01424422562839
 20
-148.5439045852599
 30
0.0
 10
94.01424422562839
 20
-148.5439045852599
 30
0.0
 10
94.01424422562839
 20
-148.7492322761807
 30
0.0
 10
94.01424422562839
 20
-148.7492322761807
 30
0.0
 10
94.01424422562839
 20
-148.7492322761807
 30
0.0
 10
92.98622773282983
 20
-148.7492322761807
 30
0.0
 10
92.98622773282983
 20
-148.7492322761807
 30
0.0
 10
93.01792261129414
 20
-148.3916313648118
 30
0.0
 10
93.08337942551388
 20
-148.3134276972966
 30
0.0
 10
93.46854110076481
 20
-148.015082428274
 30
0.0
 10
93.72451169531888
 20
-147.8163004187751
 30
0.0
 10
93.78996850953862
 20
-147.7484320377157
 30
0.0
 10
93.78996850953862
 20
-147.6109727278542
 30
0.0
 10
93.78996850953862
 20
-147.4924614431616
 30
0.0
 10
93.7179660138969
 20
-147.3615478147221
 30
0.0
 10
93.52125106168914
 20
-147.3615478147221
 30
0.0
 10
93.26114635255277
 20
-147.3615478147221
 30
0.0
 10
93.25287812338817
 20
-147.5920247026853
 30
0.0
 10
93.24839949925735
 20
-147.7084689300868
 30
0.0
 10
93.24839949925735
 20
-147.7084689300868
 30
0.0
 10
93.02412378316758
 20
-147.7084689300868
 30
0.0
 10
93.02412378316758
 20
-147.7084689300868
 30
0.0
 10
93.03273652188071
 20
-147.5813449066811
 30
0.0
 10
93.04341631788499
 20
-147.4693793034104
 30
0.0
 10
93.1236870426913
 20
-147.3508680187178
 30
0.0
 10
93.23358558867078
 20
-147.1899820595567
 30
0.0
 10
93.41996525442279
 20
-147.1562201238012
 30
0.0
 10
93.53606497227571
 20
-147.1562201238012
 30
0.0
 10
93.81339515883832
 20
-147.1562201238012
 30
0.0
 10
94.02078990705036
 20
-147.3401882227136
 30
0.0
 10
94.02078990705036
 20
-147.6130397851454
 30
0.0
 10
94.02078990705036
 20
-147.8417941253659
 30
0.0
 10
93.90434567964891
 20
-147.9410128753411
 30
0.0
 10
93.59532061462201
 20
-148.1673556487221
 30
0.0
  0
HATCH
  5
CD
330
C6
100
AcDbEntity
  8
_U+30EC_U+30A4_U+30E4_U+30FC 1
 62
   179
420
  2234388
100
AcDbHatch
 10
0.0
 20
0.0
 30
0.0
210
0.0
220
0.0
230
1.0
  2
SOLID
 70
     1
 71
     0
 91
        1
 92
        1
 93
        1
 72
     4
 94
        3
 73
     0
 74
     1
 95
       44
 96
       40
 40
0.0
 40
0.0
 40
0.0
 40
0.0
 40
1.0
 40
1.0
 40
1.0
 40
2.0
 40
2.0
 40
2.0
 40
3.0
 40
3.0
 40
3.0
 40
4.0
 40
4.0
 40
4.0
 40
5.0
 40
5.0
 40
5.0
 40
6.0
 40
6.0
 40
6.0
 40
7.0
 40
7.0
 40
7.0
 40
8.0
 40
8.0
 40
8.0
 40
9.0
 40
9.0
 40
9.0
 40
10.0
 40
10.0
 40
10.0
 40
11.0
 40
11.0
 40
11.0
 40
12.0
 40
12.0
 40
12.0
 40
13.0
 40
13.0
 40
13.0
 40
13.0
 10
93.59532061462201
 20
-148.1673556487221
 10
93.37759057995422
 20
-148.3261745505921
 10
93.28457300185248
 20
-148.400244103525
 10
93.23565264596192
 20
-148.5439045852599
 10
93.23565264596192
 20
-148.5439045852599
 10
94.01424422562839
 20
-148.5439045852599
 10
94.01424422562839
 20
-148.5439045852599
 10
94.01424422562839
 20
-148.5439045852599
 10
94.01424422562839
 20
-148.7492322761807
 10
94.01424422562839
 20
-148.7492322761807
 10
94.01424422562839
 20
-148.7492322761807
 10
92.98622773282983
 20
-148.7492322761807
 10
92.98622773282983
 20
-148.7492322761807
 10
93.01792261129414
 20
-148.3916313648118
 10
93.08337942551388
 20
-148.3134276972966
 10
93.46854110076481
 20
-148.015082428274
 10
93.72451169531888
 20
-147.8163004187751
 10
93.78996850953862
 20
-147.7484320377157
 10
93.78996850953862
 20
-147.6109727278542
 10
93.78996850953862
 20
-147.4924614431616
 10
93.7179660138969
 20
-147.3615478147221
 10
93.52125106168914
 20
-147.3615478147221
 10
93.26114635255277
 20
-147.3615478147221
 10
93.25287812338817
 20
-147.5920247026853
 10
93.24839949925735
 20
-147.7084689300868
 10
93.24839949925735
 20
-147.7084689300868
 10
93.02412378316758
 20
-147.7084689300868
 10
93.02412378316758
 20
-147.7084689300868
 10
93.03273652188071
 20
-147.5813449066811
 10
93.04341631788499
 20
-147.4693793034104
 10
93.1236870426913
 20
-147.3508680187178
 10
93.23358558867078
 20
-147.1899820595567
 10
93.41996525442279
 20
-147.1562201238012
 10
93.53606497227571
 20
-147.1562201238012
 10
93.81339515883832
 20
-147.1562201238012
 10
94.02078990705036
 20
-147.3401882227136
 10
94.02078990705036
 20
-147.6130397851454
 10
94.02078990705036
 20
-147.8417941253659
 10
93.90434567964891
 20
-147.9410128753411
 10
93.59532061462201
 20
-148.1673556487221
 97
        0
 97
        0
 75
     2
 76
     1
 98
        0
  0
ENDBLK
  5
C9
330
C6
100
AcDbEntity
  8
0
100
AcDbBlockEnd
  0
BLOCK
  5
D0
330
CE
100
AcDbEntity
  8
0
100
AcDbBlockBegin
  2
block 9
 70
     0
 10
0.0
 20
0.0
 30
0.0
  3
block 9
  1

  0
SPLINE
  5
D2
330
CE
100
AcDbEntity
  8
_U+30EC_U+30A4_U+30E4_U+30FC 1
370
     0
100
AcDbSpline
210
0.0
220
0.0
230
1.0
 70
    11
 71
     3
 72
    26
 73
    22
 74
     0
 42
0.0000000001
 43
0.0000000001
 12
1.0
 22
0.0
 32
0.0
 13
1.0
 23
0.0
 33
0.0
 40
0.0
 40
0.0
 40
0.0
 40
0.0
 40
1.0
 40
1.0
 40
1.0
 40
2.0
 40
2.0
 40
2.0
 40
3.0
 40
3.0
 40
3.0
 40
4.0
 40
4.0
 40
4.0
 40
5.0
 40
5.0
 40
5.0
 40
6.0
 40
6.0
 40
6.0
 40
7.0
 40
7.0
 40
7.0
 40
7.0
 10
101.0673882125804
 20
-148.7492322761807
 30
0.0
 10
101.0673882125804
 20
-148.7492322761807
 30
0.0
 10
101.0673882125804
 20
-147.6450791731582
 30
0.0
 10
101.0673882125804
 20
-147.6450791731582
 30
0.0
 10
101.0673882125804
 20
-147.6450791731582
 30
0.0
 10
100.7373480650934
 20
-147.6450791731582
 30
0.0
 10
100.7373480650934
 20
-147.6450791731582
 30
0.0
 10
100.7373480650934
 20
-147.6450791731582
 30
0.0
 10
100.7373480650934
 20
-147.4969400672924
 30
0.0
 10
100.7373480650934
 20
-147.4969400672924
 30
0.0
 10
101.0694552698715
 20
-147.4821261567059
 30
0.0
 10
101.1159640589224
 20
-147.3191731402536
 30
0.0
 10
101.1455918800956
 20
-147.2047959701433
 30
0.0
 10
101.1455918800956
 20
-147.2047959701433
 30
0.0
 10
101.2916639286701
 20
-147.2047959701433
 30
0.0
 10
101.2916639286701
 20
-147.2047959701433
 30
0.0
 10
101.2916639286701
 20
-147.2047959701433
 30
0.0
 10
101.2916639286701
 20
-148.7492322761807
 30
0.0
 10
101.2916639286701
 20
-148.7492322761807
 30
0.0
 10
101.2916639286701
 20
-148.7492322761807
 30
0.0
 10
101.0673882125804
 20
-148.7492322761807
 30
0.0
 10
101.0673882125804
 20
-148.7492322761807
 30
0.0
  0
HATCH
  5
D3
330
CE
100
AcDbEntity
  8
_U+30EC_U+30A4_U+30E4_U+30FC 1
 62
   179
420
  2234388
100
AcDbHatch
 10
0.0
 20
0.0
 30
0.0
210
0.0
220
0.0
230
1.0
  2
SOLID
 70
     1
 71
     0
 91
        1
 92
        1
 93
        1
 72
     4
 94
        3
 73
     0
 74
     1
 95
       26
 96
       22
 40
0.0
 40
0.0
 40
0.0
 40
0.0
 40
1.0
 40
1.0
 40
1.0
 40
2.0
 40
2.0
 40
2.0
 40
3.0
 40
3.0
 40
3.0
 40
4.0
 40
4.0
 40
4.0
 40
5.0
 40
5.0
 40
5.0
 40
6.0
 40
6.0
 40
6.0
 40
7.0
 40
7.0
 40
7.0
 40
7.0
 10
101.0673882125804
 20
-148.7492322761807
 10
101.0673882125804
 20
-148.7492322761807
 10
101.0673882125804
 20
-147.6450791731582
 10
101.0673882125804
 20
-147.6450791731582
 10
101.0673882125804
 20
-147.6450791731582
 10
100.7373480650934
 20
-147.6450791731582
 10
100.7373480650934
 20
-147.6450791731582
 10
100.7373480650934
 20
-147.6450791731582
 10
100.7373480650934
 20
-147.4969400672924
 10
100.7373480650934
 20
-147.4969400672924
 10
101.0694552698715
 20
-147.4821261567059
 10
101.1159640589224
 20
-147.3191731402536
 10
101.1455918800956
 20
-147.2047959701433
 10
101.1455918800956
 20
-147.2047959701433
 10
101.2916639286701
 20
-147.2047959701433
 10
101.2916639286701
 20
-147.2047959701433
 10
101.2916639286701
 20
-147.2047959701433
 10
101.2916639286701
 20
-148.7492322761807
 10
101.2916639286701
 20
-148.7492322761807
 10
101.2916639286701
 20
-148.7492322761807
 10
101.0673882125804
 20
-148.7492322761807
 10
101.0673882125804
 20
-148.7492322761807
 97
        0
 97
        0
 75
     2
 76
     1
 98
        0
  0
ENDBLK
  5
D1
330
CE
100
AcDbEntity
  8
0
100
AcDbBlockEnd
  0
BLOCK
  5
D8
330
D6
100
AcDbEntity
  8
0
100
AcDbBlockBegin
  2
block 10
 70
     0
 10
0.0
 20
0.0
 30
0.0
  3
block 10
  1

  0
SPLINE
  5
DA
330
D6
100
AcDbEntity
  8
_U+30EC_U+30A4_U+30E4_U+30FC 1
370
     0
100
AcDbSpline
210
0.0
220
0.0
230
1.0
 70
    11
 71
     3
 72
    44
 73
    40
 74
     0
 42
0.0000000001
 43
0.0000000001
 12
1.0
 22
0.0
 32
0.0
 13
1.0
 23
0.0
 33
0.0
 40
0.0
 40
0.0
 40
0.0
 40
0.0
 40
1.0
 40
1.0
 40
1.0
 40
2.0
 40
2.0
 40
2.0
 40
3.0
 40
3.0
 40
3.0
 40
4.0
 40
4.0
 40
4.0
 40
5.0
 40
5.0
 40
5.0
 40
6.0
 40
6.0
 40
6.0
 40
7.0
 40
7.0
 40
7.0
 40
8.0
 40
8.0
 40
8.0
 40
9.0
 40
9.0
 40
9.0
 40
10.0
 40
10.0
 40
10.0
 40
11.0
 40
11.0
 40
11.0
 40
12.0
 40
12.0
 40
12.0
 40
13.0
 40
13.0
 40
13.0
 40
13.0
 10
67.22793780871385
 20
-150.2816107480199
 30
0.0
 10
67.20451115941415
 20
-150.2371690162602
 30
0.0
 10
67.18349607695413
 20
-150.1841145457873
 30
0.0
 10
67.18125676488872
 20
-149.9536376578241
 30
0.0
 10
67.17712265030642
 20
-149.7104139165655
 30
0.0
 10
67.11786700796011
 20
-149.6404784782149
 30
0.0
 10
66.94010008092123
 20
-149.6404784782149
 30
0.0
 10
66.94010008092123
 20
-149.6404784782149
 30
0.0
 10
66.53185626591912
 20
-149.6404784782149
 30
0.0
 10
66.53185626591912
 20
-149.6404784782149
 30
0.0
 10
66.53185626591912
 20
-149.6404784782149
 30
0.0
 10
66.53185626591912
 20
-150.2816107480199
 30
0.0
 10
66.53185626591912
 20
-150.2816107480199
 30
0.0
 10
66.53185626591912
 20
-150.2816107480199
 30
0.0
 10
66.29707300859934
 20
-150.2816107480199
 30
0.0
 10
66.29707300859934
 20
-150.2816107480199
 30
0.0
 10
66.29707300859934
 20
-150.2816107480199
 30
0.0
 10
66.29707300859934
 20
-148.7371744419824
 30
0.0
 10
66.29707300859934
 20
-148.7371744419824
 30
0.0
 10
66.29707300859934
 20
-148.7371744419824
 30
0.0
 10
66.97179495938552
 20
-148.7371744419824
 30
0.0
 10
66.97179495938552
 20
-148.7371744419824
 30
0.0
 10
67.27858071234702
 20
-148.7371744419824
 30
0.0
 10
67.4458400981559
 20
-148.9087401971478
 30
0.0
 10
67.4458400981559
 20
-149.1647107917019
 30
0.0
 10
67.4458400981559
 20
-149.2153536953351
 30
0.0
 10
67.43722735944279
 20
-149.2980359869811
 30
0.0
 10
67.39278562768305
 20
-149.3783067117874
 30
0.0
 10
67.33370224011102
 20
-149.4820040858934
 30
0.0
 10
67.26807317111701
 20
-149.5009521110623
 30
0.0
 10
67.20675047147957
 20
-149.51783307894
 30
0.0
 10
67.34420978134104
 20
-149.5602077534086
 30
0.0
 10
67.41190590762619
 20
-149.6087835997506
 30
0.0
 10
67.41621227698276
 20
-149.924009836651
 30
0.0
 10
67.42034639156506
 20
-150.1947943417916
 30
0.0
 10
67.45634763938591
 20
-150.2268337298044
 30
0.0
 10
67.52404376567108
 20
-150.2816107480199
 30
0.0
 10
67.52404376567108
 20
-150.2816107480199
 30
0.0
 10
67.22793780871385
 20
-150.2816107480199
 30
0.0
 10
67.22793780871385
 20
-150.2816107480199
 30
0.0
  0
SPLINE
  5
DB
330
D6
100
AcDbEntity
  8
_U+30EC_U+30A4_U+30E4_U+30FC 1
370
     0
100
AcDbSpline
210
0.0
220
0.0
230
1.0
 70
    11
 71
     3
 72
    20
 73
    16
 74
     0
 42
0.0000000001
 43
0.0000000001
 12
1.0
 22
0.0
 32
0.0
 13
1.0
 23
0.0
 33
0.0
 40
0.0
 40
0.0
 40
0.0
 40
0.0
 40
1.0
 40
1.0
 40
1.0
 40
2.0
 40
2.0
 40
2.0
 40
3.0
 40
3.0
 40
3.0
 40
4.0
 40
4.0
 40
4.0
 40
5.0
 40
5.0
 40
5.0
 40
5.0
 10
66.97610132874209
 20
-148.9487033047767
 30
0.0
 10
66.97610132874209
 20
-148.9487033047767
 30
0.0
 10
66.53185626591912
 20
-148.9487033047767
 30
0.0
 10
66.53185626591912
 20
-148.9487033047767
 30
0.0
 10
66.53185626591912
 20
-148.9487033047767
 30
0.0
 10
66.53185626591912
 20
-149.4289496154205
 30
0.0
 10
66.53185626591912
 20
-149.4289496154205
 30
0.0
 10
66.53185626591912
 20
-149.4289496154205
 30
0.0
 10
66.97403427145093
 20
-149.4289496154205
 30
0.0
 10
66.97403427145093
 20
-149.4289496154205
 30
0.0
 10
67.0734252762004
 20
-149.4289496154205
 30
0.0
 10
67.20881752877071
 20
-149.353157514745
 30
0.0
 10
67.20881752877071
 20
-149.1815917595796
 30
0.0
 10
67.20881752877071
 20
-149.1030435825159
 30
0.0
 10
67.17505559301527
 20
-148.9487033047767
 30
0.0
 10
66.97610132874209
 20
-148.9487033047767
 30
0.0
  0
HATCH
  5
DC
330
D6
100
AcDbEntity
  8
_U+30EC_U+30A4_U+30E4_U+30FC 1
 62
   179
420
  2234388
100
AcDbHatch
 10
0.0
 20
0.0
 30
0.0
210
0.0
220
0.0
230
1.0
  2
SOLID
 70
     1
 71
     0
 91
        2
 92
        1
 93
        1
 72
     4
 94
        3
 73
     0
 74
     1
 95
       44
 96
       40
 40
0.0
 40
0.0
 40
0.0
 40
0.0
 40
1.0
 40
1.0
 40
1.0
 40
2.0
 40
2.0
 40
2.0
 40
3.0
 40
3.0
 40
3.0
 40
4.0
 40
4.0
 40
4.0
 40
5.0
 40
5.0
 40
5.0
 40
6.0
 40
6.0
 40
6.0
 40
7.0
 40
7.0
 40
7.0
 40
8.0
 40
8.0
 40
8.0
 40
9.0
 40
9.0
 40
9.0
 40
10.0
 40
10.0
 40
10.0
 40
11.0
 40
11.0
 40
11.0
 40
12.0
 40
12.0
 40
12.0
 40
13.0
 40
13.0
 40
13.0
 40
13.0
 10
67.22793780871385
 20
-150.2816107480199
 10
67.20451115941415
 20
-150.2371690162602
 10
67.18349607695413
 20
-150.1841145457873
 10
67.18125676488872
 20
-149.9536376578241
 10
67.17712265030642
 20
-149.7104139165655
 10
67.11786700796011
 20
-149.6404784782149
 10
66.94010008092123
 20
-149.6404784782149
 10
66.94010008092123
 20
-149.6404784782149
 10
66.53185626591912
 20
-149.6404784782149
 10
66.53185626591912
 20
-149.6404784782149
 10
66.53185626591912
 20
-149.6404784782149
 10
66.53185626591912
 20
-150.2816107480199
 10
66.53185626591912
 20
-150.2816107480199
 10
66.53185626591912
 20
-150.2816107480199
 10
66.29707300859934
 20
-150.2816107480199
 10
66.29707300859934
 20
-150.2816107480199
 10
66.29707300859934
 20
-150.2816107480199
 10
66.29707300859934
 20
-148.7371744419824
 10
66.29707300859934
 20
-148.7371744419824
 10
66.29707300859934
 20
-148.7371744419824
 10
66.97179495938552
 20
-148.7371744419824
 10
66.97179495938552
 20
-148.7371744419824
 10
67.27858071234702
 20
-148.7371744419824
 10
67.4458400981559
 20
-148.9087401971478
 10
67.4458400981559
 20
-149.1647107917019
 10
67.4458400981559
 20
-149.2153536953351
 10
67.43722735944279
 20
-149.2980359869811
 10
67.39278562768305
 20
-149.3783067117874
 10
67.33370224011102
 20
-149.4820040858934
 10
67.26807317111701
 20
-149.5009521110623
 10
67.20675047147957
 20
-149.51783307894
 10
67.34420978134104
 20
-149.5602077534086
 10
67.41190590762619
 20
-149.6087835997506
 10
67.41621227698276
 20
-149.924009836651
 10
67.42034639156506
 20
-150.1947943417916
 10
67.45634763938591
 20
-150.2268337298044
 10
67.52404376567108
 20
-150.2816107480199
 10
67.52404376567108
 20
-150.2816107480199
 10
67.22793780871385
 20
-150.2816107480199
 10
67.22793780871385
 20
-150.2816107480199
 97
        0
 97
        0
 92
        1
 93
        1
 72
     4
 94
        3
 73
     0
 74
     1
 95
       20
 96
       16
 40
0.0
 40
0.0
 40
0.0
 40
0.0
 40
1.0
 40
1.0
 40
1.0
 40
2.0
 40
2.0
 40
2.0
 40
3.0
 40
3.0
 40
3.0
 40
4.0
 40
4.0
 40
4.0
 40
5.0
 40
5.0
 40
5.0
 40
5.0
 10
66.97610132874209
 20
-148.9487033047767
 10
66.97610132874209
 20
-148.9487033047767
 10
66.53185626591912
 20
-148.9487033047767
 10
66.53185626591912
 20
-148.9487033047767
 10
66.53185626591912
 20
-148.9487033047767
 10
66.53185626591912
 20
-149.4289496154205
 10
66.53185626591912
 20
-149.4289496154205
 10
66.53185626591912
 20
-149.4289496154205
 10
66.97403427145093
 20
-149.4289496154205
 10
66.97403427145093
 20
-149.4289496154205
 10
67.0734252762004
 20
-149.4289496154205
 10
67.20881752877071
 20
-149.353157514745
 10
67.20881752877071
 20
-149.1815917595796
 10
67.20881752877071
 20
-149.1030435825159
 10
67.17505559301527
 20
-148.9487033047767
 10
66.97610132874209
 20
-148.9487033047767
 97
        0
 97
        0
 75
     2
 76
     1
 98
        0
  0
SPLINE
  5
DD
330
D6
100
AcDbEntity
  8
_U+30EC_U+30A4_U+30E4_U+30FC 1
370
     0
100
AcDbSpline
210
0.0
220
0.0
230
1.0
 70
    11
 71
     3
 72
    26
 73
    22
 74
     0
 42
0.0000000001
 43
0.0000000001
 12
1.0
 22
0.0
 32
0.0
 13
1.0
 23
0.0
 33
0.0
 40
0.0
 40
0.0
 40
0.0
 40
0.0
 40
1.0
 40
1.0
 40
1.0
 40
2.0
 40
2.0
 40
2.0
 40
3.0
 40
3.0
 40
3.0
 40
4.0
 40
4.0
 40
4.0
 40
5.0
 40
5.0
 40
5.0
 40
6.0
 40
6.0
 40
6.0
 40
7.0
 40
7.0
 40
7.0
 40
7.0
 10
68.11504989616569
 20
-150.2816107480199
 30
0.0
 10
68.11504989616569
 20
-150.2816107480199
 30
0.0
 10
68.11504989616569
 20
-149.1774576449973
 30
0.0
 10
68.11504989616569
 20
-149.1774576449973
 30
0.0
 10
68.11504989616569
 20
-149.1774576449973
 30
0.0
 10
67.78500974867875
 20
-149.1774576449973
 30
0.0
 10
67.78500974867875
 20
-149.1774576449973
 30
0.0
 10
67.78500974867875
 20
-149.1774576449973
 30
0.0
 10
67.78500974867875
 20
-149.0293185391316
 30
0.0
 10
67.78500974867875
 20
-149.0293185391316
 30
0.0
 10
68.11711695345683
 20
-149.014504628545
 30
0.0
 10
68.1636257425077
 20
-148.8515516120927
 30
0.0
 10
68.19325356368086
 20
-148.7371744419824
 30
0.0
 10
68.19325356368086
 20
-148.7371744419824
 30
0.0
 10
68.33932561225545
 20
-148.7371744419824
 30
0.0
 10
68.33932561225545
 20
-148.7371744419824
 30
0.0
 10
68.33932561225545
 20
-148.7371744419824
 30
0.0
 10
68.33932561225545
 20
-150.2816107480199
 30
0.0
 10
68.33932561225545
 20
-150.2816107480199
 30
0.0
 10
68.33932561225545
 20
-150.2816107480199
 30
0.0
 10
68.11504989616569
 20
-150.2816107480199
 30
0.0
 10
68.11504989616569
 20
-150.2816107480199
 30
0.0
  0
HATCH
  5
DE
330
D6
100
AcDbEntity
  8
_U+30EC_U+30A4_U+30E4_U+30FC 1
 62
   179
420
  2234388
100
AcDbHatch
 10
0.0
 20
0.0
 30
0.0
210
0.0
220
0.0
230
1.0
  2
SOLID
 70
     1
 71
     0
 91
        1
 92
        1
 93
        1
 72
     4
 94
        3
 73
     0
 74
     1
 95
       26
 96
       22
 40
0.0
 40
0.0
 40
0.0
 40
0.0
 40
1.0
 40
1.0
 40
1.0
 40
2.0
 40
2.0
 40
2.0
 40
3.0
 40
3.0
 40
3.0
 40
4.0
 40
4.0
 40
4.0
 40
5.0
 40
5.0
 40
5.0
 40
6.0
 40
6.0
 40
6.0
 40
7.0
 40
7.0
 40
7.0
 40
7.0
 10
68.11504989616569
 20
-150.2816107480199
 10
68.11504989616569
 20
-150.2816107480199
 10
68.11504989616569
 20
-149.1774576449973
 10
68.11504989616569
 20
-149.1774576449973
 10
68.11504989616569
 20
-149.1774576449973
 10
67.78500974867875
 20
-149.1774576449973
 10
67.78500974867875
 20
-149.1774576449973
 10
67.78500974867875
 20
-149.1774576449973
 10
67.78500974867875
 20
-149.0293185391316
 10
67.78500974867875
 20
-149.0293185391316
 10
68.11711695345683
 20
-149.014504628545
 10
68.1636257425077
 20
-148.8515516120927
 10
68.19325356368086
 20
-148.7371744419824
 10
68.19325356368086
 20
-148.7371744419824
 10
68.33932561225545
 20
-148.7371744419824
 10
68.33932561225545
 20
-148.7371744419824
 10
68.33932561225545
 20
-148.7371744419824
 10
68.33932561225545
 20
-150.2816107480199
 10
68.33932561225545
 20
-150.2816107480199
 10
68.33932561225545
 20
-150.2816107480199
 10
68.11504989616569
 20
-150.2816107480199
 10
68.11504989616569
 20
-150.2816107480199
 97
        0
 97
        0
 75
     2
 76
     1
 98
        0
  0
SPLINE
  5
DF
330
D6
100
AcDbEntity
  8
_U+30EC_U+30A4_U+30E4_U+30FC 1
370
     0
100
AcDbSpline
210
0.0
220
0.0
230
1.0
 70
    11
 71
     3
 72
    53
 73
    49
 74
     0
 42
0.0000000001
 43
0.0000000001
 12
1.0
 22
0.0
 32
0.0
 13
1.0
 23
0.0
 33
0.0
 40
0.0
 40
0.0
 40
0.0
 40
0.0
 40
1.0
 40
1.0
 40
1.0
 40
2.0
 40
2.0
 40
2.0
 40
3.0
 40
3.0
 40
3.0
 40
4.0
 40
4.0
 40
4.0
 40
5.0
 40
5.0
 40
5.0
 40
6.0
 40
6.0
 40
6.0
 40
7.0
 40
7.0
 40
7.0
 40
8.0
 40
8.0
 40
8.0
 40
9.0
 40
9.0
 40
9.0
 40
10.0
 40
10.0
 40
10.0
 40
11.0
 40
11.0
 40
11.0
 40
12.0
 40
12.0
 40
12.0
 40
13.0
 40
13.0
 40
13.0
 40
14.0
 40
14.0
 40
14.0
 40
15.0
 40
15.0
 40
15.0
 40
16.0
 40
16.0
 40
16.0
 40
16.0
 10
69.32152233510018
 20
-150.332253651653
 30
0.0
 10
69.24314641281075
 20
-150.332253651653
 30
0.0
 10
69.14168835077014
 20
-150.3153726837753
 30
0.0
 10
69.04005803395526
 20
-150.2519829268467
 30
0.0
 10
68.86659747627294
 20
-150.1420843808673
 30
0.0
 10
68.84541013903865
 20
-150.0108262428792
 30
0.0
 10
68.82646211386978
 20
-149.9029947541909
 30
0.0
 10
68.82646211386978
 20
-149.9029947541909
 30
0.0
 10
69.04849851789413
 20
-149.9029947541909
 30
0.0
 10
69.04849851789413
 20
-149.9029947541909
 30
0.0
 10
69.10362004565813
 20
-150.1017767636898
 30
0.0
 10
69.23057181428958
 20
-150.131404584863
 30
0.0
 10
69.32358939239133
 20
-150.131404584863
 30
0.0
 10
69.46328801431821
 20
-150.131404584863
 30
0.0
 10
69.61556123476625
 20
-150.0318413253393
 30
0.0
 10
69.61556123476625
 20
-149.7992973800849
 30
0.0
 10
69.61556123476625
 20
-149.5433267855308
 30
0.0
 10
69.43572725043622
 20
-149.4737358567288
 30
0.0
 10
69.31514890845247
 20
-149.4737358567288
 30
0.0
 10
69.28345402998816
 20
-149.4737358567288
 30
0.0
 10
69.14168835077014
 20
-149.4737358567288
 30
0.0
 10
69.05280488725069
 20
-149.6025824278771
 30
0.0
 10
69.05280488725069
 20
-149.6025824278771
 30
0.0
 10
68.87727727227721
 20
-149.5832898931597
 30
0.0
 10
68.87727727227721
 20
-149.5832898931597
 30
0.0
 10
68.87727727227721
 20
-149.5832898931597
 30
0.0
 10
68.99785561426096
 20
-148.7371744419824
 30
0.0
 10
68.99785561426096
 20
-148.7371744419824
 30
0.0
 10
68.99785561426096
 20
-148.7371744419824
 30
0.0
 10
69.77627493915315
 20
-148.7371744419824
 30
0.0
 10
69.77627493915315
 20
-148.7371744419824
 30
0.0
 10
69.77627493915315
 20
-148.7371744419824
 30
0.0
 10
69.77627493915315
 20
-148.9321668464475
 30
0.0
 10
69.77627493915315
 20
-148.9321668464475
 30
0.0
 10
69.77627493915315
 20
-148.9321668464475
 30
0.0
 10
69.160636375939
 20
-148.9321668464475
 30
0.0
 10
69.160636375939
 20
-148.9321668464475
 30
0.0
 10
69.160636375939
 20
-148.9321668464475
 30
0.0
 10
69.09517956171926
 20
-149.3552245720362
 30
0.0
 10
69.09517956171926
 20
-149.3552245720362
 30
0.0
 10
69.1565022613567
 20
-149.3211181267322
 30
0.0
 10
69.23901229822845
 20
-149.2808105095548
 30
0.0
 10
69.35735132814678
 20
-149.2808105095548
 30
0.0
 10
69.61125486540969
 20
-149.2808105095548
 30
0.0
 10
69.84827743479488
 20
-149.4671901753068
 30
0.0
 10
69.84827743479488
 20
-149.780349354916
 30
0.0
 10
69.84827743479488
 20
-150.0976426491075
 30
0.0
 10
69.62400171870512
 20
-150.332253651653
 30
0.0
 10
69.32152233510018
 20
-150.332253651653
 30
0.0
  0
HATCH
  5
E0
330
D6
100
AcDbEntity
  8
_U+30EC_U+30A4_U+30E4_U+30FC 1
 62
   179
420
  2234388
100
AcDbHatch
 10
0.0
 20
0.0
 30
0.0
210
0.0
220
0.0
230
1.0
  2
SOLID
 70
     1
 71
     0
 91
        1
 92
        1
 93
        1
 72
     4
 94
        3
 73
     0
 74
     1
 95
       53
 96
       49
 40
0.0
 40
0.0
 40
0.0
 40
0.0
 40
1.0
 40
1.0
 40
1.0
 40
2.0
 40
2.0
 40
2.0
 40
3.0
 40
3.0
 40
3.0
 40
4.0
 40
4.0
 40
4.0
 40
5.0
 40
5.0
 40
5.0
 40
6.0
 40
6.0
 40
6.0
 40
7.0
 40
7.0
 40
7.0
 40
8.0
 40
8.0
 40
8.0
 40
9.0
 40
9.0
 40
9.0
 40
10.0
 40
10.0
 40
10.0
 40
11.0
 40
11.0
 40
11.0
 40
12.0
 40
12.0
 40
12.0
 40
13.0
 40
13.0
 40
13.0
 40
14.0
 40
14.0
 40
14.0
 40
15.0
 40
15.0
 40
15.0
 40
16.0
 40
16.0
 40
16.0
 40
16.0
 10
69.32152233510018
 20
-150.332253651653
 10
69.24314641281075
 20
-150.332253651653
 10
69.14168835077014
 20
-150.3153726837753
 10
69.04005803395526
 20
-150.2519829268467
 10
68.86659747627294
 20
-150.1420843808673
 10
68.84541013903865
 20
-150.0108262428792
 10
68.82646211386978
 20
-149.9029947541909
 10
68.82646211386978
 20
-149.9029947541909
 10
69.04849851789413
 20
-149.9029947541909
 10
69.04849851789413
 20
-149.9029947541909
 10
69.10362004565813
 20
-150.1017767636898
 10
69.23057181428958
 20
-150.131404584863
 10
69.32358939239133
 20
-150.131404584863
 10
69.46328801431821
 20
-150.131404584863
 10
69.61556123476625
 20
-150.0318413253393
 10
69.61556123476625
 20
-149.7992973800849
 10
69.61556123476625
 20
-149.5433267855308
 10
69.43572725043622
 20
-149.4737358567288
 10
69.31514890845247
 20
-149.4737358567288
 10
69.28345402998816
 20
-149.4737358567288
 10
69.14168835077014
 20
-149.4737358567288
 10
69.05280488725069
 20
-149.6025824278771
 10
69.05280488725069
 20
-149.6025824278771
 10
68.87727727227721
 20
-149.5832898931597
 10
68.87727727227721
 20
-149.5832898931597
 10
68.87727727227721
 20
-149.5832898931597
 10
68.99785561426096
 20
-148.7371744419824
 10
68.99785561426096
 20
-148.7371744419824
 10
68.99785561426096
 20
-148.7371744419824
 10
69.77627493915315
 20
-148.7371744419824
 10
69.77627493915315
 20
-148.7371744419824
 10
69.77627493915315
 20
-148.7371744419824
 10
69.77627493915315
 20
-148.9321668464475
 10
69.77627493915315
 20
-148.9321668464475
 10
69.77627493915315
 20
-148.9321668464475
 10
69.160636375939
 20
-148.9321668464475
 10
69.160636375939
 20
-148.9321668464475
 10
69.160636375939
 20
-148.9321668464475
 10
69.09517956171926
 20
-149.3552245720362
 10
69.09517956171926
 20
-149.3552245720362
 10
69.1565022613567
 20
-149.3211181267322
 10
69.23901229822845
 20
-149.2808105095548
 10
69.35735132814678
 20
-149.2808105095548
 10
69.61125486540969
 20
-149.2808105095548
 10
69.84827743479488
 20
-149.4671901753068
 10
69.84827743479488
 20
-149.780349354916
 10
69.84827743479488
 20
-150.0976426491075
 10
69.62400171870512
 20
-150.332253651653
 10
69.32152233510018
 20
-150.332253651653
 97
        0
 97
        0
 75
     2
 76
     1
 98
        0
  0
ENDBLK
  5
D9
330
D6
100
AcDbEntity
  8
0
100
AcDbBlockEnd
  0
ENDSEC
  0
SECTION
  2
ENTITIES
  0
SPLINE
  5
41
330
1F
100
AcDbEntity
  8
_U+30EC_U+30A4_U+30E4_U+30FC 1
 62
   179
420
  2234388
370
     9
100
AcDbSpline
210
0.0
220
0.0
230
1.0
 70
    11
 71
     3
 72
    17
 73
    13
 74
     0
 42
0.0000000001
 43
0.0000000001
 12
1.0
 22
0.0
 32
0.0
 13
1.0
 23
0.0
 33
0.0
 40
0.0
 40
0.0
 40
0.0
 40
0.0
 40
1.0
 40
1.0
 40
1.0
 40
2.0
 40
2.0
 40
2.0
 40
3.0
 40
3.0
 40
3.0
 40
4.0
 40
4.0
 40
4.0
 40
4.0
 10
87.05154805690776
 20
-149.3459321848859
 30
0.0
 10
87.05154805690776
 20
-149.2907930182328
 30
0.0
 10
87.006745280273
 20
-149.2460255182442
 30
0.0
 10
86.95093583725237
 20
-149.2460255182442
 30
0.0
 10
86.89579667199243
 20
-149.2460255182442
 30
0.0
 10
86.85102917313453
 20
-149.2907930182328
 30
0.0
 10
86.85102917313453
 20
-149.3459321848859
 30
0.0
 10
86.85102917313453
 20
-149.4010360737608
 30
0.0
 10
86.89579667199243
 20
-149.4458388515275
 30
0.0
 10
86.95093583725237
 20
-149.4458388515275
 30
0.0
 10
87.006745280273
 20
-149.4458388515275
 30
0.0
 10
87.05154805690776
 20
-149.4010360737608
 30
0.0
 10
87.05154805690776
 20
-149.3459321848859
 30
0.0
  0
POLYLINE
  5
42
330
1F
100
AcDbEntity
  8
_U+30EC_U+30A4_U+30E4_U+30FC 1
 62
   179
420
  2234388
370
     9
100
AcDb2dPolyline
 66
     1
 10
0.0
 20
0.0
 30
0.0
  0
VERTEX
  5
43
330
42
100
AcDbEntity
  8
_U+30EC_U+30A4_U+30E4_U+30FC 1
 62
   179
420
  2234388
370
     9
100
AcDbVertex
100
AcDb2dVertex
 10
86.95093583725237
 20
-147.8858907963622
 30
0.0
  0
VERTEX
  5
44
330
42
100
AcDbEntity
  8
_U+30EC_U+30A4_U+30E4_U+30FC 1
 62
   179
420
  2234388
370
     9
100
AcDbVertex
100
AcDb2dVertex
 10
86.95093583725237
 20
-150.3457044068578
 30
0.0
  0
SEQEND
  5
45
330
42
100
AcDbEntity
  8
_U+30EC_U+30A4_U+30E4_U+30FC 1
 62
   179
420
  2234388
370
     9
  0
SPLINE
  5
46
330
1F
100
AcDbEntity
  8
_U+30EC_U+30A4_U+30E4_U+30FC 1
 62
   179
420
  2234388
370
     9
100
AcDbSpline
210
0.0
220
0.0
230
1.0
 70
    11
 71
     3
 72
    17
 73
    13
 74
     0
 42
0.0000000001
 43
0.0000000001
 12
1.0
 22
0.0
 32
0.0
 13
1.0
 23
0.0
 33
0.0
 40
0.0
 40
0.0
 40
0.0
 40
0.0
 40
1.0
 40
1.0
 40
1.0
 40
2.0
 40
2.0
 40
2.0
 40
3.0
 40
3.0
 40
3.0
 40
4.0
 40
4.0
 40
4.0
 40
4.0
 10
99.05061358411943
 20
-149.3455794071081
 30
0.0
 10
99.05061358411943
 20
-149.290440240455
 30
0.0
 10
99.00584608526155
 20
-149.2456727404665
 30
0.0
 10
98.9507069200016
 20
-149.2456727404665
 30
0.0
 10
98.89560553083192
 20
-149.2456727404665
 30
0.0
 10
98.8508027530652
 20
-149.290440240455
 30
0.0
 10
98.8508027530652
 20
-149.3455794071081
 30
0.0
 10
98.8508027530652
 20
-149.400683295983
 30
0.0
 10
98.89560553083192
 20
-149.4454860737497
 30
0.0
 10
98.9507069200016
 20
-149.4454860737497
 30
0.0
 10
99.00584608526155
 20
-149.4454860737497
 30
0.0
 10
99.05061358411943
 20
-149.400683295983
 30
0.0
 10
99.05061358411943
 20
-149.3455794071081
 30
0.0
  0
POLYLINE
  5
47
330
1F
100
AcDbEntity
  8
_U+30EC_U+30A4_U+30E4_U+30FC 1
 62
   179
420
  2234388
370
     9
100
AcDb2dPolyline
 66
     1
 10
0.0
 20
0.0
 30
0.0
  0
VERTEX
  5
48
330
47
100
AcDbEntity
  8
_U+30EC_U+30A4_U+30E4_U+30FC 1
 62
   179
420
  2234388
370
     9
100
AcDbVertex
100
AcDb2dVertex
 10
98.9507069200016
 20
-146.8458313521775
 30
0.0
  0
VERTEX
  5
49
330
47
100
AcDbEntity
  8
_U+30EC_U+30A4_U+30E4_U+30FC 1
 62
   179
420
  2234388
370
     9
100
AcDbVertex
100
AcDb2dVertex
 10
98.9507069200016
 20
-150.3457044068578
 30
0.0
  0
SEQEND
  5
4A
330
47
100
AcDbEntity
  8
_U+30EC_U+30A4_U+30E4_U+30FC 1
 62
   179
420
  2234388
370
     9
  0
SPLINE
  5
4B
330
1F
100
AcDbEntity
  8
_U+30EC_U+30A4_U+30E4_U+30FC 1
 62
   179
420
  2234388
370
     9
100
AcDbSpline
210
0.0
220
0.0
230
1.0
 70
    11
 71
     3
 72
    17
 73
    13
 74
     0
 42
0.0000000001
 43
0.0000000001
 12
1.0
 22
0.0
 32
0.0
 13
1.0
 23
0.0
 33
0.0
 40
0.0
 40
0.0
 40
0.0
 40
0.0
 40
1.0
 40
1.0
 40
1.0
 40
2.0
 40
2.0
 40
2.0
 40
3.0
 40
3.0
 40
3.0
 40
4.0
 40
4.0
 40
4.0
 40
4.0
 10
100.0510913363729
 20
-149.3455794071081
 30
0.0
 10
100.0510913363729
 20
-149.290440240455
 30
0.0
 10
100.0062885597381
 20
-149.2456727404665
 30
0.0
 10
99.95118467225507
 20
-149.2456727404665
 30
0.0
 10
99.89604550699511
 20
-149.2456727404665
 30
0.0
 10
99.85128053059262
 20
-149.290440240455
 30
0.0
 10
99.85128053059262
 20
-149.3455794071081
 30
0.0
 10
99.85128053059262
 20
-149.400683295983
 30
0.0
 10
99.89604550699511
 20
-149.4454860737497
 30
0.0
 10
99.95118467225507
 20
-149.4454860737497
 30
0.0
 10
100.0062885597381
 20
-149.4454860737497
 30
0.0
 10
100.0510913363729
 20
-149.400683295983
 30
0.0
 10
100.0510913363729
 20
-149.3455794071081
 30
0.0
  0
POLYLINE
  5
4C
330
1F
100
AcDbEntity
  8
_U+30EC_U+30A4_U+30E4_U+30FC 1
 62
   179
420
  2234388
370
     9
100
AcDb2dPolyline
 66
     1
 10
0.0
 20
0.0
 30
0.0
  0
VERTEX
  5
4D
330
4C
100
AcDbEntity
  8
_U+30EC_U+30A4_U+30E4_U+30FC 1
 62
   179
420
  2234388
370
     9
100
AcDbVertex
100
AcDb2dVertex
 10
99.95118467225507
 20
-145.8457063524272
 30
0.0
  0
VERTEX
  5
4E
330
4C
100
AcDbEntity
  8
_U+30EC_U+30A4_U+30E4_U+30FC 1
 62
   179
420
  2234388
370
     9
100
AcDbVertex
100
AcDb2dVertex
 10
99.95118467225507
 20
-150.3457044068578
 30
0.0
  0
SEQEND
  5
4F
330
4C
100
AcDbEntity
  8
_U+30EC_U+30A4_U+30E4_U+30FC 1
 62
   179
420
  2234388
370
     9
  0
POLYLINE
  5
50
330
1F
100
AcDbEntity
  8
_U+30EC_U+30A4_U+30E4_U+30FC 1
 62
   179
420
  2234388
370
     9
100
AcDb2dPolyline
 66
     1
 10
0.0
 20
0.0
 30
0.0
  0
VERTEX
  5
51
330
50
100
AcDbEntity
  8
_U+30EC_U+30A4_U+30E4_U+30FC 1
 62
   179
420
  2234388
370
     9
100
AcDbVertex
100
AcDb2dVertex
 10
71.95100149771035
 20
-136.3458594103582
 30
0.0
  0
VERTEX
  5
52
330
50
100
AcDbEntity
  8
_U+30EC_U+30A4_U+30E4_U+30FC 1
 62
   179
420
  2234388
370
     9
100
AcDbVertex
100
AcDb2dVertex
 10
71.95100149771035
 20
-150.3457044068578
 30
0.0
  0
SEQEND
  5
53
330
50
100
AcDbEntity
  8
_U+30EC_U+30A4_U+30E4_U+30FC 1
 62
   179
420
  2234388
370
     9
  0
SPLINE
  5
54
330
1F
100
AcDbEntity
  8
_U+30EC_U+30A4_U+30E4_U+30FC 1
 62
   179
420
  2234388
370
     9
100
AcDbSpline
210
0.0
220
0.0
230
1.0
 70
    11
 71
     3
 72
    17
 73
    13
 74
     0
 42
0.0000000001
 43
0.0000000001
 12
1.0
 22
0.0
 32
0.0
 13
1.0
 23
0.0
 33
0.0
 40
0.0
 40
0.0
 40
0.0
 40
0.0
 40
1.0
 40
1.0
 40
1.0
 40
2.0
 40
2.0
 40
2.0
 40
3.0
 40
3.0
 40
3.0
 40
4.0
 40
4.0
 40
4.0
 40
4.0
 10
114.051253479199
 20
-137.3459491323303
 30
0.0
 10
114.051253479199
 20
-137.2908452434548
 30
0.0
 10
114.0064888603872
 20
-137.2460424656887
 30
0.0
 10
113.9513468150812
 20
-137.2460424656887
 30
0.0
 10
113.8962429275981
 20
-137.2460424656887
 30
0.0
 10
113.8514401509633
 20
-137.2908452434548
 30
0.0
 10
113.8514401509633
 20
-137.3459491323303
 30
0.0
 10
113.8514401509633
 20
-137.4017938545383
 30
0.0
 10
113.8962429275981
 20
-137.4465613545275
 30
0.0
 10
113.9513468150812
 20
-137.4465613545275
 30
0.0
 10
114.0064888603872
 20
-137.4465613545275
 30
0.0
 10
114.051253479199
 20
-137.4017938545383
 30
0.0
 10
114.051253479199
 20
-137.3459491323303
 30
0.0
  0
SPLINE
  5
55
330
1F
100
AcDbEntity
  8
_U+30EC_U+30A4_U+30E4_U+30FC 1
 62
   179
420
  2234388
370
     9
100
AcDbSpline
210
0.0
220
0.0
230
1.0
 70
    11
 71
     3
 72
    17
 73
    13
 74
     0
 42
0.0000000001
 43
0.0000000001
 12
1.0
 22
0.0
 32
0.0
 13
1.0
 23
0.0
 33
0.0
 40
0.0
 40
0.0
 40
0.0
 40
0.0
 40
1.0
 40
1.0
 40
1.0
 40
2.0
 40
2.0
 40
2.0
 40
3.0
 40
3.0
 40
3.0
 40
4.0
 40
4.0
 40
4.0
 40
4.0
 10
114.051253479199
 20
-145.3458202414412
 30
0.0
 10
114.051253479199
 20
-145.2907163525663
 30
0.0
 10
114.0064888603872
 20
-145.2459135747996
 30
0.0
 10
113.9513468150812
 20
-145.2459135747996
 30
0.0
 10
113.8962429275981
 20
-145.2459135747996
 30
0.0
 10
113.8514401509633
 20
-145.2907163525663
 30
0.0
 10
113.8514401509633
 20
-145.3458202414412
 30
0.0
 10
113.8514401509633
 20
-145.4016296858717
 30
0.0
 10
113.8962429275981
 20
-145.4464324636384
 30
0.0
 10
113.9513468150812
 20
-145.4464324636384
 30
0.0
 10
114.0064888603872
 20
-145.4464324636384
 30
0.0
 10
114.051253479199
 20
-145.4016296858717
 30
0.0
 10
114.051253479199
 20
-145.3458202414412
 30
0.0
  0
POLYLINE
  5
56
330
1F
100
AcDbEntity
  8
_U+30EC_U+30A4_U+30E4_U+30FC 1
 62
   179
420
  2234388
370
     9
100
AcDb2dPolyline
 66
     1
 10
0.0
 20
0.0
 30
0.0
  0
VERTEX
  5
57
330
56
100
AcDbEntity
  8
_U+30EC_U+30A4_U+30E4_U+30FC 1
 62
   179
420
  2234388
370
     9
100
AcDbVertex
100
AcDb2dVertex
 10
113.9513468150812
 20
-145.3458202414412
 30
0.0
  0
VERTEX
  5
58
330
56
100
AcDbEntity
  8
_U+30EC_U+30A4_U+30E4_U+30FC 1
 62
   179
420
  2234388
370
     9
100
AcDbVertex
100
AcDb2dVertex
 10
113.9513468150812
 20
-106.3459546956356
 30
0.0
  0
SEQEND
  5
59
330
56
100
AcDbEntity
  8
_U+30EC_U+30A4_U+30E4_U+30FC 1
 62
   179
420
  2234388
370
     9
  0
POLYLINE
  5
5A
330
1F
100
AcDbEntity
  8
_U+30EC_U+30A4_U+30E4_U+30FC 1
 62
   179
420
  2234388
370
     9
100
AcDb2dPolyline
 66
     1
 10
0.0
 20
0.0
 30
0.0
  0
VERTEX
  5
5B
330
5A
100
AcDbEntity
  8
_U+30EC_U+30A4_U+30E4_U+30FC 1
 62
   179
420
  2234388
370
     9
100
AcDbVertex
100
AcDb2dVertex
 10
100.4507179928442
 20
-145.3458202414412
 30
0.0
  0
VERTEX
  5
5C
330
5A
100
AcDbEntity
  8
_U+30EC_U+30A4_U+30E4_U+30FC 1
 62
   179
420
  2234388
370
     9
100
AcDbVertex
100
AcDb2dVertex
 10
114.9511190117971
 20
-145.3458202414412
 30
0.0
  0
SEQEND
  5
5D
330
5A
100
AcDbEntity
  8
_U+30EC_U+30A4_U+30E4_U+30FC 1
 62
   179
420
  2234388
370
     9
  0
SPLINE
  5
5E
330
1F
100
AcDbEntity
  8
_U+30EC_U+30A4_U+30E4_U+30FC 1
 62
   179
420
  2234388
370
     9
100
AcDbSpline
210
0.0
220
0.0
230
1.0
 70
    11
 71
     3
 72
    17
 73
    13
 74
     0
 42
0.0000000001
 43
0.0000000001
 12
1.0
 22
0.0
 32
0.0
 13
1.0
 23
0.0
 33
0.0
 40
0.0
 40
0.0
 40
0.0
 40
0.0
 40
1.0
 40
1.0
 40
1.0
 40
2.0
 40
2.0
 40
2.0
 40
3.0
 40
3.0
 40
3.0
 40
4.0
 40
4.0
 40
4.0
 40
4.0
 10
114.051253479199
 20
-143.8458444084831
 30
0.0
 10
114.051253479199
 20
-143.7907052418301
 30
0.0
 10
114.0064888603872
 20
-143.7459377418415
 30
0.0
 10
113.9513468150812
 20
-143.7459377418415
 30
0.0
 10
113.8962429275981
 20
-143.7459377418415
 30
0.0
 10
113.8514401509633
 20
-143.7907052418301
 30
0.0
 10
113.8514401509633
 20
-143.8458444084831
 30
0.0
 10
113.8514401509633
 20
-143.9016538529136
 30
0.0
 10
113.8962429275981
 20
-143.9464213529021
 30
0.0
 10
113.9513468150812
 20
-143.9464213529021
 30
0.0
 10
114.0064888603872
 20
-143.9464213529021
 30
0.0
 10
114.051253479199
 20
-143.9016538529136
 30
0.0
 10
114.051253479199
 20
-143.8458444084831
 30
0.0
  0
POLYLINE
  5
5F
330
1F
100
AcDbEntity
  8
_U+30EC_U+30A4_U+30E4_U+30FC 1
 62
   179
420
  2234388
370
     9
100
AcDb2dPolyline
 66
     1
 10
0.0
 20
0.0
 30
0.0
  0
VERTEX
  5
60
330
5F
100
AcDbEntity
  8
_U+30EC_U+30A4_U+30E4_U+30FC 1
 62
   179
420
  2234388
370
     9
100
AcDbVertex
100
AcDb2dVertex
 10
101.1011343651396
 20
-143.8458444084831
 30
0.0
  0
VERTEX
  5
61
330
5F
100
AcDbEntity
  8
_U+30EC_U+30A4_U+30E4_U+30FC 1
 62
   179
420
  2234388
370
     9
100
AcDbVertex
100
AcDb2dVertex
 10
114.9511190117971
 20
-143.8458444084831
 30
0.0
  0
SEQEND
  5
62
330
5F
100
AcDbEntity
  8
_U+30EC_U+30A4_U+30E4_U+30FC 1
 62
   179
420
  2234388
370
     9
  0
POLYLINE
  5
63
330
1F
100
AcDbEntity
  8
_U+30EC_U+30A4_U+30E4_U+30FC 1
 62
   179
420
  2234388
370
     9
100
AcDb2dPolyline
 66
     1
 10
0.0
 20
0.0
 30
0.0
  0
VERTEX
  5
64
330
63
100
AcDbEntity
  8
_U+30EC_U+30A4_U+30E4_U+30FC 1
 62
   179
420
  2234388
370
     9
100
AcDbVertex
100
AcDb2dVertex
 10
112.4913083052104
 20
-137.3459491323303
 30
0.0
  0
VERTEX
  5
65
330
63
100
AcDbEntity
  8
_U+30EC_U+30A4_U+30E4_U+30FC 1
 62
   179
420
  2234388
370
     9
100
AcDbVertex
100
AcDb2dVertex
 10
114.9511190117971
 20
-137.3459491323303
 30
0.0
  0
SEQEND
  5
66
330
63
100
AcDbEntity
  8
_U+30EC_U+30A4_U+30E4_U+30FC 1
 62
   179
420
  2234388
370
     9
  0
SPLINE
  5
67
330
1F
100
AcDbEntity
  8
_U+30EC_U+30A4_U+30E4_U+30FC 1
 62
   179
420
  2234388
370
     9
100
AcDbSpline
210
0.0
220
0.0
230
1.0
 70
    11
 71
     3
 72
    17
 73
    13
 74
     0
 42
0.0000000001
 43
0.0000000001
 12
1.0
 22
0.0
 32
0.0
 13
1.0
 23
0.0
 33
0.0
 40
0.0
 40
0.0
 40
0.0
 40
0.0
 40
1.0
 40
1.0
 40
1.0
 40
2.0
 40
2.0
 40
2.0
 40
3.0
 40
3.0
 40
3.0
 40
4.0
 40
4.0
 40
4.0
 40
4.0
 10
114.051253479199
 20
-136.3458594103582
 30
0.0
 10
114.051253479199
 20
-136.2907202437051
 30
0.0
 10
114.0064888603872
 20
-136.2459527437166
 30
0.0
 10
113.9513468150812
 20
-136.2459527437166
 30
0.0
 10
113.8962429275981
 20
-136.2459527437166
 30
0.0
 10
113.8514401509633
 20
-136.2907202437051
 30
0.0
 10
113.8514401509633
 20
-136.3458594103582
 30
0.0
 10
113.8514401509633
 20
-136.4016688547886
 30
0.0
 10
113.8962429275981
 20
-136.4464363547772
 30
0.0
 10
113.9513468150812
 20
-136.4464363547772
 30
0.0
 10
114.0064888603872
 20
-136.4464363547772
 30
0.0
 10
114.051253479199
 20
-136.4016688547886
 30
0.0
 10
114.051253479199
 20
-136.3458594103582
 30
0.0
  0
POLYLINE
  5
68
330
1F
100
AcDbEntity
  8
_U+30EC_U+30A4_U+30E4_U+30FC 1
 62
   179
420
  2234388
370
     9
100
AcDb2dPolyline
 66
     1
 10
0.0
 20
0.0
 30
0.0
  0
VERTEX
  5
69
330
68
100
AcDbEntity
  8
_U+30EC_U+30A4_U+30E4_U+30FC 1
 62
   179
420
  2234388
370
     9
100
AcDbVertex
100
AcDb2dVertex
 10
112.4913083052104
 20
-136.3458594103582
 30
0.0
  0
VERTEX
  5
6A
330
68
100
AcDbEntity
  8
_U+30EC_U+30A4_U+30E4_U+30FC 1
 62
   179
420
  2234388
370
     9
100
AcDbVertex
100
AcDb2dVertex
 10
114.9511190117971
 20
-136.3458594103582
 30
0.0
  0
SEQEND
  5
6B
330
68
100
AcDbEntity
  8
_U+30EC_U+30A4_U+30E4_U+30FC 1
 62
   179
420
  2234388
370
     9
  0
SPLINE
  5
6C
330
1F
100
AcDbEntity
  8
_U+30EC_U+30A4_U+30E4_U+30FC 1
 62
   179
420
  2234388
370
     9
100
AcDbSpline
210
0.0
220
0.0
230
1.0
 70
    11
 71
     3
 72
    17
 73
    13
 74
     0
 42
0.0000000001
 43
0.0000000001
 12
1.0
 22
0.0
 32
0.0
 13
1.0
 23
0.0
 33
0.0
 40
0.0
 40
0.0
 40
0.0
 40
0.0
 40
1.0
 40
1.0
 40
1.0
 40
2.0
 40
2.0
 40
2.0
 40
3.0
 40
3.0
 40
3.0
 40
4.0
 40
4.0
 40
4.0
 40
4.0
 10
114.051253479199
 20
-106.3457783067468
 30
0.0
 10
114.051253479199
 20
-106.2906744178718
 30
0.0
 10
114.0064888603872
 20
-106.2458716401051
 30
0.0
 10
113.9513468150812
 20
-106.2458716401051
 30
0.0
 10
113.8962429275981
 20
-106.2458716401051
 30
0.0
 10
113.8514401509633
 20
-106.2906744178718
 30
0.0
 10
113.8514401509633
 20
-106.3457783067468
 30
0.0
 10
113.8514401509633
 20
-106.4015877511775
 30
0.0
 10
113.8962429275981
 20
-106.4463905289439
 30
0.0
 10
113.9513468150812
 20
-106.4463905289439
 30
0.0
 10
114.0064888603872
 20
-106.4463905289439
 30
0.0
 10
114.051253479199
 20
-106.4015877511775
 30
0.0
 10
114.051253479199
 20
-106.3457783067468
 30
0.0
  0
POLYLINE
  5
6D
330
1F
100
AcDbEntity
  8
_U+30EC_U+30A4_U+30E4_U+30FC 1
 62
   179
420
  2234388
370
     9
100
AcDb2dPolyline
 66
     1
 10
0.0
 20
0.0
 30
0.0
  0
VERTEX
  5
6E
330
6D
100
AcDbEntity
  8
_U+30EC_U+30A4_U+30E4_U+30FC 1
 62
   179
420
  2234388
370
     9
100
AcDbVertex
100
AcDb2dVertex
 10
82.48403053493459
 20
-106.3457783067468
 30
0.0
  0
VERTEX
  5
6F
330
6D
100
AcDbEntity
  8
_U+30EC_U+30A4_U+30E4_U+30FC 1
 62
   179
420
  2234388
370
     9
100
AcDbVertex
100
AcDb2dVertex
 10
114.9511190117971
 20
-106.3457783067468
 30
0.0
  0
SEQEND
  5
70
330
6D
100
AcDbEntity
  8
_U+30EC_U+30A4_U+30E4_U+30FC 1
 62
   179
420
  2234388
370
     9
  0
INSERT
  5
72
330
1F
100
AcDbEntity
  8
_U+30EC_U+30A4_U+30E4_U+30FC 1
100
AcDbBlockReference
  2
block 2
 10
0.0
 20
0.0
 30
0.0
  0
INSERT
  5
83
330
1F
100
AcDbEntity
  8
_U+30EC_U+30A4_U+30E4_U+30FC 1
100
AcDbBlockReference
  2
block 3
 10
0.0
 20
0.0
 30
0.0
  0
INSERT
  5
89
330
1F
100
AcDbEntity
  8
_U+30EC_U+30A4_U+30E4_U+30FC 1
100
AcDbBlockReference
  2
block 4
 10
0.0
 20
0.0
 30
0.0
  0
INSERT
  5
92
330
1F
100
AcDbEntity
  8
_U+30EC_U+30A4_U+30E4_U+30FC 1
100
AcDbBlockReference
  2
block 5
 10
0.0
 20
0.0
 30
0.0
  0
SPLINE
  5
A1
330
1F
100
AcDbEntity
  8
_U+30EC_U+30A4_U+30E4_U+30FC 1
 62
   179
420
  2234388
370
     9
100
AcDbSpline
210
0.0
220
0.0
230
1.0
 70
    11
 71
     3
 72
    17
 73
    13
 74
     0
 42
0.0000000001
 43
0.0000000001
 12
1.0
 22
0.0
 32
0.0
 13
1.0
 23
0.0
 33
0.0
 40
0.0
 40
0.0
 40
0.0
 40
0.0
 40
1.0
 40
1.0
 40
1.0
 40
2.0
 40
2.0
 40
2.0
 40
3.0
 40
3.0
 40
3.0
 40
4.0
 40
4.0
 40
4.0
 40
4.0
 10
68.05114909720388
 20
-145.3458202414412
 30
0.0
 10
68.05114909720388
 20
-145.2900107970108
 30
0.0
 10
68.00634632056912
 20
-145.2452432970222
 30
0.0
 10
67.95124243308605
 20
-145.2452432970222
 30
0.0
 10
67.89543299006542
 20
-145.2452432970222
 30
0.0
 10
67.85063021343066
 20
-145.2900107970108
 30
0.0
 10
67.85063021343066
 20
-145.3458202414412
 30
0.0
 10
67.85063021343066
 20
-145.4009594080943
 30
0.0
 10
67.89543299006542
 20
-145.4457269080829
 30
0.0
 10
67.95124243308605
 20
-145.4457269080829
 30
0.0
 10
68.00634632056912
 20
-145.4457269080829
 30
0.0
 10
68.05114909720388
 20
-145.4009594080943
 30
0.0
 10
68.05114909720388
 20
-145.3458202414412
 30
0.0
  0
SPLINE
  5
A2
330
1F
100
AcDbEntity
  8
_U+30EC_U+30A4_U+30E4_U+30FC 1
 62
   179
420
  2234388
370
     9
100
AcDbSpline
210
0.0
220
0.0
230
1.0
 70
    11
 71
     3
 72
    17
 73
    13
 74
     0
 42
0.0000000001
 43
0.0000000001
 12
1.0
 22
0.0
 32
0.0
 13
1.0
 23
0.0
 33
0.0
 40
0.0
 40
0.0
 40
0.0
 40
0.0
 40
1.0
 40
1.0
 40
1.0
 40
2.0
 40
2.0
 40
2.0
 40
3.0
 40
3.0
 40
3.0
 40
4.0
 40
4.0
 40
4.0
 40
4.0
 10
68.05114909720388
 20
-117.3707894151018
 30
0.0
 10
68.05114909720388
 20
-117.315650248449
 30
0.0
 10
68.00634632056912
 20
-117.2708827484601
 30
0.0
 10
67.95124243308605
 20
-117.2708827484601
 30
0.0
 10
67.89543299006542
 20
-117.2708827484601
 30
0.0
 10
67.85063021343066
 20
-117.315650248449
 30
0.0
 10
67.85063021343066
 20
-117.3707894151018
 30
0.0
 10
67.85063021343066
 20
-117.4262460817544
 30
0.0
 10
67.89543299006542
 20
-117.4710488595212
 30
0.0
 10
67.95124243308605
 20
-117.4710488595212
 30
0.0
 10
68.00634632056912
 20
-117.4710488595212
 30
0.0
 10
68.05114909720388
 20
-117.4262460817544
 30
0.0
 10
68.05114909720388
 20
-117.3707894151018
 30
0.0
  0
POLYLINE
  5
A3
330
1F
100
AcDbEntity
  8
_U+30EC_U+30A4_U+30E4_U+30FC 1
 62
   179
420
  2234388
370
     9
100
AcDb2dPolyline
 66
     1
 10
0.0
 20
0.0
 30
0.0
  0
VERTEX
  5
A4
330
A3
100
AcDbEntity
  8
_U+30EC_U+30A4_U+30E4_U+30FC 1
 62
   179
420
  2234388
370
     9
100
AcDbVertex
100
AcDb2dVertex
 10
67.95124243308605
 20
-145.3454674636635
 30
0.0
  0
VERTEX
  5
A5
330
A3
100
AcDbEntity
  8
_U+30EC_U+30A4_U+30E4_U+30FC 1
 62
   179
420
  2234388
370
     9
100
AcDbVertex
100
AcDb2dVertex
 10
67.95124243308605
 20
-117.3707894151018
 30
0.0
  0
SEQEND
  5
A6
330
A3
100
AcDbEntity
  8
_U+30EC_U+30A4_U+30E4_U+30FC 1
 62
   179
420
  2234388
370
     9
  0
POLYLINE
  5
A7
330
1F
100
AcDbEntity
  8
_U+30EC_U+30A4_U+30E4_U+30FC 1
 62
   179
420
  2234388
370
     9
100
AcDb2dPolyline
 66
     1
 10
0.0
 20
0.0
 30
0.0
  0
VERTEX
  5
A8
330
A7
100
AcDbEntity
  8
_U+30EC_U+30A4_U+30E4_U+30FC 1
 62
   179
420
  2234388
370
     9
100
AcDbVertex
100
AcDb2dVertex
 10
80.95096210143556
 20
-145.3458202414412
 30
0.0
  0
VERTEX
  5
A9
330
A7
100
AcDbEntity
  8
_U+30EC_U+30A4_U+30E4_U+30FC 1
 62
   179
420
  2234388
370
     9
100
AcDbVertex
100
AcDb2dVertex
 10
66.95076468083258
 20
-145.3458202414412
 30
0.0
  0
SEQEND
  5
AA
330
A7
100
AcDbEntity
  8
_U+30EC_U+30A4_U+30E4_U+30FC 1
 62
   179
420
  2234388
370
     9
  0
POLYLINE
  5
AB
330
1F
100
AcDbEntity
  8
_U+30EC_U+30A4_U+30E4_U+30FC 1
 62
   179
420
  2234388
370
     9
100
AcDb2dPolyline
 66
     1
 10
0.0
 20
0.0
 30
0.0
  0
VERTEX
  5
AC
330
AB
100
AcDbEntity
  8
_U+30EC_U+30A4_U+30E4_U+30FC 1
 62
   179
420
  2234388
370
     9
100
AcDbVertex
100
AcDb2dVertex
 10
71.45093901046802
 20
-117.3707894151018
 30
0.0
  0
VERTEX
  5
AD
330
AB
100
AcDbEntity
  8
_U+30EC_U+30A4_U+30E4_U+30FC 1
 62
   179
420
  2234388
370
     9
100
AcDbVertex
100
AcDb2dVertex
 10
66.95076468083258
 20
-117.3707894151018
 30
0.0
  0
SEQEND
  5
AE
330
AB
100
AcDbEntity
  8
_U+30EC_U+30A4_U+30E4_U+30FC 1
 62
   179
420
  2234388
370
     9
  0
INSERT
  5
B0
330
1F
100
AcDbEntity
  8
_U+30EC_U+30A4_U+30E4_U+30FC 1
100
AcDbBlockReference
  2
block 6
 10
0.0
 20
0.0
 30
0.0
  0
SPLINE
  5
B9
330
1F
100
AcDbEntity
  8
_U+30EC_U+30A4_U+30E4_U+30FC 1
 62
   179
420
  2234388
370
     9
100
AcDbSpline
210
0.0
220
0.0
230
1.0
 70
    11
 71
     3
 72
    17
 73
    13
 74
     0
 42
0.0000000001
 43
0.0000000001
 12
1.0
 22
0.0
 32
0.0
 13
1.0
 23
0.0
 33
0.0
 40
0.0
 40
0.0
 40
0.0
 40
0.0
 40
1.0
 40
1.0
 40
1.0
 40
2.0
 40
2.0
 40
2.0
 40
3.0
 40
3.0
 40
3.0
 40
4.0
 40
4.0
 40
4.0
 40
4.0
 10
72.05090816182819
 20
-149.3455794071081
 30
0.0
 10
72.05090816182819
 20
-149.290440240455
 30
0.0
 10
72.00610538519344
 20
-149.2456727404665
 30
0.0
 10
71.95100149771035
 20
-149.2456727404665
 30
0.0
 10
71.8958623324504
 20
-149.2456727404665
 30
0.0
 10
71.85109483359253
 20
-149.290440240455
 30
0.0
 10
71.85109483359253
 20
-149.3455794071081
 30
0.0
 10
71.85109483359253
 20
-149.400683295983
 30
0.0
 10
71.8958623324504
 20
-149.4454860737497
 30
0.0
 10
71.95100149771035
 20
-149.4454860737497
 30
0.0
 10
72.00610538519344
 20
-149.4454860737497
 30
0.0
 10
72.05090816182819
 20
-149.400683295983
 30
0.0
 10
72.05090816182819
 20
-149.3455794071081
 30
0.0
  0
POLYLINE
  5
BA
330
1F
100
AcDbEntity
  8
_U+30EC_U+30A4_U+30E4_U+30FC 1
 62
   179
420
  2234388
370
     9
100
AcDb2dPolyline
 66
     1
 10
0.0
 20
0.0
 30
0.0
  0
VERTEX
  5
BB
330
BA
100
AcDbEntity
  8
_U+30EC_U+30A4_U+30E4_U+30FC 1
 62
   179
420
  2234388
370
     9
100
AcDbVertex
100
AcDb2dVertex
 10
71.95117788659475
 20
-149.3455794071081
 30
0.0
  0
VERTEX
  5
BC
330
BA
100
AcDbEntity
  8
_U+30EC_U+30A4_U+30E4_U+30FC 1
 62
   179
420
  2234388
370
     9
100
AcDbVertex
100
AcDb2dVertex
 10
99.95118467225507
 20
-149.3455794071081
 30
0.0
  0
SEQEND
  5
BD
330
BA
100
AcDbEntity
  8
_U+30EC_U+30A4_U+30E4_U+30FC 1
 62
   179
420
  2234388
370
     9
  0
INSERT
  5
BF
330
1F
100
AcDbEntity
  8
_U+30EC_U+30A4_U+30E4_U+30FC 1
100
AcDbBlockReference
  2
block 7
 10
0.0
 20
0.0
 30
0.0
  0
INSERT
  5
C7
330
1F
100
AcDbEntity
  8
_U+30EC_U+30A4_U+30E4_U+30FC 1
100
AcDbBlockReference
  2
block 8
 10
0.0
 20
0.0
 30
0.0
  0
INSERT
  5
CF
330
1F
100
AcDbEntity
  8
_U+30EC_U+30A4_U+30E4_U+30FC 1
100
AcDbBlockReference
  2
block 9
 10
0.0
 20
0.0
 30
0.0
  0
SPLINE
  5
D4
330
1F
100
AcDbEntity
  8
_U+30EC_U+30A4_U+30E4_U+30FC 1
 62
   179
420
  2234388
370
    25
100
AcDbSpline
210
0.0
220
0.0
230
1.0
 70
    11
 71
     3
 72
    77
 73
    73
 74
     0
 42
0.0000000001
 43
0.0000000001
 12
1.0
 22
0.0
 32
0.0
 13
1.0
 23
0.0
 33
0.0
 40
0.0
 40
0.0
 40
0.0
 40
0.0
 40
1.0
 40
1.0
 40
1.0
 40
2.0
 40
2.0
 40
2.0
 40
3.0
 40
3.0
 40
3.0
 40
4.0
 40
4.0
 40
4.0
 40
5.0
 40
5.0
 40
5.0
 40
6.0
 40
6.0
 40
6.0
 40
7.0
 40
7.0
 40
7.0
 40
8.0
 40
8.0
 40
8.0
 40
9.0
 40
9.0
 40
9.0
 40
10.0
 40
10.0
 40
10.0
 40
11.0
 40
11.0
 40
11.0
 40
12.0
 40
12.0
 40
12.0
 40
13.0
 40
13.0
 40
13.0
 40
14.0
 40
14.0
 40
14.0
 40
15.0
 40
15.0
 40
15.0
 40
16.0
 40
16.0
 40
16.0
 40
17.0
 40
17.0
 40
17.0
 40
18.0
 40
18.0
 40
18.0
 40
19.0
 40
19.0
 40
19.0
 40
20.0
 40
20.0
 40
20.0
 40
21.0
 40
21.0
 40
21.0
 40
22.0
 40
22.0
 40
22.0
 40
23.0
 40
23.0
 40
23.0
 40
24.0
 40
24.0
 40
24.0
 40
24.0
 10
110.9506896694121
 20
-137.3459491323303
 30
0.0
 10
110.9506896694121
 20
-137.3459491323303
 30
0.0
 10
110.9506896694121
 20
-136.3127688548107
 30
0.0
 10
110.9506896694121
 20
-136.3127688548107
 30
0.0
 10
110.9506896694121
 20
-136.3127688548107
 30
0.0
 10
80.98401942419834
 20
-136.3127688548107
 30
0.0
 10
80.98401942419834
 20
-136.3127688548107
 30
0.0
 10
80.98401942419834
 20
-136.3127688548107
 30
0.0
 10
80.98401942419834
 20
-106.3459546956356
 30
0.0
 10
80.98401942419834
 20
-106.3459546956356
 30
0.0
 10
80.98401942419834
 20
-106.3459546956356
 30
0.0
 10
79.95083712695089
 20
-106.3459546956356
 30
0.0
 10
79.95083712695089
 20
-106.3459546956356
 30
0.0
 10
79.95083712695089
 20
-106.3459546956356
 30
0.0
 10
79.95083712695089
 20
-136.6562685769472
 30
0.0
 10
79.95083712695089
 20
-136.6562685769472
 30
0.0
 10
79.95083712695089
 20
-136.6562685769472
 30
0.0
 10
76.71505553637681
 20
-139.8922285761383
 30
0.0
 10
76.71505553637681
 20
-139.8922285761383
 30
0.0
 10
74.38132282459658
 20
-137.3911046878742
 30
0.0
 10
72.95091664842893
 20
-134.0362585776018
 30
0.0
 10
72.95091664842893
 20
-130.3455327451911
 30
0.0
 10
72.95091664842893
 20
-130.3455327451911
 30
0.0
 10
72.95091664842893
 20
-118.3459377481912
 30
0.0
 10
72.95091664842893
 20
-118.3459377481912
 30
0.0
 10
72.95091664842893
 20
-118.3459377481912
 30
0.0
 10
73.45062451500735
 20
-118.3459377481912
 30
0.0
 10
73.45062451500735
 20
-118.3459377481912
 30
0.0
 10
73.45062451500735
 20
-118.3459377481912
 30
0.0
 10
73.45062451500735
 20
-117.3458127484412
 30
0.0
 10
73.45062451500735
 20
-117.3458127484412
 30
0.0
 10
73.45062451500735
 20
-117.3458127484412
 30
0.0
 10
72.95091664842893
 20
-117.3458127484412
 30
0.0
 10
72.95091664842893
 20
-117.3458127484412
 30
0.0
 10
72.95091664842893
 20
-117.3458127484412
 30
0.0
 10
71.95064871994158
 20
-118.3459377481912
 30
0.0
 10
71.95064871994158
 20
-118.3459377481912
 30
0.0
 10
71.95064871994158
 20
-118.3459377481912
 30
0.0
 10
71.95064871994158
 20
-130.3458855229689
 30
0.0
 10
71.95064871994158
 20
-130.3458855229689
 30
0.0
 10
71.95064871994158
 20
-130.3458855229689
 30
0.0
 10
71.95100149771035
 20
-130.3458855229689
 30
0.0
 10
71.95100149771035
 20
-130.3458855229689
 30
0.0
 10
71.95100149771035
 20
-138.6303071875648
 30
0.0
 10
78.6666907708233
 20
-145.3458202414412
 30
0.0
 10
86.95093583725237
 20
-145.3458202414412
 30
0.0
 10
86.95093583725237
 20
-145.3458202414412
 30
0.0
 10
98.9507069200016
 20
-145.3458202414412
 30
0.0
 10
98.9507069200016
 20
-145.3458202414412
 30
0.0
 10
98.9507069200016
 20
-145.3458202414412
 30
0.0
 10
99.95118467225507
 20
-144.3456952416916
 30
0.0
 10
99.95118467225507
 20
-144.3456952416916
 30
0.0
 10
99.95118467225507
 20
-144.3456952416916
 30
0.0
 10
99.95118467225507
 20
-143.8458444084831
 30
0.0
 10
99.95118467225507
 20
-143.8458444084831
 30
0.0
 10
99.95118467225507
 20
-143.8458444084831
 30
0.0
 10
98.9507069200016
 20
-143.8458444084831
 30
0.0
 10
98.9507069200016
 20
-143.8458444084831
 30
0.0
 10
98.9507069200016
 20
-143.8458444084831
 30
0.0
 10
98.9507069200016
 20
-144.3456952416916
 30
0.0
 10
98.9507069200016
 20
-144.3456952416916
 30
0.0
 10
98.9507069200016
 20
-144.3456952416916
 30
0.0
 10
86.95093583725237
 20
-144.3456952416916
 30
0.0
 10
86.95093583725237
 20
-144.3456952416916
 30
0.0
 10
83.26934704228864
 20
-144.3456952416916
 30
0.0
 10
79.92155657214234
 20
-142.9225544087138
 30
0.0
 10
77.42247885812134
 20
-140.5988424648502
 30
0.0
 10
77.42247885812134
 20
-140.5988424648502
 30
0.0
 10
80.67533886871995
 20
-137.3459491323303
 30
0.0
 10
80.67533886871995
 20
-137.3459491323303
 30
0.0
 10
80.67533886871995
 20
-137.3459491323303
 30
0.0
 10
110.9506896694121
 20
-137.3459491323303
 30
0.0
 10
110.9506896694121
 20
-137.3459491323303
 30
0.0
  0
HATCH
  5
D5
330
1F
100
AcDbEntity
  8
_U+30EC_U+30A4_U+30E4_U+30FC 1
 62
     9
420
 13224394
100
AcDbHatch
 10
0.0
 20
0.0
 30
0.0
210
0.0
220
0.0
230
1.0
  2
SOLID
 70
     1
 71
     0
 91
        1
 92
        1
 93
        1
 72
     4
 94
        3
 73
     0
 74
     1
 95
       77
 96
       73
 40
0.0
 40
0.0
 40
0.0
 40
0.0
 40
1.0
 40
1.0
 40
1.0
 40
2.0
 40
2.0
 40
2.0
 40
3.0
 40
3.0
 40
3.0
 40
4.0
 40
4.0
 40
4.0
 40
5.0
 40
5.0
 40
5.0
 40
6.0
 40
6.0
 40
6.0
 40
7.0
 40
7.0
 40
7.0
 40
8.0
 40
8.0
 40
8.0
 40
9.0
 40
9.0
 40
9.0
 40
10.0
 40
10.0
 40
10.0
 40
11.0
 40
11.0
 40
11.0
 40
12.0
 40
12.0
 40
12.0
 40
13.0
 40
13.0
 40
13.0
 40
14.0
 40
14.0
 40
14.0
 40
15.0
 40
15.0
 40
15.0
 40
16.0
 40
16.0
 40
16.0
 40
17.0
 40
17.0
 40
17.0
 40
18.0
 40
18.0
 40
18.0
 40
19.0
 40
19.0
 40
19.0
 40
20.0
 40
20.0
 40
20.0
 40
21.0
 40
21.0
 40
21.0
 40
22.0
 40
22.0
 40
22.0
 40
23.0
 40
23.0
 40
23.0
 40
24.0
 40
24.0
 40
24.0
 40
24.0
 10
110.9506896694121
 20
-137.3459491323303
 10
110.9506896694121
 20
-137.3459491323303
 10
110.9506896694121
 20
-136.3127688548107
 10
110.9506896694121
 20
-136.3127688548107
 10
110.9506896694121
 20
-136.3127688548107
 10
80.98401942419834
 20
-136.3127688548107
 10
80.98401942419834
 20
-136.3127688548107
 10
80.98401942419834
 20
-136.3127688548107
 10
80.98401942419834
 20
-106.3459546956356
 10
80.98401942419834
 20
-106.3459546956356
 10
80.98401942419834
 20
-106.3459546956356
 10
79.95083712695089
 20
-106.3459546956356
 10
79.95083712695089
 20
-106.3459546956356
 10
79.95083712695089
 20
-106.3459546956356
 10
79.95083712695089
 20
-136.6562685769472
 10
79.95083712695089
 20
-136.6562685769472
 10
79.95083712695089
 20
-136.6562685769472
 10
76.71505553637681
 20
-139.8922285761383
 10
76.71505553637681
 20
-139.8922285761383
 10
74.38132282459658
 20
-137.3911046878742
 10
72.95091664842893
 20
-134.0362585776018
 10
72.95091664842893
 20
-130.3455327451911
 10
72.95091664842893
 20
-130.3455327451911
 10
72.95091664842893
 20
-118.3459377481912
 10
72.95091664842893
 20
-118.3459377481912
 10
72.95091664842893
 20
-118.3459377481912
 10
73.45062451500735
 20
-118.3459377481912
 10
73.45062451500735
 20
-118.3459377481912
 10
73.45062451500735
 20
-118.3459377481912
 10
73.45062451500735
 20
-117.3458127484412
 10
73.45062451500735
 20
-117.3458127484412
 10
73.45062451500735
 20
-117.3458127484412
 10
72.95091664842893
 20
-117.3458127484412
 10
72.95091664842893
 20
-117.3458127484412
 10
72.95091664842893
 20
-117.3458127484412
 10
71.95064871994158
 20
-118.3459377481912
 10
71.95064871994158
 20
-118.3459377481912
 10
71.95064871994158
 20
-118.3459377481912
 10
71.95064871994158
 20
-130.3458855229689
 10
71.95064871994158
 20
-130.3458855229689
 10
71.95064871994158
 20
-130.3458855229689
 10
71.95100149771035
 20
-130.3458855229689
 10
71.95100149771035
 20
-130.3458855229689
 10
71.95100149771035
 20
-138.6303071875648
 10
78.6666907708233
 20
-145.3458202414412
 10
86.95093583725237
 20
-145.3458202414412
 10
86.95093583725237
 20
-145.3458202414412
 10
98.9507069200016
 20
-145.3458202414412
 10
98.9507069200016
 20
-145.3458202414412
 10
98.9507069200016
 20
-145.3458202414412
 10
99.95118467225507
 20
-144.3456952416916
 10
99.95118467225507
 20
-144.3456952416916
 10
99.95118467225507
 20
-144.3456952416916
 10
99.95118467225507
 20
-143.8458444084831
 10
99.95118467225507
 20
-143.8458444084831
 10
99.95118467225507
 20
-143.8458444084831
 10
98.9507069200016
 20
-143.8458444084831
 10
98.9507069200016
 20
-143.8458444084831
 10
98.9507069200016
 20
-143.8458444084831
 10
98.9507069200016
 20
-144.3456952416916
 10
98.9507069200016
 20
-144.3456952416916
 10
98.9507069200016
 20
-144.3456952416916
 10
86.95093583725237
 20
-144.3456952416916
 10
86.95093583725237
 20
-144.3456952416916
 10
83.26934704228864
 20
-144.3456952416916
 10
79.92155657214234
 20
-142.9225544087138
 10
77.42247885812134
 20
-140.5988424648502
 10
77.42247885812134
 20
-140.5988424648502
 10
80.67533886871995
 20
-137.3459491323303
 10
80.67533886871995
 20
-137.3459491323303
 10
80.67533886871995
 20
-137.3459491323303
 10
110.9506896694121
 20
-137.3459491323303
 10
110.9506896694121
 20
-137.3459491323303
 97
        0
 97
        0
 75
     2
 76
     1
 98
        0
  0
INSERT
  5
D7
330
1F
100
AcDbEntity
  8
_U+30EC_U+30A4_U+30E4_U+30FC 1
100
AcDbBlockReference
  2
block 10
 10
0.0
 20
0.0
 30
0.0
  0
POLYLINE
  5
E1
330
1F
100
AcDbEntity
  8
_U+30EC_U+30A4_U+30E4_U+30FC 1
 62
   179
420
  2234388
370
     9
100
AcDb2dPolyline
 66
     1
 10
0.0
 20
0.0
 30
0.0
  0
VERTEX
  5
E2
330
E1
100
AcDbEntity
  8
_U+30EC_U+30A4_U+30E4_U+30FC 1
 62
   179
420
  2234388
370
     9
100
AcDbVertex
100
AcDb2dVertex
 10
69.15287406909654
 20
-148.1439124629639
 30
0.0
  0
VERTEX
  5
E3
330
E1
100
AcDbEntity
  8
_U+30EC_U+30A4_U+30E4_U+30FC 1
 62
   179
420
  2234388
370
     9
100
AcDbVertex
100
AcDb2dVertex
 10
75.96092056207547
 20
-141.3371005202215
 30
0.0
  0
SEQEND
  5
E4
330
E1
100
AcDbEntity
  8
_U+30EC_U+30A4_U+30E4_U+30FC 1
 62
   179
420
  2234388
370
     9
  0
POLYLINE
  5
E5
330
1F
100
AcDbEntity
  8
_U+30EC_U+30A4_U+30E4_U+30FC 1
 62
   179
420
  2234388
370
     9
100
AcDb2dPolyline
 66
     1
 10
0.0
 20
0.0
 30
0.0
  0
VERTEX
  5
E6
330
E5
100
AcDbEntity
  8
_U+30EC_U+30A4_U+30E4_U+30FC 1
 62
   179
420
  2234388
370
     9
100
AcDbVertex
100
AcDb2dVertex
 10
75.96092056207547
 20
-141.3371005202215
 30
0.0
  0
VERTEX
  5
E7
330
E5
100
AcDbEntity
  8
_U+30EC_U+30A4_U+30E4_U+30FC 1
 62
   179
420
  2234388
370
     9
100
AcDbVertex
100
AcDb2dVertex
 10
75.0489900297852
 20
-141.8435482978723
 30
0.0
  0
SEQEND
  5
E8
330
E5
100
AcDbEntity
  8
_U+30EC_U+30A4_U+30E4_U+30FC 1
 62
   179
420
  2234388
370
     9
  0
POLYLINE
  5
E9
330
1F
100
AcDbEntity
  8
_U+30EC_U+30A4_U+30E4_U+30FC 1
 62
   179
420
  2234388
370
     9
100
AcDb2dPolyline
 66
     1
 10
0.0
 20
0.0
 30
0.0
  0
VERTEX
  5
EA
330
E9
100
AcDbEntity
  8
_U+30EC_U+30A4_U+30E4_U+30FC 1
 62
   179
420
  2234388
370
     9
100
AcDbVertex
100
AcDb2dVertex
 10
75.96092056207547
 20
-141.3371005202215
 30
0.0
  0
VERTEX
  5
EB
330
E9
100
AcDbEntity
  8
_U+30EC_U+30A4_U+30E4_U+30FC 1
 62
   179
420
  2234388
370
     9
100
AcDbVertex
100
AcDb2dVertex
 10
75.42346363134268
 20
-142.2311099644425
 30
0.0
  0
SEQEND
  5
EC
330
E9
100
AcDbEntity
  8
_U+30EC_U+30A4_U+30E4_U+30FC 1
 62
   179
420
  2234388
370
     9
  0
ENDSEC
  0
SECTION
  2
OBJECTS
  0
DICTIONARY
  5
C
330
0
100
AcDbDictionary
281
     1
  3
ACAD_GROUP
350
D
  3
ACAD_LAYOUT
350
1A
  3
ACAD_MATERIAL
350
3B
  3
ACAD_MLEADERSTYLE
350
EE
  3
ACAD_MLINESTYLE
350
17
  3
ACAD_PLOTSETTINGS
350
19
  3
ACAD_PLOTSTYLENAME
350
E
  3
ACAD_TABLESTYLE
350
ED
  3
ACAD_VISUALSTYLE
350
2A
  0
SUN
  5
3F
330
29
100
AcDbSun
 90
        1
290
     0
 63
     7
421
 16777215
 40
1.0
291
     1
 91
  2455826
 92
 54000000
292
     0
 70
     2
 71
   256
280
     1
  0
DICTIONARY
  5
D
102
{ACAD_REACTORS
330
C
102
}
330
C
100
AcDbDictionary
281
     1
  0
DICTIONARY
  5
1A
102
{ACAD_REACTORS
330
C
102
}
330
C
100
AcDbDictionary
281
     1
  3
Layout1
350
1E
  3
Layout2
350
26
  3
Model
350
22
  0
DICTIONARY
  5
3B
102
{ACAD_REACTORS
330
C
102
}
330
C
100
AcDbDictionary
281
     1
  3
ByBlock
350
3D
  3
ByLayer
350
3C
  3
Global
350
3E
  0
DICTIONARY
  5
EE
102
{ACAD_REACTORS
330
C
102
}
330
C
100
AcDbDictionary
281
     1
  0
DICTIONARY
  5
17
102
{ACAD_REACTORS
330
C
102
}
330
C
100
AcDbDictionary
281
     1
  3
Standard
350
18
  0
DICTIONARY
  5
19
102
{ACAD_REACTORS
330
C
102
}
330
C
100
AcDbDictionary
281
     1
  0
ACDBDICTIONARYWDFLT
  5
E
102
{ACAD_REACTORS
330
C
102
}
330
C
100
AcDbDictionary
281
     1
  3
Normal
350
F
100
AcDbDictionaryWithDefault
340
F
  0
DICTIONARY
  5
ED
102
{ACAD_REACTORS
330
C
102
}
330
C
100
AcDbDictionary
281
     1
  0
DICTIONARY
  5
2A
102
{ACAD_REACTORS
330
C
102
}
330
C
100
AcDbDictionary
281
     1
  3
2dWireframe
350
2F
  3
3D Hidden
350
31
  3
3dWireframe
350
30
  3
Basic
350
32
  3
Brighten
350
36
  3
ColorChange
350
3A
  3
Conceptual
350
34
  3
Dim
350
35
  3
Facepattern
350
39
  3
Flat
350
2B
  3
FlatWithEdges
350
2C
  3
Gouraud
350
2D
  3
GouraudWithEdges
350
2E
  3
Linepattern
350
38
  3
Realistic
350
33
  3
Thicken
350
37
  0
LAYOUT
  5
1E
102
{ACAD_REACTORS
330
1A
102
}
330
1A
100
AcDbPlotSettings
  1

  2
none_device
  4

  6

 40
0.0
 41
0.0
 42
0.0
 43
0.0
 44
0.0
 45
0.0
 46
0.0
 47
0.0
 48
0.0
 49
0.0
140
0.0
141
0.0
142
1.0
143
1.0
 70
   688
 72
     0
 73
     0
 74
     5
  7

 75
    16
 76
     0
 77
     2
 78
   300
147
1.0
148
0.0
149
0.0
100
AcDbLayout
  1
Layout1
 70
     1
 71
     1
 10
0.0
 20
0.0
 11
12.0
 21
9.0
 12
0.0
 22
0.0
 32
0.0
 14
1.000000000000000E+20
 24
1.000000000000000E+20
 34
1.000000000000000E+20
 15
-1.000000000000000E+20
 25
-1.000000000000000E+20
 35
-1.000000000000000E+20
146
0.0
 13
0.0
 23
0.0
 33
0.0
 16
1.0
 26
0.0
 36
0.0
 17
0.0
 27
1.0
 37
0.0
 76
     0
330
1B
  0
LAYOUT
  5
26
102
{ACAD_REACTORS
330
1A
102
}
330
1A
100
AcDbPlotSettings
  1

  2
none_device
  4

  6

 40
0.0
 41
0.0
 42
0.0
 43
0.0
 44
0.0
 45
0.0
 46
0.0
 47
0.0
 48
0.0
 49
0.0
140
0.0
141
0.0
142
1.0
143
1.0
 70
   688
 72
     0
 73
     0
 74
     5
  7

 75
    16
 76
     0
 77
     2
 78
   300
147
1.0
148
0.0
149
0.0
100
AcDbLayout
  1
Layout2
 70
     1
 71
     2
 10
0.0
 20
0.0
 11
0.0
 21
0.0
 12
0.0
 22
0.0
 32
0.0
 14
0.0
 24
0.0
 34
0.0
 15
0.0
 25
0.0
 35
0.0
146
0.0
 13
0.0
 23
0.0
 33
0.0
 16
1.0
 26
0.0
 36
0.0
 17
0.0
 27
1.0
 37
0.0
 76
     0
330
23
  0
LAYOUT
  5
22
102
{ACAD_REACTORS
330
1A
102
}
330
1A
100
AcDbPlotSettings
  1

  2
none_device
  4

  6

 40
0.0
 41
0.0
 42
0.0
 43
0.0
 44
0.0
 45
0.0
 46
0.0
 47
0.0
 48
0.0
 49
0.0
140
0.0
141
0.0
142
1.0
143
1.0
 70
  1712
 72
     0
 73
     0
 74
     0
  7

 75
     0
 76
     0
 77
     2
 78
   300
147
1.0
148
0.0
149
0.0
100
AcDbLayout
  1
Model
 70
     1
 71
     0
 10
0.0
 20
0.0
 11
12.0
 21
9.0
 12
0.0
 22
0.0
 32
0.0
 14
1.000000000000000E+20
 24
1.000000000000000E+20
 34
1.000000000000000E+20
 15
-1.000000000000000E+20
 25
-1.000000000000000E+20
 35
-1.000000000000000E+20
146
0.0
 13
0.0
 23
0.0
 33
0.0
 16
1.0
 26
0.0
 36
0.0
 17
0.0
 27
1.0
 37
0.0
 76
     0
330
1F
331
29
  0
MATERIAL
  5
3D
102
{ACAD_REACTORS
330
3B
102
}
330
3B
100
AcDbMaterial
  1
ByBlock
 72
     1
 94
      127
  0
MATERIAL
  5
3C
102
{ACAD_REACTORS
330
3B
102
}
330
3B
100
AcDbMaterial
  1
ByLayer
 72
     1
 94
      127
  0
MATERIAL
  5
3E
102
{ACAD_REACTORS
330
3B
102
}
330
3B
100
AcDbMaterial
  1
Global
 72
     1
 94
      127
  0
MLINESTYLE
  5
18
102
{ACAD_REACTORS
330
17
102
}
330
17
100
AcDbMlineStyle
  2
Standard
 70
     0
  3

 62
   256
 51
90.0
 52
90.0
 71
     2
 49
0.5
 62
   256
  6
BYLAYER
 49
-0.5
 62
   256
  6
BYLAYER
  0
ACDBPLACEHOLDER
  5
F
102
{ACAD_REACTORS
330
E
102
}
330
E
  0
VISUALSTYLE
  5
2F
102
{ACAD_REACTORS
330
2A
102
}
330
2A
100
AcDbVisualStyle
  2
2dWireframe
 70
     4
177
     2
291
     0
 71
     0
176
     1
 72
     2
176
     1
 73
     0
176
     1
 90
        0
176
     1
 40
-0.6
176
     1
 41
-30.0
176
     1
 62
     5
 63
     7
421
 16777215
176
     1
 74
     1
176
     1
 91
        4
176
     1
 64
     7
176
     1
 65
   257
176
     1
 75
     1
176
     1
175
     1
176
     1
 42
1.0
176
     1
 92
        0
176
     1
 66
   257
176
     1
 43
1.0
176
     1
 76
     1
176
     1
 77
     6
176
     1
 78
     2
176
     1
 67
     7
176
     1
 79
     5
176
     1
170
     0
176
     1
171
     0
176
     1
290
     0
176
     1
 93
        1
176
     1
 44
0.0
176
     1
173
     0
176
     1
  0
VISUALSTYLE
  5
31
102
{ACAD_REACTORS
330
2A
102
}
330
2A
100
AcDbVisualStyle
  2
3D Hidden
 70
     6
177
     2
291
     0
 71
     1
176
     1
 72
     2
176
     1
 73
     2
176
     1
 90
        0
176
     1
 40
-0.6
176
     1
 41
-30.0
176
     1
 62
     5
 63
     7
421
 16777215
176
     1
 74
     2
176
     1
 91
        2
176
     1
 64
     7
176
     1
 65
   257
176
     1
 75
     2
176
     1
175
     1
176
     1
 42
40.0
176
     1
 92
        0
176
     1
 66
   257
176
     1
 43
1.0
176
     1
 76
     1
176
     1
 77
     6
176
     1
 78
     2
176
     1
 67
     7
176
     1
 79
     3
176
     1
170
     0
176
     1
171
     0
176
     1
290
     0
176
     1
 93
        1
176
     1
 44
0.0
176
     1
173
     0
176
     1
  0
VISUALSTYLE
  5
30
102
{ACAD_REACTORS
330
2A
102
}
330
2A
100
AcDbVisualStyle
  2
3dWireframe
 70
     5
177
     2
291
     0
 71
     0
176
     1
 72
     2
176
     1
 73
     0
176
     1
 90
        0
176
     1
 40
-0.6
176
     1
 41
-30.0
176
     1
 62
     5
 63
     7
421
 16777215
176
     1
 74
     1
176
     1
 91
        4
176
     1
 64
     7
176
     1
 65
   257
176
     1
 75
     1
176
     1
175
     1
176
     1
 42
1.0
176
     1
 92
        0
176
     1
 66
   257
176
     1
 43
1.0
176
     1
 76
     1
176
     1
 77
     6
176
     1
 78
     2
176
     1
 67
     7
176
     1
 79
     5
176
     1
170
     0
176
     1
171
     0
176
     1
290
     0
176
     1
 93
        1
176
     1
 44
0.0
176
     1
173
     0
176
     1
  0
VISUALSTYLE
  5
32
102
{ACAD_REACTORS
330
2A
102
}
330
2A
100
AcDbVisualStyle
  2
Basic
 70
     7
177
     2
291
     1
 71
     1
176
     1
 72
     0
176
     1
 73
     1
176
     1
 90
        0
176
     1
 40
-0.6
176
     1
 41
-30.0
176
     1
 62
     5
 63
     7
421
 16777215
176
     1
 74
     0
176
     1
 91
        4
176
     1
 64
     7
176
     1
 65
   257
176
     1
 75
     1
176
     1
175
     1
176
     1
 42
1.0
176
     1
 92
        8
176
     1
 66
     7
176
     1
 43
1.0
176
     1
 76
     1
176
     1
 77
     6
176
     1
 78
     2
176
     1
 67
     7
176
     1
 79
     5
176
     1
170
     0
176
     1
171
     0
176
     1
290
     0
176
     1
 93
        1
176
     1
 44
0.0
176
     1
173
     0
176
     1
  0
VISUALSTYLE
  5
36
102
{ACAD_REACTORS
330
2A
102
}
330
2A
100
AcDbVisualStyle
  2
Brighten
 70
    12
177
     2
291
     1
 71
     2
176
     1
 72
     2
176
     1
 73
     0
176
     1
 90
        0
176
     1
 40
-0.6
176
     1
 41
-30.0
176
     1
 62
     5
 63
     7
421
 16777215
176
     1
 74
     1
176
     1
 91
        4
176
     1
 64
     7
176
     1
 65
   257
176
     1
 75
     1
176
     1
175
     1
176
     1
 42
1.0
176
     1
 92
        8
176
     1
 66
     7
176
     1
 43
1.0
176
     1
 76
     1
176
     1
 77
     6
176
     1
 78
     2
176
     1
 67
     7
176
     1
 79
     5
176
     1
170
     0
176
     1
171
     0
176
     1
290
     0
176
     1
 93
        1
176
     1
 44
50.0
176
     1
173
     0
176
     1
  0
VISUALSTYLE
  5
3A
102
{ACAD_REACTORS
330
2A
102
}
330
2A
100
AcDbVisualStyle
  2
ColorChange
 70
    16
177
     2
291
     1
 71
     2
176
     1
 72
     2
176
     1
 73
     3
176
     1
 90
        0
176
     1
 40
-0.6
176
     1
 41
-30.0
176
     1
 62
     5
 63
     8
421
  8421504
176
     1
 74
     1
176
     1
 91
        4
176
     1
 64
     7
176
     1
 65
   257
176
     1
 75
     1
176
     1
175
     1
176
     1
 42
1.0
176
     1
 92
        8
176
     1
 66
     8
424
  8421504
176
     1
 43
1.0
176
     1
 76
     1
176
     1
 77
     6
176
     1
 78
     2
176
     1
 67
     7
176
     1
 79
     5
176
     1
170
     0
176
     1
171
     0
176
     1
290
     0
176
     1
 93
        1
176
     1
 44
0.0
176
     1
173
     0
176
     1
  0
VISUALSTYLE
  5
34
102
{ACAD_REACTORS
330
2A
102
}
330
2A
100
AcDbVisualStyle
  2
Conceptual
 70
     9
177
     2
291
     0
 71
     3
176
     1
 72
     2
176
     1
 73
     0
176
     1
 90
        0
176
     1
 40
-0.6
176
     1
 41
-30.0
176
     1
 62
     5
 63
     7
421
 16777215
176
     1
 74
     2
176
     1
 91
        2
176
     1
 64
     7
176
     1
 65
   257
176
     1
 75
     1
176
     1
175
     1
176
     1
 42
40.0
176
     1
 92
        8
176
     1
 66
     7
176
     1
 43
1.0
176
     1
 76
     1
176
     1
 77
     6
176
     1
 78
     2
176
     1
 67
     7
176
     1
 79
     3
176
     1
170
     0
176
     1
171
     0
176
     1
290
     0
176
     1
 93
        1
176
     1
 44
0.0
176
     1
173
     0
176
     1
  0
VISUALSTYLE
  5
35
102
{ACAD_REACTORS
330
2A
102
}
330
2A
100
AcDbVisualStyle
  2
Dim
 70
    11
177
     2
291
     1
 71
     2
176
     1
 72
     2
176
     1
 73
     0
176
     1
 90
        0
176
     1
 40
-0.6
176
     1
 41
-30.0
176
     1
 62
     5
 63
     7
421
 16777215
176
     1
 74
     1
176
     1
 91
        4
176
     1
 64
     7
176
     1
 65
   257
176
     1
 75
     1
176
     1
175
     1
176
     1
 42
1.0
176
     1
 92
        8
176
     1
 66
     7
176
     1
 43
1.0
176
     1
 76
     1
176
     1
 77
     6
176
     1
 78
     2
176
     1
 67
     7
176
     1
 79
     5
176
     1
170
     0
176
     1
171
     0
176
     1
290
     0
176
     1
 93
        1
176
     1
 44
-50.0
176
     1
173
     0
176
     1
  0
VISUALSTYLE
  5
39
102
{ACAD_REACTORS
330
2A
102
}
330
2A
100
AcDbVisualStyle
  2
Facepattern
 70
    15
177
     2
291
     1
 71
     2
176
     1
 72
     2
176
     1
 73
     0
176
     1
 90
        0
176
     1
 40
-0.6
176
     1
 41
-30.0
176
     1
 62
     5
 63
     7
421
 16777215
176
     1
 74
     1
176
     1
 91
        4
176
     1
 64
     7
176
     1
 65
   257
176
     1
 75
     1
176
     1
175
     1
176
     1
 42
1.0
176
     1
 92
        8
176
     1
 66
     7
176
     1
 43
1.0
176
     1
 76
     1
176
     1
 77
     6
176
     1
 78
     2
176
     1
 67
     7
176
     1
 79
     5
176
     1
170
     0
176
     1
171
     0
176
     1
290
     0
176
     1
 93
        1
176
     1
 44
0.0
176
     1
173
     0
176
     1
  0
VISUALSTYLE
  5
2B
102
{ACAD_REACTORS
330
2A
102
}
330
2A
100
AcDbVisualStyle
  2
Flat
 70
     0
177
     2
291
     1
 71
     2
176
     1
 72
     1
176
     1
 73
     1
176
     1
 90
        2
176
     1
 40
-0.6
176
     1
 41
30.0
176
     1
 62
     5
 63
     7
421
 16777215
176
     1
 74
     0
176
     1
 91
        4
176
     1
 64
     7
176
     1
 65
   257
176
     1
 75
     1
176
     1
175
     1
176
     1
 42
1.0
176
     1
 92
        8
176
     1
 66
     7
176
     1
 43
1.0
176
     1
 76
     1
176
     1
 77
     6
176
     1
 78
     2
176
     1
 67
     7
176
     1
 79
     5
176
     1
170
     0
176
     1
171
     0
176
     1
290
     0
176
     1
 93
       13
176
     1
 44
0.0
176
     1
173
     0
176
     1
  0
VISUALSTYLE
  5
2C
102
{ACAD_REACTORS
330
2A
102
}
330
2A
100
AcDbVisualStyle
  2
FlatWithEdges
 70
     1
177
     2
291
     1
 71
     2
176
     1
 72
     1
176
     1
 73
     1
176
     1
 90
        2
176
     1
 40
-0.6
176
     1
 41
30.0
176
     1
 62
     5
 63
     7
421
 16777215
176
     1
 74
     1
176
     1
 91
        4
176
     1
 64
     7
176
     1
 65
   257
176
     1
 75
     1
176
     1
175
     1
176
     1
 42
1.0
176
     1
 92
        0
176
     1
 66
   257
176
     1
 43
1.0
176
     1
 76
     1
176
     1
 77
     6
176
     1
 78
     2
176
     1
 67
     7
176
     1
 79
     5
176
     1
170
     0
176
     1
171
     0
176
     1
290
     0
176
     1
 93
       13
176
     1
 44
0.0
176
     1
173
     0
176
     1
  0
VISUALSTYLE
  5
2D
102
{ACAD_REACTORS
330
2A
102
}
330
2A
100
AcDbVisualStyle
  2
Gouraud
 70
     2
177
     2
291
     1
 71
     2
176
     1
 72
     2
176
     1
 73
     1
176
     1
 90
        2
176
     1
 40
-0.6
176
     1
 41
30.0
176
     1
 62
     5
 63
     7
421
 16777215
176
     1
 74
     0
176
     1
 91
        4
176
     1
 64
     7
176
     1
 65
   257
176
     1
 75
     1
176
     1
175
     1
176
     1
 42
1.0
176
     1
 92
        0
176
     1
 66
     7
176
     1
 43
1.0
176
     1
 76
     1
176
     1
 77
     6
176
     1
 78
     2
176
     1
 67
     7
176
     1
 79
     5
176
     1
170
     0
176
     1
171
     0
176
     1
290
     0
176
     1
 93
       13
176
     1
 44
0.0
176
     1
173
     0
176
     1
  0
VISUALSTYLE
  5
2E
102
{ACAD_REACTORS
330
2A
102
}
330
2A
100
AcDbVisualStyle
  2
GouraudWithEdges
 70
     3
177
     2
291
     1
 71
     2
176
     1
 72
     2
176
     1
 73
     1
176
     1
 90
        2
176
     1
 40
-0.6
176
     1
 41
30.0
176
     1
 62
     5
 63
     7
421
 16777215
176
     1
 74
     1
176
     1
 91
        4
176
     1
 64
     7
176
     1
 65
   257
176
     1
 75
     1
176
     1
175
     1
176
     1
 42
1.0
176
     1
 92
        0
176
     1
 66
   257
176
     1
 43
1.0
176
     1
 76
     1
176
     1
 77
     6
176
     1
 78
     2
176
     1
 67
     7
176
     1
 79
     5
176
     1
170
     0
176
     1
171
     0
176
     1
290
     0
176
     1
 93
       13
176
     1
 44
0.0
176
     1
173
     0
176
     1
  0
VISUALSTYLE
  5
38
102
{ACAD_REACTORS
330
2A
102
}
330
2A
100
AcDbVisualStyle
  2
Linepattern
 70
    14
177
     2
291
     1
 71
     2
176
     1
 72
     2
176
     1
 73
     0
176
     1
 90
        0
176
     1
 40
-0.6
176
     1
 41
-30.0
176
     1
 62
     5
 63
     7
421
 16777215
176
     1
 74
     1
176
     1
 91
        4
176
     1
 64
     7
176
     1
 65
   257
176
     1
 75
     7
176
     1
175
     7
176
     1
 42
1.0
176
     1
 92
        8
176
     1
 66
     7
176
     1
 43
1.0
176
     1
 76
     1
176
     1
 77
     6
176
     1
 78
     2
176
     1
 67
     7
176
     1
 79
     5
176
     1
170
     0
176
     1
171
     0
176
     1
290
     0
176
     1
 93
        1
176
     1
 44
0.0
176
     1
173
     0
176
     1
  0
VISUALSTYLE
  5
33
102
{ACAD_REACTORS
330
2A
102
}
330
2A
100
AcDbVisualStyle
  2
Realistic
 70
     8
177
     2
291
     0
 71
     2
176
     1
 72
     2
176
     1
 73
     0
176
     1
 90
        0
176
     1
 40
-0.6
176
     1
 41
-30.0
176
     1
 62
     5
 63
     7
421
 16777215
176
     1
 74
     1
176
     1
 91
        0
176
     1
 64
     7
176
     1
 65
   257
176
     1
 75
     1
176
     1
175
     1
176
     1
 42
1.0
176
     1
 92
        8
176
     1
 66
     8
424
  7895160
176
     1
 43
1.0
176
     1
 76
     1
176
     1
 77
     6
176
     1
 78
     2
176
     1
 67
     7
176
     1
 79
     5
176
     1
170
     0
176
     1
171
     0
176
     1
290
     0
176
     1
 93
       13
176
     1
 44
0.0
176
     1
173
     0
176
     1
  0
VISUALSTYLE
  5
37
102
{ACAD_REACTORS
330
2A
102
}
330
2A
100
AcDbVisualStyle
  2
Thicken
 70
    13
177
     2
291
     1
 71
     2
176
     1
 72
     2
176
     1
 73
     0
176
     1
 90
        0
176
     1
 40
-0.6
176
     1
 41
-30.0
176
     1
 62
     5
 63
     7
421
 16777215
176
     1
 74
     1
176
     1
 91
        4
176
     1
 64
     7
176
     1
 65
   257
176
     1
 75
     1
176
     1
175
     1
176
     1
 42
1.0
176
     1
 92
       12
176
     1
 66
     7
176
     1
 43
1.0
176
     1
 76
     1
176
     1
 77
     6
176
     1
 78
     2
176
     1
 67
     7
176
     1
 79
     5
176
     1
170
     0
176
     1
171
     0
176
     1
290
     0
176
     1
 93
        1
176
     1
 44
0.0
176
     1
173
     0
176
     1
  0
ENDSEC
  0
EOF
