  0
SECTION
  2
HEADER
  9
$ACADVER
  1
AC1024
  9
$ACADMAINTVER
 70
     6
  9
$DWGCODEPAGE
  3
UNDEFINED
  9
$INSBASE
 10
0.0
 20
0.0
 30
0.0
  9
$EXTMIN
 10
1.000000000000000E+20
 20
1.000000000000000E+20
 30
1.000000000000000E+20
  9
$EXTMAX
 10
-1.000000000000000E+20
 20
-1.000000000000000E+20
 30
-1.000000000000000E+20
  9
$LIMMIN
 10
0.0
 20
0.0
  9
$LIMMAX
 10
12.0
 20
9.0
  9
$ORTHOMODE
 70
     0
  9
$REGENMODE
 70
     1
  9
$FILLMODE
 70
     1
  9
$QTEXTMODE
 70
     0
  9
$MIRRTEXT
 70
     1
  9
$LTSCALE
 40
1.0
  9
$ATTMODE
 70
     1
  9
$TEXTSIZE
 40
0.2
  9
$TRACEWID
 40
0.05
  9
$TEXTSTYLE
  7
Standard
  9
$CLAYER
  8
0
  9
$CELTYPE
  6
ByLayer
  9
$CECOLOR
 62
   256
  9
$CELTSCALE
 40
1.0
  9
$DISPSILH
 70
     0
  9
$DIMSCALE
 40
1.0
  9
$DIMASZ
 40
0.18
  9
$DIMEXO
 40
0.0625
  9
$DIMDLI
 40
0.38
  9
$DIMRND
 40
0.0
  9
$DIMDLE
 40
0.0
  9
$DIMEXE
 40
0.18
  9
$DIMTP
 40
0.0
  9
$DIMTM
 40
0.0
  9
$DIMTXT
 40
0.18
  9
$DIMCEN
 40
0.09
  9
$DIMTSZ
 40
0.0
  9
$DIMTOL
 70
     0
  9
$DIMLIM
 70
     0
  9
$DIMTIH
 70
     1
  9
$DIMTOH
 70
     1
  9
$DIMSE1
 70
     0
  9
$DIMSE2
 70
     0
  9
$DIMTAD
 70
     0
  9
$DIMZIN
 70
     0
  9
$DIMBLK
  1

  9
$DIMASO
 70
     1
  9
$DIMSHO
 70
     1
  9
$DIMPOST
  1

  9
$DIMAPOST
  1

  9
$DIMALT
 70
     0
  9
$DIMALTD
 70
     2
  9
$DIMALTF
 40
25.4
  9
$DIMLFAC
 40
1.0
  9
$DIMTOFL
 70
     0
  9
$DIMTVP
 40
0.0
  9
$DIMTIX
 70
     0
  9
$DIMSOXD
 70
     0
  9
$DIMSAH
 70
     0
  9
$DIMBLK1
  1

  9
$DIMBLK2
  1

  9
$DIMSTYLE
  2
Standard
  9
$DIMCLRD
 70
     0
  9
$DIMCLRE
 70
     0
  9
$DIMCLRT
 70
     0
  9
$DIMTFAC
 40
1.0
  9
$DIMGAP
 40
0.09
  9
$DIMJUST
 70
     0
  9
$DIMSD1
 70
     0
  9
$DIMSD2
 70
     0
  9
$DIMTOLJ
 70
     1
  9
$DIMTZIN
 70
     0
  9
$DIMALTZ
 70
     0
  9
$DIMALTTZ
 70
     0
  9
$DIMUPT
 70
     0
  9
$DIMDEC
 70
     4
  9
$DIMTDEC
 70
     4
  9
$DIMALTU
 70
     2
  9
$DIMALTTD
 70
     2
  9
$DIMTXSTY
  7
Standard
  9
$DIMAUNIT
 70
     0
  9
$DIMADEC
 70
     0
  9
$DIMALTRND
 40
0.0
  9
$DIMAZIN
 70
     0
  9
$DIMDSEP
 70
    46
  9
$DIMATFIT
 70
     3
  9
$DIMFRAC
 70
     0
  9
$DIMLDRBLK
  1

  9
$DIMLUNIT
 70
     2
  9
$DIMLWD
 70
    -2
  9
$DIMLWE
 70
    -2
  9
$DIMTMOVE
 70
     0
  9
$DIMFXL
 40
1.0
  9
$DIMFXLON
 70
     0
  9
$DIMJOGANG
 40
0.7853981633974483
  9
$DIMTFILL
 70
     0
  9
$DIMTFILLCLR
 70
     0
  9
$DIMARCSYM
 70
     0
  9
$DIMLTYPE
  6

  9
$DIMLTEX1
  6

  9
$DIMLTEX2
  6

  9
$DIMTXTDIRECTION
 70
     0
  9
$LUNITS
 70
     2
  9
$LUPREC
 70
     4
  9
$SKETCHINC
 40
0.1
  9
$FILLETRAD
 40
0.5
  9
$AUNITS
 70
     0
  9
$AUPREC
 70
     0
  9
$MENU
  1
.
  9
$ELEVATION
 40
0.0
  9
$PELEVATION
 40
0.0
  9
$THICKNESS
 40
0.0
  9
$LIMCHECK
 70
     0
  9
$CHAMFERA
 40
0.5
  9
$CHAMFERB
 40
0.5
  9
$CHAMFERC
 40
1.0
  9
$CHAMFERD
 40
0.0
  9
$SKPOLY
 70
     0
  9
$TDCREATE
 40
2457917.62023147
  9
$TDUCREATE
 40
2457917.245231481
  9
$TDUPDATE
 40
2457917.62023147
  9
$TDUUPDATE
 40
2457917.245231481
  9
$TDINDWG
 40
0.0000000116
  9
$TDUSRTIMER
 40
0.0000000116
  9
$USRTIMER
 70
     1
  9
$ANGBASE
 50
0.0
  9
$ANGDIR
 70
     0
  9
$PDMODE
 70
     0
  9
$PDSIZE
 40
0.0
  9
$PLINEWID
 40
0.0
  9
$SPLFRAME
 70
     0
  9
$SPLINETYPE
 70
     6
  9
$SPLINESEGS
 70
     8
  9
$HANDSEED
  5
DD
  9
$SURFTAB1
 70
     6
  9
$SURFTAB2
 70
     6
  9
$SURFTYPE
 70
     6
  9
$SURFU
 70
     6
  9
$SURFV
 70
     6
  9
$UCSBASE
  2

  9
$UCSNAME
  2

  9
$UCSORG
 10
0.0
 20
0.0
 30
0.0
  9
$UCSXDIR
 10
1.0
 20
0.0
 30
0.0
  9
$UCSYDIR
 10
0.0
 20
1.0
 30
0.0
  9
$UCSORTHOREF
  2

  9
$UCSORTHOVIEW
 70
     0
  9
$UCSORGTOP
 10
0.0
 20
0.0
 30
0.0
  9
$UCSORGBOTTOM
 10
0.0
 20
0.0
 30
0.0
  9
$UCSORGLEFT
 10
0.0
 20
0.0
 30
0.0
  9
$UCSORGRIGHT
 10
0.0
 20
0.0
 30
0.0
  9
$UCSORGFRONT
 10
0.0
 20
0.0
 30
0.0
  9
$UCSORGBACK
 10
0.0
 20
0.0
 30
0.0
  9
$PUCSBASE
  2

  9
$PUCSNAME
  2

  9
$PUCSORG
 10
0.0
 20
0.0
 30
0.0
  9
$PUCSXDIR
 10
1.0
 20
0.0
 30
0.0
  9
$PUCSYDIR
 10
0.0
 20
1.0
 30
0.0
  9
$PUCSORTHOREF
  2

  9
$PUCSORTHOVIEW
 70
     0
  9
$PUCSORGTOP
 10
0.0
 20
0.0
 30
0.0
  9
$PUCSORGBOTTOM
 10
0.0
 20
0.0
 30
0.0
  9
$PUCSORGLEFT
 10
0.0
 20
0.0
 30
0.0
  9
$PUCSORGRIGHT
 10
0.0
 20
0.0
 30
0.0
  9
$PUCSORGFRONT
 10
0.0
 20
0.0
 30
0.0
  9
$PUCSORGBACK
 10
0.0
 20
0.0
 30
0.0
  9
$USERI1
 70
     0
  9
$USERI2
 70
     0
  9
$USERI3
 70
     0
  9
$USERI4
 70
     0
  9
$USERI5
 70
     0
  9
$USERR1
 40
0.0
  9
$USERR2
 40
0.0
  9
$USERR3
 40
0.0
  9
$USERR4
 40
0.0
  9
$USERR5
 40
0.0
  9
$WORLDVIEW
 70
     1
  9
$SHADEDGE
 70
     3
  9
$SHADEDIF
 70
    70
  9
$TILEMODE
 70
     1
  9
$MAXACTVP
 70
    64
  9
$PINSBASE
 10
0.0
 20
0.0
 30
0.0
  9
$PLIMCHECK
 70
     0
  9
$PEXTMIN
 10
1.000000000000000E+20
 20
1.000000000000000E+20
 30
1.000000000000000E+20
  9
$PEXTMAX
 10
-1.000000000000000E+20
 20
-1.000000000000000E+20
 30
-1.000000000000000E+20
  9
$PLIMMIN
 10
0.0
 20
0.0
  9
$PLIMMAX
 10
12.0
 20
9.0
  9
$UNITMODE
 70
     0
  9
$VISRETAIN
 70
     1
  9
$PLINEGEN
 70
     0
  9
$PSLTSCALE
 70
     1
  9
$TREEDEPTH
 70
  3020
  9
$CMLSTYLE
  2
Standard
  9
$CMLJUST
 70
     0
  9
$CMLSCALE
 40
1.0
  9
$PROXYGRAPHICS
 70
     1
  9
$MEASUREMENT
 70
     0
  9
$CELWEIGHT
370
    -1
  9
$ENDCAPS
280
     0
  9
$JOINSTYLE
280
     0
  9
$LWDISPLAY
290
     1
  9
$INSUNITS
 70
     1
  9
$HYPERLINKBASE
  1

  9
$STYLESHEET
  1

  9
$XEDIT
290
     1
  9
$CEPSNTYPE
380
     0
  9
$PSTYLEMODE
290
     1
  9
$FINGERPRINTGUID
  2
{B1B4E376-B369-C4BD-E53B-3D070429E459}
  9
$VERSIONGUID
  2
{FAEB1C32-E019-11D5-929B-00C0DF256EC4}
  9
$EXTNAMES
290
     1
  9
$PSVPSCALE
 40
0.0
  9
$OLESTARTUP
290
     0
  9
$SORTENTS
280
   127
  9
$INDEXCTL
280
     0
  9
$HIDETEXT
280
     1
  9
$XCLIPFRAME
280
     2
  9
$HALOGAP
280
     0
  9
$OBSCOLOR
 70
   257
  9
$OBSLTYPE
280
     0
  9
$INTERSECTIONDISPLAY
280
     0
  9
$INTERSECTIONCOLOR
 70
   257
  9
$DIMASSOC
280
     2
  9
$PROJECTNAME
  1

  9
$CAMERADISPLAY
290
     0
  9
$LENSLENGTH
 40
50.0
  9
$CAMERAHEIGHT
 40
0.0
  9
$STEPSPERSEC
 40
2.0
  9
$STEPSIZE
 40
6.0
  9
$3DDWFPREC
 40
2.0
  9
$PSOLWIDTH
 40
0.25
  9
$PSOLHEIGHT
 40
4.0
  9
$LOFTANG1
 40
1.570796326794897
  9
$LOFTANG2
 40
1.570796326794897
  9
$LOFTMAG1
 40
0.0
  9
$LOFTMAG2
 40
0.0
  9
$LOFTPARAM
 70
     7
  9
$LOFTNORMALS
280
     1
  9
$LATITUDE
 40
37.795
  9
$LONGITUDE
 40
-122.394
  9
$NORTHDIRECTION
 40
0.0
  9
$TIMEZONE
 70
 -8000
  9
$LIGHTGLYPHDISPLAY
280
     1
  9
$TILEMODELIGHTSYNCH
280
     1
  9
$CMATERIAL
347
3C
  9
$SOLIDHIST
280
     1
  9
$SHOWHIST
280
     1
  9
$DWFFRAME
280
     2
  9
$DGNFRAME
280
     2
  9
$REALWORLDSCALE
290
     1
  9
$INTERFERECOLOR
 62
   256
  9
$CSHADOW
280
     0
  9
$SHADOWPLANELOCATION
 40
0.0
  0
ENDSEC
  0
SECTION
  2
CLASSES
  0
CLASS
  1
ACDBDICTIONARYWDFLT
  2
AcDbDictionaryWithDefault
  3
ObjectDBX Classes
 90
        0
 91
        4
280
     0
281
     0
  0
CLASS
  1
VISUALSTYLE
  2
AcDbVisualStyle
  3
ObjectDBX Classes
 90
     4095
 91
        4
280
     0
281
     0
  0
CLASS
  1
MATERIAL
  2
AcDbMaterial
  3
ObjectDBX Classes
 90
     1153
 91
        4
280
     0
281
     0
  0
CLASS
  1
SUN
  2
AcDbSun
  3
SCENEOE
 90
     1024
 91
        4
280
     0
281
     0
  0
ENDSEC
  0
SECTION
  2
TABLES
  0
TABLE
  2
VPORT
  5
8
330
0
100
AcDbSymbolTable
 70
     1
  0
VPORT
  5
29
330
8
100
AcDbSymbolTableRecord
100
AcDbViewportTableRecord
  2
*Active
 70
     0
 10
0.0
 20
0.0
 11
1.0
 21
1.0
 12
0.0
 22
0.0
 13
0.0
 23
0.0
 14
0.5
 24
0.5
 15
0.5
 25
0.5
 16
0.0
 26
0.0
 36
1.0
 17
91.00082462281999
 27
-128.4993055234307
 37
0.0
 40
256.9986110468615
 41
0.7081814508812795
 42
50.0
 43
0.0
 44
0.0
 50
0.0
 51
0.0
 71
     0
 72
   100
 73
     1
 74
     3
 75
     0
 76
     0
 77
     0
 78
     0
281
     0
 65
     1
110
0.0
120
0.0
130
0.0
111
1.0
121
0.0
131
0.0
112
0.0
122
1.0
132
0.0
 79
     0
146
0.0
 60
     3
 61
     5
292
     1
282
     1
141
0.0
142
0.0
 63
   250
361
3F
  0
ENDTAB
  0
TABLE
  2
LTYPE
  5
5
330
0
100
AcDbSymbolTable
 70
     1
  0
LTYPE
  5
14
330
5
100
AcDbSymbolTableRecord
100
AcDbLinetypeTableRecord
  2
ByBlock
 70
     0
  3

 72
    65
 73
     0
 40
0.0
  0
LTYPE
  5
15
330
5
100
AcDbSymbolTableRecord
100
AcDbLinetypeTableRecord
  2
ByLayer
 70
     0
  3

 72
    65
 73
     0
 40
0.0
  0
LTYPE
  5
16
330
5
100
AcDbSymbolTableRecord
100
AcDbLinetypeTableRecord
  2
Continuous
 70
     0
  3
Solid line
 72
    65
 73
     0
 40
0.0
  0
ENDTAB
  0
TABLE
  2
LAYER
  5
2
330
0
100
AcDbSymbolTable
 70
     2
  0
LAYER
  5
10
330
2
100
AcDbSymbolTableRecord
100
AcDbLayerTableRecord
  2
0
 70
     0
 62
     7
  6
Continuous
370
    -3
390
F
347
3E
  0
LAYER
  5
40
330
2
100
AcDbSymbolTableRecord
100
AcDbLayerTableRecord
  2
_U+30EC_U+30A4_U+30E4_U+30FC 1
 70
     0
 62
     7
  6
Continuous
370
    -3
390
F
347
3E
  0
ENDTAB
  0
TABLE
  2
STYLE
  5
3
330
0
100
AcDbSymbolTable
 70
     1
  0
STYLE
  5
11
330
3
100
AcDbSymbolTableRecord
100
AcDbTextStyleTableRecord
  2
Standard
 70
     0
 40
0.0
 41
1.0
 50
0.0
 71
     0
 42
0.2
  3
txt
  4

  0
ENDTAB
  0
TABLE
  2
VIEW
  5
6
330
0
100
AcDbSymbolTable
 70
     0
  0
ENDTAB
  0
TABLE
  2
UCS
  5
7
330
0
100
AcDbSymbolTable
 70
     0
  0
ENDTAB
  0
TABLE
  2
APPID
  5
9
330
0
100
AcDbSymbolTable
 70
     1
  0
APPID
  5
12
330
9
100
AcDbSymbolTableRecord
100
AcDbRegAppTableRecord
  2
ACAD
 70
     0
  0
ENDTAB
  0
TABLE
  2
DIMSTYLE
  5
A
330
0
100
AcDbSymbolTable
 70
     1
100
AcDbDimStyleTable
  0
DIMSTYLE
105
27
330
A
100
AcDbSymbolTableRecord
100
AcDbDimStyleTableRecord
  2
Standard
 70
     0
178
     0
340
11
  0
ENDTAB
  0
TABLE
  2
BLOCK_RECORD
  5
1
330
0
100
AcDbSymbolTable
 70
     8
  0
BLOCK_RECORD
  5
1F
330
1
100
AcDbSymbolTableRecord
100
AcDbBlockTableRecord
  2
*Model_Space
340
22
 70
     0
280
     1
281
     0
  0
BLOCK_RECORD
  5
1B
330
1
100
AcDbSymbolTableRecord
100
AcDbBlockTableRecord
  2
*Paper_Space
340
1E
 70
     0
280
     1
281
     0
  0
BLOCK_RECORD
  5
23
330
1
100
AcDbSymbolTableRecord
100
AcDbBlockTableRecord
  2
*Paper_Space0
340
26
 70
     0
280
     1
281
     0
  0
BLOCK_RECORD
  5
47
330
1
100
AcDbSymbolTableRecord
100
AcDbBlockTableRecord
  2
block 2
340
0
102
{BLKREFS
331
48
102
}
 70
     0
280
     1
281
     0
  0
BLOCK_RECORD
  5
53
330
1
100
AcDbSymbolTableRecord
100
AcDbBlockTableRecord
  2
block 3
340
0
102
{BLKREFS
331
54
102
}
 70
     0
280
     1
281
     0
  0
BLOCK_RECORD
  5
70
330
1
100
AcDbSymbolTableRecord
100
AcDbBlockTableRecord
  2
block 4
340
0
102
{BLKREFS
331
71
102
}
 70
     0
280
     1
281
     0
  0
BLOCK_RECORD
  5
78
330
1
100
AcDbSymbolTableRecord
100
AcDbBlockTableRecord
  2
block 5
340
0
102
{BLKREFS
331
79
102
}
 70
     0
280
     1
281
     0
  0
BLOCK_RECORD
  5
8D
330
1
100
AcDbSymbolTableRecord
100
AcDbBlockTableRecord
  2
block 6
340
0
102
{BLKREFS
331
8E
102
}
 70
     0
280
     1
281
     0
  0
BLOCK_RECORD
  5
AD
330
1
100
AcDbSymbolTableRecord
100
AcDbBlockTableRecord
  2
block 7
340
0
102
{BLKREFS
331
AE
102
}
 70
     0
280
     1
281
     0
  0
BLOCK_RECORD
  5
BF
330
1
100
AcDbSymbolTableRecord
100
AcDbBlockTableRecord
  2
block 8
340
0
102
{BLKREFS
331
C0
102
}
 70
     0
280
     1
281
     0
  0
ENDTAB
  0
ENDSEC
  0
SECTION
  2
BLOCKS
  0
BLOCK
  5
20
330
1F
100
AcDbEntity
  8
0
100
AcDbBlockBegin
  2
*Model_Space
 70
     0
 10
0.0
 20
0.0
 30
0.0
  3
*Model_Space
  1

  0
ENDBLK
  5
21
330
1F
100
AcDbEntity
  8
0
100
AcDbBlockEnd
  0
BLOCK
  5
1C
330
1B
100
AcDbEntity
 67
     1
  8
0
100
AcDbBlockBegin
  2
*Paper_Space
 70
     0
 10
0.0
 20
0.0
 30
0.0
  3
*Paper_Space
  1

  0
ENDBLK
  5
1D
330
1B
100
AcDbEntity
 67
     1
  8
0
100
AcDbBlockEnd
  0
BLOCK
  5
24
330
23
100
AcDbEntity
  8
0
100
AcDbBlockBegin
  2
*Paper_Space0
 70
     0
 10
0.0
 20
0.0
 30
0.0
  3
*Paper_Space0
  1

  0
ENDBLK
  5
25
330
23
100
AcDbEntity
  8
0
100
AcDbBlockEnd
  0
BLOCK
  5
49
330
47
100
AcDbEntity
  8
0
100
AcDbBlockBegin
  2
block 2
 70
     0
 10
0.0
 20
0.0
 30
0.0
  3
block 2
  1

  0
SPLINE
  5
4B
330
47
100
AcDbEntity
  8
_U+30EC_U+30A4_U+30E4_U+30FC 1
370
     0
100
AcDbSpline
210
0.0
220
0.0
230
1.0
 70
    11
 71
     3
 72
    26
 73
    22
 74
     0
 42
0.0000000001
 43
0.0000000001
 12
1.0
 22
0.0
 32
0.0
 13
1.0
 23
0.0
 33
0.0
 40
0.0
 40
0.0
 40
0.0
 40
0.0
 40
1.0
 40
1.0
 40
1.0
 40
2.0
 40
2.0
 40
2.0
 40
3.0
 40
3.0
 40
3.0
 40
4.0
 40
4.0
 40
4.0
 40
5.0
 40
5.0
 40
5.0
 40
6.0
 40
6.0
 40
6.0
 40
7.0
 40
7.0
 40
7.0
 40
7.0
 10
86.04573836824551
 20
-151.1976616375478
 30
0.0
 10
86.04573836824551
 20
-151.1976616375478
 30
0.0
 10
86.04573836824551
 20
-150.0931640249767
 30
0.0
 10
86.04573836824551
 20
-150.0931640249767
 30
0.0
 10
86.04573836824551
 20
-150.0931640249767
 30
0.0
 10
85.71569822075858
 20
-150.0931640249767
 30
0.0
 10
85.71569822075858
 20
-150.0931640249767
 30
0.0
 10
85.71569822075858
 20
-150.0931640249767
 30
0.0
 10
85.71569822075858
 20
-149.9453694286595
 30
0.0
 10
85.71569822075858
 20
-149.9453694286595
 30
0.0
 10
86.04780542553667
 20
-149.9305555180729
 30
0.0
 10
86.09431421458754
 20
-149.7676025016206
 30
0.0
 10
86.12394203576069
 20
-149.6535698410588
 30
0.0
 10
86.12394203576069
 20
-149.6535698410588
 30
0.0
 10
86.27001408433527
 20
-149.6535698410588
 30
0.0
 10
86.27001408433527
 20
-149.6535698410588
 30
0.0
 10
86.27001408433527
 20
-149.6535698410588
 30
0.0
 10
86.27001408433527
 20
-151.1976616375478
 30
0.0
 10
86.27001408433527
 20
-151.1976616375478
 30
0.0
 10
86.27001408433527
 20
-151.1976616375478
 30
0.0
 10
86.04573836824551
 20
-151.1976616375478
 30
0.0
 10
86.04573836824551
 20
-151.1976616375478
 30
0.0
  0
HATCH
  5
4C
330
47
100
AcDbEntity
  8
_U+30EC_U+30A4_U+30E4_U+30FC 1
 62
   179
420
  2234388
100
AcDbHatch
 10
0.0
 20
0.0
 30
0.0
210
0.0
220
0.0
230
1.0
  2
SOLID
 70
     1
 71
     0
 91
        1
 92
        1
 93
        1
 72
     4
 94
        3
 73
     0
 74
     1
 95
       26
 96
       22
 40
0.0
 40
0.0
 40
0.0
 40
0.0
 40
1.0
 40
1.0
 40
1.0
 40
2.0
 40
2.0
 40
2.0
 40
3.0
 40
3.0
 40
3.0
 40
4.0
 40
4.0
 40
4.0
 40
5.0
 40
5.0
 40
5.0
 40
6.0
 40
6.0
 40
6.0
 40
7.0
 40
7.0
 40
7.0
 40
7.0
 10
86.04573836824551
 20
-151.1976616375478
 10
86.04573836824551
 20
-151.1976616375478
 10
86.04573836824551
 20
-150.0931640249767
 10
86.04573836824551
 20
-150.0931640249767
 10
86.04573836824551
 20
-150.0931640249767
 10
85.71569822075858
 20
-150.0931640249767
 10
85.71569822075858
 20
-150.0931640249767
 10
85.71569822075858
 20
-150.0931640249767
 10
85.71569822075858
 20
-149.9453694286595
 10
85.71569822075858
 20
-149.9453694286595
 10
86.04780542553667
 20
-149.9305555180729
 10
86.09431421458754
 20
-149.7676025016206
 10
86.12394203576069
 20
-149.6535698410588
 10
86.12394203576069
 20
-149.6535698410588
 10
86.27001408433527
 20
-149.6535698410588
 10
86.27001408433527
 20
-149.6535698410588
 10
86.27001408433527
 20
-149.6535698410588
 10
86.27001408433527
 20
-151.1976616375478
 10
86.27001408433527
 20
-151.1976616375478
 10
86.27001408433527
 20
-151.1976616375478
 10
86.04573836824551
 20
-151.1976616375478
 10
86.04573836824551
 20
-151.1976616375478
 97
        0
 97
        0
 75
     2
 76
     1
 98
        0
  0
SPLINE
  5
4D
330
47
100
AcDbEntity
  8
_U+30EC_U+30A4_U+30E4_U+30FC 1
370
     0
100
AcDbSpline
210
0.0
220
0.0
230
1.0
 70
    11
 71
     3
 72
    53
 73
    49
 74
     0
 42
0.0000000001
 43
0.0000000001
 12
1.0
 22
0.0
 32
0.0
 13
1.0
 23
0.0
 33
0.0
 40
0.0
 40
0.0
 40
0.0
 40
0.0
 40
1.0
 40
1.0
 40
1.0
 40
2.0
 40
2.0
 40
2.0
 40
3.0
 40
3.0
 40
3.0
 40
4.0
 40
4.0
 40
4.0
 40
5.0
 40
5.0
 40
5.0
 40
6.0
 40
6.0
 40
6.0
 40
7.0
 40
7.0
 40
7.0
 40
8.0
 40
8.0
 40
8.0
 40
9.0
 40
9.0
 40
9.0
 40
10.0
 40
10.0
 40
10.0
 40
11.0
 40
11.0
 40
11.0
 40
12.0
 40
12.0
 40
12.0
 40
13.0
 40
13.0
 40
13.0
 40
14.0
 40
14.0
 40
14.0
 40
15.0
 40
15.0
 40
15.0
 40
16.0
 40
16.0
 40
16.0
 40
16.0
 10
87.25221080718
 20
-151.2486490507295
 30
0.0
 10
87.17383488489057
 20
-151.2486490507295
 30
0.0
 10
87.07237682284996
 20
-151.2314235733033
 30
0.0
 10
86.9707465060351
 20
-151.1680338163747
 30
0.0
 10
86.79728594835277
 20
-151.0577907608467
 30
0.0
 10
86.77609861111848
 20
-150.9268771324072
 30
0.0
 10
86.7571505859496
 20
-150.8190456437189
 30
0.0
 10
86.7571505859496
 20
-150.8190456437189
 30
0.0
 10
86.97918698997395
 20
-150.8190456437189
 30
0.0
 10
86.97918698997395
 20
-150.8190456437189
 30
0.0
 10
87.03430851773795
 20
-151.0178276532178
 30
0.0
 10
87.16126028636941
 20
-151.0474554743909
 30
0.0
 10
87.25427786447116
 20
-151.0474554743909
 30
0.0
 10
87.39397648639803
 20
-151.0474554743909
 30
0.0
 10
87.54624970684608
 20
-150.9482367244157
 30
0.0
 10
87.54624970684608
 20
-150.7153482696128
 30
0.0
 10
87.54624970684608
 20
-150.4593776750588
 30
0.0
 10
87.36641572251604
 20
-150.3894422367082
 30
0.0
 10
87.2458373805323
 20
-150.3894422367082
 30
0.0
 10
87.214142502068
 20
-150.3894422367082
 30
0.0
 10
87.07237682284996
 20
-150.3894422367082
 30
0.0
 10
86.98349335933052
 20
-150.5186333174051
 30
0.0
 10
86.98349335933052
 20
-150.5186333174051
 30
0.0
 10
86.80796574435703
 20
-150.4996852922362
 30
0.0
 10
86.80796574435703
 20
-150.4996852922362
 30
0.0
 10
86.80796574435703
 20
-150.4996852922362
 30
0.0
 10
86.92854408634078
 20
-149.6535698410588
 30
0.0
 10
86.92854408634078
 20
-149.6535698410588
 30
0.0
 10
86.92854408634078
 20
-149.6535698410588
 30
0.0
 10
87.70696341123299
 20
-149.6535698410588
 30
0.0
 10
87.70696341123299
 20
-149.6535698410588
 30
0.0
 10
87.70696341123299
 20
-149.6535698410588
 30
0.0
 10
87.70696341123299
 20
-149.8478732264269
 30
0.0
 10
87.70696341123299
 20
-149.8478732264269
 30
0.0
 10
87.70696341123299
 20
-149.8478732264269
 30
0.0
 10
87.09132484801884
 20
-149.8478732264269
 30
0.0
 10
87.09132484801884
 20
-149.8478732264269
 30
0.0
 10
87.09132484801884
 20
-149.8478732264269
 30
0.0
 10
87.0258680337991
 20
-150.2709309520156
 30
0.0
 10
87.0258680337991
 20
-150.2709309520156
 30
0.0
 10
87.08719073343654
 20
-150.2371690162602
 30
0.0
 10
87.16970077030827
 20
-150.1972059086312
 30
0.0
 10
87.2880398002266
 20
-150.1972059086312
 30
0.0
 10
87.54194333748951
 20
-150.1972059086312
 30
0.0
 10
87.7789659068747
 20
-150.3832410648347
 30
0.0
 10
87.7789659068747
 20
-150.6960557348954
 30
0.0
 10
87.7789659068747
 20
-151.0136935386355
 30
0.0
 10
87.55469019078494
 20
-151.2486490507295
 30
0.0
 10
87.25221080718
 20
-151.2486490507295
 30
0.0
  0
HATCH
  5
4E
330
47
100
AcDbEntity
  8
_U+30EC_U+30A4_U+30E4_U+30FC 1
 62
   179
420
  2234388
100
AcDbHatch
 10
0.0
 20
0.0
 30
0.0
210
0.0
220
0.0
230
1.0
  2
SOLID
 70
     1
 71
     0
 91
        1
 92
        1
 93
        1
 72
     4
 94
        3
 73
     0
 74
     1
 95
       53
 96
       49
 40
0.0
 40
0.0
 40
0.0
 40
0.0
 40
1.0
 40
1.0
 40
1.0
 40
2.0
 40
2.0
 40
2.0
 40
3.0
 40
3.0
 40
3.0
 40
4.0
 40
4.0
 40
4.0
 40
5.0
 40
5.0
 40
5.0
 40
6.0
 40
6.0
 40
6.0
 40
7.0
 40
7.0
 40
7.0
 40
8.0
 40
8.0
 40
8.0
 40
9.0
 40
9.0
 40
9.0
 40
10.0
 40
10.0
 40
10.0
 40
11.0
 40
11.0
 40
11.0
 40
12.0
 40
12.0
 40
12.0
 40
13.0
 40
13.0
 40
13.0
 40
14.0
 40
14.0
 40
14.0
 40
15.0
 40
15.0
 40
15.0
 40
16.0
 40
16.0
 40
16.0
 40
16.0
 10
87.25221080718
 20
-151.2486490507295
 10
87.17383488489057
 20
-151.2486490507295
 10
87.07237682284996
 20
-151.2314235733033
 10
86.9707465060351
 20
-151.1680338163747
 10
86.79728594835277
 20
-151.0577907608467
 10
86.77609861111848
 20
-150.9268771324072
 10
86.7571505859496
 20
-150.8190456437189
 10
86.7571505859496
 20
-150.8190456437189
 10
86.97918698997395
 20
-150.8190456437189
 10
86.97918698997395
 20
-150.8190456437189
 10
87.03430851773795
 20
-151.0178276532178
 10
87.16126028636941
 20
-151.0474554743909
 10
87.25427786447116
 20
-151.0474554743909
 10
87.39397648639803
 20
-151.0474554743909
 10
87.54624970684608
 20
-150.9482367244157
 10
87.54624970684608
 20
-150.7153482696128
 10
87.54624970684608
 20
-150.4593776750588
 10
87.36641572251604
 20
-150.3894422367082
 10
87.2458373805323
 20
-150.3894422367082
 10
87.214142502068
 20
-150.3894422367082
 10
87.07237682284996
 20
-150.3894422367082
 10
86.98349335933052
 20
-150.5186333174051
 10
86.98349335933052
 20
-150.5186333174051
 10
86.80796574435703
 20
-150.4996852922362
 10
86.80796574435703
 20
-150.4996852922362
 10
86.80796574435703
 20
-150.4996852922362
 10
86.92854408634078
 20
-149.6535698410588
 10
86.92854408634078
 20
-149.6535698410588
 10
86.92854408634078
 20
-149.6535698410588
 10
87.70696341123299
 20
-149.6535698410588
 10
87.70696341123299
 20
-149.6535698410588
 10
87.70696341123299
 20
-149.6535698410588
 10
87.70696341123299
 20
-149.8478732264269
 10
87.70696341123299
 20
-149.8478732264269
 10
87.70696341123299
 20
-149.8478732264269
 10
87.09132484801884
 20
-149.8478732264269
 10
87.09132484801884
 20
-149.8478732264269
 10
87.09132484801884
 20
-149.8478732264269
 10
87.0258680337991
 20
-150.2709309520156
 10
87.0258680337991
 20
-150.2709309520156
 10
87.08719073343654
 20
-150.2371690162602
 10
87.16970077030827
 20
-150.1972059086312
 10
87.2880398002266
 20
-150.1972059086312
 10
87.54194333748951
 20
-150.1972059086312
 10
87.7789659068747
 20
-150.3832410648347
 10
87.7789659068747
 20
-150.6960557348954
 10
87.7789659068747
 20
-151.0136935386355
 10
87.55469019078494
 20
-151.2486490507295
 10
87.25221080718
 20
-151.2486490507295
 97
        0
 97
        0
 75
     2
 76
     1
 98
        0
  0
ENDBLK
  5
4A
330
47
100
AcDbEntity
  8
0
100
AcDbBlockEnd
  0
BLOCK
  5
55
330
53
100
AcDbEntity
  8
0
100
AcDbBlockBegin
  2
block 3
 70
     0
 10
0.0
 20
0.0
 30
0.0
  3
block 3
  1

  0
SPLINE
  5
57
330
53
100
AcDbEntity
  8
_U+30EC_U+30A4_U+30E4_U+30FC 1
370
     0
100
AcDbSpline
210
0.0
220
0.0
230
1.0
 70
    11
 71
     3
 72
    26
 73
    22
 74
     0
 42
0.0000000001
 43
0.0000000001
 12
1.0
 22
0.0
 32
0.0
 13
1.0
 23
0.0
 33
0.0
 40
0.0
 40
0.0
 40
0.0
 40
0.0
 40
1.0
 40
1.0
 40
1.0
 40
2.0
 40
2.0
 40
2.0
 40
3.0
 40
3.0
 40
3.0
 40
4.0
 40
4.0
 40
4.0
 40
5.0
 40
5.0
 40
5.0
 40
6.0
 40
6.0
 40
6.0
 40
7.0
 40
7.0
 40
7.0
 40
7.0
 10
73.49491100593183
 20
-151.1976616375478
 30
0.0
 10
73.49491100593183
 20
-151.1976616375478
 30
0.0
 10
73.49491100593183
 20
-150.0931640249767
 30
0.0
 10
73.49491100593183
 20
-150.0931640249767
 30
0.0
 10
73.49491100593183
 20
-150.0931640249767
 30
0.0
 10
73.1648708584449
 20
-150.0931640249767
 30
0.0
 10
73.1648708584449
 20
-150.0931640249767
 30
0.0
 10
73.1648708584449
 20
-150.0931640249767
 30
0.0
 10
73.1648708584449
 20
-149.9453694286595
 30
0.0
 10
73.1648708584449
 20
-149.9453694286595
 30
0.0
 10
73.49697806322298
 20
-149.9305555180729
 30
0.0
 10
73.54348685227386
 20
-149.7676025016206
 30
0.0
 10
73.57311467344701
 20
-149.6535698410588
 30
0.0
 10
73.57311467344701
 20
-149.6535698410588
 30
0.0
 10
73.71918672202159
 20
-149.6535698410588
 30
0.0
 10
73.71918672202159
 20
-149.6535698410588
 30
0.0
 10
73.71918672202159
 20
-149.6535698410588
 30
0.0
 10
73.71918672202159
 20
-151.1976616375478
 30
0.0
 10
73.71918672202159
 20
-151.1976616375478
 30
0.0
 10
73.71918672202159
 20
-151.1976616375478
 30
0.0
 10
73.49491100593183
 20
-151.1976616375478
 30
0.0
 10
73.49491100593183
 20
-151.1976616375478
 30
0.0
  0
HATCH
  5
58
330
53
100
AcDbEntity
  8
_U+30EC_U+30A4_U+30E4_U+30FC 1
 62
   179
420
  2234388
100
AcDbHatch
 10
0.0
 20
0.0
 30
0.0
210
0.0
220
0.0
230
1.0
  2
SOLID
 70
     1
 71
     0
 91
        1
 92
        1
 93
        1
 72
     4
 94
        3
 73
     0
 74
     1
 95
       26
 96
       22
 40
0.0
 40
0.0
 40
0.0
 40
0.0
 40
1.0
 40
1.0
 40
1.0
 40
2.0
 40
2.0
 40
2.0
 40
3.0
 40
3.0
 40
3.0
 40
4.0
 40
4.0
 40
4.0
 40
5.0
 40
5.0
 40
5.0
 40
6.0
 40
6.0
 40
6.0
 40
7.0
 40
7.0
 40
7.0
 40
7.0
 10
73.49491100593183
 20
-151.1976616375478
 10
73.49491100593183
 20
-151.1976616375478
 10
73.49491100593183
 20
-150.0931640249767
 10
73.49491100593183
 20
-150.0931640249767
 10
73.49491100593183
 20
-150.0931640249767
 10
73.1648708584449
 20
-150.0931640249767
 10
73.1648708584449
 20
-150.0931640249767
 10
73.1648708584449
 20
-150.0931640249767
 10
73.1648708584449
 20
-149.9453694286595
 10
73.1648708584449
 20
-149.9453694286595
 10
73.49697806322298
 20
-149.9305555180729
 10
73.54348685227386
 20
-149.7676025016206
 10
73.57311467344701
 20
-149.6535698410588
 10
73.57311467344701
 20
-149.6535698410588
 10
73.71918672202159
 20
-149.6535698410588
 10
73.71918672202159
 20
-149.6535698410588
 10
73.71918672202159
 20
-149.6535698410588
 10
73.71918672202159
 20
-151.1976616375478
 10
73.71918672202159
 20
-151.1976616375478
 10
73.71918672202159
 20
-151.1976616375478
 10
73.49491100593183
 20
-151.1976616375478
 10
73.49491100593183
 20
-151.1976616375478
 97
        0
 97
        0
 75
     2
 76
     1
 98
        0
  0
SPLINE
  5
59
330
53
100
AcDbEntity
  8
_U+30EC_U+30A4_U+30E4_U+30FC 1
370
     0
100
AcDbSpline
210
0.0
220
0.0
230
1.0
 70
    11
 71
     3
 72
    29
 73
    25
 74
     0
 42
0.0000000001
 43
0.0000000001
 12
1.0
 22
0.0
 32
0.0
 13
1.0
 23
0.0
 33
0.0
 40
0.0
 40
0.0
 40
0.0
 40
0.0
 40
1.0
 40
1.0
 40
1.0
 40
2.0
 40
2.0
 40
2.0
 40
3.0
 40
3.0
 40
3.0
 40
4.0
 40
4.0
 40
4.0
 40
5.0
 40
5.0
 40
5.0
 40
6.0
 40
6.0
 40
6.0
 40
7.0
 40
7.0
 40
7.0
 40
8.0
 40
8.0
 40
8.0
 40
8.0
 10
75.11806774380729
 20
-151.0198947105089
 30
0.0
 10
75.01023625511897
 20
-151.2293565160121
 30
0.0
 10
74.83677569743664
 20
-151.2486490507295
 30
0.0
 10
74.7203314700352
 20
-151.2486490507295
 30
0.0
 10
74.5596177656483
 20
-151.2486490507295
 30
0.0
 10
74.41785208643026
 20
-151.2017957521301
 30
0.0
 10
74.32259519626311
 20
-151.0198947105089
 30
0.0
 10
74.21907007693135
 20
-150.8252468155923
 30
0.0
 10
74.19994979698821
 20
-150.5885687557556
 30
0.0
 10
74.19994979698821
 20
-150.4252712297548
 30
0.0
 10
74.19994979698821
 20
-150.2816107480199
 30
0.0
 10
74.21683076486593
 20
-150.0297742680481
 30
0.0
 10
74.32259519626311
 20
-149.8309922585492
 30
0.0
 10
74.43059893972568
 20
-149.628076134468
 30
0.0
 10
74.59131264411259
 20
-149.6046494851683
 30
0.0
 10
74.7203314700352
 20
-149.6046494851683
 30
0.0
 10
74.87897811713096
 20
-149.6046494851683
 30
0.0
 10
75.02281085364014
 20
-149.649091216928
 30
0.0
 10
75.11806774380729
 20
-149.8309922585492
 30
0.0
 10
75.21745874855675
 20
-150.0235730961747
 30
0.0
 10
75.24071314308219
 20
-150.2519829268467
 30
0.0
 10
75.24071314308219
 20
-150.4252712297548
 30
0.0
 10
75.24071314308219
 20
-150.5968369849202
 30
0.0
 10
75.21969806062216
 20
-150.827658382432
 30
0.0
 10
75.11806774380729
 20
-151.0198947105089
 30
0.0
  0
SPLINE
  5
5A
330
53
100
AcDbEntity
  8
_U+30EC_U+30A4_U+30E4_U+30FC 1
370
     0
100
AcDbSpline
210
0.0
220
0.0
230
1.0
 70
    11
 71
     3
 72
    17
 73
    13
 74
     0
 42
0.0000000001
 43
0.0000000001
 12
1.0
 22
0.0
 32
0.0
 13
1.0
 23
0.0
 33
0.0
 40
0.0
 40
0.0
 40
0.0
 40
0.0
 40
1.0
 40
1.0
 40
1.0
 40
2.0
 40
2.0
 40
2.0
 40
3.0
 40
3.0
 40
3.0
 40
4.0
 40
4.0
 40
4.0
 40
4.0
 10
74.7203314700352
 20
-149.7972303227938
 30
0.0
 10
74.47073430212885
 20
-149.7972303227938
 30
0.0
 10
74.42422551307797
 20
-150.0807616812298
 30
0.0
 10
74.42422551307797
 20
-150.4252712297548
 30
0.0
 10
74.42422551307797
 20
-150.744976090786
 30
0.0
 10
74.46022676089883
 20
-151.0536566462644
 30
0.0
 10
74.7203314700352
 20
-151.0536566462644
 30
0.0
 10
74.96786158065039
 20
-151.0536566462644
 30
0.0
 10
75.01660968176668
 20
-150.772536854668
 30
0.0
 10
75.01660968176668
 20
-150.4252712297548
 30
0.0
 10
75.01660968176668
 20
-150.1062553878207
 30
0.0
 10
74.9783691218804
 20
-149.7972303227938
 30
0.0
 10
74.7203314700352
 20
-149.7972303227938
 30
0.0
  0
HATCH
  5
5B
330
53
100
AcDbEntity
  8
_U+30EC_U+30A4_U+30E4_U+30FC 1
 62
   179
420
  2234388
100
AcDbHatch
 10
0.0
 20
0.0
 30
0.0
210
0.0
220
0.0
230
1.0
  2
SOLID
 70
     1
 71
     0
 91
        2
 92
        1
 93
        1
 72
     4
 94
        3
 73
     0
 74
     1
 95
       29
 96
       25
 40
0.0
 40
0.0
 40
0.0
 40
0.0
 40
1.0
 40
1.0
 40
1.0
 40
2.0
 40
2.0
 40
2.0
 40
3.0
 40
3.0
 40
3.0
 40
4.0
 40
4.0
 40
4.0
 40
5.0
 40
5.0
 40
5.0
 40
6.0
 40
6.0
 40
6.0
 40
7.0
 40
7.0
 40
7.0
 40
8.0
 40
8.0
 40
8.0
 40
8.0
 10
75.11806774380729
 20
-151.0198947105089
 10
75.01023625511897
 20
-151.2293565160121
 10
74.83677569743664
 20
-151.2486490507295
 10
74.7203314700352
 20
-151.2486490507295
 10
74.5596177656483
 20
-151.2486490507295
 10
74.41785208643026
 20
-151.2017957521301
 10
74.32259519626311
 20
-151.0198947105089
 10
74.21907007693135
 20
-150.8252468155923
 10
74.19994979698821
 20
-150.5885687557556
 10
74.19994979698821
 20
-150.4252712297548
 10
74.19994979698821
 20
-150.2816107480199
 10
74.21683076486593
 20
-150.0297742680481
 10
74.32259519626311
 20
-149.8309922585492
 10
74.43059893972568
 20
-149.628076134468
 10
74.59131264411259
 20
-149.6046494851683
 10
74.7203314700352
 20
-149.6046494851683
 10
74.87897811713096
 20
-149.6046494851683
 10
75.02281085364014
 20
-149.649091216928
 10
75.11806774380729
 20
-149.8309922585492
 10
75.21745874855675
 20
-150.0235730961747
 10
75.24071314308219
 20
-150.2519829268467
 10
75.24071314308219
 20
-150.4252712297548
 10
75.24071314308219
 20
-150.5968369849202
 10
75.21969806062216
 20
-150.827658382432
 10
75.11806774380729
 20
-151.0198947105089
 97
        0
 97
        0
 92
        1
 93
        1
 72
     4
 94
        3
 73
     0
 74
     1
 95
       17
 96
       13
 40
0.0
 40
0.0
 40
0.0
 40
0.0
 40
1.0
 40
1.0
 40
1.0
 40
2.0
 40
2.0
 40
2.0
 40
3.0
 40
3.0
 40
3.0
 40
4.0
 40
4.0
 40
4.0
 40
4.0
 10
74.7203314700352
 20
-149.7972303227938
 10
74.47073430212885
 20
-149.7972303227938
 10
74.42422551307797
 20
-150.0807616812298
 10
74.42422551307797
 20
-150.4252712297548
 10
74.42422551307797
 20
-150.744976090786
 10
74.46022676089883
 20
-151.0536566462644
 10
74.7203314700352
 20
-151.0536566462644
 10
74.96786158065039
 20
-151.0536566462644
 10
75.01660968176668
 20
-150.772536854668
 10
75.01660968176668
 20
-150.4252712297548
 10
75.01660968176668
 20
-150.1062553878207
 10
74.9783691218804
 20
-149.7972303227938
 10
74.7203314700352
 20
-149.7972303227938
 97
        0
 97
        0
 75
     2
 76
     1
 98
        0
  0
ENDBLK
  5
56
330
53
100
AcDbEntity
  8
0
100
AcDbBlockEnd
  0
BLOCK
  5
72
330
70
100
AcDbEntity
  8
0
100
AcDbBlockBegin
  2
block 4
 70
     0
 10
0.0
 20
0.0
 30
0.0
  3
block 4
  1

  0
SPLINE
  5
74
330
70
100
AcDbEntity
  8
_U+30EC_U+30A4_U+30E4_U+30FC 1
370
     0
100
AcDbSpline
210
0.0
220
0.0
230
1.0
 70
    11
 71
     3
 72
    44
 73
    40
 74
     0
 42
0.0000000001
 43
0.0000000001
 12
1.0
 22
0.0
 32
0.0
 13
1.0
 23
0.0
 33
0.0
 40
0.0
 40
0.0
 40
0.0
 40
0.0
 40
1.0
 40
1.0
 40
1.0
 40
2.0
 40
2.0
 40
2.0
 40
3.0
 40
3.0
 40
3.0
 40
4.0
 40
4.0
 40
4.0
 40
5.0
 40
5.0
 40
5.0
 40
6.0
 40
6.0
 40
6.0
 40
7.0
 40
7.0
 40
7.0
 40
8.0
 40
8.0
 40
8.0
 40
9.0
 40
9.0
 40
9.0
 40
10.0
 40
10.0
 40
10.0
 40
11.0
 40
11.0
 40
11.0
 40
12.0
 40
12.0
 40
12.0
 40
13.0
 40
13.0
 40
13.0
 40
13.0
 10
63.8481268829095
 20
-135.5052517022348
 30
0.0
 10
64.00677353000525
 20
-135.7233262464511
 30
0.0
 10
64.08084308293813
 20
-135.8166883341014
 30
0.0
 10
64.22467581944731
 20
-135.8649196708949
 30
0.0
 10
64.22467581944731
 20
-135.8649196708949
 30
0.0
 10
64.22467581944731
 20
-135.086672600777
 30
0.0
 10
64.22467581944731
 20
-135.086672600777
 30
0.0
 10
64.22467581944731
 20
-135.086672600777
 30
0.0
 10
64.42983125559394
 20
-135.086672600777
 30
0.0
 10
64.42983125559394
 20
-135.086672600777
 30
0.0
 10
64.42983125559394
 20
-135.086672600777
 30
0.0
 10
64.42983125559394
 20
-136.1146890935755
 30
0.0
 10
64.42983125559394
 20
-136.1146890935755
 30
0.0
 10
64.072230344225
 20
-136.0829942151112
 30
0.0
 10
63.99402667670983
 20
-136.0175374008915
 30
0.0
 10
63.6956814076872
 20
-135.6323757256405
 30
0.0
 10
63.49689939818828
 20
-135.3764051310865
 30
0.0
 10
63.42920327190312
 20
-135.3109483168667
 30
0.0
 10
63.29174396204165
 20
-135.3109483168667
 30
0.0
 10
63.17323267734906
 20
-135.3109483168667
 30
0.0
 10
63.0421467941353
 20
-135.3826063029599
 30
0.0
 10
63.0421467941353
 20
-135.5796657647162
 30
0.0
 10
63.0421467941353
 20
-135.8397704738526
 30
0.0
 10
63.27262368209851
 20
-135.8483832125657
 30
0.0
 10
63.38906790949996
 20
-135.852517327148
 30
0.0
 10
63.38906790949996
 20
-135.852517327148
 30
0.0
 10
63.38906790949996
 20
-136.0764485336892
 30
0.0
 10
63.38906790949996
 20
-136.0764485336892
 30
0.0
 10
63.2621161408685
 20
-136.0681803045246
 30
0.0
 10
63.14997828282362
 20
-136.0578450180689
 30
0.0
 10
63.03146699813102
 20
-135.977229783714
 30
0.0
 10
62.87075329374412
 20
-135.8673312377346
 30
0.0
 10
62.83681910321441
 20
-135.6809515719825
 30
0.0
 10
62.83681910321441
 20
-135.5645073445811
 30
0.0
 10
62.83681910321441
 20
-135.287521667567
 30
0.0
 10
63.02095945690101
 20
-135.080126919355
 30
0.0
 10
63.2938110193328
 20
-135.080126919355
 30
0.0
 10
63.52222085000486
 20
-135.080126919355
 30
0.0
 10
63.62178410952858
 20
-135.1965711467564
 30
0.0
 10
63.8481268829095
 20
-135.5052517022348
 30
0.0
  0
HATCH
  5
75
330
70
100
AcDbEntity
  8
_U+30EC_U+30A4_U+30E4_U+30FC 1
 62
   179
420
  2234388
100
AcDbHatch
 10
0.0
 20
0.0
 30
0.0
210
0.0
220
0.0
230
1.0
  2
SOLID
 70
     1
 71
     0
 91
        1
 92
        1
 93
        1
 72
     4
 94
        3
 73
     0
 74
     1
 95
       44
 96
       40
 40
0.0
 40
0.0
 40
0.0
 40
0.0
 40
1.0
 40
1.0
 40
1.0
 40
2.0
 40
2.0
 40
2.0
 40
3.0
 40
3.0
 40
3.0
 40
4.0
 40
4.0
 40
4.0
 40
5.0
 40
5.0
 40
5.0
 40
6.0
 40
6.0
 40
6.0
 40
7.0
 40
7.0
 40
7.0
 40
8.0
 40
8.0
 40
8.0
 40
9.0
 40
9.0
 40
9.0
 40
10.0
 40
10.0
 40
10.0
 40
11.0
 40
11.0
 40
11.0
 40
12.0
 40
12.0
 40
12.0
 40
13.0
 40
13.0
 40
13.0
 40
13.0
 10
63.8481268829095
 20
-135.5052517022348
 10
64.00677353000525
 20
-135.7233262464511
 10
64.08084308293813
 20
-135.8166883341014
 10
64.22467581944731
 20
-135.8649196708949
 10
64.22467581944731
 20
-135.8649196708949
 10
64.22467581944731
 20
-135.086672600777
 10
64.22467581944731
 20
-135.086672600777
 10
64.22467581944731
 20
-135.086672600777
 10
64.42983125559394
 20
-135.086672600777
 10
64.42983125559394
 20
-135.086672600777
 10
64.42983125559394
 20
-135.086672600777
 10
64.42983125559394
 20
-136.1146890935755
 10
64.42983125559394
 20
-136.1146890935755
 10
64.072230344225
 20
-136.0829942151112
 10
63.99402667670983
 20
-136.0175374008915
 10
63.6956814076872
 20
-135.6323757256405
 10
63.49689939818828
 20
-135.3764051310865
 10
63.42920327190312
 20
-135.3109483168667
 10
63.29174396204165
 20
-135.3109483168667
 10
63.17323267734906
 20
-135.3109483168667
 10
63.0421467941353
 20
-135.3826063029599
 10
63.0421467941353
 20
-135.5796657647162
 10
63.0421467941353
 20
-135.8397704738526
 10
63.27262368209851
 20
-135.8483832125657
 10
63.38906790949996
 20
-135.852517327148
 10
63.38906790949996
 20
-135.852517327148
 10
63.38906790949996
 20
-136.0764485336892
 10
63.38906790949996
 20
-136.0764485336892
 10
63.2621161408685
 20
-136.0681803045246
 10
63.14997828282362
 20
-136.0578450180689
 10
63.03146699813102
 20
-135.977229783714
 10
62.87075329374412
 20
-135.8673312377346
 10
62.83681910321441
 20
-135.6809515719825
 10
62.83681910321441
 20
-135.5645073445811
 10
62.83681910321441
 20
-135.287521667567
 10
63.02095945690101
 20
-135.080126919355
 10
63.2938110193328
 20
-135.080126919355
 10
63.52222085000486
 20
-135.080126919355
 10
63.62178410952858
 20
-135.1965711467564
 10
63.8481268829095
 20
-135.5052517022348
 97
        0
 97
        0
 75
     2
 76
     1
 98
        0
  0
SPLINE
  5
76
330
70
100
AcDbEntity
  8
_U+30EC_U+30A4_U+30E4_U+30FC 1
370
     0
100
AcDbSpline
210
0.0
220
0.0
230
1.0
 70
    11
 71
     3
 72
    53
 73
    49
 74
     0
 42
0.0000000001
 43
0.0000000001
 12
1.0
 22
0.0
 32
0.0
 13
1.0
 23
0.0
 33
0.0
 40
0.0
 40
0.0
 40
0.0
 40
0.0
 40
1.0
 40
1.0
 40
1.0
 40
2.0
 40
2.0
 40
2.0
 40
3.0
 40
3.0
 40
3.0
 40
4.0
 40
4.0
 40
4.0
 40
5.0
 40
5.0
 40
5.0
 40
6.0
 40
6.0
 40
6.0
 40
7.0
 40
7.0
 40
7.0
 40
8.0
 40
8.0
 40
8.0
 40
9.0
 40
9.0
 40
9.0
 40
10.0
 40
10.0
 40
10.0
 40
11.0
 40
11.0
 40
11.0
 40
12.0
 40
12.0
 40
12.0
 40
13.0
 40
13.0
 40
13.0
 40
14.0
 40
14.0
 40
14.0
 40
15.0
 40
15.0
 40
15.0
 40
16.0
 40
16.0
 40
16.0
 40
16.0
 10
64.48064641400137
 20
-134.4407171972926
 30
0.0
 10
64.48064641400137
 20
-134.5192653743563
 30
0.0
 10
64.46359319134939
 20
-134.6205511816227
 30
0.0
 10
64.40020343442079
 20
-134.7221814984375
 30
0.0
 10
64.29013263366706
 20
-134.8954698013456
 30
0.0
 10
64.1590467504533
 20
-134.9168293933541
 30
0.0
 10
64.05121526176498
 20
-134.935777418523
 30
0.0
 10
64.05121526176498
 20
-134.935777418523
 30
0.0
 10
64.05121526176498
 20
-134.7135687597244
 30
0.0
 10
64.05121526176498
 20
-134.7135687597244
 30
0.0
 10
64.2499972712639
 20
-134.6584472319604
 30
0.0
 10
64.27962509243704
 20
-134.5316677181032
 30
0.0
 10
64.27962509243704
 20
-134.4386501400014
 30
0.0
 10
64.27962509243704
 20
-134.2991237728488
 30
0.0
 10
64.18023408768758
 20
-134.1465060428523
 30
0.0
 10
63.94751788765895
 20
-134.1465060428523
 30
0.0
 10
63.6915472931049
 20
-134.1465060428523
 30
0.0
 10
63.62178410952858
 20
-134.3263400271823
 30
0.0
 10
63.62178410952858
 20
-134.446918369166
 30
0.0
 10
63.62178410952858
 20
-134.4786132476304
 30
0.0
 10
63.62178410952858
 20
-134.6205511816227
 30
0.0
 10
63.75080293545119
 20
-134.7094346451421
 30
0.0
 10
63.75080293545119
 20
-134.7094346451421
 30
0.0
 10
63.73168265550805
 20
-134.8851345148898
 30
0.0
 10
63.73168265550805
 20
-134.8851345148898
 30
0.0
 10
63.73168265550805
 20
-134.8851345148898
 30
0.0
 10
62.88556720433069
 20
-134.7645561729061
 30
0.0
 10
62.88556720433069
 20
-134.7645561729061
 30
0.0
 10
62.88556720433069
 20
-134.7645561729061
 30
0.0
 10
62.88556720433069
 20
-133.9859645932396
 30
0.0
 10
62.88556720433069
 20
-133.9859645932396
 30
0.0
 10
62.88556720433069
 20
-133.9859645932396
 30
0.0
 10
63.08021509924731
 20
-133.9859645932396
 30
0.0
 10
63.08021509924731
 20
-133.9859645932396
 30
0.0
 10
63.08021509924731
 20
-133.9859645932396
 30
0.0
 10
63.08021509924731
 20
-134.6016031564538
 30
0.0
 10
63.08021509924731
 20
-134.6016031564538
 30
0.0
 10
63.08021509924731
 20
-134.6016031564538
 30
0.0
 10
63.50327282483599
 20
-134.6670599706735
 30
0.0
 10
63.50327282483599
 20
-134.6670599706735
 30
0.0
 10
63.46933863430628
 20
-134.6057372710361
 30
0.0
 10
63.42920327190312
 20
-134.5233994889386
 30
0.0
 10
63.42920327190312
 20
-134.404888204246
 30
0.0
 10
63.42920327190312
 20
-134.1509846669831
 30
0.0
 10
63.61541068288087
 20
-133.9139620975979
 30
0.0
 10
63.92839760771582
 20
-133.9139620975979
 30
0.0
 10
64.2458631566816
 20
-133.9139620975979
 30
0.0
 10
64.48064641400137
 20
-134.1382378136877
 30
0.0
 10
64.48064641400137
 20
-134.4407171972926
 30
0.0
  0
HATCH
  5
77
330
70
100
AcDbEntity
  8
_U+30EC_U+30A4_U+30E4_U+30FC 1
 62
   179
420
  2234388
100
AcDbHatch
 10
0.0
 20
0.0
 30
0.0
210
0.0
220
0.0
230
1.0
  2
SOLID
 70
     1
 71
     0
 91
        1
 92
        1
 93
        1
 72
     4
 94
        3
 73
     0
 74
     1
 95
       53
 96
       49
 40
0.0
 40
0.0
 40
0.0
 40
0.0
 40
1.0
 40
1.0
 40
1.0
 40
2.0
 40
2.0
 40
2.0
 40
3.0
 40
3.0
 40
3.0
 40
4.0
 40
4.0
 40
4.0
 40
5.0
 40
5.0
 40
5.0
 40
6.0
 40
6.0
 40
6.0
 40
7.0
 40
7.0
 40
7.0
 40
8.0
 40
8.0
 40
8.0
 40
9.0
 40
9.0
 40
9.0
 40
10.0
 40
10.0
 40
10.0
 40
11.0
 40
11.0
 40
11.0
 40
12.0
 40
12.0
 40
12.0
 40
13.0
 40
13.0
 40
13.0
 40
14.0
 40
14.0
 40
14.0
 40
15.0
 40
15.0
 40
15.0
 40
16.0
 40
16.0
 40
16.0
 40
16.0
 10
64.48064641400137
 20
-134.4407171972926
 10
64.48064641400137
 20
-134.5192653743563
 10
64.46359319134939
 20
-134.6205511816227
 10
64.40020343442079
 20
-134.7221814984375
 10
64.29013263366706
 20
-134.8954698013456
 10
64.1590467504533
 20
-134.9168293933541
 10
64.05121526176498
 20
-134.935777418523
 10
64.05121526176498
 20
-134.935777418523
 10
64.05121526176498
 20
-134.7135687597244
 10
64.05121526176498
 20
-134.7135687597244
 10
64.2499972712639
 20
-134.6584472319604
 10
64.27962509243704
 20
-134.5316677181032
 10
64.27962509243704
 20
-134.4386501400014
 10
64.27962509243704
 20
-134.2991237728488
 10
64.18023408768758
 20
-134.1465060428523
 10
63.94751788765895
 20
-134.1465060428523
 10
63.6915472931049
 20
-134.1465060428523
 10
63.62178410952858
 20
-134.3263400271823
 10
63.62178410952858
 20
-134.446918369166
 10
63.62178410952858
 20
-134.4786132476304
 10
63.62178410952858
 20
-134.6205511816227
 10
63.75080293545119
 20
-134.7094346451421
 10
63.75080293545119
 20
-134.7094346451421
 10
63.73168265550805
 20
-134.8851345148898
 10
63.73168265550805
 20
-134.8851345148898
 10
63.73168265550805
 20
-134.8851345148898
 10
62.88556720433069
 20
-134.7645561729061
 10
62.88556720433069
 20
-134.7645561729061
 10
62.88556720433069
 20
-134.7645561729061
 10
62.88556720433069
 20
-133.9859645932396
 10
62.88556720433069
 20
-133.9859645932396
 10
62.88556720433069
 20
-133.9859645932396
 10
63.08021509924731
 20
-133.9859645932396
 10
63.08021509924731
 20
-133.9859645932396
 10
63.08021509924731
 20
-133.9859645932396
 10
63.08021509924731
 20
-134.6016031564538
 10
63.08021509924731
 20
-134.6016031564538
 10
63.08021509924731
 20
-134.6016031564538
 10
63.50327282483599
 20
-134.6670599706735
 10
63.50327282483599
 20
-134.6670599706735
 10
63.46933863430628
 20
-134.6057372710361
 10
63.42920327190312
 20
-134.5233994889386
 10
63.42920327190312
 20
-134.404888204246
 10
63.42920327190312
 20
-134.1509846669831
 10
63.61541068288087
 20
-133.9139620975979
 10
63.92839760771582
 20
-133.9139620975979
 10
64.2458631566816
 20
-133.9139620975979
 10
64.48064641400137
 20
-134.1382378136877
 10
64.48064641400137
 20
-134.4407171972926
 97
        0
 97
        0
 75
     2
 76
     1
 98
        0
  0
ENDBLK
  5
73
330
70
100
AcDbEntity
  8
0
100
AcDbBlockEnd
  0
BLOCK
  5
7A
330
78
100
AcDbEntity
  8
0
100
AcDbBlockBegin
  2
block 5
 70
     0
 10
0.0
 20
0.0
 30
0.0
  3
block 5
  1

  0
SPLINE
  5
7C
330
78
100
AcDbEntity
  8
_U+30EC_U+30A4_U+30E4_U+30FC 1
370
     0
100
AcDbSpline
210
0.0
220
0.0
230
1.0
 70
    11
 71
     3
 72
    44
 73
    40
 74
     0
 42
0.0000000001
 43
0.0000000001
 12
1.0
 22
0.0
 32
0.0
 13
1.0
 23
0.0
 33
0.0
 40
0.0
 40
0.0
 40
0.0
 40
0.0
 40
1.0
 40
1.0
 40
1.0
 40
2.0
 40
2.0
 40
2.0
 40
3.0
 40
3.0
 40
3.0
 40
4.0
 40
4.0
 40
4.0
 40
5.0
 40
5.0
 40
5.0
 40
6.0
 40
6.0
 40
6.0
 40
7.0
 40
7.0
 40
7.0
 40
8.0
 40
8.0
 40
8.0
 40
9.0
 40
9.0
 40
9.0
 40
10.0
 40
10.0
 40
10.0
 40
11.0
 40
11.0
 40
11.0
 40
12.0
 40
12.0
 40
12.0
 40
13.0
 40
13.0
 40
13.0
 40
13.0
 10
63.8481268829095
 20
-113.1763820789108
 30
0.0
 10
64.00677353000525
 20
-113.3942843683528
 30
0.0
 10
64.08084308293813
 20
-113.4874742012288
 30
0.0
 10
64.22467581944731
 20
-113.5360500475709
 30
0.0
 10
64.22467581944731
 20
-113.5360500475709
 30
0.0
 10
64.22467581944731
 20
-112.7576307226787
 30
0.0
 10
64.22467581944731
 20
-112.7576307226787
 30
0.0
 10
64.22467581944731
 20
-112.7576307226787
 30
0.0
 10
64.42983125559394
 20
-112.7576307226787
 30
0.0
 10
64.42983125559394
 20
-112.7576307226787
 30
0.0
 10
64.42983125559394
 20
-112.7576307226787
 30
0.0
 10
64.42983125559394
 20
-113.7856472154772
 30
0.0
 10
64.42983125559394
 20
-113.7856472154772
 30
0.0
 10
64.072230344225
 20
-113.7539523370129
 30
0.0
 10
63.99402667670983
 20
-113.6884955227932
 30
0.0
 10
63.6956814076872
 20
-113.3033338475422
 30
0.0
 10
63.49689939818828
 20
-113.0473632529882
 30
0.0
 10
63.42920327190312
 20
-112.9819064387684
 30
0.0
 10
63.29174396204165
 20
-112.9819064387684
 30
0.0
 10
63.17323267734906
 20
-112.9819064387684
 30
0.0
 10
63.04197453936104
 20
-113.0537366796359
 30
0.0
 10
63.04197453936104
 20
-113.2504516318436
 30
0.0
 10
63.04197453936104
 20
-113.5107285957543
 30
0.0
 10
63.27262368209851
 20
-113.5191690796931
 30
0.0
 10
63.38906790949996
 20
-113.5234754490497
 30
0.0
 10
63.38906790949996
 20
-113.5234754490497
 30
0.0
 10
63.38906790949996
 20
-113.7475789103652
 30
0.0
 10
63.38906790949996
 20
-113.7475789103652
 30
0.0
 10
63.2621161408685
 20
-113.7391384264263
 30
0.0
 10
63.14997828282362
 20
-113.7286308851963
 30
0.0
 10
63.03146699813102
 20
-113.6481879056157
 30
0.0
 10
62.87075329374412
 20
-113.5382893596363
 30
0.0
 10
62.83681910321441
 20
-113.3520819486585
 30
0.0
 10
62.83681910321441
 20
-113.2356377212571
 30
0.0
 10
62.83681910321441
 20
-112.9584797894687
 30
0.0
 10
63.02095945690101
 20
-112.7512572960309
 30
0.0
 10
63.2938110193328
 20
-112.7512572960309
 30
0.0
 10
63.52222085000486
 20
-112.7512572960309
 30
0.0
 10
63.62178410952858
 20
-112.8675292686581
 30
0.0
 10
63.8481268829095
 20
-113.1763820789108
 30
0.0
  0
HATCH
  5
7D
330
78
100
AcDbEntity
  8
_U+30EC_U+30A4_U+30E4_U+30FC 1
 62
   179
420
  2234388
100
AcDbHatch
 10
0.0
 20
0.0
 30
0.0
210
0.0
220
0.0
230
1.0
  2
SOLID
 70
     1
 71
     0
 91
        1
 92
        1
 93
        1
 72
     4
 94
        3
 73
     0
 74
     1
 95
       44
 96
       40
 40
0.0
 40
0.0
 40
0.0
 40
0.0
 40
1.0
 40
1.0
 40
1.0
 40
2.0
 40
2.0
 40
2.0
 40
3.0
 40
3.0
 40
3.0
 40
4.0
 40
4.0
 40
4.0
 40
5.0
 40
5.0
 40
5.0
 40
6.0
 40
6.0
 40
6.0
 40
7.0
 40
7.0
 40
7.0
 40
8.0
 40
8.0
 40
8.0
 40
9.0
 40
9.0
 40
9.0
 40
10.0
 40
10.0
 40
10.0
 40
11.0
 40
11.0
 40
11.0
 40
12.0
 40
12.0
 40
12.0
 40
13.0
 40
13.0
 40
13.0
 40
13.0
 10
63.8481268829095
 20
-113.1763820789108
 10
64.00677353000525
 20
-113.3942843683528
 10
64.08084308293813
 20
-113.4874742012288
 10
64.22467581944731
 20
-113.5360500475709
 10
64.22467581944731
 20
-113.5360500475709
 10
64.22467581944731
 20
-112.7576307226787
 10
64.22467581944731
 20
-112.7576307226787
 10
64.22467581944731
 20
-112.7576307226787
 10
64.42983125559394
 20
-112.7576307226787
 10
64.42983125559394
 20
-112.7576307226787
 10
64.42983125559394
 20
-112.7576307226787
 10
64.42983125559394
 20
-113.7856472154772
 10
64.42983125559394
 20
-113.7856472154772
 10
64.072230344225
 20
-113.7539523370129
 10
63.99402667670983
 20
-113.6884955227932
 10
63.6956814076872
 20
-113.3033338475422
 10
63.49689939818828
 20
-113.0473632529882
 10
63.42920327190312
 20
-112.9819064387684
 10
63.29174396204165
 20
-112.9819064387684
 10
63.17323267734906
 20
-112.9819064387684
 10
63.04197453936104
 20
-113.0537366796359
 10
63.04197453936104
 20
-113.2504516318436
 10
63.04197453936104
 20
-113.5107285957543
 10
63.27262368209851
 20
-113.5191690796931
 10
63.38906790949996
 20
-113.5234754490497
 10
63.38906790949996
 20
-113.5234754490497
 10
63.38906790949996
 20
-113.7475789103652
 10
63.38906790949996
 20
-113.7475789103652
 10
63.2621161408685
 20
-113.7391384264263
 10
63.14997828282362
 20
-113.7286308851963
 10
63.03146699813102
 20
-113.6481879056157
 10
62.87075329374412
 20
-113.5382893596363
 10
62.83681910321441
 20
-113.3520819486585
 10
62.83681910321441
 20
-113.2356377212571
 10
62.83681910321441
 20
-112.9584797894687
 10
63.02095945690101
 20
-112.7512572960309
 10
63.2938110193328
 20
-112.7512572960309
 10
63.52222085000486
 20
-112.7512572960309
 10
63.62178410952858
 20
-112.8675292686581
 10
63.8481268829095
 20
-113.1763820789108
 97
        0
 97
        0
 75
     2
 76
     1
 98
        0
  0
SPLINE
  5
7E
330
78
100
AcDbEntity
  8
_U+30EC_U+30A4_U+30E4_U+30FC 1
370
     0
100
AcDbSpline
210
0.0
220
0.0
230
1.0
 70
    11
 71
     3
 72
    29
 73
    25
 74
     0
 42
0.0000000001
 43
0.0000000001
 12
1.0
 22
0.0
 32
0.0
 13
1.0
 23
0.0
 33
0.0
 40
0.0
 40
0.0
 40
0.0
 40
0.0
 40
1.0
 40
1.0
 40
1.0
 40
2.0
 40
2.0
 40
2.0
 40
3.0
 40
3.0
 40
3.0
 40
4.0
 40
4.0
 40
4.0
 40
5.0
 40
5.0
 40
5.0
 40
6.0
 40
6.0
 40
6.0
 40
7.0
 40
7.0
 40
7.0
 40
8.0
 40
8.0
 40
8.0
 40
8.0
 10
64.25206432855504
 20
-111.6949910202533
 30
0.0
 10
64.46152613405823
 20
-111.8028225089417
 30
0.0
 10
64.48064641400137
 20
-111.976283066624
 30
0.0
 10
64.48064641400137
 20
-112.0927272940254
 30
0.0
 10
64.48064641400137
 20
-112.2534409984123
 30
0.0
 10
64.4341376249505
 20
-112.3952066776304
 30
0.0
 10
64.25206432855504
 20
-112.4904635677975
 30
0.0
 10
64.0575886884127
 20
-112.5939886871293
 30
0.0
 10
63.8205661190275
 20
-112.6131089670724
 30
0.0
 10
63.65761310257518
 20
-112.6131089670724
 30
0.0
 10
63.513780366066
 20
-112.6131089670724
 30
0.0
 10
63.2621161408685
 20
-112.5962279991947
 30
0.0
 10
63.06316187659532
 20
-112.4904635677975
 30
0.0
 10
62.86007349773985
 20
-112.3824598243349
 30
0.0
 10
62.83681910321441
 20
-112.221746119948
 30
0.0
 10
62.83681910321441
 20
-112.0927272940254
 30
0.0
 10
62.83681910321441
 20
-111.9340806469297
 30
0.0
 10
62.88126083497414
 20
-111.7902479104205
 30
0.0
 10
63.06316187659532
 20
-111.6949910202533
 30
0.0
 10
63.25574271422079
 20
-111.5956000155039
 30
0.0
 10
63.48415254489285
 20
-111.5723456209785
 30
0.0
 10
63.65761310257518
 20
-111.5723456209785
 30
0.0
 10
63.82900660296636
 20
-111.5723456209785
 30
0.0
 10
64.05965574570384
 20
-111.5933607034385
 30
0.0
 10
64.25206432855504
 20
-111.6949910202533
 30
0.0
  0
SPLINE
  5
7F
330
78
100
AcDbEntity
  8
_U+30EC_U+30A4_U+30E4_U+30FC 1
370
     0
100
AcDbSpline
210
0.0
220
0.0
230
1.0
 70
    11
 71
     3
 72
    17
 73
    13
 74
     0
 42
0.0000000001
 43
0.0000000001
 12
1.0
 22
0.0
 32
0.0
 13
1.0
 23
0.0
 33
0.0
 40
0.0
 40
0.0
 40
0.0
 40
0.0
 40
1.0
 40
1.0
 40
1.0
 40
2.0
 40
2.0
 40
2.0
 40
3.0
 40
3.0
 40
3.0
 40
4.0
 40
4.0
 40
4.0
 40
4.0
 10
63.02939994083987
 20
-112.0927272940254
 30
0.0
 10
63.02939994083987
 20
-112.3423244619318
 30
0.0
 10
63.31275904450168
 20
-112.3888332509827
 30
0.0
 10
63.65761310257518
 20
-112.3888332509827
 30
0.0
 10
63.9771457088321
 20
-112.3888332509827
 30
0.0
 10
64.28599851908476
 20
-112.3528320031618
 30
0.0
 10
64.28599851908476
 20
-112.0927272940254
 30
0.0
 10
64.28599851908476
 20
-111.8451971834102
 30
0.0
 10
64.00453421793983
 20
-111.7964490822939
 30
0.0
 10
63.65761310257518
 20
-111.7964490822939
 30
0.0
 10
63.33825275109253
 20
-111.7964490822939
 30
0.0
 10
63.02939994083987
 20
-111.8346896421802
 30
0.0
 10
63.02939994083987
 20
-112.0927272940254
 30
0.0
  0
HATCH
  5
80
330
78
100
AcDbEntity
  8
_U+30EC_U+30A4_U+30E4_U+30FC 1
 62
   179
420
  2234388
100
AcDbHatch
 10
0.0
 20
0.0
 30
0.0
210
0.0
220
0.0
230
1.0
  2
SOLID
 70
     1
 71
     0
 91
        2
 92
        1
 93
        1
 72
     4
 94
        3
 73
     0
 74
     1
 95
       29
 96
       25
 40
0.0
 40
0.0
 40
0.0
 40
0.0
 40
1.0
 40
1.0
 40
1.0
 40
2.0
 40
2.0
 40
2.0
 40
3.0
 40
3.0
 40
3.0
 40
4.0
 40
4.0
 40
4.0
 40
5.0
 40
5.0
 40
5.0
 40
6.0
 40
6.0
 40
6.0
 40
7.0
 40
7.0
 40
7.0
 40
8.0
 40
8.0
 40
8.0
 40
8.0
 10
64.25206432855504
 20
-111.6949910202533
 10
64.46152613405823
 20
-111.8028225089417
 10
64.48064641400137
 20
-111.976283066624
 10
64.48064641400137
 20
-112.0927272940254
 10
64.48064641400137
 20
-112.2534409984123
 10
64.4341376249505
 20
-112.3952066776304
 10
64.25206432855504
 20
-112.4904635677975
 10
64.0575886884127
 20
-112.5939886871293
 10
63.8205661190275
 20
-112.6131089670724
 10
63.65761310257518
 20
-112.6131089670724
 10
63.513780366066
 20
-112.6131089670724
 10
63.2621161408685
 20
-112.5962279991947
 10
63.06316187659532
 20
-112.4904635677975
 10
62.86007349773985
 20
-112.3824598243349
 10
62.83681910321441
 20
-112.221746119948
 10
62.83681910321441
 20
-112.0927272940254
 10
62.83681910321441
 20
-111.9340806469297
 10
62.88126083497414
 20
-111.7902479104205
 10
63.06316187659532
 20
-111.6949910202533
 10
63.25574271422079
 20
-111.5956000155039
 10
63.48415254489285
 20
-111.5723456209785
 10
63.65761310257518
 20
-111.5723456209785
 10
63.82900660296636
 20
-111.5723456209785
 10
64.05965574570384
 20
-111.5933607034385
 10
64.25206432855504
 20
-111.6949910202533
 97
        0
 97
        0
 92
        1
 93
        1
 72
     4
 94
        3
 73
     0
 74
     1
 95
       17
 96
       13
 40
0.0
 40
0.0
 40
0.0
 40
0.0
 40
1.0
 40
1.0
 40
1.0
 40
2.0
 40
2.0
 40
2.0
 40
3.0
 40
3.0
 40
3.0
 40
4.0
 40
4.0
 40
4.0
 40
4.0
 10
63.02939994083987
 20
-112.0927272940254
 10
63.02939994083987
 20
-112.3423244619318
 10
63.31275904450168
 20
-112.3888332509827
 10
63.65761310257518
 20
-112.3888332509827
 10
63.9771457088321
 20
-112.3888332509827
 10
64.28599851908476
 20
-112.3528320031618
 10
64.28599851908476
 20
-112.0927272940254
 10
64.28599851908476
 20
-111.8451971834102
 10
64.00453421793983
 20
-111.7964490822939
 10
63.65761310257518
 20
-111.7964490822939
 10
63.33825275109253
 20
-111.7964490822939
 10
63.02939994083987
 20
-111.8346896421802
 10
63.02939994083987
 20
-112.0927272940254
 97
        0
 97
        0
 75
     2
 76
     1
 98
        0
  0
ENDBLK
  5
7B
330
78
100
AcDbEntity
  8
0
100
AcDbBlockEnd
  0
BLOCK
  5
8F
330
8D
100
AcDbEntity
  8
0
100
AcDbBlockBegin
  2
block 6
 70
     0
 10
0.0
 20
0.0
 30
0.0
  3
block 6
  1

  0
SPLINE
  5
91
330
8D
100
AcDbEntity
  8
_U+30EC_U+30A4_U+30E4_U+30FC 1
370
     0
100
AcDbSpline
210
0.0
220
0.0
230
1.0
 70
    11
 71
     3
 72
    44
 73
    40
 74
     0
 42
0.0000000001
 43
0.0000000001
 12
1.0
 22
0.0
 32
0.0
 13
1.0
 23
0.0
 33
0.0
 40
0.0
 40
0.0
 40
0.0
 40
0.0
 40
1.0
 40
1.0
 40
1.0
 40
2.0
 40
2.0
 40
2.0
 40
3.0
 40
3.0
 40
3.0
 40
4.0
 40
4.0
 40
4.0
 40
5.0
 40
5.0
 40
5.0
 40
6.0
 40
6.0
 40
6.0
 40
7.0
 40
7.0
 40
7.0
 40
8.0
 40
8.0
 40
8.0
 40
9.0
 40
9.0
 40
9.0
 40
10.0
 40
10.0
 40
10.0
 40
11.0
 40
11.0
 40
11.0
 40
12.0
 40
12.0
 40
12.0
 40
13.0
 40
13.0
 40
13.0
 40
13.0
 10
79.29162866941321
 20
-133.7899386601289
 30
0.0
 10
79.2682020201135
 20
-133.7454969283692
 30
0.0
 10
79.24718693765348
 20
-133.6924424578963
 30
0.0
 10
79.24494762558807
 20
-133.4619655699331
 30
0.0
 10
79.24081351100577
 20
-133.2187418286745
 30
0.0
 10
79.18155786865948
 20
-133.1488063903239
 30
0.0
 10
79.00379094162058
 20
-133.1488063903239
 30
0.0
 10
79.00379094162058
 20
-133.1488063903239
 30
0.0
 10
78.59554712661848
 20
-133.1488063903239
 30
0.0
 10
78.59554712661848
 20
-133.1488063903239
 30
0.0
 10
78.59554712661848
 20
-133.1488063903239
 30
0.0
 10
78.59554712661848
 20
-133.7899386601289
 30
0.0
 10
78.59554712661848
 20
-133.7899386601289
 30
0.0
 10
78.59554712661848
 20
-133.7899386601289
 30
0.0
 10
78.36076386929871
 20
-133.7899386601289
 30
0.0
 10
78.36076386929871
 20
-133.7899386601289
 30
0.0
 10
78.36076386929871
 20
-133.7899386601289
 30
0.0
 10
78.36076386929871
 20
-132.2455023540914
 30
0.0
 10
78.36076386929871
 20
-132.2455023540914
 30
0.0
 10
78.36076386929871
 20
-132.2455023540914
 30
0.0
 10
79.03565807485914
 20
-132.2455023540914
 30
0.0
 10
79.03565807485914
 20
-132.2455023540914
 30
0.0
 10
79.34227157304638
 20
-132.2455023540914
 30
0.0
 10
79.509358704081
 20
-132.4170681092569
 30
0.0
 10
79.509358704081
 20
-132.6730387038109
 30
0.0
 10
79.509358704081
 20
-132.7236816074441
 30
0.0
 10
79.50091822014214
 20
-132.8063638990901
 30
0.0
 10
79.4564764883824
 20
-132.8866346238964
 30
0.0
 10
79.39739310081038
 20
-132.9903319980024
 30
0.0
 10
79.33176403181636
 20
-133.0092800231713
 30
0.0
 10
79.27044133217892
 20
-133.026160991049
 30
0.0
 10
79.40790064204039
 20
-133.0685356655176
 30
0.0
 10
79.47559676832554
 20
-133.1171115118596
 30
0.0
 10
79.47990313768211
 20
-133.43233774876
 30
0.0
 10
79.48403725226441
 20
-133.7031222539006
 30
0.0
 10
79.52003850008528
 20
-133.7351616419134
 30
0.0
 10
79.58773462637043
 20
-133.7899386601289
 30
0.0
 10
79.58773462637043
 20
-133.7899386601289
 30
0.0
 10
79.29162866941321
 20
-133.7899386601289
 30
0.0
 10
79.29162866941321
 20
-133.7899386601289
 30
0.0
  0
SPLINE
  5
92
330
8D
100
AcDbEntity
  8
_U+30EC_U+30A4_U+30E4_U+30FC 1
370
     0
100
AcDbSpline
210
0.0
220
0.0
230
1.0
 70
    11
 71
     3
 72
    20
 73
    16
 74
     0
 42
0.0000000001
 43
0.0000000001
 12
1.0
 22
0.0
 32
0.0
 13
1.0
 23
0.0
 33
0.0
 40
0.0
 40
0.0
 40
0.0
 40
0.0
 40
1.0
 40
1.0
 40
1.0
 40
2.0
 40
2.0
 40
2.0
 40
3.0
 40
3.0
 40
3.0
 40
4.0
 40
4.0
 40
4.0
 40
5.0
 40
5.0
 40
5.0
 40
5.0
 10
79.03979218944144
 20
-132.4570312168858
 30
0.0
 10
79.03979218944144
 20
-132.4570312168858
 30
0.0
 10
78.59554712661848
 20
-132.4570312168858
 30
0.0
 10
78.59554712661848
 20
-132.4570312168858
 30
0.0
 10
78.59554712661848
 20
-132.4570312168858
 30
0.0
 10
78.59554712661848
 20
-132.9372775275296
 30
0.0
 10
78.59554712661848
 20
-132.9372775275296
 30
0.0
 10
78.59554712661848
 20
-132.9372775275296
 30
0.0
 10
79.0377251321503
 20
-132.9372775275296
 30
0.0
 10
79.0377251321503
 20
-132.9372775275296
 30
0.0
 10
79.13711613689975
 20
-132.9372775275296
 30
0.0
 10
79.27250838947008
 20
-132.8614854268541
 30
0.0
 10
79.27250838947008
 20
-132.6899196716886
 30
0.0
 10
79.27250838947008
 20
-132.6113714946249
 30
0.0
 10
79.23857419894036
 20
-132.4570312168858
 30
0.0
 10
79.03979218944144
 20
-132.4570312168858
 30
0.0
  0
HATCH
  5
93
330
8D
100
AcDbEntity
  8
_U+30EC_U+30A4_U+30E4_U+30FC 1
 62
   179
420
  2234388
100
AcDbHatch
 10
0.0
 20
0.0
 30
0.0
210
0.0
220
0.0
230
1.0
  2
SOLID
 70
     1
 71
     0
 91
        2
 92
        1
 93
        1
 72
     4
 94
        3
 73
     0
 74
     1
 95
       44
 96
       40
 40
0.0
 40
0.0
 40
0.0
 40
0.0
 40
1.0
 40
1.0
 40
1.0
 40
2.0
 40
2.0
 40
2.0
 40
3.0
 40
3.0
 40
3.0
 40
4.0
 40
4.0
 40
4.0
 40
5.0
 40
5.0
 40
5.0
 40
6.0
 40
6.0
 40
6.0
 40
7.0
 40
7.0
 40
7.0
 40
8.0
 40
8.0
 40
8.0
 40
9.0
 40
9.0
 40
9.0
 40
10.0
 40
10.0
 40
10.0
 40
11.0
 40
11.0
 40
11.0
 40
12.0
 40
12.0
 40
12.0
 40
13.0
 40
13.0
 40
13.0
 40
13.0
 10
79.29162866941321
 20
-133.7899386601289
 10
79.2682020201135
 20
-133.7454969283692
 10
79.24718693765348
 20
-133.6924424578963
 10
79.24494762558807
 20
-133.4619655699331
 10
79.24081351100577
 20
-133.2187418286745
 10
79.18155786865948
 20
-133.1488063903239
 10
79.00379094162058
 20
-133.1488063903239
 10
79.00379094162058
 20
-133.1488063903239
 10
78.59554712661848
 20
-133.1488063903239
 10
78.59554712661848
 20
-133.1488063903239
 10
78.59554712661848
 20
-133.1488063903239
 10
78.59554712661848
 20
-133.7899386601289
 10
78.59554712661848
 20
-133.7899386601289
 10
78.59554712661848
 20
-133.7899386601289
 10
78.36076386929871
 20
-133.7899386601289
 10
78.36076386929871
 20
-133.7899386601289
 10
78.36076386929871
 20
-133.7899386601289
 10
78.36076386929871
 20
-132.2455023540914
 10
78.36076386929871
 20
-132.2455023540914
 10
78.36076386929871
 20
-132.2455023540914
 10
79.03565807485914
 20
-132.2455023540914
 10
79.03565807485914
 20
-132.2455023540914
 10
79.34227157304638
 20
-132.2455023540914
 10
79.509358704081
 20
-132.4170681092569
 10
79.509358704081
 20
-132.6730387038109
 10
79.509358704081
 20
-132.7236816074441
 10
79.50091822014214
 20
-132.8063638990901
 10
79.4564764883824
 20
-132.8866346238964
 10
79.39739310081038
 20
-132.9903319980024
 10
79.33176403181636
 20
-133.0092800231713
 10
79.27044133217892
 20
-133.026160991049
 10
79.40790064204039
 20
-133.0685356655176
 10
79.47559676832554
 20
-133.1171115118596
 10
79.47990313768211
 20
-133.43233774876
 10
79.48403725226441
 20
-133.7031222539006
 10
79.52003850008528
 20
-133.7351616419134
 10
79.58773462637043
 20
-133.7899386601289
 10
79.58773462637043
 20
-133.7899386601289
 10
79.29162866941321
 20
-133.7899386601289
 10
79.29162866941321
 20
-133.7899386601289
 97
        0
 97
        0
 92
        1
 93
        1
 72
     4
 94
        3
 73
     0
 74
     1
 95
       20
 96
       16
 40
0.0
 40
0.0
 40
0.0
 40
0.0
 40
1.0
 40
1.0
 40
1.0
 40
2.0
 40
2.0
 40
2.0
 40
3.0
 40
3.0
 40
3.0
 40
4.0
 40
4.0
 40
4.0
 40
5.0
 40
5.0
 40
5.0
 40
5.0
 10
79.03979218944144
 20
-132.4570312168858
 10
79.03979218944144
 20
-132.4570312168858
 10
78.59554712661848
 20
-132.4570312168858
 10
78.59554712661848
 20
-132.4570312168858
 10
78.59554712661848
 20
-132.4570312168858
 10
78.59554712661848
 20
-132.9372775275296
 10
78.59554712661848
 20
-132.9372775275296
 10
78.59554712661848
 20
-132.9372775275296
 10
79.0377251321503
 20
-132.9372775275296
 10
79.0377251321503
 20
-132.9372775275296
 10
79.13711613689975
 20
-132.9372775275296
 10
79.27250838947008
 20
-132.8614854268541
 10
79.27250838947008
 20
-132.6899196716886
 10
79.27250838947008
 20
-132.6113714946249
 10
79.23857419894036
 20
-132.4570312168858
 10
79.03979218944144
 20
-132.4570312168858
 97
        0
 97
        0
 75
     2
 76
     1
 98
        0
  0
SPLINE
  5
94
330
8D
100
AcDbEntity
  8
_U+30EC_U+30A4_U+30E4_U+30FC 1
370
     0
100
AcDbSpline
210
0.0
220
0.0
230
1.0
 70
    11
 71
     3
 72
    26
 73
    22
 74
     0
 42
0.0000000001
 43
0.0000000001
 12
1.0
 22
0.0
 32
0.0
 13
1.0
 23
0.0
 33
0.0
 40
0.0
 40
0.0
 40
0.0
 40
0.0
 40
1.0
 40
1.0
 40
1.0
 40
2.0
 40
2.0
 40
2.0
 40
3.0
 40
3.0
 40
3.0
 40
4.0
 40
4.0
 40
4.0
 40
5.0
 40
5.0
 40
5.0
 40
6.0
 40
6.0
 40
6.0
 40
7.0
 40
7.0
 40
7.0
 40
7.0
 10
80.17874075686504
 20
-133.7899386601289
 30
0.0
 10
80.17874075686504
 20
-133.7899386601289
 30
0.0
 10
80.17874075686504
 20
-132.6857855571063
 30
0.0
 10
80.17874075686504
 20
-132.6857855571063
 30
0.0
 10
80.17874075686504
 20
-132.6857855571063
 30
0.0
 10
79.84870060937811
 20
-132.6857855571063
 30
0.0
 10
79.84870060937811
 20
-132.6857855571063
 30
0.0
 10
79.84870060937811
 20
-132.6857855571063
 30
0.0
 10
79.84870060937811
 20
-132.5376464512406
 30
0.0
 10
79.84870060937811
 20
-132.5376464512406
 30
0.0
 10
80.1808078141562
 20
-132.522832540654
 30
0.0
 10
80.22731660320706
 20
-132.3598795242017
 30
0.0
 10
80.25694442438021
 20
-132.2455023540914
 30
0.0
 10
80.25694442438021
 20
-132.2455023540914
 30
0.0
 10
80.4030164729548
 20
-132.2455023540914
 30
0.0
 10
80.4030164729548
 20
-132.2455023540914
 30
0.0
 10
80.4030164729548
 20
-132.2455023540914
 30
0.0
 10
80.4030164729548
 20
-133.7899386601289
 30
0.0
 10
80.4030164729548
 20
-133.7899386601289
 30
0.0
 10
80.4030164729548
 20
-133.7899386601289
 30
0.0
 10
80.17874075686504
 20
-133.7899386601289
 30
0.0
 10
80.17874075686504
 20
-133.7899386601289
 30
0.0
  0
HATCH
  5
95
330
8D
100
AcDbEntity
  8
_U+30EC_U+30A4_U+30E4_U+30FC 1
 62
   179
420
  2234388
100
AcDbHatch
 10
0.0
 20
0.0
 30
0.0
210
0.0
220
0.0
230
1.0
  2
SOLID
 70
     1
 71
     0
 91
        1
 92
        1
 93
        1
 72
     4
 94
        3
 73
     0
 74
     1
 95
       26
 96
       22
 40
0.0
 40
0.0
 40
0.0
 40
0.0
 40
1.0
 40
1.0
 40
1.0
 40
2.0
 40
2.0
 40
2.0
 40
3.0
 40
3.0
 40
3.0
 40
4.0
 40
4.0
 40
4.0
 40
5.0
 40
5.0
 40
5.0
 40
6.0
 40
6.0
 40
6.0
 40
7.0
 40
7.0
 40
7.0
 40
7.0
 10
80.17874075686504
 20
-133.7899386601289
 10
80.17874075686504
 20
-133.7899386601289
 10
80.17874075686504
 20
-132.6857855571063
 10
80.17874075686504
 20
-132.6857855571063
 10
80.17874075686504
 20
-132.6857855571063
 10
79.84870060937811
 20
-132.6857855571063
 10
79.84870060937811
 20
-132.6857855571063
 10
79.84870060937811
 20
-132.6857855571063
 10
79.84870060937811
 20
-132.5376464512406
 10
79.84870060937811
 20
-132.5376464512406
 10
80.1808078141562
 20
-132.522832540654
 10
80.22731660320706
 20
-132.3598795242017
 10
80.25694442438021
 20
-132.2455023540914
 10
80.25694442438021
 20
-132.2455023540914
 10
80.4030164729548
 20
-132.2455023540914
 10
80.4030164729548
 20
-132.2455023540914
 10
80.4030164729548
 20
-132.2455023540914
 10
80.4030164729548
 20
-133.7899386601289
 10
80.4030164729548
 20
-133.7899386601289
 10
80.4030164729548
 20
-133.7899386601289
 10
80.17874075686504
 20
-133.7899386601289
 10
80.17874075686504
 20
-133.7899386601289
 97
        0
 97
        0
 75
     2
 76
     1
 98
        0
  0
SPLINE
  5
96
330
8D
100
AcDbEntity
  8
_U+30EC_U+30A4_U+30E4_U+30FC 1
370
     0
100
AcDbSpline
210
0.0
220
0.0
230
1.0
 70
    11
 71
     3
 72
    29
 73
    25
 74
     0
 42
0.0000000001
 43
0.0000000001
 12
1.0
 22
0.0
 32
0.0
 13
1.0
 23
0.0
 33
0.0
 40
0.0
 40
0.0
 40
0.0
 40
0.0
 40
1.0
 40
1.0
 40
1.0
 40
2.0
 40
2.0
 40
2.0
 40
3.0
 40
3.0
 40
3.0
 40
4.0
 40
4.0
 40
4.0
 40
5.0
 40
5.0
 40
5.0
 40
6.0
 40
6.0
 40
6.0
 40
7.0
 40
7.0
 40
7.0
 40
8.0
 40
8.0
 40
8.0
 40
8.0
 10
81.8018974947405
 20
-133.61217173309
 30
0.0
 10
81.69406600605218
 20
-133.8216335385932
 30
0.0
 10
81.52060544836985
 20
-133.8405815637621
 30
0.0
 10
81.4041612209684
 20
-133.8405815637621
 30
0.0
 10
81.2434475165815
 20
-133.8405815637621
 30
0.0
 10
81.10168183736347
 20
-133.7944172842597
 30
0.0
 10
81.00642494719631
 20
-133.61217173309
 30
0.0
 10
80.90289982786456
 20
-133.4175238381734
 30
0.0
 10
80.88377954792142
 20
-133.1805012687882
 30
0.0
 10
80.88377954792142
 20
-133.0178927618844
 30
0.0
 10
80.88377954792142
 20
-132.873887770601
 30
0.0
 10
80.90066051579915
 20
-132.6223958001777
 30
0.0
 10
81.00642494719631
 20
-132.4232692811303
 30
0.0
 10
81.1144286906589
 20
-132.2200086475005
 30
0.0
 10
81.2751423950458
 20
-132.1969265077494
 30
0.0
 10
81.4041612209684
 20
-132.1969265077494
 30
0.0
 10
81.56280786806417
 20
-132.1969265077494
 30
0.0
 10
81.70664060457334
 20
-132.2413682395091
 30
0.0
 10
81.8018974947405
 20
-132.4232692811303
 30
0.0
 10
81.90128849948997
 20
-132.6158501187558
 30
0.0
 10
81.9245428940154
 20
-132.8442599494278
 30
0.0
 10
81.9245428940154
 20
-133.0178927618844
 30
0.0
 10
81.9245428940154
 20
-133.1891140075013
 30
0.0
 10
81.90352781155538
 20
-133.4195908954646
 30
0.0
 10
81.8018974947405
 20
-133.61217173309
 30
0.0
  0
SPLINE
  5
97
330
8D
100
AcDbEntity
  8
_U+30EC_U+30A4_U+30E4_U+30FC 1
370
     0
100
AcDbSpline
210
0.0
220
0.0
230
1.0
 70
    11
 71
     3
 72
    17
 73
    13
 74
     0
 42
0.0000000001
 43
0.0000000001
 12
1.0
 22
0.0
 32
0.0
 13
1.0
 23
0.0
 33
0.0
 40
0.0
 40
0.0
 40
0.0
 40
0.0
 40
1.0
 40
1.0
 40
1.0
 40
2.0
 40
2.0
 40
2.0
 40
3.0
 40
3.0
 40
3.0
 40
4.0
 40
4.0
 40
4.0
 40
4.0
 10
81.4041612209684
 20
-132.3895073453749
 30
0.0
 10
81.15456405306206
 20
-132.3895073453749
 30
0.0
 10
81.10805526401118
 20
-132.6730387038109
 30
0.0
 10
81.10805526401118
 20
-133.0178927618844
 30
0.0
 10
81.10805526401118
 20
-133.3372531133671
 30
0.0
 10
81.14405651183205
 20
-133.646278178394
 30
0.0
 10
81.4041612209684
 20
-133.646278178394
 30
0.0
 10
81.6516913315836
 20
-133.646278178394
 30
0.0
 10
81.7004394326999
 20
-133.3644693677006
 30
0.0
 10
81.7004394326999
 20
-133.0178927618844
 30
0.0
 10
81.7004394326999
 20
-132.6981879008532
 30
0.0
 10
81.66219887281362
 20
-132.3895073453749
 30
0.0
 10
81.4041612209684
 20
-132.3895073453749
 30
0.0
  0
HATCH
  5
98
330
8D
100
AcDbEntity
  8
_U+30EC_U+30A4_U+30E4_U+30FC 1
 62
   179
420
  2234388
100
AcDbHatch
 10
0.0
 20
0.0
 30
0.0
210
0.0
220
0.0
230
1.0
  2
SOLID
 70
     1
 71
     0
 91
        2
 92
        1
 93
        1
 72
     4
 94
        3
 73
     0
 74
     1
 95
       29
 96
       25
 40
0.0
 40
0.0
 40
0.0
 40
0.0
 40
1.0
 40
1.0
 40
1.0
 40
2.0
 40
2.0
 40
2.0
 40
3.0
 40
3.0
 40
3.0
 40
4.0
 40
4.0
 40
4.0
 40
5.0
 40
5.0
 40
5.0
 40
6.0
 40
6.0
 40
6.0
 40
7.0
 40
7.0
 40
7.0
 40
8.0
 40
8.0
 40
8.0
 40
8.0
 10
81.8018974947405
 20
-133.61217173309
 10
81.69406600605218
 20
-133.8216335385932
 10
81.52060544836985
 20
-133.8405815637621
 10
81.4041612209684
 20
-133.8405815637621
 10
81.2434475165815
 20
-133.8405815637621
 10
81.10168183736347
 20
-133.7944172842597
 10
81.00642494719631
 20
-133.61217173309
 10
80.90289982786456
 20
-133.4175238381734
 10
80.88377954792142
 20
-133.1805012687882
 10
80.88377954792142
 20
-133.0178927618844
 10
80.88377954792142
 20
-132.873887770601
 10
80.90066051579915
 20
-132.6223958001777
 10
81.00642494719631
 20
-132.4232692811303
 10
81.1144286906589
 20
-132.2200086475005
 10
81.2751423950458
 20
-132.1969265077494
 10
81.4041612209684
 20
-132.1969265077494
 10
81.56280786806417
 20
-132.1969265077494
 10
81.70664060457334
 20
-132.2413682395091
 10
81.8018974947405
 20
-132.4232692811303
 10
81.90128849948997
 20
-132.6158501187558
 10
81.9245428940154
 20
-132.8442599494278
 10
81.9245428940154
 20
-133.0178927618844
 10
81.9245428940154
 20
-133.1891140075013
 10
81.90352781155538
 20
-133.4195908954646
 10
81.8018974947405
 20
-133.61217173309
 97
        0
 97
        0
 92
        1
 93
        1
 72
     4
 94
        3
 73
     0
 74
     1
 95
       17
 96
       13
 40
0.0
 40
0.0
 40
0.0
 40
0.0
 40
1.0
 40
1.0
 40
1.0
 40
2.0
 40
2.0
 40
2.0
 40
3.0
 40
3.0
 40
3.0
 40
4.0
 40
4.0
 40
4.0
 40
4.0
 10
81.4041612209684
 20
-132.3895073453749
 10
81.15456405306206
 20
-132.3895073453749
 10
81.10805526401118
 20
-132.6730387038109
 10
81.10805526401118
 20
-133.0178927618844
 10
81.10805526401118
 20
-133.3372531133671
 10
81.14405651183205
 20
-133.646278178394
 10
81.4041612209684
 20
-133.646278178394
 10
81.6516913315836
 20
-133.646278178394
 10
81.7004394326999
 20
-133.3644693677006
 10
81.7004394326999
 20
-133.0178927618844
 10
81.7004394326999
 20
-132.6981879008532
 10
81.66219887281362
 20
-132.3895073453749
 10
81.4041612209684
 20
-132.3895073453749
 97
        0
 97
        0
 75
     2
 76
     1
 98
        0
  0
ENDBLK
  5
90
330
8D
100
AcDbEntity
  8
0
100
AcDbBlockEnd
  0
BLOCK
  5
AF
330
AD
100
AcDbEntity
  8
0
100
AcDbBlockBegin
  2
block 7
 70
     0
 10
0.0
 20
0.0
 30
0.0
  3
block 7
  1

  0
SPLINE
  5
B1
330
AD
100
AcDbEntity
  8
_U+30EC_U+30A4_U+30E4_U+30FC 1
370
     0
100
AcDbSpline
210
0.0
220
0.0
230
1.0
 70
    11
 71
     3
 72
    26
 73
    22
 74
     0
 42
0.0000000001
 43
0.0000000001
 12
1.0
 22
0.0
 32
0.0
 13
1.0
 23
0.0
 33
0.0
 40
0.0
 40
0.0
 40
0.0
 40
0.0
 40
1.0
 40
1.0
 40
1.0
 40
2.0
 40
2.0
 40
2.0
 40
3.0
 40
3.0
 40
3.0
 40
4.0
 40
4.0
 40
4.0
 40
5.0
 40
5.0
 40
5.0
 40
6.0
 40
6.0
 40
6.0
 40
7.0
 40
7.0
 40
7.0
 40
7.0
 10
117.6672362987082
 20
-141.4532090575186
 30
0.0
 10
117.6672362987082
 20
-141.4532090575186
 30
0.0
 10
116.5627386861371
 20
-141.4532090575186
 30
0.0
 10
116.5627386861371
 20
-141.4532090575186
 30
0.0
 10
116.5627386861371
 20
-141.4532090575186
 30
0.0
 10
116.5627386861371
 20
-141.7832492050056
 30
0.0
 10
116.5627386861371
 20
-141.7832492050056
 30
0.0
 10
116.5627386861371
 20
-141.7832492050056
 30
0.0
 10
116.4145995802714
 20
-141.7832492050056
 30
0.0
 10
116.4145995802714
 20
-141.7832492050056
 30
0.0
 10
116.4001301792333
 20
-141.4511420002275
 30
0.0
 10
116.237177162781
 20
-141.4046332111766
 30
0.0
 10
116.1231445022192
 20
-141.3750053900035
 30
0.0
 10
116.1231445022192
 20
-141.3750053900035
 30
0.0
 10
116.1231445022192
 20
-141.2289333414289
 30
0.0
 10
116.1231445022192
 20
-141.2289333414289
 30
0.0
 10
116.1231445022192
 20
-141.2289333414289
 30
0.0
 10
117.6672362987082
 20
-141.2289333414289
 30
0.0
 10
117.6672362987082
 20
-141.2289333414289
 30
0.0
 10
117.6672362987082
 20
-141.2289333414289
 30
0.0
 10
117.6672362987082
 20
-141.4532090575186
 30
0.0
 10
117.6672362987082
 20
-141.4532090575186
 30
0.0
  0
HATCH
  5
B2
330
AD
100
AcDbEntity
  8
_U+30EC_U+30A4_U+30E4_U+30FC 1
 62
   179
420
  2234388
100
AcDbHatch
 10
0.0
 20
0.0
 30
0.0
210
0.0
220
0.0
230
1.0
  2
SOLID
 70
     1
 71
     0
 91
        1
 92
        1
 93
        1
 72
     4
 94
        3
 73
     0
 74
     1
 95
       26
 96
       22
 40
0.0
 40
0.0
 40
0.0
 40
0.0
 40
1.0
 40
1.0
 40
1.0
 40
2.0
 40
2.0
 40
2.0
 40
3.0
 40
3.0
 40
3.0
 40
4.0
 40
4.0
 40
4.0
 40
5.0
 40
5.0
 40
5.0
 40
6.0
 40
6.0
 40
6.0
 40
7.0
 40
7.0
 40
7.0
 40
7.0
 10
117.6672362987082
 20
-141.4532090575186
 10
117.6672362987082
 20
-141.4532090575186
 10
116.5627386861371
 20
-141.4532090575186
 10
116.5627386861371
 20
-141.4532090575186
 10
116.5627386861371
 20
-141.4532090575186
 10
116.5627386861371
 20
-141.7832492050056
 10
116.5627386861371
 20
-141.7832492050056
 10
116.5627386861371
 20
-141.7832492050056
 10
116.4145995802714
 20
-141.7832492050056
 10
116.4145995802714
 20
-141.7832492050056
 10
116.4001301792333
 20
-141.4511420002275
 10
116.237177162781
 20
-141.4046332111766
 10
116.1231445022192
 20
-141.3750053900035
 10
116.1231445022192
 20
-141.3750053900035
 10
116.1231445022192
 20
-141.2289333414289
 10
116.1231445022192
 20
-141.2289333414289
 10
116.1231445022192
 20
-141.2289333414289
 10
117.6672362987082
 20
-141.2289333414289
 10
117.6672362987082
 20
-141.2289333414289
 10
117.6672362987082
 20
-141.2289333414289
 10
117.6672362987082
 20
-141.4532090575186
 10
117.6672362987082
 20
-141.4532090575186
 97
        0
 97
        0
 75
     2
 76
     1
 98
        0
  0
SPLINE
  5
B3
330
AD
100
AcDbEntity
  8
_U+30EC_U+30A4_U+30E4_U+30FC 1
370
     0
100
AcDbSpline
210
0.0
220
0.0
230
1.0
 70
    11
 71
     3
 72
    53
 73
    49
 74
     0
 42
0.0000000001
 43
0.0000000001
 12
1.0
 22
0.0
 32
0.0
 13
1.0
 23
0.0
 33
0.0
 40
0.0
 40
0.0
 40
0.0
 40
0.0
 40
1.0
 40
1.0
 40
1.0
 40
2.0
 40
2.0
 40
2.0
 40
3.0
 40
3.0
 40
3.0
 40
4.0
 40
4.0
 40
4.0
 40
5.0
 40
5.0
 40
5.0
 40
6.0
 40
6.0
 40
6.0
 40
7.0
 40
7.0
 40
7.0
 40
8.0
 40
8.0
 40
8.0
 40
9.0
 40
9.0
 40
9.0
 40
10.0
 40
10.0
 40
10.0
 40
11.0
 40
11.0
 40
11.0
 40
12.0
 40
12.0
 40
12.0
 40
13.0
 40
13.0
 40
13.0
 40
14.0
 40
14.0
 40
14.0
 40
15.0
 40
15.0
 40
15.0
 40
16.0
 40
16.0
 40
16.0
 40
16.0
 10
117.7182237118899
 20
-140.2467366185842
 30
0.0
 10
117.7182237118899
 20
-140.3249402860993
 30
0.0
 10
117.7009982344636
 20
-140.4265706029142
 30
0.0
 10
117.6376084775351
 20
-140.5282009197291
 30
0.0
 10
117.5273654220071
 20
-140.7018337321857
 30
0.0
 10
117.3964517935676
 20
-140.7228488146457
 30
0.0
 10
117.2886203048792
 20
-140.7417968398146
 30
0.0
 10
117.2886203048792
 20
-140.7417968398146
 30
0.0
 10
117.2886203048792
 20
-140.5199326905645
 30
0.0
 10
117.2886203048792
 20
-140.5199326905645
 30
0.0
 10
117.4874023143782
 20
-140.4648111628005
 30
0.0
 10
117.5170301355513
 20
-140.3376871393947
 30
0.0
 10
117.5170301355513
 20
-140.244669561293
 30
0.0
 10
117.5170301355513
 20
-140.1051431941404
 30
0.0
 10
117.4178113855761
 20
-139.9528699736923
 30
0.0
 10
117.1849229307732
 20
-139.9528699736923
 30
0.0
 10
116.9289523362192
 20
-139.9528699736923
 30
0.0
 10
116.8590168978686
 20
-140.1327039580224
 30
0.0
 10
116.8590168978686
 20
-140.2532823000061
 30
0.0
 10
116.8590168978686
 20
-140.2849771784704
 30
0.0
 10
116.8590168978686
 20
-140.4265706029142
 30
0.0
 10
116.9882079785655
 20
-140.5154540664336
 30
0.0
 10
116.9882079785655
 20
-140.5154540664336
 30
0.0
 10
116.9692599533966
 20
-140.6908094266329
 30
0.0
 10
116.9692599533966
 20
-140.6908094266329
 30
0.0
 10
116.9692599533966
 20
-140.6908094266329
 30
0.0
 10
116.1231445022192
 20
-140.5702310846491
 30
0.0
 10
116.1231445022192
 20
-140.5702310846491
 30
0.0
 10
116.1231445022192
 20
-140.5702310846491
 30
0.0
 10
116.1231445022192
 20
-139.7919840145312
 30
0.0
 10
116.1231445022192
 20
-139.7919840145312
 30
0.0
 10
116.1231445022192
 20
-139.7919840145312
 30
0.0
 10
116.3174478875873
 20
-139.7919840145312
 30
0.0
 10
116.3174478875873
 20
-139.7919840145312
 30
0.0
 10
116.3174478875873
 20
-139.7919840145312
 30
0.0
 10
116.3174478875873
 20
-140.4076225777453
 30
0.0
 10
116.3174478875873
 20
-140.4076225777453
 30
0.0
 10
116.3174478875873
 20
-140.4076225777453
 30
0.0
 10
116.740505613176
 20
-140.4730793919651
 30
0.0
 10
116.740505613176
 20
-140.4730793919651
 30
0.0
 10
116.7067436774205
 20
-140.4117566923276
 30
0.0
 10
116.6667805697916
 20
-140.3290744006816
 30
0.0
 10
116.6667805697916
 20
-140.2109076255375
 30
0.0
 10
116.6667805697916
 20
-139.9570040882747
 30
0.0
 10
116.8528157259951
 20
-139.7199815188895
 30
0.0
 10
117.1656303960558
 20
-139.7199815188895
 30
0.0
 10
117.4832681997959
 20
-139.7199815188895
 30
0.0
 10
117.7182237118899
 20
-139.9442572349792
 30
0.0
 10
117.7182237118899
 20
-140.2467366185842
 30
0.0
  0
HATCH
  5
B4
330
AD
100
AcDbEntity
  8
_U+30EC_U+30A4_U+30E4_U+30FC 1
 62
   179
420
  2234388
100
AcDbHatch
 10
0.0
 20
0.0
 30
0.0
210
0.0
220
0.0
230
1.0
  2
SOLID
 70
     1
 71
     0
 91
        1
 92
        1
 93
        1
 72
     4
 94
        3
 73
     0
 74
     1
 95
       53
 96
       49
 40
0.0
 40
0.0
 40
0.0
 40
0.0
 40
1.0
 40
1.0
 40
1.0
 40
2.0
 40
2.0
 40
2.0
 40
3.0
 40
3.0
 40
3.0
 40
4.0
 40
4.0
 40
4.0
 40
5.0
 40
5.0
 40
5.0
 40
6.0
 40
6.0
 40
6.0
 40
7.0
 40
7.0
 40
7.0
 40
8.0
 40
8.0
 40
8.0
 40
9.0
 40
9.0
 40
9.0
 40
10.0
 40
10.0
 40
10.0
 40
11.0
 40
11.0
 40
11.0
 40
12.0
 40
12.0
 40
12.0
 40
13.0
 40
13.0
 40
13.0
 40
14.0
 40
14.0
 40
14.0
 40
15.0
 40
15.0
 40
15.0
 40
16.0
 40
16.0
 40
16.0
 40
16.0
 10
117.7182237118899
 20
-140.2467366185842
 10
117.7182237118899
 20
-140.3249402860993
 10
117.7009982344636
 20
-140.4265706029142
 10
117.6376084775351
 20
-140.5282009197291
 10
117.5273654220071
 20
-140.7018337321857
 10
117.3964517935676
 20
-140.7228488146457
 10
117.2886203048792
 20
-140.7417968398146
 10
117.2886203048792
 20
-140.7417968398146
 10
117.2886203048792
 20
-140.5199326905645
 10
117.2886203048792
 20
-140.5199326905645
 10
117.4874023143782
 20
-140.4648111628005
 10
117.5170301355513
 20
-140.3376871393947
 10
117.5170301355513
 20
-140.244669561293
 10
117.5170301355513
 20
-140.1051431941404
 10
117.4178113855761
 20
-139.9528699736923
 10
117.1849229307732
 20
-139.9528699736923
 10
116.9289523362192
 20
-139.9528699736923
 10
116.8590168978686
 20
-140.1327039580224
 10
116.8590168978686
 20
-140.2532823000061
 10
116.8590168978686
 20
-140.2849771784704
 10
116.8590168978686
 20
-140.4265706029142
 10
116.9882079785655
 20
-140.5154540664336
 10
116.9882079785655
 20
-140.5154540664336
 10
116.9692599533966
 20
-140.6908094266329
 10
116.9692599533966
 20
-140.6908094266329
 10
116.9692599533966
 20
-140.6908094266329
 10
116.1231445022192
 20
-140.5702310846491
 10
116.1231445022192
 20
-140.5702310846491
 10
116.1231445022192
 20
-140.5702310846491
 10
116.1231445022192
 20
-139.7919840145312
 10
116.1231445022192
 20
-139.7919840145312
 10
116.1231445022192
 20
-139.7919840145312
 10
116.3174478875873
 20
-139.7919840145312
 10
116.3174478875873
 20
-139.7919840145312
 10
116.3174478875873
 20
-139.7919840145312
 10
116.3174478875873
 20
-140.4076225777453
 10
116.3174478875873
 20
-140.4076225777453
 10
116.3174478875873
 20
-140.4076225777453
 10
116.740505613176
 20
-140.4730793919651
 10
116.740505613176
 20
-140.4730793919651
 10
116.7067436774205
 20
-140.4117566923276
 10
116.6667805697916
 20
-140.3290744006816
 10
116.6667805697916
 20
-140.2109076255375
 10
116.6667805697916
 20
-139.9570040882747
 10
116.8528157259951
 20
-139.7199815188895
 10
117.1656303960558
 20
-139.7199815188895
 10
117.4832681997959
 20
-139.7199815188895
 10
117.7182237118899
 20
-139.9442572349792
 10
117.7182237118899
 20
-140.2467366185842
 97
        0
 97
        0
 75
     2
 76
     1
 98
        0
  0
POLYLINE
  5
B5
330
AD
100
AcDbEntity
  8
_U+30EC_U+30A4_U+30E4_U+30FC 1
370
     0
100
AcDb2dPolyline
 66
     1
 10
0.0
 20
0.0
 30
0.0
  0
VERTEX
  5
B6
330
B5
100
AcDbEntity
  8
_U+30EC_U+30A4_U+30E4_U+30FC 1
370
     0
100
AcDbVertex
100
AcDb2dVertex
 10
117.6672362987082
 20
-139.4908826691203
 30
0.0
  0
VERTEX
  5
B7
330
B5
100
AcDbEntity
  8
_U+30EC_U+30A4_U+30E4_U+30FC 1
370
     0
100
AcDbVertex
100
AcDb2dVertex
 10
117.415744328285
 20
-139.4908826691203
 30
0.0
  0
VERTEX
  5
B8
330
B5
100
AcDbEntity
  8
_U+30EC_U+30A4_U+30E4_U+30FC 1
370
     0
100
AcDbVertex
100
AcDb2dVertex
 10
117.415744328285
 20
-139.2390461891486
 30
0.0
  0
VERTEX
  5
B9
330
B5
100
AcDbEntity
  8
_U+30EC_U+30A4_U+30E4_U+30FC 1
370
     0
100
AcDbVertex
100
AcDb2dVertex
 10
117.6672362987082
 20
-139.2390461891486
 30
0.0
  0
VERTEX
  5
BA
330
B5
100
AcDbEntity
  8
_U+30EC_U+30A4_U+30E4_U+30FC 1
370
     0
100
AcDbVertex
100
AcDb2dVertex
 10
117.6672362987082
 20
-139.4908826691203
 30
0.0
  0
SEQEND
  5
BB
330
B5
100
AcDbEntity
  8
_U+30EC_U+30A4_U+30E4_U+30FC 1
370
     0
  0
HATCH
  5
BC
330
AD
100
AcDbEntity
  8
_U+30EC_U+30A4_U+30E4_U+30FC 1
 62
   179
420
  2234388
100
AcDbHatch
 10
0.0
 20
0.0
 30
0.0
210
0.0
220
0.0
230
1.0
  2
SOLID
 70
     1
 71
     0
 91
        1
 92
        1
 93
        4
 72
     1
 10
117.6672362987082
 20
-139.4908826691203
 11
117.415744328285
 21
-139.4908826691203
 72
     1
 10
117.415744328285
 20
-139.4908826691203
 11
117.415744328285
 21
-139.2390461891486
 72
     1
 10
117.415744328285
 20
-139.2390461891486
 11
117.6672362987082
 21
-139.2390461891486
 72
     1
 10
117.6672362987082
 20
-139.2390461891486
 11
117.6672362987082
 21
-139.4908826691203
 97
        0
 75
     2
 76
     1
 98
        0
  0
SPLINE
  5
BD
330
AD
100
AcDbEntity
  8
_U+30EC_U+30A4_U+30E4_U+30FC 1
370
     0
100
AcDbSpline
210
0.0
220
0.0
230
1.0
 70
    11
 71
     3
 72
    53
 73
    49
 74
     0
 42
0.0000000001
 43
0.0000000001
 12
1.0
 22
0.0
 32
0.0
 13
1.0
 23
0.0
 33
0.0
 40
0.0
 40
0.0
 40
0.0
 40
0.0
 40
1.0
 40
1.0
 40
1.0
 40
2.0
 40
2.0
 40
2.0
 40
3.0
 40
3.0
 40
3.0
 40
4.0
 40
4.0
 40
4.0
 40
5.0
 40
5.0
 40
5.0
 40
6.0
 40
6.0
 40
6.0
 40
7.0
 40
7.0
 40
7.0
 40
8.0
 40
8.0
 40
8.0
 40
9.0
 40
9.0
 40
9.0
 40
10.0
 40
10.0
 40
10.0
 40
11.0
 40
11.0
 40
11.0
 40
12.0
 40
12.0
 40
12.0
 40
13.0
 40
13.0
 40
13.0
 40
14.0
 40
14.0
 40
14.0
 40
15.0
 40
15.0
 40
15.0
 40
16.0
 40
16.0
 40
16.0
 40
16.0
 10
117.7182237118899
 20
-138.5217773091196
 30
0.0
 10
117.7182237118899
 20
-138.5999809766347
 30
0.0
 10
117.7009982344636
 20
-138.7016112934496
 30
0.0
 10
117.6376084775351
 20
-138.8028971007159
 30
0.0
 10
117.5273654220071
 20
-138.9765299131725
 30
0.0
 10
117.3964517935676
 20
-138.9978895051811
 30
0.0
 10
117.2886203048792
 20
-139.0164930208014
 30
0.0
 10
117.2886203048792
 20
-139.0164930208014
 30
0.0
 10
117.2886203048792
 20
-138.7946288715513
 30
0.0
 10
117.2886203048792
 20
-138.7946288715513
 30
0.0
 10
117.4874023143782
 20
-138.7395073437874
 30
0.0
 10
117.5170301355513
 20
-138.6127278299302
 30
0.0
 10
117.5170301355513
 20
-138.5197102518284
 30
0.0
 10
117.5170301355513
 20
-138.3798393751273
 30
0.0
 10
117.4178113855761
 20
-138.2275661546792
 30
0.0
 10
117.1849229307732
 20
-138.2275661546792
 30
0.0
 10
116.9289523362192
 20
-138.2275661546792
 30
0.0
 10
116.8590168978686
 20
-138.4074001390093
 30
0.0
 10
116.8590168978686
 20
-138.527978480993
 30
0.0
 10
116.8590168978686
 20
-138.5596733594573
 30
0.0
 10
116.8590168978686
 20
-138.7016112934496
 30
0.0
 10
116.9882079785655
 20
-138.7904947569691
 30
0.0
 10
116.9882079785655
 20
-138.7904947569691
 30
0.0
 10
116.9692599533966
 20
-138.9658501171683
 30
0.0
 10
116.9692599533966
 20
-138.9658501171683
 30
0.0
 10
116.9692599533966
 20
-138.9658501171683
 30
0.0
 10
116.1231445022192
 20
-138.8452717751845
 30
0.0
 10
116.1231445022192
 20
-138.8452717751845
 30
0.0
 10
116.1231445022192
 20
-138.8452717751845
 30
0.0
 10
116.1231445022192
 20
-138.0670247050666
 30
0.0
 10
116.1231445022192
 20
-138.0670247050666
 30
0.0
 10
116.1231445022192
 20
-138.0670247050666
 30
0.0
 10
116.3174478875873
 20
-138.0670247050666
 30
0.0
 10
116.3174478875873
 20
-138.0670247050666
 30
0.0
 10
116.3174478875873
 20
-138.0670247050666
 30
0.0
 10
116.3174478875873
 20
-138.6823187587322
 30
0.0
 10
116.3174478875873
 20
-138.6823187587322
 30
0.0
 10
116.3174478875873
 20
-138.6823187587322
 30
0.0
 10
116.740505613176
 20
-138.747775572952
 30
0.0
 10
116.740505613176
 20
-138.747775572952
 30
0.0
 10
116.7067436774205
 20
-138.6864528733145
 30
0.0
 10
116.6667805697916
 20
-138.604115091217
 30
0.0
 10
116.6667805697916
 20
-138.4859483160729
 30
0.0
 10
116.6667805697916
 20
-138.2317002692615
 30
0.0
 10
116.8528157259951
 20
-137.9946776998763
 30
0.0
 10
117.1656303960558
 20
-137.9946776998763
 30
0.0
 10
117.4832681997959
 20
-137.9946776998763
 30
0.0
 10
117.7182237118899
 20
-138.2192979255146
 30
0.0
 10
117.7182237118899
 20
-138.5217773091196
 30
0.0
  0
HATCH
  5
BE
330
AD
100
AcDbEntity
  8
_U+30EC_U+30A4_U+30E4_U+30FC 1
 62
   179
420
  2234388
100
AcDbHatch
 10
0.0
 20
0.0
 30
0.0
210
0.0
220
0.0
230
1.0
  2
SOLID
 70
     1
 71
     0
 91
        1
 92
        1
 93
        1
 72
     4
 94
        3
 73
     0
 74
     1
 95
       53
 96
       49
 40
0.0
 40
0.0
 40
0.0
 40
0.0
 40
1.0
 40
1.0
 40
1.0
 40
2.0
 40
2.0
 40
2.0
 40
3.0
 40
3.0
 40
3.0
 40
4.0
 40
4.0
 40
4.0
 40
5.0
 40
5.0
 40
5.0
 40
6.0
 40
6.0
 40
6.0
 40
7.0
 40
7.0
 40
7.0
 40
8.0
 40
8.0
 40
8.0
 40
9.0
 40
9.0
 40
9.0
 40
10.0
 40
10.0
 40
10.0
 40
11.0
 40
11.0
 40
11.0
 40
12.0
 40
12.0
 40
12.0
 40
13.0
 40
13.0
 40
13.0
 40
14.0
 40
14.0
 40
14.0
 40
15.0
 40
15.0
 40
15.0
 40
16.0
 40
16.0
 40
16.0
 40
16.0
 10
117.7182237118899
 20
-138.5217773091196
 10
117.7182237118899
 20
-138.5999809766347
 10
117.7009982344636
 20
-138.7016112934496
 10
117.6376084775351
 20
-138.8028971007159
 10
117.5273654220071
 20
-138.9765299131725
 10
117.3964517935676
 20
-138.9978895051811
 10
117.2886203048792
 20
-139.0164930208014
 10
117.2886203048792
 20
-139.0164930208014
 10
117.2886203048792
 20
-138.7946288715513
 10
117.2886203048792
 20
-138.7946288715513
 10
117.4874023143782
 20
-138.7395073437874
 10
117.5170301355513
 20
-138.6127278299302
 10
117.5170301355513
 20
-138.5197102518284
 10
117.5170301355513
 20
-138.3798393751273
 10
117.4178113855761
 20
-138.2275661546792
 10
117.1849229307732
 20
-138.2275661546792
 10
116.9289523362192
 20
-138.2275661546792
 10
116.8590168978686
 20
-138.4074001390093
 10
116.8590168978686
 20
-138.527978480993
 10
116.8590168978686
 20
-138.5596733594573
 10
116.8590168978686
 20
-138.7016112934496
 10
116.9882079785655
 20
-138.7904947569691
 10
116.9882079785655
 20
-138.7904947569691
 10
116.9692599533966
 20
-138.9658501171683
 10
116.9692599533966
 20
-138.9658501171683
 10
116.9692599533966
 20
-138.9658501171683
 10
116.1231445022192
 20
-138.8452717751845
 10
116.1231445022192
 20
-138.8452717751845
 10
116.1231445022192
 20
-138.8452717751845
 10
116.1231445022192
 20
-138.0670247050666
 10
116.1231445022192
 20
-138.0670247050666
 10
116.1231445022192
 20
-138.0670247050666
 10
116.3174478875873
 20
-138.0670247050666
 10
116.3174478875873
 20
-138.0670247050666
 10
116.3174478875873
 20
-138.0670247050666
 10
116.3174478875873
 20
-138.6823187587322
 10
116.3174478875873
 20
-138.6823187587322
 10
116.3174478875873
 20
-138.6823187587322
 10
116.740505613176
 20
-138.747775572952
 10
116.740505613176
 20
-138.747775572952
 10
116.7067436774205
 20
-138.6864528733145
 10
116.6667805697916
 20
-138.604115091217
 10
116.6667805697916
 20
-138.4859483160729
 10
116.6667805697916
 20
-138.2317002692615
 10
116.8528157259951
 20
-137.9946776998763
 10
117.1656303960558
 20
-137.9946776998763
 10
117.4832681997959
 20
-137.9946776998763
 10
117.7182237118899
 20
-138.2192979255146
 10
117.7182237118899
 20
-138.5217773091196
 97
        0
 97
        0
 75
     2
 76
     1
 98
        0
  0
ENDBLK
  5
B0
330
AD
100
AcDbEntity
  8
0
100
AcDbBlockEnd
  0
BLOCK
  5
C1
330
BF
100
AcDbEntity
  8
0
100
AcDbBlockBegin
  2
block 8
 70
     0
 10
0.0
 20
0.0
 30
0.0
  3
block 8
  1

  0
SPLINE
  5
C3
330
BF
100
AcDbEntity
  8
_U+30EC_U+30A4_U+30E4_U+30FC 1
370
     0
100
AcDbSpline
210
0.0
220
0.0
230
1.0
 70
    11
 71
     3
 72
    26
 73
    22
 74
     0
 42
0.0000000001
 43
0.0000000001
 12
1.0
 22
0.0
 32
0.0
 13
1.0
 23
0.0
 33
0.0
 40
0.0
 40
0.0
 40
0.0
 40
0.0
 40
1.0
 40
1.0
 40
1.0
 40
2.0
 40
2.0
 40
2.0
 40
3.0
 40
3.0
 40
3.0
 40
4.0
 40
4.0
 40
4.0
 40
5.0
 40
5.0
 40
5.0
 40
6.0
 40
6.0
 40
6.0
 40
7.0
 40
7.0
 40
7.0
 40
7.0
 10
117.6672362987082
 20
-130.3148708441574
 30
0.0
 10
117.6672362987082
 20
-130.3148708441574
 30
0.0
 10
116.5627386861371
 20
-130.3148708441574
 30
0.0
 10
116.5627386861371
 20
-130.3148708441574
 30
0.0
 10
116.5627386861371
 20
-130.3148708441574
 30
0.0
 10
116.5627386861371
 20
-130.6449109916443
 30
0.0
 10
116.5627386861371
 20
-130.6449109916443
 30
0.0
 10
116.5627386861371
 20
-130.6449109916443
 30
0.0
 10
116.4145995802714
 20
-130.6449109916443
 30
0.0
 10
116.4145995802714
 20
-130.6449109916443
 30
0.0
 10
116.4001301792333
 20
-130.3128037868663
 30
0.0
 10
116.237177162781
 20
-130.2659504882668
 30
0.0
 10
116.1231445022192
 20
-130.2363226670937
 30
0.0
 10
116.1231445022192
 20
-130.2363226670937
 30
0.0
 10
116.1231445022192
 20
-130.0902506185191
 30
0.0
 10
116.1231445022192
 20
-130.0902506185191
 30
0.0
 10
116.1231445022192
 20
-130.0902506185191
 30
0.0
 10
117.6672362987082
 20
-130.0902506185191
 30
0.0
 10
117.6672362987082
 20
-130.0902506185191
 30
0.0
 10
117.6672362987082
 20
-130.0902506185191
 30
0.0
 10
117.6672362987082
 20
-130.3148708441574
 30
0.0
 10
117.6672362987082
 20
-130.3148708441574
 30
0.0
  0
HATCH
  5
C4
330
BF
100
AcDbEntity
  8
_U+30EC_U+30A4_U+30E4_U+30FC 1
 62
   179
420
  2234388
100
AcDbHatch
 10
0.0
 20
0.0
 30
0.0
210
0.0
220
0.0
230
1.0
  2
SOLID
 70
     1
 71
     0
 91
        1
 92
        1
 93
        1
 72
     4
 94
        3
 73
     0
 74
     1
 95
       26
 96
       22
 40
0.0
 40
0.0
 40
0.0
 40
0.0
 40
1.0
 40
1.0
 40
1.0
 40
2.0
 40
2.0
 40
2.0
 40
3.0
 40
3.0
 40
3.0
 40
4.0
 40
4.0
 40
4.0
 40
5.0
 40
5.0
 40
5.0
 40
6.0
 40
6.0
 40
6.0
 40
7.0
 40
7.0
 40
7.0
 40
7.0
 10
117.6672362987082
 20
-130.3148708441574
 10
117.6672362987082
 20
-130.3148708441574
 10
116.5627386861371
 20
-130.3148708441574
 10
116.5627386861371
 20
-130.3148708441574
 10
116.5627386861371
 20
-130.3148708441574
 10
116.5627386861371
 20
-130.6449109916443
 10
116.5627386861371
 20
-130.6449109916443
 10
116.5627386861371
 20
-130.6449109916443
 10
116.4145995802714
 20
-130.6449109916443
 10
116.4145995802714
 20
-130.6449109916443
 10
116.4001301792333
 20
-130.3128037868663
 10
116.237177162781
 20
-130.2659504882668
 10
116.1231445022192
 20
-130.2363226670937
 10
116.1231445022192
 20
-130.2363226670937
 10
116.1231445022192
 20
-130.0902506185191
 10
116.1231445022192
 20
-130.0902506185191
 10
116.1231445022192
 20
-130.0902506185191
 10
117.6672362987082
 20
-130.0902506185191
 10
117.6672362987082
 20
-130.0902506185191
 10
117.6672362987082
 20
-130.0902506185191
 10
117.6672362987082
 20
-130.3148708441574
 10
117.6672362987082
 20
-130.3148708441574
 97
        0
 97
        0
 75
     2
 76
     1
 98
        0
  0
ENDBLK
  5
C2
330
BF
100
AcDbEntity
  8
0
100
AcDbBlockEnd
  0
ENDSEC
  0
SECTION
  2
ENTITIES
  0
SPLINE
  5
41
330
1F
100
AcDbEntity
  8
_U+30EC_U+30A4_U+30E4_U+30FC 1
 62
   179
420
  2234388
370
    25
100
AcDbSpline
210
0.0
220
0.0
230
1.0
 70
    11
 71
     3
 72
    71
 73
    67
 74
     0
 42
0.0000000001
 43
0.0000000001
 12
1.0
 22
0.0
 32
0.0
 13
1.0
 23
0.0
 33
0.0
 40
0.0
 40
0.0
 40
0.0
 40
0.0
 40
1.0
 40
1.0
 40
1.0
 40
2.0
 40
2.0
 40
2.0
 40
3.0
 40
3.0
 40
3.0
 40
4.0
 40
4.0
 40
4.0
 40
5.0
 40
5.0
 40
5.0
 40
6.0
 40
6.0
 40
6.0
 40
7.0
 40
7.0
 40
7.0
 40
8.0
 40
8.0
 40
8.0
 40
9.0
 40
9.0
 40
9.0
 40
10.0
 40
10.0
 40
10.0
 40
11.0
 40
11.0
 40
11.0
 40
12.0
 40
12.0
 40
12.0
 40
13.0
 40
13.0
 40
13.0
 40
14.0
 40
14.0
 40
14.0
 40
15.0
 40
15.0
 40
15.0
 40
16.0
 40
16.0
 40
16.0
 40
17.0
 40
17.0
 40
17.0
 40
18.0
 40
18.0
 40
18.0
 40
19.0
 40
19.0
 40
19.0
 40
20.0
 40
20.0
 40
20.0
 40
21.0
 40
21.0
 40
21.0
 40
22.0
 40
22.0
 40
22.0
 40
22.0
 10
79.193776035154
 20
-146.6800963522186
 30
0.0
 10
79.193776035154
 20
-146.6800963522186
 30
0.0
 10
93.19397345575699
 20
-146.6800963522186
 30
0.0
 10
93.19397345575699
 20
-146.6800963522186
 30
0.0
 10
93.19397345575699
 20
-146.6800963522186
 30
0.0
 10
93.19397345575699
 20
-131.1802755227603
 30
0.0
 10
93.19397345575699
 20
-131.1802755227603
 30
0.0
 10
93.19397345575699
 20
-131.1802755227603
 30
0.0
 10
114.1938815311158
 20
-131.1802755227603
 30
0.0
 10
114.1938815311158
 20
-131.1802755227603
 30
0.0
 10
114.1938815311158
 20
-131.1802755227603
 30
0.0
 10
114.1938815311158
 20
-132.1804005225106
 30
0.0
 10
114.1938815311158
 20
-132.1804005225106
 30
0.0
 10
114.1938815311158
 20
-132.1804005225106
 30
0.0
 10
104.4766531679118
 20
-132.1804005225106
 30
0.0
 10
104.4766531679118
 20
-132.1804005225106
 30
0.0
 10
104.4766531679118
 20
-132.1804005225106
 30
0.0
 10
104.1941487306747
 20
-132.1800477447329
 30
0.0
 10
104.1941487306747
 20
-132.1800477447329
 30
0.0
 10
104.1941487306747
 20
-132.1800477447329
 30
0.0
 10
103.9109740156769
 20
-132.1804005225106
 30
0.0
 10
103.9109740156769
 20
-132.1804005225106
 30
0.0
 10
103.9109740156769
 20
-132.1804005225106
 30
0.0
 10
94.1937456524729
 20
-132.1804005225106
 30
0.0
 10
94.1937456524729
 20
-132.1804005225106
 30
0.0
 10
94.1937456524729
 20
-132.1804005225106
 30
0.0
 10
94.1937456524729
 20
-147.6798685741912
 30
0.0
 10
94.1937456524729
 20
-147.6798685741912
 30
0.0
 10
94.1937456524729
 20
-147.6798685741912
 30
0.0
 10
79.193776035154
 20
-147.6798685741912
 30
0.0
 10
79.193776035154
 20
-147.6798685741912
 30
0.0
 10
73.6706167316171
 20
-147.6798685741912
 30
0.0
 10
69.19369045694411
 20
-143.2033302419772
 30
0.0
 10
69.19369045694411
 20
-137.6801355211356
 30
0.0
 10
69.19369045694411
 20
-137.6801355211356
 30
0.0
 10
69.19369045694411
 20
-122.6802008026633
 30
0.0
 10
69.19369045694411
 20
-122.6802008026633
 30
0.0
 10
69.19369045694411
 20
-122.6802008026633
 30
0.0
 10
84.69354617262096
 20
-122.6802008026633
 30
0.0
 10
84.69354617262096
 20
-122.6802008026633
 30
0.0
 10
84.69354617262096
 20
-122.6802008026633
 30
0.0
 10
84.69354617262096
 20
-112.9629721939815
 30
0.0
 10
84.69354617262096
 20
-112.9629721939815
 30
0.0
 10
84.69354617262096
 20
-112.9629721939815
 30
0.0
 10
84.69319339485219
 20
-112.6801149718299
 30
0.0
 10
84.69319339485219
 20
-112.6801149718299
 30
0.0
 10
84.69319339485219
 20
-112.6801149718299
 30
0.0
 10
84.69354617262096
 20
-112.3972577496783
 30
0.0
 10
84.69354617262096
 20
-112.3972577496783
 30
0.0
 10
84.69354617262096
 20
-112.3972577496783
 30
0.0
 10
84.69354617262096
 20
-102.6800291409966
 30
0.0
 10
84.69354617262096
 20
-102.6800291409966
 30
0.0
 10
84.69354617262096
 20
-102.6800291409966
 30
0.0
 10
85.69363586932877
 20
-102.6800291409966
 30
0.0
 10
85.69363586932877
 20
-102.6800291409966
 30
0.0
 10
85.69363586932877
 20
-102.6800291409966
 30
0.0
 10
85.69363586932877
 20
-123.6799730246355
 30
0.0
 10
85.69363586932877
 20
-123.6799730246355
 30
0.0
 10
85.69363586932877
 20
-123.6799730246355
 30
0.0
 10
70.1938154314288
 20
-123.6799730246355
 30
0.0
 10
70.1938154314288
 20
-123.6799730246355
 30
0.0
 10
70.1938154314288
 20
-123.6799730246355
 30
0.0
 10
70.1938154314288
 20
-137.6801355211356
 30
0.0
 10
70.1938154314288
 20
-137.6801355211356
 30
0.0
 10
70.1938154314288
 20
-142.6507391310037
 30
0.0
 10
74.22320782863044
 20
-146.6800963522186
 30
0.0
 10
79.193776035154
 20
-146.6800963522186
 30
0.0
  0
HATCH
  5
42
330
1F
100
AcDbEntity
  8
_U+30EC_U+30A4_U+30E4_U+30FC 1
 62
     9
420
 12566464
100
AcDbHatch
 10
0.0
 20
0.0
 30
0.0
210
0.0
220
0.0
230
1.0
  2
SOLID
 70
     1
 71
     0
 91
        1
 92
        1
 93
        1
 72
     4
 94
        3
 73
     0
 74
     1
 95
       71
 96
       67
 40
0.0
 40
0.0
 40
0.0
 40
0.0
 40
1.0
 40
1.0
 40
1.0
 40
2.0
 40
2.0
 40
2.0
 40
3.0
 40
3.0
 40
3.0
 40
4.0
 40
4.0
 40
4.0
 40
5.0
 40
5.0
 40
5.0
 40
6.0
 40
6.0
 40
6.0
 40
7.0
 40
7.0
 40
7.0
 40
8.0
 40
8.0
 40
8.0
 40
9.0
 40
9.0
 40
9.0
 40
10.0
 40
10.0
 40
10.0
 40
11.0
 40
11.0
 40
11.0
 40
12.0
 40
12.0
 40
12.0
 40
13.0
 40
13.0
 40
13.0
 40
14.0
 40
14.0
 40
14.0
 40
15.0
 40
15.0
 40
15.0
 40
16.0
 40
16.0
 40
16.0
 40
17.0
 40
17.0
 40
17.0
 40
18.0
 40
18.0
 40
18.0
 40
19.0
 40
19.0
 40
19.0
 40
20.0
 40
20.0
 40
20.0
 40
21.0
 40
21.0
 40
21.0
 40
22.0
 40
22.0
 40
22.0
 40
22.0
 10
79.193776035154
 20
-146.6800963522186
 10
79.193776035154
 20
-146.6800963522186
 10
93.19397345575699
 20
-146.6800963522186
 10
93.19397345575699
 20
-146.6800963522186
 10
93.19397345575699
 20
-146.6800963522186
 10
93.19397345575699
 20
-131.1802755227603
 10
93.19397345575699
 20
-131.1802755227603
 10
93.19397345575699
 20
-131.1802755227603
 10
114.1938815311158
 20
-131.1802755227603
 10
114.1938815311158
 20
-131.1802755227603
 10
114.1938815311158
 20
-131.1802755227603
 10
114.1938815311158
 20
-132.1804005225106
 10
114.1938815311158
 20
-132.1804005225106
 10
114.1938815311158
 20
-132.1804005225106
 10
104.4766531679118
 20
-132.1804005225106
 10
104.4766531679118
 20
-132.1804005225106
 10
104.4766531679118
 20
-132.1804005225106
 10
104.1941487306747
 20
-132.1800477447329
 10
104.1941487306747
 20
-132.1800477447329
 10
104.1941487306747
 20
-132.1800477447329
 10
103.9109740156769
 20
-132.1804005225106
 10
103.9109740156769
 20
-132.1804005225106
 10
103.9109740156769
 20
-132.1804005225106
 10
94.1937456524729
 20
-132.1804005225106
 10
94.1937456524729
 20
-132.1804005225106
 10
94.1937456524729
 20
-132.1804005225106
 10
94.1937456524729
 20
-147.6798685741912
 10
94.1937456524729
 20
-147.6798685741912
 10
94.1937456524729
 20
-147.6798685741912
 10
79.193776035154
 20
-147.6798685741912
 10
79.193776035154
 20
-147.6798685741912
 10
73.6706167316171
 20
-147.6798685741912
 10
69.19369045694411
 20
-143.2033302419772
 10
69.19369045694411
 20
-137.6801355211356
 10
69.19369045694411
 20
-137.6801355211356
 10
69.19369045694411
 20
-122.6802008026633
 10
69.19369045694411
 20
-122.6802008026633
 10
69.19369045694411
 20
-122.6802008026633
 10
84.69354617262096
 20
-122.6802008026633
 10
84.69354617262096
 20
-122.6802008026633
 10
84.69354617262096
 20
-122.6802008026633
 10
84.69354617262096
 20
-112.9629721939815
 10
84.69354617262096
 20
-112.9629721939815
 10
84.69354617262096
 20
-112.9629721939815
 10
84.69319339485219
 20
-112.6801149718299
 10
84.69319339485219
 20
-112.6801149718299
 10
84.69319339485219
 20
-112.6801149718299
 10
84.69354617262096
 20
-112.3972577496783
 10
84.69354617262096
 20
-112.3972577496783
 10
84.69354617262096
 20
-112.3972577496783
 10
84.69354617262096
 20
-102.6800291409966
 10
84.69354617262096
 20
-102.6800291409966
 10
84.69354617262096
 20
-102.6800291409966
 10
85.69363586932877
 20
-102.6800291409966
 10
85.69363586932877
 20
-102.6800291409966
 10
85.69363586932877
 20
-102.6800291409966
 10
85.69363586932877
 20
-123.6799730246355
 10
85.69363586932877
 20
-123.6799730246355
 10
85.69363586932877
 20
-123.6799730246355
 10
70.1938154314288
 20
-123.6799730246355
 10
70.1938154314288
 20
-123.6799730246355
 10
70.1938154314288
 20
-123.6799730246355
 10
70.1938154314288
 20
-137.6801355211356
 10
70.1938154314288
 20
-137.6801355211356
 10
70.1938154314288
 20
-142.6507391310037
 10
74.22320782863044
 20
-146.6800963522186
 10
79.193776035154
 20
-146.6800963522186
 97
        0
 97
        0
 75
     2
 76
     1
 98
        0
  0
POLYLINE
  5
43
330
1F
100
AcDbEntity
  8
_U+30EC_U+30A4_U+30E4_U+30FC 1
 62
   179
420
  2234388
370
     9
100
AcDb2dPolyline
 66
     1
 10
0.0
 20
0.0
 30
0.0
  0
VERTEX
  5
44
330
43
100
AcDbEntity
  8
_U+30EC_U+30A4_U+30E4_U+30FC 1
 62
   179
420
  2234388
370
     9
100
AcDbVertex
100
AcDb2dVertex
 10
69.19369045694411
 20
-151.9393780175704
 30
0.0
  0
VERTEX
  5
45
330
43
100
AcDbEntity
  8
_U+30EC_U+30A4_U+30E4_U+30FC 1
 62
   179
420
  2234388
370
     9
100
AcDbVertex
100
AcDb2dVertex
 10
94.09863676601044
 20
-151.9393780175704
 30
0.0
  0
SEQEND
  5
46
330
43
100
AcDbEntity
  8
_U+30EC_U+30A4_U+30E4_U+30FC 1
 62
   179
420
  2234388
370
     9
  0
INSERT
  5
48
330
1F
100
AcDbEntity
  8
_U+30EC_U+30A4_U+30E4_U+30FC 1
100
AcDbBlockReference
  2
block 2
 10
0.0
 20
0.0
 30
0.0
  0
POLYLINE
  5
4F
330
1F
100
AcDbEntity
  8
_U+30EC_U+30A4_U+30E4_U+30FC 1
 62
   179
420
  2234388
370
     9
100
AcDb2dPolyline
 66
     1
 10
0.0
 20
0.0
 30
0.0
  0
VERTEX
  5
50
330
4F
100
AcDbEntity
  8
_U+30EC_U+30A4_U+30E4_U+30FC 1
 62
   179
420
  2234388
370
     9
100
AcDbVertex
100
AcDb2dVertex
 10
79.193776035154
 20
-153.8796557948631
 30
0.0
  0
VERTEX
  5
51
330
4F
100
AcDbEntity
  8
_U+30EC_U+30A4_U+30E4_U+30FC 1
 62
   179
420
  2234388
370
     9
100
AcDbVertex
100
AcDb2dVertex
 10
79.193776035154
 20
-150.8969196844977
 30
0.0
  0
SEQEND
  5
52
330
4F
100
AcDbEntity
  8
_U+30EC_U+30A4_U+30E4_U+30FC 1
 62
   179
420
  2234388
370
     9
  0
INSERT
  5
54
330
1F
100
AcDbEntity
  8
_U+30EC_U+30A4_U+30E4_U+30FC 1
100
AcDbBlockReference
  2
block 3
 10
0.0
 20
0.0
 30
0.0
  0
POLYLINE
  5
5C
330
1F
100
AcDbEntity
  8
_U+30EC_U+30A4_U+30E4_U+30FC 1
 62
   179
420
  2234388
370
     9
100
AcDb2dPolyline
 66
     1
 10
0.0
 20
0.0
 30
0.0
  0
VERTEX
  5
5D
330
5C
100
AcDbEntity
  8
_U+30EC_U+30A4_U+30E4_U+30FC 1
 62
   179
420
  2234388
370
     9
100
AcDbVertex
100
AcDb2dVertex
 10
65.17294111507753
 20
-122.5296352471453
 30
0.0
  0
VERTEX
  5
5E
330
5C
100
AcDbEntity
  8
_U+30EC_U+30A4_U+30E4_U+30FC 1
 62
   179
420
  2234388
370
     9
100
AcDbVertex
100
AcDb2dVertex
 10
65.17294111507753
 20
-102.8426596965116
 30
0.0
  0
SEQEND
  5
5F
330
5C
100
AcDbEntity
  8
_U+30EC_U+30A4_U+30E4_U+30FC 1
 62
   179
420
  2234388
370
     9
  0
POLYLINE
  5
60
330
1F
100
AcDbEntity
  8
_U+30EC_U+30A4_U+30E4_U+30FC 1
 62
   179
420
  2234388
370
     9
100
AcDb2dPolyline
 66
     1
 10
0.0
 20
0.0
 30
0.0
  0
VERTEX
  5
61
330
60
100
AcDbEntity
  8
_U+30EC_U+30A4_U+30E4_U+30FC 1
 62
   179
420
  2234388
370
     9
100
AcDbVertex
100
AcDb2dVertex
 10
65.17294111507753
 20
-147.7150052408489
 30
0.0
  0
VERTEX
  5
62
330
60
100
AcDbEntity
  8
_U+30EC_U+30A4_U+30E4_U+30FC 1
 62
   179
420
  2234388
370
     9
100
AcDbVertex
100
AcDb2dVertex
 10
65.17294111507753
 20
-122.5296352471453
 30
0.0
  0
SEQEND
  5
63
330
60
100
AcDbEntity
  8
_U+30EC_U+30A4_U+30E4_U+30FC 1
 62
   179
420
  2234388
370
     9
  0
POLYLINE
  5
64
330
1F
100
AcDbEntity
  8
_U+30EC_U+30A4_U+30E4_U+30FC 1
 62
   179
420
  2234388
370
     9
100
AcDb2dPolyline
 66
     1
 10
0.0
 20
0.0
 30
0.0
  0
VERTEX
  5
65
330
64
100
AcDbEntity
  8
_U+30EC_U+30A4_U+30E4_U+30FC 1
 62
   179
420
  2234388
370
     9
100
AcDbVertex
100
AcDb2dVertex
 10
75.69358556889576
 20
-147.6771169075254
 30
0.0
  0
VERTEX
  5
66
330
64
100
AcDbEntity
  8
_U+30EC_U+30A4_U+30E4_U+30FC 1
 62
   179
420
  2234388
370
     9
100
AcDbVertex
100
AcDb2dVertex
 10
63.70016448598452
 20
-147.6771169075254
 30
0.0
  0
SEQEND
  5
67
330
64
100
AcDbEntity
  8
_U+30EC_U+30A4_U+30E4_U+30FC 1
 62
   179
420
  2234388
370
     9
  0
POLYLINE
  5
68
330
1F
100
AcDbEntity
  8
_U+30EC_U+30A4_U+30E4_U+30FC 1
 62
   179
420
  2234388
370
     9
100
AcDb2dPolyline
 66
     1
 10
0.0
 20
0.0
 30
0.0
  0
VERTEX
  5
69
330
68
100
AcDbEntity
  8
_U+30EC_U+30A4_U+30E4_U+30FC 1
 62
   179
420
  2234388
370
     9
100
AcDbVertex
100
AcDb2dVertex
 10
68.58359658362001
 20
-122.6802008026633
 30
0.0
  0
VERTEX
  5
6A
330
68
100
AcDbEntity
  8
_U+30EC_U+30A4_U+30E4_U+30FC 1
 62
   179
420
  2234388
370
     9
100
AcDbVertex
100
AcDb2dVertex
 10
63.57856198908686
 20
-122.6802008026633
 30
0.0
  0
SEQEND
  5
6B
330
68
100
AcDbEntity
  8
_U+30EC_U+30A4_U+30E4_U+30FC 1
 62
   179
420
  2234388
370
     9
  0
POLYLINE
  5
6C
330
1F
100
AcDbEntity
  8
_U+30EC_U+30A4_U+30E4_U+30FC 1
 62
   179
420
  2234388
370
     9
100
AcDb2dPolyline
 66
     1
 10
0.0
 20
0.0
 30
0.0
  0
VERTEX
  5
6D
330
6C
100
AcDbEntity
  8
_U+30EC_U+30A4_U+30E4_U+30FC 1
 62
   179
420
  2234388
370
     9
100
AcDbVertex
100
AcDb2dVertex
 10
83.54356120195952
 20
-102.6800291409966
 30
0.0
  0
VERTEX
  5
6E
330
6C
100
AcDbEntity
  8
_U+30EC_U+30A4_U+30E4_U+30FC 1
 62
   179
420
  2234388
370
     9
100
AcDbVertex
100
AcDb2dVertex
 10
63.57856198908686
 20
-102.6800291409966
 30
0.0
  0
SEQEND
  5
6F
330
6C
100
AcDbEntity
  8
_U+30EC_U+30A4_U+30E4_U+30FC 1
 62
   179
420
  2234388
370
     9
  0
INSERT
  5
71
330
1F
100
AcDbEntity
  8
_U+30EC_U+30A4_U+30E4_U+30FC 1
100
AcDbBlockReference
  2
block 4
 10
0.0
 20
0.0
 30
0.0
  0
INSERT
  5
79
330
1F
100
AcDbEntity
  8
_U+30EC_U+30A4_U+30E4_U+30FC 1
100
AcDbBlockReference
  2
block 5
 10
0.0
 20
0.0
 30
0.0
  0
POLYLINE
  5
81
330
1F
100
AcDbEntity
  8
_U+30EC_U+30A4_U+30E4_U+30FC 1
 62
   179
420
  2234388
370
     9
100
AcDb2dPolyline
 66
     1
 10
0.0
 20
0.0
 30
0.0
  0
VERTEX
  5
82
330
81
100
AcDbEntity
  8
_U+30EC_U+30A4_U+30E4_U+30FC 1
 62
   179
420
  2234388
370
     9
100
AcDbVertex
100
AcDb2dVertex
 10
72.26948926736283
 20
-144.8948644082207
 30
0.0
  0
VERTEX
  5
83
330
81
100
AcDbEntity
  8
_U+30EC_U+30A4_U+30E4_U+30FC 1
 62
   179
420
  2234388
370
     9
100
AcDbVertex
100
AcDb2dVertex
 10
73.17246109281788
 20
-144.3732824639069
 30
0.0
  0
SEQEND
  5
84
330
81
100
AcDbEntity
  8
_U+30EC_U+30A4_U+30E4_U+30FC 1
 62
   179
420
  2234388
370
     9
  0
POLYLINE
  5
85
330
1F
100
AcDbEntity
  8
_U+30EC_U+30A4_U+30E4_U+30FC 1
 62
   179
420
  2234388
370
     9
100
AcDb2dPolyline
 66
     1
 10
0.0
 20
0.0
 30
0.0
  0
VERTEX
  5
86
330
85
100
AcDbEntity
  8
_U+30EC_U+30A4_U+30E4_U+30FC 1
 62
   179
420
  2234388
370
     9
100
AcDbVertex
100
AcDb2dVertex
 10
72.26948926736283
 20
-144.8948644082207
 30
0.0
  0
VERTEX
  5
87
330
85
100
AcDbEntity
  8
_U+30EC_U+30A4_U+30E4_U+30FC 1
 62
   179
420
  2234388
370
     9
100
AcDbVertex
100
AcDb2dVertex
 10
86.45708223874051
 20
-130.1818791341213
 30
0.0
  0
SEQEND
  5
88
330
85
100
AcDbEntity
  8
_U+30EC_U+30A4_U+30E4_U+30FC 1
 62
   179
420
  2234388
370
     9
  0
POLYLINE
  5
89
330
1F
100
AcDbEntity
  8
_U+30EC_U+30A4_U+30E4_U+30FC 1
 62
   179
420
  2234388
370
     9
100
AcDb2dPolyline
 66
     1
 10
0.0
 20
0.0
 30
0.0
  0
VERTEX
  5
8A
330
89
100
AcDbEntity
  8
_U+30EC_U+30A4_U+30E4_U+30FC 1
 62
   179
420
  2234388
370
     9
100
AcDbVertex
100
AcDb2dVertex
 10
72.26948926736283
 20
-144.8948644082207
 30
0.0
  0
VERTEX
  5
8B
330
89
100
AcDbEntity
  8
_U+30EC_U+30A4_U+30E4_U+30FC 1
 62
   179
420
  2234388
370
     9
100
AcDbVertex
100
AcDb2dVertex
 10
72.7914239762694
 20
-143.992247186224
 30
0.0
  0
SEQEND
  5
8C
330
89
100
AcDbEntity
  8
_U+30EC_U+30A4_U+30E4_U+30FC 1
 62
   179
420
  2234388
370
     9
  0
INSERT
  5
8E
330
1F
100
AcDbEntity
  8
_U+30EC_U+30A4_U+30E4_U+30FC 1
100
AcDbBlockReference
  2
block 6
 10
0.0
 20
0.0
 30
0.0
  0
POLYLINE
  5
99
330
1F
100
AcDbEntity
  8
_U+30EC_U+30A4_U+30E4_U+30FC 1
 62
   179
420
  2234388
370
     9
100
AcDb2dPolyline
 66
     1
 10
0.0
 20
0.0
 30
0.0
  0
VERTEX
  5
9A
330
99
100
AcDbEntity
  8
_U+30EC_U+30A4_U+30E4_U+30FC 1
 62
   179
420
  2234388
370
     9
100
AcDbVertex
100
AcDb2dVertex
 10
118.4103519791002
 20
-132.3912205224576
 30
0.0
  0
VERTEX
  5
9B
330
99
100
AcDbEntity
  8
_U+30EC_U+30A4_U+30E4_U+30FC 1
 62
   179
420
  2234388
370
     9
100
AcDbVertex
100
AcDb2dVertex
 10
118.4103519791002
 20
-131.239189411635
 30
0.0
  0
SEQEND
  5
9C
330
99
100
AcDbEntity
  8
_U+30EC_U+30A4_U+30E4_U+30FC 1
 62
   179
420
  2234388
370
     9
  0
POLYLINE
  5
9D
330
1F
100
AcDbEntity
  8
_U+30EC_U+30A4_U+30E4_U+30FC 1
 62
   179
420
  2234388
370
     9
100
AcDb2dPolyline
 66
     1
 10
0.0
 20
0.0
 30
0.0
  0
VERTEX
  5
9E
330
9D
100
AcDbEntity
  8
_U+30EC_U+30A4_U+30E4_U+30FC 1
 62
   179
420
  2234388
370
     9
100
AcDbVertex
100
AcDb2dVertex
 10
118.4096464235627
 20
-147.6716135741932
 30
0.0
  0
VERTEX
  5
9F
330
9D
100
AcDbEntity
  8
_U+30EC_U+30A4_U+30E4_U+30FC 1
 62
   179
420
  2234388
370
     9
100
AcDbVertex
100
AcDb2dVertex
 10
118.4096464235627
 20
-132.3912205224576
 30
0.0
  0
SEQEND
  5
A0
330
9D
100
AcDbEntity
  8
_U+30EC_U+30A4_U+30E4_U+30FC 1
 62
   179
420
  2234388
370
     9
  0
POLYLINE
  5
A1
330
1F
100
AcDbEntity
  8
_U+30EC_U+30A4_U+30E4_U+30FC 1
 62
   179
420
  2234388
370
     9
100
AcDb2dPolyline
 66
     1
 10
0.0
 20
0.0
 30
0.0
  0
VERTEX
  5
A2
330
A1
100
AcDbEntity
  8
_U+30EC_U+30A4_U+30E4_U+30FC 1
 62
   179
420
  2234388
370
     9
100
AcDbVertex
100
AcDb2dVertex
 10
119.7621963890563
 20
-147.6798685741912
 30
0.0
  0
VERTEX
  5
A3
330
A1
100
AcDbEntity
  8
_U+30EC_U+30A4_U+30E4_U+30FC 1
 62
   179
420
  2234388
370
     9
100
AcDbVertex
100
AcDb2dVertex
 10
95.34369534535746
 20
-147.6798685741912
 30
0.0
  0
SEQEND
  5
A4
330
A1
100
AcDbEntity
  8
_U+30EC_U+30A4_U+30E4_U+30FC 1
 62
   179
420
  2234388
370
     9
  0
POLYLINE
  5
A5
330
1F
100
AcDbEntity
  8
_U+30EC_U+30A4_U+30E4_U+30FC 1
 62
   179
420
  2234388
370
     9
100
AcDb2dPolyline
 66
     1
 10
0.0
 20
0.0
 30
0.0
  0
VERTEX
  5
A6
330
A5
100
AcDbEntity
  8
_U+30EC_U+30A4_U+30E4_U+30FC 1
 62
   179
420
  2234388
370
     9
100
AcDbVertex
100
AcDb2dVertex
 10
119.7621963890563
 20
-132.1804005225106
 30
0.0
  0
VERTEX
  5
A7
330
A5
100
AcDbEntity
  8
_U+30EC_U+30A4_U+30E4_U+30FC 1
 62
   179
420
  2234388
370
     9
100
AcDbVertex
100
AcDb2dVertex
 10
115.3438694156088
 20
-132.1804005225106
 30
0.0
  0
SEQEND
  5
A8
330
A5
100
AcDbEntity
  8
_U+30EC_U+30A4_U+30E4_U+30FC 1
 62
   179
420
  2234388
370
     9
  0
POLYLINE
  5
A9
330
1F
100
AcDbEntity
  8
_U+30EC_U+30A4_U+30E4_U+30FC 1
 62
   179
420
  2234388
370
     9
100
AcDb2dPolyline
 66
     1
 10
0.0
 20
0.0
 30
0.0
  0
VERTEX
  5
AA
330
A9
100
AcDbEntity
  8
_U+30EC_U+30A4_U+30E4_U+30FC 1
 62
   179
420
  2234388
370
     9
100
AcDbVertex
100
AcDb2dVertex
 10
119.7621963890563
 20
-131.239189411635
 30
0.0
  0
VERTEX
  5
AB
330
A9
100
AcDbEntity
  8
_U+30EC_U+30A4_U+30E4_U+30FC 1
 62
   179
420
  2234388
370
     9
100
AcDbVertex
100
AcDb2dVertex
 10
115.3438694156088
 20
-131.239189411635
 30
0.0
  0
SEQEND
  5
AC
330
A9
100
AcDbEntity
  8
_U+30EC_U+30A4_U+30E4_U+30FC 1
 62
   179
420
  2234388
370
     9
  0
INSERT
  5
AE
330
1F
100
AcDbEntity
  8
_U+30EC_U+30A4_U+30E4_U+30FC 1
100
AcDbBlockReference
  2
block 7
 10
0.0
 20
0.0
 30
0.0
  0
INSERT
  5
C0
330
1F
100
AcDbEntity
  8
_U+30EC_U+30A4_U+30E4_U+30FC 1
100
AcDbBlockReference
  2
block 8
 10
0.0
 20
0.0
 30
0.0
  0
SPLINE
  5
C5
330
1F
100
AcDbEntity
  8
_U+30EC_U+30A4_U+30E4_U+30FC 1
 62
   179
420
  2234388
370
     9
100
AcDbSpline
210
0.0
220
0.0
230
1.0
 70
    11
 71
     3
 72
    17
 73
    13
 74
     0
 42
0.0000000001
 43
0.0000000001
 12
1.0
 22
0.0
 32
0.0
 13
1.0
 23
0.0
 33
0.0
 40
0.0
 40
0.0
 40
0.0
 40
0.0
 40
1.0
 40
1.0
 40
1.0
 40
2.0
 40
2.0
 40
2.0
 40
3.0
 40
3.0
 40
3.0
 40
4.0
 40
4.0
 40
4.0
 40
4.0
 10
65.27697527909007
 20
-102.7110383076557
 30
0.0
 10
65.27697527909007
 20
-102.6559344187804
 30
0.0
 10
65.23220778023217
 20
-102.6118371965692
 30
0.0
 10
65.17706861497223
 20
-102.6118371965692
 30
0.0
 10
65.12228222748105
 20
-102.6118371965692
 30
0.0
 10
65.07751472862317
 20
-102.6559344187804
 30
0.0
 10
65.07751472862317
 20
-102.7110383076557
 30
0.0
 10
65.07751472862317
 20
-102.7661774743084
 30
0.0
 10
65.12228222748105
 20
-102.8112977520751
 30
0.0
 10
65.17706861497223
 20
-102.8112977520751
 30
0.0
 10
65.23220778023217
 20
-102.8112977520751
 30
0.0
 10
65.27697527909007
 20
-102.7661774743084
 30
0.0
 10
65.27697527909007
 20
-102.7110383076557
 30
0.0
  0
SPLINE
  5
C6
330
1F
100
AcDbEntity
  8
_U+30EC_U+30A4_U+30E4_U+30FC 1
 62
   179
420
  2234388
370
     9
100
AcDbSpline
210
0.0
220
0.0
230
1.0
 70
    11
 71
     3
 72
    17
 73
    13
 74
     0
 42
0.0000000001
 43
0.0000000001
 12
1.0
 22
0.0
 32
0.0
 13
1.0
 23
0.0
 33
0.0
 40
0.0
 40
0.0
 40
0.0
 40
0.0
 40
1.0
 40
1.0
 40
1.0
 40
2.0
 40
2.0
 40
2.0
 40
3.0
 40
3.0
 40
3.0
 40
4.0
 40
4.0
 40
4.0
 40
4.0
 10
65.29419083420642
 20
-122.6788249693304
 30
0.0
 10
65.29419083420642
 20
-122.6236858026773
 30
0.0
 10
65.24942498368759
 20
-122.5789183026887
 30
0.0
 10
65.19428417008858
 20
-122.5789183026887
 30
0.0
 10
65.13918028260551
 20
-122.5789183026887
 30
0.0
 10
65.09437750597074
 20
-122.6236858026773
 30
0.0
 10
65.09437750597074
 20
-122.6788249693304
 30
0.0
 10
65.09437750597074
 20
-122.7346344137608
 30
0.0
 10
65.13918028260551
 20
-122.778731635972
 30
0.0
 10
65.19428417008858
 20
-122.778731635972
 30
0.0
 10
65.24942498368759
 20
-122.778731635972
 30
0.0
 10
65.29419083420642
 20
-122.7346344137608
 30
0.0
 10
65.29419083420642
 20
-122.6788249693304
 30
0.0
  0
SPLINE
  5
C7
330
1F
100
AcDbEntity
  8
_U+30EC_U+30A4_U+30E4_U+30FC 1
 62
   179
420
  2234388
370
     9
100
AcDbSpline
210
0.0
220
0.0
230
1.0
 70
    11
 71
     3
 72
    17
 73
    13
 74
     0
 42
0.0000000001
 43
0.0000000001
 12
1.0
 22
0.0
 32
0.0
 13
1.0
 23
0.0
 33
0.0
 40
0.0
 40
0.0
 40
0.0
 40
0.0
 40
1.0
 40
1.0
 40
1.0
 40
2.0
 40
2.0
 40
2.0
 40
3.0
 40
3.0
 40
3.0
 40
4.0
 40
4.0
 40
4.0
 40
4.0
 10
65.2662861126961
 20
-147.675035518637
 30
0.0
 10
65.2662861126961
 20
-147.6206019075395
 30
0.0
 10
65.221871391607
 20
-147.5758344075502
 30
0.0
 10
65.16637944857827
 20
-147.5758344075502
 30
0.0
 10
65.11092278332642
 20
-147.5758344075502
 30
0.0
 10
65.06682556222921
 20
-147.6206019075395
 30
0.0
 10
65.06682556222921
 20
-147.675035518637
 30
0.0
 10
65.06682556222921
 20
-147.7308449630675
 30
0.0
 10
65.11092278332642
 20
-147.7756477408342
 30
0.0
 10
65.16637944857827
 20
-147.7756477408342
 30
0.0
 10
65.221871391607
 20
-147.7756477408342
 30
0.0
 10
65.2662861126961
 20
-147.7308449630675
 30
0.0
 10
65.2662861126961
 20
-147.675035518637
 30
0.0
  0
SPLINE
  5
C8
330
1F
100
AcDbEntity
  8
_U+30EC_U+30A4_U+30E4_U+30FC 1
 62
   179
420
  2234388
370
     9
100
AcDbSpline
210
0.0
220
0.0
230
1.0
 70
    11
 71
     3
 72
    17
 73
    13
 74
     0
 42
0.0000000001
 43
0.0000000001
 12
1.0
 22
0.0
 32
0.0
 13
1.0
 23
0.0
 33
0.0
 40
0.0
 40
0.0
 40
0.0
 40
0.0
 40
1.0
 40
1.0
 40
1.0
 40
2.0
 40
2.0
 40
2.0
 40
3.0
 40
3.0
 40
3.0
 40
4.0
 40
4.0
 40
4.0
 40
4.0
 10
69.30947212065695
 20
-151.9276657953512
 30
0.0
 10
69.30947212065695
 20
-151.8725619064763
 30
0.0
 10
69.26466934402218
 20
-151.8277591287095
 30
0.0
 10
69.20921267877033
 20
-151.8277591287095
 30
0.0
 10
69.15477906904793
 20
-151.8277591287095
 30
0.0
 10
69.10997629241317
 20
-151.8725619064763
 30
0.0
 10
69.10997629241317
 20
-151.9276657953512
 30
0.0
 10
69.10997629241317
 20
-151.9834752397816
 30
0.0
 10
69.15477906904793
 20
-152.0282780175484
 30
0.0
 10
69.20921267877033
 20
-152.0282780175484
 30
0.0
 10
69.26466934402218
 20
-152.0282780175484
 30
0.0
 10
69.30947212065695
 20
-151.9834752397816
 30
0.0
 10
69.30947212065695
 20
-151.9276657953512
 30
0.0
  0
SPLINE
  5
C9
330
1F
100
AcDbEntity
  8
_U+30EC_U+30A4_U+30E4_U+30FC 1
 62
   179
420
  2234388
370
     9
100
AcDbSpline
210
0.0
220
0.0
230
1.0
 70
    11
 71
     3
 72
    17
 73
    13
 74
     0
 42
0.0000000001
 43
0.0000000001
 12
1.0
 22
0.0
 32
0.0
 13
1.0
 23
0.0
 33
0.0
 40
0.0
 40
0.0
 40
0.0
 40
0.0
 40
1.0
 40
1.0
 40
1.0
 40
2.0
 40
2.0
 40
2.0
 40
3.0
 40
3.0
 40
3.0
 40
4.0
 40
4.0
 40
4.0
 40
4.0
 10
94.28194009466732
 20
-151.9214921842417
 30
0.0
 10
94.28194009466732
 20
-151.9765960731172
 30
0.0
 10
94.23713731803255
 20
-152.0213988508833
 30
0.0
 10
94.18203343054948
 20
-152.0213988508833
 30
0.0
 10
94.12689426528954
 20
-152.0213988508833
 30
0.0
 10
94.08212676643164
 20
-151.9765960731172
 30
0.0
 10
94.08212676643164
 20
-151.9214921842417
 30
0.0
 10
94.08212676643164
 20
-151.8663530175892
 30
0.0
 10
94.12689426528954
 20
-151.8215855176
 30
0.0
 10
94.18203343054948
 20
-151.8215855176
 30
0.0
 10
94.23713731803255
 20
-151.8215855176
 30
0.0
 10
94.28194009466732
 20
-151.8663530175892
 30
0.0
 10
94.28194009466732
 20
-151.9214921842417
 30
0.0
  0
HATCH
  5
CA
330
1F
100
AcDbEntity
  8
_U+30EC_U+30A4_U+30E4_U+30FC 1
 62
   179
420
  2234388
100
AcDbHatch
 10
0.0
 20
0.0
 30
0.0
210
0.0
220
0.0
230
1.0
  2
SOLID
 70
     1
 71
     0
 91
        1
 92
        1
 93
        1
 72
     4
 94
        3
 73
     0
 74
     1
 95
       17
 96
       13
 40
0.0
 40
0.0
 40
0.0
 40
0.0
 40
1.0
 40
1.0
 40
1.0
 40
2.0
 40
2.0
 40
2.0
 40
3.0
 40
3.0
 40
3.0
 40
4.0
 40
4.0
 40
4.0
 40
4.0
 10
94.28194009466732
 20
-151.9214921842417
 10
94.28194009466732
 20
-151.9765960731172
 10
94.23713731803255
 20
-152.0213988508833
 10
94.18203343054948
 20
-152.0213988508833
 10
94.12689426528954
 20
-152.0213988508833
 10
94.08212676643164
 20
-151.9765960731172
 10
94.08212676643164
 20
-151.9214921842417
 10
94.08212676643164
 20
-151.8663530175892
 10
94.12689426528954
 20
-151.8215855176
 10
94.18203343054948
 20
-151.8215855176
 10
94.23713731803255
 20
-151.8215855176
 10
94.28194009466732
 20
-151.8663530175892
 10
94.28194009466732
 20
-151.9214921842417
 97
        0
 97
        0
 75
     2
 76
     1
 98
        0
  0
SPLINE
  5
CB
330
1F
100
AcDbEntity
  8
_U+30EC_U+30A4_U+30E4_U+30FC 1
 62
   179
420
  2234388
370
     9
100
AcDbSpline
210
0.0
220
0.0
230
1.0
 70
    11
 71
     3
 72
    17
 73
    13
 74
     0
 42
0.0000000001
 43
0.0000000001
 12
1.0
 22
0.0
 32
0.0
 13
1.0
 23
0.0
 33
0.0
 40
0.0
 40
0.0
 40
0.0
 40
0.0
 40
1.0
 40
1.0
 40
1.0
 40
2.0
 40
2.0
 40
2.0
 40
3.0
 40
3.0
 40
3.0
 40
4.0
 40
4.0
 40
4.0
 40
4.0
 10
118.5099058654493
 20
-147.6716135741932
 30
0.0
 10
118.5099058654493
 20
-147.7267174630682
 30
0.0
 10
118.4651030888145
 20
-147.7715202408349
 30
0.0
 10
118.4099992013315
 20
-147.7715202408349
 30
0.0
 10
118.3545425360796
 20
-147.7715202408349
 30
0.0
 10
118.3097397594449
 20
-147.7267174630682
 30
0.0
 10
118.3097397594449
 20
-147.6716135741932
 30
0.0
 10
118.3097397594449
 20
-147.6164744075402
 30
0.0
 10
118.3545425360796
 20
-147.5717069075516
 30
0.0
 10
118.4099992013315
 20
-147.5717069075516
 30
0.0
 10
118.4651030888145
 20
-147.5717069075516
 30
0.0
 10
118.5099058654493
 20
-147.6164744075402
 30
0.0
 10
118.5099058654493
 20
-147.6716135741932
 30
0.0
  0
HATCH
  5
CC
330
1F
100
AcDbEntity
  8
_U+30EC_U+30A4_U+30E4_U+30FC 1
 62
   179
420
  2234388
100
AcDbHatch
 10
0.0
 20
0.0
 30
0.0
210
0.0
220
0.0
230
1.0
  2
SOLID
 70
     1
 71
     0
 91
        1
 92
        1
 93
        1
 72
     4
 94
        3
 73
     0
 74
     1
 95
       17
 96
       13
 40
0.0
 40
0.0
 40
0.0
 40
0.0
 40
1.0
 40
1.0
 40
1.0
 40
2.0
 40
2.0
 40
2.0
 40
3.0
 40
3.0
 40
3.0
 40
4.0
 40
4.0
 40
4.0
 40
4.0
 10
118.5099058654493
 20
-147.6716135741932
 10
118.5099058654493
 20
-147.7267174630682
 10
118.4651030888145
 20
-147.7715202408349
 10
118.4099992013315
 20
-147.7715202408349
 10
118.3545425360796
 20
-147.7715202408349
 10
118.3097397594449
 20
-147.7267174630682
 10
118.3097397594449
 20
-147.6716135741932
 10
118.3097397594449
 20
-147.6164744075402
 10
118.3545425360796
 20
-147.5717069075516
 10
118.4099992013315
 20
-147.5717069075516
 10
118.4651030888145
 20
-147.5717069075516
 10
118.5099058654493
 20
-147.6164744075402
 10
118.5099058654493
 20
-147.6716135741932
 97
        0
 97
        0
 75
     2
 76
     1
 98
        0
  0
SPLINE
  5
CD
330
1F
100
AcDbEntity
  8
_U+30EC_U+30A4_U+30E4_U+30FC 1
 62
   179
420
  2234388
370
     9
100
AcDbSpline
210
0.0
220
0.0
230
1.0
 70
    11
 71
     3
 72
    17
 73
    13
 74
     0
 42
0.0000000001
 43
0.0000000001
 12
1.0
 22
0.0
 32
0.0
 13
1.0
 23
0.0
 33
0.0
 40
0.0
 40
0.0
 40
0.0
 40
0.0
 40
1.0
 40
1.0
 40
1.0
 40
2.0
 40
2.0
 40
2.0
 40
3.0
 40
3.0
 40
3.0
 40
4.0
 40
4.0
 40
4.0
 40
4.0
 10
118.5099058654493
 20
-132.1800477447329
 30
0.0
 10
118.5099058654493
 20
-132.2355044113856
 30
0.0
 10
118.4651030888145
 20
-132.2803071891523
 30
0.0
 10
118.4099992013315
 20
-132.2803071891523
 30
0.0
 10
118.3545425360796
 20
-132.2803071891523
 30
0.0
 10
118.3097397594449
 20
-132.2355044113856
 30
0.0
 10
118.3097397594449
 20
-132.1800477447329
 30
0.0
 10
118.3097397594449
 20
-132.1249085780798
 30
0.0
 10
118.3545425360796
 20
-132.0801410780912
 30
0.0
 10
118.4099992013315
 20
-132.0801410780912
 30
0.0
 10
118.4651030888145
 20
-132.0801410780912
 30
0.0
 10
118.5099058654493
 20
-132.1249085780798
 30
0.0
 10
118.5099058654493
 20
-132.1800477447329
 30
0.0
  0
HATCH
  5
CE
330
1F
100
AcDbEntity
  8
_U+30EC_U+30A4_U+30E4_U+30FC 1
 62
   179
420
  2234388
100
AcDbHatch
 10
0.0
 20
0.0
 30
0.0
210
0.0
220
0.0
230
1.0
  2
SOLID
 70
     1
 71
     0
 91
        1
 92
        1
 93
        1
 72
     4
 94
        3
 73
     0
 74
     1
 95
       17
 96
       13
 40
0.0
 40
0.0
 40
0.0
 40
0.0
 40
1.0
 40
1.0
 40
1.0
 40
2.0
 40
2.0
 40
2.0
 40
3.0
 40
3.0
 40
3.0
 40
4.0
 40
4.0
 40
4.0
 40
4.0
 10
118.5099058654493
 20
-132.1800477447329
 10
118.5099058654493
 20
-132.2355044113856
 10
118.4651030888145
 20
-132.2803071891523
 10
118.4099992013315
 20
-132.2803071891523
 10
118.3545425360796
 20
-132.2803071891523
 10
118.3097397594449
 20
-132.2355044113856
 10
118.3097397594449
 20
-132.1800477447329
 10
118.3097397594449
 20
-132.1249085780798
 10
118.3545425360796
 20
-132.0801410780912
 10
118.4099992013315
 20
-132.0801410780912
 10
118.4651030888145
 20
-132.0801410780912
 10
118.5099058654493
 20
-132.1249085780798
 10
118.5099058654493
 20
-132.1800477447329
 97
        0
 97
        0
 75
     2
 76
     1
 98
        0
  0
SPLINE
  5
CF
330
1F
100
AcDbEntity
  8
_U+30EC_U+30A4_U+30E4_U+30FC 1
 62
   179
420
  2234388
370
     9
100
AcDbSpline
210
0.0
220
0.0
230
1.0
 70
    11
 71
     3
 72
    17
 73
    13
 74
     0
 42
0.0000000001
 43
0.0000000001
 12
1.0
 22
0.0
 32
0.0
 13
1.0
 23
0.0
 33
0.0
 40
0.0
 40
0.0
 40
0.0
 40
0.0
 40
1.0
 40
1.0
 40
1.0
 40
2.0
 40
2.0
 40
2.0
 40
3.0
 40
3.0
 40
3.0
 40
4.0
 40
4.0
 40
4.0
 40
4.0
 10
118.5099058654493
 20
-131.2388366338572
 30
0.0
 10
118.5099058654493
 20
-131.2943285782874
 30
0.0
 10
118.4651030888145
 20
-131.3390960782766
 30
0.0
 10
118.4099992013315
 20
-131.3390960782766
 30
0.0
 10
118.3545425360796
 20
-131.3390960782766
 30
0.0
 10
118.3097397594449
 20
-131.2943285782874
 30
0.0
 10
118.3097397594449
 20
-131.2388366338572
 30
0.0
 10
118.3097397594449
 20
-131.1837327449816
 30
0.0
 10
118.3545425360796
 20
-131.1389299672155
 30
0.0
 10
118.4099992013315
 20
-131.1389299672155
 30
0.0
 10
118.4651030888145
 20
-131.1389299672155
 30
0.0
 10
118.5099058654493
 20
-131.1837327449816
 30
0.0
 10
118.5099058654493
 20
-131.2388366338572
 30
0.0
  0
HATCH
  5
D0
330
1F
100
AcDbEntity
  8
_U+30EC_U+30A4_U+30E4_U+30FC 1
 62
   179
420
  2234388
100
AcDbHatch
 10
0.0
 20
0.0
 30
0.0
210
0.0
220
0.0
230
1.0
  2
SOLID
 70
     1
 71
     0
 91
        1
 92
        1
 93
        1
 72
     4
 94
        3
 73
     0
 74
     1
 95
       17
 96
       13
 40
0.0
 40
0.0
 40
0.0
 40
0.0
 40
1.0
 40
1.0
 40
1.0
 40
2.0
 40
2.0
 40
2.0
 40
3.0
 40
3.0
 40
3.0
 40
4.0
 40
4.0
 40
4.0
 40
4.0
 10
118.5099058654493
 20
-131.2388366338572
 10
118.5099058654493
 20
-131.2943285782874
 10
118.4651030888145
 20
-131.3390960782766
 10
118.4099992013315
 20
-131.3390960782766
 10
118.3545425360796
 20
-131.3390960782766
 10
118.3097397594449
 20
-131.2943285782874
 10
118.3097397594449
 20
-131.2388366338572
 10
118.3097397594449
 20
-131.1837327449816
 10
118.3545425360796
 20
-131.1389299672155
 10
118.4099992013315
 20
-131.1389299672155
 10
118.4651030888145
 20
-131.1389299672155
 10
118.5099058654493
 20
-131.1837327449816
 10
118.5099058654493
 20
-131.2388366338572
 97
        0
 97
        0
 75
     2
 76
     1
 98
        0
  0
SPLINE
  5
D1
330
1F
100
AcDbEntity
  8
_U+30EC_U+30A4_U+30E4_U+30FC 1
 62
   179
420
  2234388
370
     9
100
AcDbSpline
210
0.0
220
0.0
230
1.0
 70
    11
 71
     3
 72
    17
 73
    13
 74
     0
 42
0.0000000001
 43
0.0000000001
 12
1.0
 22
0.0
 32
0.0
 13
1.0
 23
0.0
 33
0.0
 40
0.0
 40
0.0
 40
0.0
 40
0.0
 40
1.0
 40
1.0
 40
1.0
 40
2.0
 40
2.0
 40
2.0
 40
3.0
 40
3.0
 40
3.0
 40
4.0
 40
4.0
 40
4.0
 40
4.0
 10
79.28334631064666
 20
-151.9214921842417
 30
0.0
 10
79.28334631064666
 20
-151.9765960731172
 30
0.0
 10
79.23857881178877
 20
-152.0213988508833
 30
0.0
 10
79.18344164687093
 20
-152.0213988508833
 30
0.0
 10
79.12833575904575
 20
-152.0213988508833
 30
0.0
 10
79.08353298241099
 20
-151.9765960731172
 30
0.0
 10
79.08353298241099
 20
-151.9214921842417
 30
0.0
 10
79.08353298241099
 20
-151.8663530175892
 30
0.0
 10
79.12833575904575
 20
-151.8215855176
 30
0.0
 10
79.18344164687093
 20
-151.8215855176
 30
0.0
 10
79.23857881178877
 20
-151.8215855176
 30
0.0
 10
79.28334631064666
 20
-151.8663530175892
 30
0.0
 10
79.28334631064666
 20
-151.9214921842417
 30
0.0
  0
HATCH
  5
D2
330
1F
100
AcDbEntity
  8
_U+30EC_U+30A4_U+30E4_U+30FC 1
 62
   179
420
  2234388
100
AcDbHatch
 10
0.0
 20
0.0
 30
0.0
210
0.0
220
0.0
230
1.0
  2
SOLID
 70
     1
 71
     0
 91
        1
 92
        1
 93
        1
 72
     4
 94
        3
 73
     0
 74
     1
 95
       17
 96
       13
 40
0.0
 40
0.0
 40
0.0
 40
0.0
 40
1.0
 40
1.0
 40
1.0
 40
2.0
 40
2.0
 40
2.0
 40
3.0
 40
3.0
 40
3.0
 40
4.0
 40
4.0
 40
4.0
 40
4.0
 10
79.28334631064666
 20
-151.9214921842417
 10
79.28334631064666
 20
-151.9765960731172
 10
79.23857881178877
 20
-152.0213988508833
 10
79.18344164687093
 20
-152.0213988508833
 10
79.12833575904575
 20
-152.0213988508833
 10
79.08353298241099
 20
-151.9765960731172
 10
79.08353298241099
 20
-151.9214921842417
 10
79.08353298241099
 20
-151.8663530175892
 10
79.12833575904575
 20
-151.8215855176
 10
79.18344164687093
 20
-151.8215855176
 10
79.23857881178877
 20
-151.8215855176
 10
79.28334631064666
 20
-151.8663530175892
 10
79.28334631064666
 20
-151.9214921842417
 97
        0
 97
        0
 75
     2
 76
     1
 98
        0
  0
POLYLINE
  5
D3
330
1F
100
AcDbEntity
  8
_U+30EC_U+30A4_U+30E4_U+30FC 1
 62
   179
420
  2234388
370
     9
100
AcDb2dPolyline
 66
     1
 10
0.0
 20
0.0
 30
0.0
  0
VERTEX
  5
D4
330
D3
100
AcDbEntity
  8
_U+30EC_U+30A4_U+30E4_U+30FC 1
 62
   179
420
  2234388
370
     9
100
AcDbVertex
100
AcDb2dVertex
 10
69.19369045694411
 20
-154.0891352392554
 30
0.0
  0
VERTEX
  5
D5
330
D3
100
AcDbEntity
  8
_U+30EC_U+30A4_U+30E4_U+30FC 1
 62
   179
420
  2234388
370
     9
100
AcDbVertex
100
AcDb2dVertex
 10
69.19369045694411
 20
-141.1803613535937
 30
0.0
  0
SEQEND
  5
D6
330
D3
100
AcDbEntity
  8
_U+30EC_U+30A4_U+30E4_U+30FC 1
 62
   179
420
  2234388
370
     9
  0
POLYLINE
  5
D7
330
1F
100
AcDbEntity
  8
_U+30EC_U+30A4_U+30E4_U+30FC 1
 62
   179
420
  2234388
370
     9
100
AcDb2dPolyline
 66
     1
 10
0.0
 20
0.0
 30
0.0
  0
VERTEX
  5
D8
330
D7
100
AcDbEntity
  8
_U+30EC_U+30A4_U+30E4_U+30FC 1
 62
   179
420
  2234388
370
     9
100
AcDbVertex
100
AcDb2dVertex
 10
94.1937456524729
 20
-153.8796557948631
 30
0.0
  0
VERTEX
  5
D9
330
D7
100
AcDbEntity
  8
_U+30EC_U+30A4_U+30E4_U+30FC 1
 62
   179
420
  2234388
370
     9
100
AcDbVertex
100
AcDb2dVertex
 10
94.1937456524729
 20
-150.8969196844977
 30
0.0
  0
SEQEND
  5
DA
330
D7
100
AcDbEntity
  8
_U+30EC_U+30A4_U+30E4_U+30FC 1
 62
   179
420
  2234388
370
     9
  0
ENDSEC
  0
SECTION
  2
OBJECTS
  0
DICTIONARY
  5
C
330
0
100
AcDbDictionary
281
     1
  3
ACAD_GROUP
350
D
  3
ACAD_LAYOUT
350
1A
  3
ACAD_MATERIAL
350
3B
  3
ACAD_MLEADERSTYLE
350
DC
  3
ACAD_MLINESTYLE
350
17
  3
ACAD_PLOTSETTINGS
350
19
  3
ACAD_PLOTSTYLENAME
350
E
  3
ACAD_TABLESTYLE
350
DB
  3
ACAD_VISUALSTYLE
350
2A
  0
SUN
  5
3F
330
29
100
AcDbSun
 90
        1
290
     0
 63
     7
421
 16777215
 40
1.0
291
     1
 91
  2455826
 92
 54000000
292
     0
 70
     2
 71
   256
280
     1
  0
DICTIONARY
  5
D
102
{ACAD_REACTORS
330
C
102
}
330
C
100
AcDbDictionary
281
     1
  0
DICTIONARY
  5
1A
102
{ACAD_REACTORS
330
C
102
}
330
C
100
AcDbDictionary
281
     1
  3
Layout1
350
1E
  3
Layout2
350
26
  3
Model
350
22
  0
DICTIONARY
  5
3B
102
{ACAD_REACTORS
330
C
102
}
330
C
100
AcDbDictionary
281
     1
  3
ByBlock
350
3D
  3
ByLayer
350
3C
  3
Global
350
3E
  0
DICTIONARY
  5
DC
102
{ACAD_REACTORS
330
C
102
}
330
C
100
AcDbDictionary
281
     1
  0
DICTIONARY
  5
17
102
{ACAD_REACTORS
330
C
102
}
330
C
100
AcDbDictionary
281
     1
  3
Standard
350
18
  0
DICTIONARY
  5
19
102
{ACAD_REACTORS
330
C
102
}
330
C
100
AcDbDictionary
281
     1
  0
ACDBDICTIONARYWDFLT
  5
E
102
{ACAD_REACTORS
330
C
102
}
330
C
100
AcDbDictionary
281
     1
  3
Normal
350
F
100
AcDbDictionaryWithDefault
340
F
  0
DICTIONARY
  5
DB
102
{ACAD_REACTORS
330
C
102
}
330
C
100
AcDbDictionary
281
     1
  0
DICTIONARY
  5
2A
102
{ACAD_REACTORS
330
C
102
}
330
C
100
AcDbDictionary
281
     1
  3
2dWireframe
350
2F
  3
3D Hidden
350
31
  3
3dWireframe
350
30
  3
Basic
350
32
  3
Brighten
350
36
  3
ColorChange
350
3A
  3
Conceptual
350
34
  3
Dim
350
35
  3
Facepattern
350
39
  3
Flat
350
2B
  3
FlatWithEdges
350
2C
  3
Gouraud
350
2D
  3
GouraudWithEdges
350
2E
  3
Linepattern
350
38
  3
Realistic
350
33
  3
Thicken
350
37
  0
LAYOUT
  5
1E
102
{ACAD_REACTORS
330
1A
102
}
330
1A
100
AcDbPlotSettings
  1

  2
none_device
  4

  6

 40
0.0
 41
0.0
 42
0.0
 43
0.0
 44
0.0
 45
0.0
 46
0.0
 47
0.0
 48
0.0
 49
0.0
140
0.0
141
0.0
142
1.0
143
1.0
 70
   688
 72
     0
 73
     0
 74
     5
  7

 75
    16
 76
     0
 77
     2
 78
   300
147
1.0
148
0.0
149
0.0
100
AcDbLayout
  1
Layout1
 70
     1
 71
     1
 10
0.0
 20
0.0
 11
12.0
 21
9.0
 12
0.0
 22
0.0
 32
0.0
 14
1.000000000000000E+20
 24
1.000000000000000E+20
 34
1.000000000000000E+20
 15
-1.000000000000000E+20
 25
-1.000000000000000E+20
 35
-1.000000000000000E+20
146
0.0
 13
0.0
 23
0.0
 33
0.0
 16
1.0
 26
0.0
 36
0.0
 17
0.0
 27
1.0
 37
0.0
 76
     0
330
1B
  0
LAYOUT
  5
26
102
{ACAD_REACTORS
330
1A
102
}
330
1A
100
AcDbPlotSettings
  1

  2
none_device
  4

  6

 40
0.0
 41
0.0
 42
0.0
 43
0.0
 44
0.0
 45
0.0
 46
0.0
 47
0.0
 48
0.0
 49
0.0
140
0.0
141
0.0
142
1.0
143
1.0
 70
   688
 72
     0
 73
     0
 74
     5
  7

 75
    16
 76
     0
 77
     2
 78
   300
147
1.0
148
0.0
149
0.0
100
AcDbLayout
  1
Layout2
 70
     1
 71
     2
 10
0.0
 20
0.0
 11
0.0
 21
0.0
 12
0.0
 22
0.0
 32
0.0
 14
0.0
 24
0.0
 34
0.0
 15
0.0
 25
0.0
 35
0.0
146
0.0
 13
0.0
 23
0.0
 33
0.0
 16
1.0
 26
0.0
 36
0.0
 17
0.0
 27
1.0
 37
0.0
 76
     0
330
23
  0
LAYOUT
  5
22
102
{ACAD_REACTORS
330
1A
102
}
330
1A
100
AcDbPlotSettings
  1

  2
none_device
  4

  6

 40
0.0
 41
0.0
 42
0.0
 43
0.0
 44
0.0
 45
0.0
 46
0.0
 47
0.0
 48
0.0
 49
0.0
140
0.0
141
0.0
142
1.0
143
1.0
 70
  1712
 72
     0
 73
     0
 74
     0
  7

 75
     0
 76
     0
 77
     2
 78
   300
147
1.0
148
0.0
149
0.0
100
AcDbLayout
  1
Model
 70
     1
 71
     0
 10
0.0
 20
0.0
 11
12.0
 21
9.0
 12
0.0
 22
0.0
 32
0.0
 14
1.000000000000000E+20
 24
1.000000000000000E+20
 34
1.000000000000000E+20
 15
-1.000000000000000E+20
 25
-1.000000000000000E+20
 35
-1.000000000000000E+20
146
0.0
 13
0.0
 23
0.0
 33
0.0
 16
1.0
 26
0.0
 36
0.0
 17
0.0
 27
1.0
 37
0.0
 76
     0
330
1F
331
29
  0
MATERIAL
  5
3D
102
{ACAD_REACTORS
330
3B
102
}
330
3B
100
AcDbMaterial
  1
ByBlock
 72
     1
 94
      127
  0
MATERIAL
  5
3C
102
{ACAD_REACTORS
330
3B
102
}
330
3B
100
AcDbMaterial
  1
ByLayer
 72
     1
 94
      127
  0
MATERIAL
  5
3E
102
{ACAD_REACTORS
330
3B
102
}
330
3B
100
AcDbMaterial
  1
Global
 72
     1
 94
      127
  0
MLINESTYLE
  5
18
102
{ACAD_REACTORS
330
17
102
}
330
17
100
AcDbMlineStyle
  2
Standard
 70
     0
  3

 62
   256
 51
90.0
 52
90.0
 71
     2
 49
0.5
 62
   256
  6
BYLAYER
 49
-0.5
 62
   256
  6
BYLAYER
  0
ACDBPLACEHOLDER
  5
F
102
{ACAD_REACTORS
330
E
102
}
330
E
  0
VISUALSTYLE
  5
2F
102
{ACAD_REACTORS
330
2A
102
}
330
2A
100
AcDbVisualStyle
  2
2dWireframe
 70
     4
177
     2
291
     0
 71
     0
176
     1
 72
     2
176
     1
 73
     0
176
     1
 90
        0
176
     1
 40
-0.6
176
     1
 41
-30.0
176
     1
 62
     5
 63
     7
421
 16777215
176
     1
 74
     1
176
     1
 91
        4
176
     1
 64
     7
176
     1
 65
   257
176
     1
 75
     1
176
     1
175
     1
176
     1
 42
1.0
176
     1
 92
        0
176
     1
 66
   257
176
     1
 43
1.0
176
     1
 76
     1
176
     1
 77
     6
176
     1
 78
     2
176
     1
 67
     7
176
     1
 79
     5
176
     1
170
     0
176
     1
171
     0
176
     1
290
     0
176
     1
 93
        1
176
     1
 44
0.0
176
     1
173
     0
176
     1
  0
VISUALSTYLE
  5
31
102
{ACAD_REACTORS
330
2A
102
}
330
2A
100
AcDbVisualStyle
  2
3D Hidden
 70
     6
177
     2
291
     0
 71
     1
176
     1
 72
     2
176
     1
 73
     2
176
     1
 90
        0
176
     1
 40
-0.6
176
     1
 41
-30.0
176
     1
 62
     5
 63
     7
421
 16777215
176
     1
 74
     2
176
     1
 91
        2
176
     1
 64
     7
176
     1
 65
   257
176
     1
 75
     2
176
     1
175
     1
176
     1
 42
40.0
176
     1
 92
        0
176
     1
 66
   257
176
     1
 43
1.0
176
     1
 76
     1
176
     1
 77
     6
176
     1
 78
     2
176
     1
 67
     7
176
     1
 79
     3
176
     1
170
     0
176
     1
171
     0
176
     1
290
     0
176
     1
 93
        1
176
     1
 44
0.0
176
     1
173
     0
176
     1
  0
VISUALSTYLE
  5
30
102
{ACAD_REACTORS
330
2A
102
}
330
2A
100
AcDbVisualStyle
  2
3dWireframe
 70
     5
177
     2
291
     0
 71
     0
176
     1
 72
     2
176
     1
 73
     0
176
     1
 90
        0
176
     1
 40
-0.6
176
     1
 41
-30.0
176
     1
 62
     5
 63
     7
421
 16777215
176
     1
 74
     1
176
     1
 91
        4
176
     1
 64
     7
176
     1
 65
   257
176
     1
 75
     1
176
     1
175
     1
176
     1
 42
1.0
176
     1
 92
        0
176
     1
 66
   257
176
     1
 43
1.0
176
     1
 76
     1
176
     1
 77
     6
176
     1
 78
     2
176
     1
 67
     7
176
     1
 79
     5
176
     1
170
     0
176
     1
171
     0
176
     1
290
     0
176
     1
 93
        1
176
     1
 44
0.0
176
     1
173
     0
176
     1
  0
VISUALSTYLE
  5
32
102
{ACAD_REACTORS
330
2A
102
}
330
2A
100
AcDbVisualStyle
  2
Basic
 70
     7
177
     2
291
     1
 71
     1
176
     1
 72
     0
176
     1
 73
     1
176
     1
 90
        0
176
     1
 40
-0.6
176
     1
 41
-30.0
176
     1
 62
     5
 63
     7
421
 16777215
176
     1
 74
     0
176
     1
 91
        4
176
     1
 64
     7
176
     1
 65
   257
176
     1
 75
     1
176
     1
175
     1
176
     1
 42
1.0
176
     1
 92
        8
176
     1
 66
     7
176
     1
 43
1.0
176
     1
 76
     1
176
     1
 77
     6
176
     1
 78
     2
176
     1
 67
     7
176
     1
 79
     5
176
     1
170
     0
176
     1
171
     0
176
     1
290
     0
176
     1
 93
        1
176
     1
 44
0.0
176
     1
173
     0
176
     1
  0
VISUALSTYLE
  5
36
102
{ACAD_REACTORS
330
2A
102
}
330
2A
100
AcDbVisualStyle
  2
Brighten
 70
    12
177
     2
291
     1
 71
     2
176
     1
 72
     2
176
     1
 73
     0
176
     1
 90
        0
176
     1
 40
-0.6
176
     1
 41
-30.0
176
     1
 62
     5
 63
     7
421
 16777215
176
     1
 74
     1
176
     1
 91
        4
176
     1
 64
     7
176
     1
 65
   257
176
     1
 75
     1
176
     1
175
     1
176
     1
 42
1.0
176
     1
 92
        8
176
     1
 66
     7
176
     1
 43
1.0
176
     1
 76
     1
176
     1
 77
     6
176
     1
 78
     2
176
     1
 67
     7
176
     1
 79
     5
176
     1
170
     0
176
     1
171
     0
176
     1
290
     0
176
     1
 93
        1
176
     1
 44
50.0
176
     1
173
     0
176
     1
  0
VISUALSTYLE
  5
3A
102
{ACAD_REACTORS
330
2A
102
}
330
2A
100
AcDbVisualStyle
  2
ColorChange
 70
    16
177
     2
291
     1
 71
     2
176
     1
 72
     2
176
     1
 73
     3
176
     1
 90
        0
176
     1
 40
-0.6
176
     1
 41
-30.0
176
     1
 62
     5
 63
     8
421
  8421504
176
     1
 74
     1
176
     1
 91
        4
176
     1
 64
     7
176
     1
 65
   257
176
     1
 75
     1
176
     1
175
     1
176
     1
 42
1.0
176
     1
 92
        8
176
     1
 66
     8
424
  8421504
176
     1
 43
1.0
176
     1
 76
     1
176
     1
 77
     6
176
     1
 78
     2
176
     1
 67
     7
176
     1
 79
     5
176
     1
170
     0
176
     1
171
     0
176
     1
290
     0
176
     1
 93
        1
176
     1
 44
0.0
176
     1
173
     0
176
     1
  0
VISUALSTYLE
  5
34
102
{ACAD_REACTORS
330
2A
102
}
330
2A
100
AcDbVisualStyle
  2
Conceptual
 70
     9
177
     2
291
     0
 71
     3
176
     1
 72
     2
176
     1
 73
     0
176
     1
 90
        0
176
     1
 40
-0.6
176
     1
 41
-30.0
176
     1
 62
     5
 63
     7
421
 16777215
176
     1
 74
     2
176
     1
 91
        2
176
     1
 64
     7
176
     1
 65
   257
176
     1
 75
     1
176
     1
175
     1
176
     1
 42
40.0
176
     1
 92
        8
176
     1
 66
     7
176
     1
 43
1.0
176
     1
 76
     1
176
     1
 77
     6
176
     1
 78
     2
176
     1
 67
     7
176
     1
 79
     3
176
     1
170
     0
176
     1
171
     0
176
     1
290
     0
176
     1
 93
        1
176
     1
 44
0.0
176
     1
173
     0
176
     1
  0
VISUALSTYLE
  5
35
102
{ACAD_REACTORS
330
2A
102
}
330
2A
100
AcDbVisualStyle
  2
Dim
 70
    11
177
     2
291
     1
 71
     2
176
     1
 72
     2
176
     1
 73
     0
176
     1
 90
        0
176
     1
 40
-0.6
176
     1
 41
-30.0
176
     1
 62
     5
 63
     7
421
 16777215
176
     1
 74
     1
176
     1
 91
        4
176
     1
 64
     7
176
     1
 65
   257
176
     1
 75
     1
176
     1
175
     1
176
     1
 42
1.0
176
     1
 92
        8
176
     1
 66
     7
176
     1
 43
1.0
176
     1
 76
     1
176
     1
 77
     6
176
     1
 78
     2
176
     1
 67
     7
176
     1
 79
     5
176
     1
170
     0
176
     1
171
     0
176
     1
290
     0
176
     1
 93
        1
176
     1
 44
-50.0
176
     1
173
     0
176
     1
  0
VISUALSTYLE
  5
39
102
{ACAD_REACTORS
330
2A
102
}
330
2A
100
AcDbVisualStyle
  2
Facepattern
 70
    15
177
     2
291
     1
 71
     2
176
     1
 72
     2
176
     1
 73
     0
176
     1
 90
        0
176
     1
 40
-0.6
176
     1
 41
-30.0
176
     1
 62
     5
 63
     7
421
 16777215
176
     1
 74
     1
176
     1
 91
        4
176
     1
 64
     7
176
     1
 65
   257
176
     1
 75
     1
176
     1
175
     1
176
     1
 42
1.0
176
     1
 92
        8
176
     1
 66
     7
176
     1
 43
1.0
176
     1
 76
     1
176
     1
 77
     6
176
     1
 78
     2
176
     1
 67
     7
176
     1
 79
     5
176
     1
170
     0
176
     1
171
     0
176
     1
290
     0
176
     1
 93
        1
176
     1
 44
0.0
176
     1
173
     0
176
     1
  0
VISUALSTYLE
  5
2B
102
{ACAD_REACTORS
330
2A
102
}
330
2A
100
AcDbVisualStyle
  2
Flat
 70
     0
177
     2
291
     1
 71
     2
176
     1
 72
     1
176
     1
 73
     1
176
     1
 90
        2
176
     1
 40
-0.6
176
     1
 41
30.0
176
     1
 62
     5
 63
     7
421
 16777215
176
     1
 74
     0
176
     1
 91
        4
176
     1
 64
     7
176
     1
 65
   257
176
     1
 75
     1
176
     1
175
     1
176
     1
 42
1.0
176
     1
 92
        8
176
     1
 66
     7
176
     1
 43
1.0
176
     1
 76
     1
176
     1
 77
     6
176
     1
 78
     2
176
     1
 67
     7
176
     1
 79
     5
176
     1
170
     0
176
     1
171
     0
176
     1
290
     0
176
     1
 93
       13
176
     1
 44
0.0
176
     1
173
     0
176
     1
  0
VISUALSTYLE
  5
2C
102
{ACAD_REACTORS
330
2A
102
}
330
2A
100
AcDbVisualStyle
  2
FlatWithEdges
 70
     1
177
     2
291
     1
 71
     2
176
     1
 72
     1
176
     1
 73
     1
176
     1
 90
        2
176
     1
 40
-0.6
176
     1
 41
30.0
176
     1
 62
     5
 63
     7
421
 16777215
176
     1
 74
     1
176
     1
 91
        4
176
     1
 64
     7
176
     1
 65
   257
176
     1
 75
     1
176
     1
175
     1
176
     1
 42
1.0
176
     1
 92
        0
176
     1
 66
   257
176
     1
 43
1.0
176
     1
 76
     1
176
     1
 77
     6
176
     1
 78
     2
176
     1
 67
     7
176
     1
 79
     5
176
     1
170
     0
176
     1
171
     0
176
     1
290
     0
176
     1
 93
       13
176
     1
 44
0.0
176
     1
173
     0
176
     1
  0
VISUALSTYLE
  5
2D
102
{ACAD_REACTORS
330
2A
102
}
330
2A
100
AcDbVisualStyle
  2
Gouraud
 70
     2
177
     2
291
     1
 71
     2
176
     1
 72
     2
176
     1
 73
     1
176
     1
 90
        2
176
     1
 40
-0.6
176
     1
 41
30.0
176
     1
 62
     5
 63
     7
421
 16777215
176
     1
 74
     0
176
     1
 91
        4
176
     1
 64
     7
176
     1
 65
   257
176
     1
 75
     1
176
     1
175
     1
176
     1
 42
1.0
176
     1
 92
        0
176
     1
 66
     7
176
     1
 43
1.0
176
     1
 76
     1
176
     1
 77
     6
176
     1
 78
     2
176
     1
 67
     7
176
     1
 79
     5
176
     1
170
     0
176
     1
171
     0
176
     1
290
     0
176
     1
 93
       13
176
     1
 44
0.0
176
     1
173
     0
176
     1
  0
VISUALSTYLE
  5
2E
102
{ACAD_REACTORS
330
2A
102
}
330
2A
100
AcDbVisualStyle
  2
GouraudWithEdges
 70
     3
177
     2
291
     1
 71
     2
176
     1
 72
     2
176
     1
 73
     1
176
     1
 90
        2
176
     1
 40
-0.6
176
     1
 41
30.0
176
     1
 62
     5
 63
     7
421
 16777215
176
     1
 74
     1
176
     1
 91
        4
176
     1
 64
     7
176
     1
 65
   257
176
     1
 75
     1
176
     1
175
     1
176
     1
 42
1.0
176
     1
 92
        0
176
     1
 66
   257
176
     1
 43
1.0
176
     1
 76
     1
176
     1
 77
     6
176
     1
 78
     2
176
     1
 67
     7
176
     1
 79
     5
176
     1
170
     0
176
     1
171
     0
176
     1
290
     0
176
     1
 93
       13
176
     1
 44
0.0
176
     1
173
     0
176
     1
  0
VISUALSTYLE
  5
38
102
{ACAD_REACTORS
330
2A
102
}
330
2A
100
AcDbVisualStyle
  2
Linepattern
 70
    14
177
     2
291
     1
 71
     2
176
     1
 72
     2
176
     1
 73
     0
176
     1
 90
        0
176
     1
 40
-0.6
176
     1
 41
-30.0
176
     1
 62
     5
 63
     7
421
 16777215
176
     1
 74
     1
176
     1
 91
        4
176
     1
 64
     7
176
     1
 65
   257
176
     1
 75
     7
176
     1
175
     7
176
     1
 42
1.0
176
     1
 92
        8
176
     1
 66
     7
176
     1
 43
1.0
176
     1
 76
     1
176
     1
 77
     6
176
     1
 78
     2
176
     1
 67
     7
176
     1
 79
     5
176
     1
170
     0
176
     1
171
     0
176
     1
290
     0
176
     1
 93
        1
176
     1
 44
0.0
176
     1
173
     0
176
     1
  0
VISUALSTYLE
  5
33
102
{ACAD_REACTORS
330
2A
102
}
330
2A
100
AcDbVisualStyle
  2
Realistic
 70
     8
177
     2
291
     0
 71
     2
176
     1
 72
     2
176
     1
 73
     0
176
     1
 90
        0
176
     1
 40
-0.6
176
     1
 41
-30.0
176
     1
 62
     5
 63
     7
421
 16777215
176
     1
 74
     1
176
     1
 91
        0
176
     1
 64
     7
176
     1
 65
   257
176
     1
 75
     1
176
     1
175
     1
176
     1
 42
1.0
176
     1
 92
        8
176
     1
 66
     8
424
  7895160
176
     1
 43
1.0
176
     1
 76
     1
176
     1
 77
     6
176
     1
 78
     2
176
     1
 67
     7
176
     1
 79
     5
176
     1
170
     0
176
     1
171
     0
176
     1
290
     0
176
     1
 93
       13
176
     1
 44
0.0
176
     1
173
     0
176
     1
  0
VISUALSTYLE
  5
37
102
{ACAD_REACTORS
330
2A
102
}
330
2A
100
AcDbVisualStyle
  2
Thicken
 70
    13
177
     2
291
     1
 71
     2
176
     1
 72
     2
176
     1
 73
     0
176
     1
 90
        0
176
     1
 40
-0.6
176
     1
 41
-30.0
176
     1
 62
     5
 63
     7
421
 16777215
176
     1
 74
     1
176
     1
 91
        4
176
     1
 64
     7
176
     1
 65
   257
176
     1
 75
     1
176
     1
175
     1
176
     1
 42
1.0
176
     1
 92
       12
176
     1
 66
     7
176
     1
 43
1.0
176
     1
 76
     1
176
     1
 77
     6
176
     1
 78
     2
176
     1
 67
     7
176
     1
 79
     5
176
     1
170
     0
176
     1
171
     0
176
     1
290
     0
176
     1
 93
        1
176
     1
 44
0.0
176
     1
173
     0
176
     1
  0
ENDSEC
  0
EOF
