  0
SECTION
  2
HEADER
  9
$ACADVER
  1
AC1024
  9
$ACADMAINTVER
 70
     6
  9
$DWGCODEPAGE
  3
UNDEFINED
  9
$INSBASE
 10
0.0
 20
0.0
 30
0.0
  9
$EXTMIN
 10
1.000000000000000E+20
 20
1.000000000000000E+20
 30
1.000000000000000E+20
  9
$EXTMAX
 10
-1.000000000000000E+20
 20
-1.000000000000000E+20
 30
-1.000000000000000E+20
  9
$LIMMIN
 10
0.0
 20
0.0
  9
$LIMMAX
 10
12.0
 20
9.0
  9
$ORTHOMODE
 70
     0
  9
$REGENMODE
 70
     1
  9
$FILLMODE
 70
     1
  9
$QTEXTMODE
 70
     0
  9
$MIRRTEXT
 70
     1
  9
$LTSCALE
 40
1.0
  9
$ATTMODE
 70
     1
  9
$TEXTSIZE
 40
0.2
  9
$TRACEWID
 40
0.05
  9
$TEXTSTYLE
  7
Standard
  9
$CLAYER
  8
0
  9
$CELTYPE
  6
ByLayer
  9
$CECOLOR
 62
   256
  9
$CELTSCALE
 40
1.0
  9
$DISPSILH
 70
     0
  9
$DIMSCALE
 40
1.0
  9
$DIMASZ
 40
0.18
  9
$DIMEXO
 40
0.0625
  9
$DIMDLI
 40
0.38
  9
$DIMRND
 40
0.0
  9
$DIMDLE
 40
0.0
  9
$DIMEXE
 40
0.18
  9
$DIMTP
 40
0.0
  9
$DIMTM
 40
0.0
  9
$DIMTXT
 40
0.18
  9
$DIMCEN
 40
0.09
  9
$DIMTSZ
 40
0.0
  9
$DIMTOL
 70
     0
  9
$DIMLIM
 70
     0
  9
$DIMTIH
 70
     1
  9
$DIMTOH
 70
     1
  9
$DIMSE1
 70
     0
  9
$DIMSE2
 70
     0
  9
$DIMTAD
 70
     0
  9
$DIMZIN
 70
     0
  9
$DIMBLK
  1

  9
$DIMASO
 70
     1
  9
$DIMSHO
 70
     1
  9
$DIMPOST
  1

  9
$DIMAPOST
  1

  9
$DIMALT
 70
     0
  9
$DIMALTD
 70
     2
  9
$DIMALTF
 40
25.4
  9
$DIMLFAC
 40
1.0
  9
$DIMTOFL
 70
     0
  9
$DIMTVP
 40
0.0
  9
$DIMTIX
 70
     0
  9
$DIMSOXD
 70
     0
  9
$DIMSAH
 70
     0
  9
$DIMBLK1
  1

  9
$DIMBLK2
  1

  9
$DIMSTYLE
  2
Standard
  9
$DIMCLRD
 70
     0
  9
$DIMCLRE
 70
     0
  9
$DIMCLRT
 70
     0
  9
$DIMTFAC
 40
1.0
  9
$DIMGAP
 40
0.09
  9
$DIMJUST
 70
     0
  9
$DIMSD1
 70
     0
  9
$DIMSD2
 70
     0
  9
$DIMTOLJ
 70
     1
  9
$DIMTZIN
 70
     0
  9
$DIMALTZ
 70
     0
  9
$DIMALTTZ
 70
     0
  9
$DIMUPT
 70
     0
  9
$DIMDEC
 70
     4
  9
$DIMTDEC
 70
     4
  9
$DIMALTU
 70
     2
  9
$DIMALTTD
 70
     2
  9
$DIMTXSTY
  7
Standard
  9
$DIMAUNIT
 70
     0
  9
$DIMADEC
 70
     0
  9
$DIMALTRND
 40
0.0
  9
$DIMAZIN
 70
     0
  9
$DIMDSEP
 70
    46
  9
$DIMATFIT
 70
     3
  9
$DIMFRAC
 70
     0
  9
$DIMLDRBLK
  1

  9
$DIMLUNIT
 70
     2
  9
$DIMLWD
 70
    -2
  9
$DIMLWE
 70
    -2
  9
$DIMTMOVE
 70
     0
  9
$DIMFXL
 40
1.0
  9
$DIMFXLON
 70
     0
  9
$DIMJOGANG
 40
0.7853981633974483
  9
$DIMTFILL
 70
     0
  9
$DIMTFILLCLR
 70
     0
  9
$DIMARCSYM
 70
     0
  9
$DIMLTYPE
  6

  9
$DIMLTEX1
  6

  9
$DIMLTEX2
  6

  9
$DIMTXTDIRECTION
 70
     0
  9
$LUNITS
 70
     2
  9
$LUPREC
 70
     4
  9
$SKETCHINC
 40
0.1
  9
$FILLETRAD
 40
0.5
  9
$AUNITS
 70
     0
  9
$AUPREC
 70
     0
  9
$MENU
  1
.
  9
$ELEVATION
 40
0.0
  9
$PELEVATION
 40
0.0
  9
$THICKNESS
 40
0.0
  9
$LIMCHECK
 70
     0
  9
$CHAMFERA
 40
0.5
  9
$CHAMFERB
 40
0.5
  9
$CHAMFERC
 40
1.0
  9
$CHAMFERD
 40
0.0
  9
$SKPOLY
 70
     0
  9
$TDCREATE
 40
2457917.620104167
  9
$TDUCREATE
 40
2457917.245104167
  9
$TDUPDATE
 40
2457917.620104167
  9
$TDUUPDATE
 40
2457917.245104167
  9
$TDINDWG
 40
0.0000000116
  9
$TDUSRTIMER
 40
0.0000000116
  9
$USRTIMER
 70
     1
  9
$ANGBASE
 50
0.0
  9
$ANGDIR
 70
     0
  9
$PDMODE
 70
     0
  9
$PDSIZE
 40
0.0
  9
$PLINEWID
 40
0.0
  9
$SPLFRAME
 70
     0
  9
$SPLINETYPE
 70
     6
  9
$SPLINESEGS
 70
     8
  9
$HANDSEED
  5
9E
  9
$SURFTAB1
 70
     6
  9
$SURFTAB2
 70
     6
  9
$SURFTYPE
 70
     6
  9
$SURFU
 70
     6
  9
$SURFV
 70
     6
  9
$UCSBASE
  2

  9
$UCSNAME
  2

  9
$UCSORG
 10
0.0
 20
0.0
 30
0.0
  9
$UCSXDIR
 10
1.0
 20
0.0
 30
0.0
  9
$UCSYDIR
 10
0.0
 20
1.0
 30
0.0
  9
$UCSORTHOREF
  2

  9
$UCSORTHOVIEW
 70
     0
  9
$UCSORGTOP
 10
0.0
 20
0.0
 30
0.0
  9
$UCSORGBOTTOM
 10
0.0
 20
0.0
 30
0.0
  9
$UCSORGLEFT
 10
0.0
 20
0.0
 30
0.0
  9
$UCSORGRIGHT
 10
0.0
 20
0.0
 30
0.0
  9
$UCSORGFRONT
 10
0.0
 20
0.0
 30
0.0
  9
$UCSORGBACK
 10
0.0
 20
0.0
 30
0.0
  9
$PUCSBASE
  2

  9
$PUCSNAME
  2

  9
$PUCSORG
 10
0.0
 20
0.0
 30
0.0
  9
$PUCSXDIR
 10
1.0
 20
0.0
 30
0.0
  9
$PUCSYDIR
 10
0.0
 20
1.0
 30
0.0
  9
$PUCSORTHOREF
  2

  9
$PUCSORTHOVIEW
 70
     0
  9
$PUCSORGTOP
 10
0.0
 20
0.0
 30
0.0
  9
$PUCSORGBOTTOM
 10
0.0
 20
0.0
 30
0.0
  9
$PUCSORGLEFT
 10
0.0
 20
0.0
 30
0.0
  9
$PUCSORGRIGHT
 10
0.0
 20
0.0
 30
0.0
  9
$PUCSORGFRONT
 10
0.0
 20
0.0
 30
0.0
  9
$PUCSORGBACK
 10
0.0
 20
0.0
 30
0.0
  9
$USERI1
 70
     0
  9
$USERI2
 70
     0
  9
$USERI3
 70
     0
  9
$USERI4
 70
     0
  9
$USERI5
 70
     0
  9
$USERR1
 40
0.0
  9
$USERR2
 40
0.0
  9
$USERR3
 40
0.0
  9
$USERR4
 40
0.0
  9
$USERR5
 40
0.0
  9
$WORLDVIEW
 70
     1
  9
$SHADEDGE
 70
     3
  9
$SHADEDIF
 70
    70
  9
$TILEMODE
 70
     1
  9
$MAXACTVP
 70
    64
  9
$PINSBASE
 10
0.0
 20
0.0
 30
0.0
  9
$PLIMCHECK
 70
     0
  9
$PEXTMIN
 10
1.000000000000000E+20
 20
1.000000000000000E+20
 30
1.000000000000000E+20
  9
$PEXTMAX
 10
-1.000000000000000E+20
 20
-1.000000000000000E+20
 30
-1.000000000000000E+20
  9
$PLIMMIN
 10
0.0
 20
0.0
  9
$PLIMMAX
 10
12.0
 20
9.0
  9
$UNITMODE
 70
     0
  9
$VISRETAIN
 70
     1
  9
$PLINEGEN
 70
     0
  9
$PSLTSCALE
 70
     1
  9
$TREEDEPTH
 70
  3020
  9
$CMLSTYLE
  2
Standard
  9
$CMLJUST
 70
     0
  9
$CMLSCALE
 40
1.0
  9
$PROXYGRAPHICS
 70
     1
  9
$MEASUREMENT
 70
     0
  9
$CELWEIGHT
370
    -1
  9
$ENDCAPS
280
     0
  9
$JOINSTYLE
280
     0
  9
$LWDISPLAY
290
     1
  9
$INSUNITS
 70
     1
  9
$HYPERLINKBASE
  1

  9
$STYLESHEET
  1

  9
$XEDIT
290
     1
  9
$CEPSNTYPE
380
     0
  9
$PSTYLEMODE
290
     1
  9
$FINGERPRINTGUID
  2
{14E33BC1-A733-D974-5331-A022B484A02F}
  9
$VERSIONGUID
  2
{FAEB1C32-E019-11D5-929B-00C0DF256EC4}
  9
$EXTNAMES
290
     1
  9
$PSVPSCALE
 40
0.0
  9
$OLESTARTUP
290
     0
  9
$SORTENTS
280
   127
  9
$INDEXCTL
280
     0
  9
$HIDETEXT
280
     1
  9
$XCLIPFRAME
280
     2
  9
$HALOGAP
280
     0
  9
$OBSCOLOR
 70
   257
  9
$OBSLTYPE
280
     0
  9
$INTERSECTIONDISPLAY
280
     0
  9
$INTERSECTIONCOLOR
 70
   257
  9
$DIMASSOC
280
     2
  9
$PROJECTNAME
  1

  9
$CAMERADISPLAY
290
     0
  9
$LENSLENGTH
 40
50.0
  9
$CAMERAHEIGHT
 40
0.0
  9
$STEPSPERSEC
 40
2.0
  9
$STEPSIZE
 40
6.0
  9
$3DDWFPREC
 40
2.0
  9
$PSOLWIDTH
 40
0.25
  9
$PSOLHEIGHT
 40
4.0
  9
$LOFTANG1
 40
1.570796326794897
  9
$LOFTANG2
 40
1.570796326794897
  9
$LOFTMAG1
 40
0.0
  9
$LOFTMAG2
 40
0.0
  9
$LOFTPARAM
 70
     7
  9
$LOFTNORMALS
280
     1
  9
$LATITUDE
 40
37.795
  9
$LONGITUDE
 40
-122.394
  9
$NORTHDIRECTION
 40
0.0
  9
$TIMEZONE
 70
 -8000
  9
$LIGHTGLYPHDISPLAY
280
     1
  9
$TILEMODELIGHTSYNCH
280
     1
  9
$CMATERIAL
347
3C
  9
$SOLIDHIST
280
     1
  9
$SHOWHIST
280
     1
  9
$DWFFRAME
280
     2
  9
$DGNFRAME
280
     2
  9
$REALWORLDSCALE
290
     1
  9
$INTERFERECOLOR
 62
   256
  9
$CSHADOW
280
     0
  9
$SHADOWPLANELOCATION
 40
0.0
  0
ENDSEC
  0
SECTION
  2
CLASSES
  0
CLASS
  1
ACDBDICTIONARYWDFLT
  2
AcDbDictionaryWithDefault
  3
ObjectDBX Classes
 90
        0
 91
        4
280
     0
281
     0
  0
CLASS
  1
VISUALSTYLE
  2
AcDbVisualStyle
  3
ObjectDBX Classes
 90
     4095
 91
        4
280
     0
281
     0
  0
CLASS
  1
MATERIAL
  2
AcDbMaterial
  3
ObjectDBX Classes
 90
     1153
 91
        4
280
     0
281
     0
  0
CLASS
  1
SUN
  2
AcDbSun
  3
SCENEOE
 90
     1024
 91
        4
280
     0
281
     0
  0
ENDSEC
  0
SECTION
  2
TABLES
  0
TABLE
  2
VPORT
  5
8
330
0
100
AcDbSymbolTable
 70
     1
  0
VPORT
  5
29
330
8
100
AcDbSymbolTableRecord
100
AcDbViewportTableRecord
  2
*Active
 70
     0
 10
0.0
 20
0.0
 11
1.0
 21
1.0
 12
0.0
 22
0.0
 13
0.0
 23
0.0
 14
0.5
 24
0.5
 15
0.5
 25
0.5
 16
0.0
 26
0.0
 36
1.0
 17
91.00082462281999
 27
-128.4993055234307
 37
0.0
 40
256.9986110468615
 41
0.7081814508812795
 42
50.0
 43
0.0
 44
0.0
 50
0.0
 51
0.0
 71
     0
 72
   100
 73
     1
 74
     3
 75
     0
 76
     0
 77
     0
 78
     0
281
     0
 65
     1
110
0.0
120
0.0
130
0.0
111
1.0
121
0.0
131
0.0
112
0.0
122
1.0
132
0.0
 79
     0
146
0.0
 60
     3
 61
     5
292
     1
282
     1
141
0.0
142
0.0
 63
   250
361
3F
  0
ENDTAB
  0
TABLE
  2
LTYPE
  5
5
330
0
100
AcDbSymbolTable
 70
     1
  0
LTYPE
  5
14
330
5
100
AcDbSymbolTableRecord
100
AcDbLinetypeTableRecord
  2
ByBlock
 70
     0
  3

 72
    65
 73
     0
 40
0.0
  0
LTYPE
  5
15
330
5
100
AcDbSymbolTableRecord
100
AcDbLinetypeTableRecord
  2
ByLayer
 70
     0
  3

 72
    65
 73
     0
 40
0.0
  0
LTYPE
  5
16
330
5
100
AcDbSymbolTableRecord
100
AcDbLinetypeTableRecord
  2
Continuous
 70
     0
  3
Solid line
 72
    65
 73
     0
 40
0.0
  0
ENDTAB
  0
TABLE
  2
LAYER
  5
2
330
0
100
AcDbSymbolTable
 70
     2
  0
LAYER
  5
10
330
2
100
AcDbSymbolTableRecord
100
AcDbLayerTableRecord
  2
0
 70
     0
 62
     7
  6
Continuous
370
    -3
390
F
347
3E
  0
LAYER
  5
40
330
2
100
AcDbSymbolTableRecord
100
AcDbLayerTableRecord
  2
_U+30EC_U+30A4_U+30E4_U+30FC 1
 70
     0
 62
     7
  6
Continuous
370
    -3
390
F
347
3E
  0
ENDTAB
  0
TABLE
  2
STYLE
  5
3
330
0
100
AcDbSymbolTable
 70
     1
  0
STYLE
  5
11
330
3
100
AcDbSymbolTableRecord
100
AcDbTextStyleTableRecord
  2
Standard
 70
     0
 40
0.0
 41
1.0
 50
0.0
 71
     0
 42
0.2
  3
txt
  4

  0
ENDTAB
  0
TABLE
  2
VIEW
  5
6
330
0
100
AcDbSymbolTable
 70
     0
  0
ENDTAB
  0
TABLE
  2
UCS
  5
7
330
0
100
AcDbSymbolTable
 70
     0
  0
ENDTAB
  0
TABLE
  2
APPID
  5
9
330
0
100
AcDbSymbolTable
 70
     1
  0
APPID
  5
12
330
9
100
AcDbSymbolTableRecord
100
AcDbRegAppTableRecord
  2
ACAD
 70
     0
  0
ENDTAB
  0
TABLE
  2
DIMSTYLE
  5
A
330
0
100
AcDbSymbolTable
 70
     1
100
AcDbDimStyleTable
  0
DIMSTYLE
105
27
330
A
100
AcDbSymbolTableRecord
100
AcDbDimStyleTableRecord
  2
Standard
 70
     0
178
     0
340
11
  0
ENDTAB
  0
TABLE
  2
BLOCK_RECORD
  5
1
330
0
100
AcDbSymbolTable
 70
     6
  0
BLOCK_RECORD
  5
1F
330
1
100
AcDbSymbolTableRecord
100
AcDbBlockTableRecord
  2
*Model_Space
340
22
 70
     0
280
     1
281
     0
  0
BLOCK_RECORD
  5
1B
330
1
100
AcDbSymbolTableRecord
100
AcDbBlockTableRecord
  2
*Paper_Space
340
1E
 70
     0
280
     1
281
     0
  0
BLOCK_RECORD
  5
23
330
1
100
AcDbSymbolTableRecord
100
AcDbBlockTableRecord
  2
*Paper_Space0
340
26
 70
     0
280
     1
281
     0
  0
BLOCK_RECORD
  5
57
330
1
100
AcDbSymbolTableRecord
100
AcDbBlockTableRecord
  2
block 2
340
0
102
{BLKREFS
331
58
102
}
 70
     0
280
     1
281
     0
  0
BLOCK_RECORD
  5
5D
330
1
100
AcDbSymbolTableRecord
100
AcDbBlockTableRecord
  2
block 3
340
0
102
{BLKREFS
331
5E
102
}
 70
     0
280
     1
281
     0
  0
BLOCK_RECORD
  5
71
330
1
100
AcDbSymbolTableRecord
100
AcDbBlockTableRecord
  2
block 4
340
0
102
{BLKREFS
331
72
102
}
 70
     0
280
     1
281
     0
  0
BLOCK_RECORD
  5
87
330
1
100
AcDbSymbolTableRecord
100
AcDbBlockTableRecord
  2
block 5
340
0
102
{BLKREFS
331
88
102
}
 70
     0
280
     1
281
     0
  0
BLOCK_RECORD
  5
8F
330
1
100
AcDbSymbolTableRecord
100
AcDbBlockTableRecord
  2
block 6
340
0
102
{BLKREFS
331
90
102
}
 70
     0
280
     1
281
     0
  0
ENDTAB
  0
ENDSEC
  0
SECTION
  2
BLOCKS
  0
BLOCK
  5
20
330
1F
100
AcDbEntity
  8
0
100
AcDbBlockBegin
  2
*Model_Space
 70
     0
 10
0.0
 20
0.0
 30
0.0
  3
*Model_Space
  1

  0
ENDBLK
  5
21
330
1F
100
AcDbEntity
  8
0
100
AcDbBlockEnd
  0
BLOCK
  5
1C
330
1B
100
AcDbEntity
 67
     1
  8
0
100
AcDbBlockBegin
  2
*Paper_Space
 70
     0
 10
0.0
 20
0.0
 30
0.0
  3
*Paper_Space
  1

  0
ENDBLK
  5
1D
330
1B
100
AcDbEntity
 67
     1
  8
0
100
AcDbBlockEnd
  0
BLOCK
  5
24
330
23
100
AcDbEntity
  8
0
100
AcDbBlockBegin
  2
*Paper_Space0
 70
     0
 10
0.0
 20
0.0
 30
0.0
  3
*Paper_Space0
  1

  0
ENDBLK
  5
25
330
23
100
AcDbEntity
  8
0
100
AcDbBlockEnd
  0
BLOCK
  5
59
330
57
100
AcDbEntity
  8
0
100
AcDbBlockBegin
  2
block 2
 70
     0
 10
0.0
 20
0.0
 30
0.0
  3
block 2
  1

  0
SPLINE
  5
5B
330
57
100
AcDbEntity
  8
_U+30EC_U+30A4_U+30E4_U+30FC 1
370
     0
100
AcDbSpline
210
0.0
220
0.0
230
1.0
 70
    11
 71
     3
 72
    26
 73
    22
 74
     0
 42
0.0000000001
 43
0.0000000001
 12
1.0
 22
0.0
 32
0.0
 13
1.0
 23
0.0
 33
0.0
 40
0.0
 40
0.0
 40
0.0
 40
0.0
 40
1.0
 40
1.0
 40
1.0
 40
2.0
 40
2.0
 40
2.0
 40
3.0
 40
3.0
 40
3.0
 40
4.0
 40
4.0
 40
4.0
 40
5.0
 40
5.0
 40
5.0
 40
6.0
 40
6.0
 40
6.0
 40
7.0
 40
7.0
 40
7.0
 40
7.0
 10
107.7246907282772
 20
-132.1218234261709
 30
0.0
 10
107.7246907282772
 20
-132.1218234261709
 30
0.0
 10
107.7246907282772
 20
-132.3588459955561
 30
0.0
 10
107.7246907282772
 20
-132.3588459955561
 30
0.0
 10
107.4153211537017
 20
-132.3333522889653
 30
0.0
 10
106.8971787927202
 20
-132.1407714513398
 30
0.0
 10
106.3914387754855
 20
-131.7345946936288
 30
0.0
 10
106.3914387754855
 20
-131.7345946936288
 30
0.0
 10
106.3914387754855
 20
-132.5724419156416
 30
0.0
 10
106.3914387754855
 20
-132.5724419156416
 30
0.0
 10
106.3914387754855
 20
-132.5724419156416
 30
0.0
 10
106.1799099126911
 20
-132.5724419156416
 30
0.0
 10
106.1799099126911
 20
-132.5724419156416
 30
0.0
 10
106.1799099126911
 20
-132.5724419156416
 30
0.0
 10
106.1799099126911
 20
-131.4975721242437
 30
0.0
 10
106.1799099126911
 20
-131.4975721242437
 30
0.0
 10
106.1799099126911
 20
-131.4975721242437
 30
0.0
 10
106.3914387754855
 20
-131.4975721242437
 30
0.0
 10
106.3914387754855
 20
-131.4975721242437
 30
0.0
 10
106.6815158153435
 20
-131.8214110998572
 30
0.0
 10
107.2740722388065
 20
-132.0880614904155
 30
0.0
 10
107.7246907282772
 20
-132.1218234261709
 30
0.0
  0
HATCH
  5
5C
330
57
100
AcDbEntity
  8
_U+30EC_U+30A4_U+30E4_U+30FC 1
 62
   179
420
  2234388
100
AcDbHatch
 10
0.0
 20
0.0
 30
0.0
210
0.0
220
0.0
230
1.0
  2
SOLID
 70
     1
 71
     0
 91
        1
 92
        1
 93
        1
 72
     4
 94
        3
 73
     0
 74
     1
 95
       26
 96
       22
 40
0.0
 40
0.0
 40
0.0
 40
0.0
 40
1.0
 40
1.0
 40
1.0
 40
2.0
 40
2.0
 40
2.0
 40
3.0
 40
3.0
 40
3.0
 40
4.0
 40
4.0
 40
4.0
 40
5.0
 40
5.0
 40
5.0
 40
6.0
 40
6.0
 40
6.0
 40
7.0
 40
7.0
 40
7.0
 40
7.0
 10
107.7246907282772
 20
-132.1218234261709
 10
107.7246907282772
 20
-132.1218234261709
 10
107.7246907282772
 20
-132.3588459955561
 10
107.7246907282772
 20
-132.3588459955561
 10
107.4153211537017
 20
-132.3333522889653
 10
106.8971787927202
 20
-132.1407714513398
 10
106.3914387754855
 20
-131.7345946936288
 10
106.3914387754855
 20
-131.7345946936288
 10
106.3914387754855
 20
-132.5724419156416
 10
106.3914387754855
 20
-132.5724419156416
 10
106.3914387754855
 20
-132.5724419156416
 10
106.1799099126911
 20
-132.5724419156416
 10
106.1799099126911
 20
-132.5724419156416
 10
106.1799099126911
 20
-132.5724419156416
 10
106.1799099126911
 20
-131.4975721242437
 10
106.1799099126911
 20
-131.4975721242437
 10
106.1799099126911
 20
-131.4975721242437
 10
106.3914387754855
 20
-131.4975721242437
 10
106.3914387754855
 20
-131.4975721242437
 10
106.6815158153435
 20
-131.8214110998572
 10
107.2740722388065
 20
-132.0880614904155
 10
107.7246907282772
 20
-132.1218234261709
 97
        0
 97
        0
 75
     2
 76
     1
 98
        0
  0
ENDBLK
  5
5A
330
57
100
AcDbEntity
  8
0
100
AcDbBlockEnd
  0
BLOCK
  5
5F
330
5D
100
AcDbEntity
  8
0
100
AcDbBlockBegin
  2
block 3
 70
     0
 10
0.0
 20
0.0
 30
0.0
  3
block 3
  1

  0
SPLINE
  5
61
330
5D
100
AcDbEntity
  8
_U+30EC_U+30A4_U+30E4_U+30FC 1
370
     0
100
AcDbSpline
210
0.0
220
0.0
230
1.0
 70
    11
 71
     3
 72
    26
 73
    22
 74
     0
 42
0.0000000001
 43
0.0000000001
 12
1.0
 22
0.0
 32
0.0
 13
1.0
 23
0.0
 33
0.0
 40
0.0
 40
0.0
 40
0.0
 40
0.0
 40
1.0
 40
1.0
 40
1.0
 40
2.0
 40
2.0
 40
2.0
 40
3.0
 40
3.0
 40
3.0
 40
4.0
 40
4.0
 40
4.0
 40
5.0
 40
5.0
 40
5.0
 40
6.0
 40
6.0
 40
6.0
 40
7.0
 40
7.0
 40
7.0
 40
7.0
 10
107.7246907282772
 20
-126.6630696297926
 30
0.0
 10
107.7246907282772
 20
-126.6630696297926
 30
0.0
 10
106.6201931157061
 20
-126.6630696297926
 30
0.0
 10
106.6201931157061
 20
-126.6630696297926
 30
0.0
 10
106.6201931157061
 20
-126.6630696297926
 30
0.0
 10
106.6201931157061
 20
-126.9931097772795
 30
0.0
 10
106.6201931157061
 20
-126.9931097772795
 30
0.0
 10
106.6201931157061
 20
-126.9931097772795
 30
0.0
 10
106.4720540098403
 20
-126.9931097772795
 30
0.0
 10
106.4720540098403
 20
-126.9931097772795
 30
0.0
 10
106.4575846088023
 20
-126.6610025725014
 30
0.0
 10
106.2942870828014
 20
-126.6144937834506
 30
0.0
 10
106.1799099126911
 20
-126.5848659622774
 30
0.0
 10
106.1799099126911
 20
-126.5848659622774
 30
0.0
 10
106.1799099126911
 20
-126.4387939137028
 30
0.0
 10
106.1799099126911
 20
-126.4387939137028
 30
0.0
 10
106.1799099126911
 20
-126.4387939137028
 30
0.0
 10
107.7246907282772
 20
-126.4387939137028
 30
0.0
 10
107.7246907282772
 20
-126.4387939137028
 30
0.0
 10
107.7246907282772
 20
-126.4387939137028
 30
0.0
 10
107.7246907282772
 20
-126.6630696297926
 30
0.0
 10
107.7246907282772
 20
-126.6630696297926
 30
0.0
  0
HATCH
  5
62
330
5D
100
AcDbEntity
  8
_U+30EC_U+30A4_U+30E4_U+30FC 1
 62
   179
420
  2234388
100
AcDbHatch
 10
0.0
 20
0.0
 30
0.0
210
0.0
220
0.0
230
1.0
  2
SOLID
 70
     1
 71
     0
 91
        1
 92
        1
 93
        1
 72
     4
 94
        3
 73
     0
 74
     1
 95
       26
 96
       22
 40
0.0
 40
0.0
 40
0.0
 40
0.0
 40
1.0
 40
1.0
 40
1.0
 40
2.0
 40
2.0
 40
2.0
 40
3.0
 40
3.0
 40
3.0
 40
4.0
 40
4.0
 40
4.0
 40
5.0
 40
5.0
 40
5.0
 40
6.0
 40
6.0
 40
6.0
 40
7.0
 40
7.0
 40
7.0
 40
7.0
 10
107.7246907282772
 20
-126.6630696297926
 10
107.7246907282772
 20
-126.6630696297926
 10
106.6201931157061
 20
-126.6630696297926
 10
106.6201931157061
 20
-126.6630696297926
 10
106.6201931157061
 20
-126.6630696297926
 10
106.6201931157061
 20
-126.9931097772795
 10
106.6201931157061
 20
-126.9931097772795
 10
106.6201931157061
 20
-126.9931097772795
 10
106.4720540098403
 20
-126.9931097772795
 10
106.4720540098403
 20
-126.9931097772795
 10
106.4575846088023
 20
-126.6610025725014
 10
106.2942870828014
 20
-126.6144937834506
 10
106.1799099126911
 20
-126.5848659622774
 10
106.1799099126911
 20
-126.5848659622774
 10
106.1799099126911
 20
-126.4387939137028
 10
106.1799099126911
 20
-126.4387939137028
 10
106.1799099126911
 20
-126.4387939137028
 10
107.7246907282772
 20
-126.4387939137028
 10
107.7246907282772
 20
-126.4387939137028
 10
107.7246907282772
 20
-126.4387939137028
 10
107.7246907282772
 20
-126.6630696297926
 10
107.7246907282772
 20
-126.6630696297926
 97
        0
 97
        0
 75
     2
 76
     1
 98
        0
  0
ENDBLK
  5
60
330
5D
100
AcDbEntity
  8
0
100
AcDbBlockEnd
  0
BLOCK
  5
73
330
71
100
AcDbEntity
  8
0
100
AcDbBlockBegin
  2
block 4
 70
     0
 10
0.0
 20
0.0
 30
0.0
  3
block 4
  1

  0
SPLINE
  5
75
330
71
100
AcDbEntity
  8
_U+30EC_U+30A4_U+30E4_U+30FC 1
370
     0
100
AcDbSpline
210
0.0
220
0.0
230
1.0
 70
    11
 71
     3
 72
    26
 73
    22
 74
     0
 42
0.0000000001
 43
0.0000000001
 12
1.0
 22
0.0
 32
0.0
 13
1.0
 23
0.0
 33
0.0
 40
0.0
 40
0.0
 40
0.0
 40
0.0
 40
1.0
 40
1.0
 40
1.0
 40
2.0
 40
2.0
 40
2.0
 40
3.0
 40
3.0
 40
3.0
 40
4.0
 40
4.0
 40
4.0
 40
5.0
 40
5.0
 40
5.0
 40
6.0
 40
6.0
 40
6.0
 40
7.0
 40
7.0
 40
7.0
 40
7.0
 10
93.41238604435524
 20
-139.9359890058146
 30
0.0
 10
93.41238604435524
 20
-139.9359890058146
 30
0.0
 10
93.41238604435524
 20
-138.8318359027921
 30
0.0
 10
93.41238604435524
 20
-138.8318359027921
 30
0.0
 10
93.41238604435524
 20
-138.8318359027921
 30
0.0
 10
93.0823458968683
 20
-138.8318359027921
 30
0.0
 10
93.0823458968683
 20
-138.8318359027921
 30
0.0
 10
93.0823458968683
 20
-138.8318359027921
 30
0.0
 10
93.0823458968683
 20
-138.6836967969263
 30
0.0
 10
93.0823458968683
 20
-138.6836967969263
 30
0.0
 10
93.41445310164639
 20
-138.6688828863397
 30
0.0
 10
93.46130640024579
 20
-138.5059298698874
 30
0.0
 10
93.49093422141894
 20
-138.3915526997771
 30
0.0
 10
93.49093422141894
 20
-138.3915526997771
 30
0.0
 10
93.63700626999353
 20
-138.3915526997771
 30
0.0
 10
93.63700626999353
 20
-138.3915526997771
 30
0.0
 10
93.63700626999353
 20
-138.3915526997771
 30
0.0
 10
93.63700626999353
 20
-139.9359890058146
 30
0.0
 10
93.63700626999353
 20
-139.9359890058146
 30
0.0
 10
93.63700626999353
 20
-139.9359890058146
 30
0.0
 10
93.41238604435524
 20
-139.9359890058146
 30
0.0
 10
93.41238604435524
 20
-139.9359890058146
 30
0.0
  0
HATCH
  5
76
330
71
100
AcDbEntity
  8
_U+30EC_U+30A4_U+30E4_U+30FC 1
 62
   179
420
  2234388
100
AcDbHatch
 10
0.0
 20
0.0
 30
0.0
210
0.0
220
0.0
230
1.0
  2
SOLID
 70
     1
 71
     0
 91
        1
 92
        1
 93
        1
 72
     4
 94
        3
 73
     0
 74
     1
 95
       26
 96
       22
 40
0.0
 40
0.0
 40
0.0
 40
0.0
 40
1.0
 40
1.0
 40
1.0
 40
2.0
 40
2.0
 40
2.0
 40
3.0
 40
3.0
 40
3.0
 40
4.0
 40
4.0
 40
4.0
 40
5.0
 40
5.0
 40
5.0
 40
6.0
 40
6.0
 40
6.0
 40
7.0
 40
7.0
 40
7.0
 40
7.0
 10
93.41238604435524
 20
-139.9359890058146
 10
93.41238604435524
 20
-139.9359890058146
 10
93.41238604435524
 20
-138.8318359027921
 10
93.41238604435524
 20
-138.8318359027921
 10
93.41238604435524
 20
-138.8318359027921
 10
93.0823458968683
 20
-138.8318359027921
 10
93.0823458968683
 20
-138.8318359027921
 10
93.0823458968683
 20
-138.8318359027921
 10
93.0823458968683
 20
-138.6836967969263
 10
93.0823458968683
 20
-138.6836967969263
 10
93.41445310164639
 20
-138.6688828863397
 10
93.46130640024579
 20
-138.5059298698874
 10
93.49093422141894
 20
-138.3915526997771
 10
93.49093422141894
 20
-138.3915526997771
 10
93.63700626999353
 20
-138.3915526997771
 10
93.63700626999353
 20
-138.3915526997771
 10
93.63700626999353
 20
-138.3915526997771
 10
93.63700626999353
 20
-139.9359890058146
 10
93.63700626999353
 20
-139.9359890058146
 10
93.63700626999353
 20
-139.9359890058146
 10
93.41238604435524
 20
-139.9359890058146
 10
93.41238604435524
 20
-139.9359890058146
 97
        0
 97
        0
 75
     2
 76
     1
 98
        0
  0
SPLINE
  5
77
330
71
100
AcDbEntity
  8
_U+30EC_U+30A4_U+30E4_U+30FC 1
370
     0
100
AcDbSpline
210
0.0
220
0.0
230
1.0
 70
    11
 71
     3
 72
    26
 73
    22
 74
     0
 42
0.0000000001
 43
0.0000000001
 12
1.0
 22
0.0
 32
0.0
 13
1.0
 23
0.0
 33
0.0
 40
0.0
 40
0.0
 40
0.0
 40
0.0
 40
1.0
 40
1.0
 40
1.0
 40
2.0
 40
2.0
 40
2.0
 40
3.0
 40
3.0
 40
3.0
 40
4.0
 40
4.0
 40
4.0
 40
5.0
 40
5.0
 40
5.0
 40
6.0
 40
6.0
 40
6.0
 40
7.0
 40
7.0
 40
7.0
 40
7.0
 10
94.54926755448768
 20
-139.9359890058146
 30
0.0
 10
94.54926755448768
 20
-139.9359890058146
 30
0.0
 10
94.3122449851025
 20
-139.9359890058146
 30
0.0
 10
94.3122449851025
 20
-139.9359890058146
 30
0.0
 10
94.33773869169335
 20
-139.6269639407877
 30
0.0
 10
94.52997501977029
 20
-139.1088215798061
 30
0.0
 10
94.93649628702977
 20
-138.6030815625714
 30
0.0
 10
94.93649628702977
 20
-138.6030815625714
 30
0.0
 10
94.09864906501701
 20
-138.6030815625714
 30
0.0
 10
94.09864906501701
 20
-138.6030815625714
 30
0.0
 10
94.09864906501701
 20
-138.6030815625714
 30
0.0
 10
94.09864906501701
 20
-138.3915526997771
 30
0.0
 10
94.09864906501701
 20
-138.3915526997771
 30
0.0
 10
94.09864906501701
 20
-138.3915526997771
 30
0.0
 10
95.17351885641496
 20
-138.3915526997771
 30
0.0
 10
95.17351885641496
 20
-138.3915526997771
 30
0.0
 10
95.17351885641496
 20
-138.3915526997771
 30
0.0
 10
95.17351885641496
 20
-138.6030815625714
 30
0.0
 10
95.17351885641496
 20
-138.6030815625714
 30
0.0
 10
94.84967988080147
 20
-138.8931586024295
 30
0.0
 10
94.58302949024313
 20
-139.4853705163439
 30
0.0
 10
94.54926755448768
 20
-139.9359890058146
 30
0.0
  0
HATCH
  5
78
330
71
100
AcDbEntity
  8
_U+30EC_U+30A4_U+30E4_U+30FC 1
 62
   179
420
  2234388
100
AcDbHatch
 10
0.0
 20
0.0
 30
0.0
210
0.0
220
0.0
230
1.0
  2
SOLID
 70
     1
 71
     0
 91
        1
 92
        1
 93
        1
 72
     4
 94
        3
 73
     0
 74
     1
 95
       26
 96
       22
 40
0.0
 40
0.0
 40
0.0
 40
0.0
 40
1.0
 40
1.0
 40
1.0
 40
2.0
 40
2.0
 40
2.0
 40
3.0
 40
3.0
 40
3.0
 40
4.0
 40
4.0
 40
4.0
 40
5.0
 40
5.0
 40
5.0
 40
6.0
 40
6.0
 40
6.0
 40
7.0
 40
7.0
 40
7.0
 40
7.0
 10
94.54926755448768
 20
-139.9359890058146
 10
94.54926755448768
 20
-139.9359890058146
 10
94.3122449851025
 20
-139.9359890058146
 10
94.3122449851025
 20
-139.9359890058146
 10
94.33773869169335
 20
-139.6269639407877
 10
94.52997501977029
 20
-139.1088215798061
 10
94.93649628702977
 20
-138.6030815625714
 10
94.93649628702977
 20
-138.6030815625714
 10
94.09864906501701
 20
-138.6030815625714
 10
94.09864906501701
 20
-138.6030815625714
 10
94.09864906501701
 20
-138.6030815625714
 10
94.09864906501701
 20
-138.3915526997771
 10
94.09864906501701
 20
-138.3915526997771
 10
94.09864906501701
 20
-138.3915526997771
 10
95.17351885641496
 20
-138.3915526997771
 10
95.17351885641496
 20
-138.3915526997771
 10
95.17351885641496
 20
-138.3915526997771
 10
95.17351885641496
 20
-138.6030815625714
 10
95.17351885641496
 20
-138.6030815625714
 10
94.84967988080147
 20
-138.8931586024295
 10
94.58302949024313
 20
-139.4853705163439
 10
94.54926755448768
 20
-139.9359890058146
 97
        0
 97
        0
 75
     2
 76
     1
 98
        0
  0
ENDBLK
  5
74
330
71
100
AcDbEntity
  8
0
100
AcDbBlockEnd
  0
BLOCK
  5
89
330
87
100
AcDbEntity
  8
0
100
AcDbBlockBegin
  2
block 5
 70
     0
 10
0.0
 20
0.0
 30
0.0
  3
block 5
  1

  0
SPLINE
  5
8B
330
87
100
AcDbEntity
  8
_U+30EC_U+30A4_U+30E4_U+30FC 1
370
     0
100
AcDbSpline
210
0.0
220
0.0
230
1.0
 70
    11
 71
     3
 72
    29
 73
    25
 74
     0
 42
0.0000000001
 43
0.0000000001
 12
1.0
 22
0.0
 32
0.0
 13
1.0
 23
0.0
 33
0.0
 40
0.0
 40
0.0
 40
0.0
 40
0.0
 40
1.0
 40
1.0
 40
1.0
 40
2.0
 40
2.0
 40
2.0
 40
3.0
 40
3.0
 40
3.0
 40
4.0
 40
4.0
 40
4.0
 40
5.0
 40
5.0
 40
5.0
 40
6.0
 40
6.0
 40
6.0
 40
7.0
 40
7.0
 40
7.0
 40
8.0
 40
8.0
 40
8.0
 40
8.0
 10
93.30145396973019
 20
-117.8164089332195
 30
0.0
 10
93.03480357917186
 20
-117.8164089332195
 30
0.0
 10
92.78124455145748
 20
-117.6789496233581
 30
0.0
 10
92.78124455145748
 20
-117.3299614507022
 30
0.0
 10
92.78124455145748
 20
-117.0739908561482
 30
0.0
 10
92.92318248544976
 20
-116.9789062207553
 30
0.0
 10
93.02860240729841
 20
-116.9175835211178
 30
0.0
 10
92.90388995073236
 20
-116.8583278787715
 30
0.0
 10
92.82809785005686
 20
-116.7439507086612
 30
0.0
 10
92.82809785005686
 20
-116.5830647495001
 30
0.0
 10
92.82809785005686
 20
-116.3081461297771
 30
0.0
 10
93.02653535000726
 20
-116.1727538772068
 30
0.0
 10
93.30145396973019
 20
-116.1727538772068
 30
0.0
 10
93.58532983771478
 20
-116.1727538772068
 30
0.0
 10
93.77549910850057
 20
-116.3167588684903
 30
0.0
 10
93.77549910850057
 20
-116.5830647495001
 30
0.0
 10
93.77549910850057
 20
-116.7439507086612
 30
0.0
 10
93.69695093143687
 20
-116.8583278787715
 30
0.0
 10
93.57223847487083
 20
-116.9175835211178
 30
0.0
 10
93.66112193839028
 20
-116.968226424751
 30
0.0
 10
93.82028534980883
 20
-117.0633110601439
 30
0.0
 10
93.82028534980883
 20
-117.3258273361199
 30
0.0
 10
93.82028534980883
 20
-117.7003092153666
 30
0.0
 10
93.54054359640654
 20
-117.8164089332195
 30
0.0
 10
93.30145396973019
 20
-117.8164089332195
 30
0.0
  0
SPLINE
  5
8C
330
87
100
AcDbEntity
  8
_U+30EC_U+30A4_U+30E4_U+30FC 1
370
     0
100
AcDbSpline
210
0.0
220
0.0
230
1.0
 70
    11
 71
     3
 72
    17
 73
    13
 74
     0
 42
0.0000000001
 43
0.0000000001
 12
1.0
 22
0.0
 32
0.0
 13
1.0
 23
0.0
 33
0.0
 40
0.0
 40
0.0
 40
0.0
 40
0.0
 40
1.0
 40
1.0
 40
1.0
 40
2.0
 40
2.0
 40
2.0
 40
3.0
 40
3.0
 40
3.0
 40
4.0
 40
4.0
 40
4.0
 40
4.0
 10
93.30145396973019
 20
-117.0254150098062
 30
0.0
 10
93.1581379975438
 20
-117.0254150098062
 30
0.0
 10
93.00517575799871
 20
-117.1122314160344
 30
0.0
 10
93.00517575799871
 20
-117.3151475401157
 30
0.0
 10
93.00517575799871
 20
-117.5204752310366
 30
0.0
 10
93.13264429095295
 20
-117.6217610383029
 30
0.0
 10
93.30145396973019
 20
-117.6217610383029
 30
0.0
 10
93.48748912593369
 20
-117.6217610383029
 30
0.0
 10
93.59773218146168
 20
-117.499115639028
 30
0.0
 10
93.59773218146168
 20
-117.3213487119891
 30
0.0
 10
93.59773218146168
 20
-117.099484562739
 30
0.0
 10
93.43512367455789
 20
-117.0254150098062
 30
0.0
 10
93.30145396973019
 20
-117.0254150098062
 30
0.0
  0
SPLINE
  5
8D
330
87
100
AcDbEntity
  8
_U+30EC_U+30A4_U+30E4_U+30FC 1
370
     0
100
AcDbSpline
210
0.0
220
0.0
230
1.0
 70
    11
 71
     3
 72
    17
 73
    13
 74
     0
 42
0.0000000001
 43
0.0000000001
 12
1.0
 22
0.0
 32
0.0
 13
1.0
 23
0.0
 33
0.0
 40
0.0
 40
0.0
 40
0.0
 40
0.0
 40
1.0
 40
1.0
 40
1.0
 40
2.0
 40
2.0
 40
2.0
 40
3.0
 40
3.0
 40
3.0
 40
4.0
 40
4.0
 40
4.0
 40
4.0
 10
93.30145396973019
 20
-116.3653347148323
 30
0.0
 10
93.13677840553525
 20
-116.3653347148323
 30
0.0
 10
93.0520290565981
 20
-116.4604193502252
 30
0.0
 10
93.0520290565981
 20
-116.5958116027955
 30
0.0
 10
93.0520290565981
 20
-116.7184570020704
 30
0.0
 10
93.1236870426913
 20
-116.836968286763
 30
0.0
 10
93.30145396973019
 20
-116.836968286763
 30
0.0
 10
93.47922089676909
 20
-116.836968286763
 30
0.0
 10
93.55156790195933
 20
-116.7184570020704
 30
0.0
 10
93.55156790195933
 20
-116.5958116027955
 30
0.0
 10
93.55156790195933
 20
-116.4604193502252
 30
0.0
 10
93.46475149573104
 20
-116.3653347148323
 30
0.0
 10
93.30145396973019
 20
-116.3653347148323
 30
0.0
  0
HATCH
  5
8E
330
87
100
AcDbEntity
  8
_U+30EC_U+30A4_U+30E4_U+30FC 1
 62
   179
420
  2234388
100
AcDbHatch
 10
0.0
 20
0.0
 30
0.0
210
0.0
220
0.0
230
1.0
  2
SOLID
 70
     1
 71
     0
 91
        3
 92
        1
 93
        1
 72
     4
 94
        3
 73
     0
 74
     1
 95
       29
 96
       25
 40
0.0
 40
0.0
 40
0.0
 40
0.0
 40
1.0
 40
1.0
 40
1.0
 40
2.0
 40
2.0
 40
2.0
 40
3.0
 40
3.0
 40
3.0
 40
4.0
 40
4.0
 40
4.0
 40
5.0
 40
5.0
 40
5.0
 40
6.0
 40
6.0
 40
6.0
 40
7.0
 40
7.0
 40
7.0
 40
8.0
 40
8.0
 40
8.0
 40
8.0
 10
93.30145396973019
 20
-117.8164089332195
 10
93.03480357917186
 20
-117.8164089332195
 10
92.78124455145748
 20
-117.6789496233581
 10
92.78124455145748
 20
-117.3299614507022
 10
92.78124455145748
 20
-117.0739908561482
 10
92.92318248544976
 20
-116.9789062207553
 10
93.02860240729841
 20
-116.9175835211178
 10
92.90388995073236
 20
-116.8583278787715
 10
92.82809785005686
 20
-116.7439507086612
 10
92.82809785005686
 20
-116.5830647495001
 10
92.82809785005686
 20
-116.3081461297771
 10
93.02653535000726
 20
-116.1727538772068
 10
93.30145396973019
 20
-116.1727538772068
 10
93.58532983771478
 20
-116.1727538772068
 10
93.77549910850057
 20
-116.3167588684903
 10
93.77549910850057
 20
-116.5830647495001
 10
93.77549910850057
 20
-116.7439507086612
 10
93.69695093143687
 20
-116.8583278787715
 10
93.57223847487083
 20
-116.9175835211178
 10
93.66112193839028
 20
-116.968226424751
 10
93.82028534980883
 20
-117.0633110601439
 10
93.82028534980883
 20
-117.3258273361199
 10
93.82028534980883
 20
-117.7003092153666
 10
93.54054359640654
 20
-117.8164089332195
 10
93.30145396973019
 20
-117.8164089332195
 97
        0
 97
        0
 92
        1
 93
        1
 72
     4
 94
        3
 73
     0
 74
     1
 95
       17
 96
       13
 40
0.0
 40
0.0
 40
0.0
 40
0.0
 40
1.0
 40
1.0
 40
1.0
 40
2.0
 40
2.0
 40
2.0
 40
3.0
 40
3.0
 40
3.0
 40
4.0
 40
4.0
 40
4.0
 40
4.0
 10
93.30145396973019
 20
-117.0254150098062
 10
93.1581379975438
 20
-117.0254150098062
 10
93.00517575799871
 20
-117.1122314160344
 10
93.00517575799871
 20
-117.3151475401157
 10
93.00517575799871
 20
-117.5204752310366
 10
93.13264429095295
 20
-117.6217610383029
 10
93.30145396973019
 20
-117.6217610383029
 10
93.48748912593369
 20
-117.6217610383029
 10
93.59773218146168
 20
-117.499115639028
 10
93.59773218146168
 20
-117.3213487119891
 10
93.59773218146168
 20
-117.099484562739
 10
93.43512367455789
 20
-117.0254150098062
 10
93.30145396973019
 20
-117.0254150098062
 97
        0
 97
        0
 92
        1
 93
        1
 72
     4
 94
        3
 73
     0
 74
     1
 95
       17
 96
       13
 40
0.0
 40
0.0
 40
0.0
 40
0.0
 40
1.0
 40
1.0
 40
1.0
 40
2.0
 40
2.0
 40
2.0
 40
3.0
 40
3.0
 40
3.0
 40
4.0
 40
4.0
 40
4.0
 40
4.0
 10
93.30145396973019
 20
-116.3653347148323
 10
93.13677840553525
 20
-116.3653347148323
 10
93.0520290565981
 20
-116.4604193502252
 10
93.0520290565981
 20
-116.5958116027955
 10
93.0520290565981
 20
-116.7184570020704
 10
93.1236870426913
 20
-116.836968286763
 10
93.30145396973019
 20
-116.836968286763
 10
93.47922089676909
 20
-116.836968286763
 10
93.55156790195933
 20
-116.7184570020704
 10
93.55156790195933
 20
-116.5958116027955
 10
93.55156790195933
 20
-116.4604193502252
 10
93.46475149573104
 20
-116.3653347148323
 10
93.30145396973019
 20
-116.3653347148323
 97
        0
 97
        0
 75
     2
 76
     1
 98
        0
  0
ENDBLK
  5
8A
330
87
100
AcDbEntity
  8
0
100
AcDbBlockEnd
  0
BLOCK
  5
91
330
8F
100
AcDbEntity
  8
0
100
AcDbBlockBegin
  2
block 6
 70
     0
 10
0.0
 20
0.0
 30
0.0
  3
block 6
  1

  0
SPLINE
  5
93
330
8F
100
AcDbEntity
  8
_U+30EC_U+30A4_U+30E4_U+30FC 1
370
     0
100
AcDbSpline
210
0.0
220
0.0
230
1.0
 70
    11
 71
     3
 72
    26
 73
    22
 74
     0
 42
0.0000000001
 43
0.0000000001
 12
1.0
 22
0.0
 32
0.0
 13
1.0
 23
0.0
 33
0.0
 40
0.0
 40
0.0
 40
0.0
 40
0.0
 40
1.0
 40
1.0
 40
1.0
 40
2.0
 40
2.0
 40
2.0
 40
3.0
 40
3.0
 40
3.0
 40
4.0
 40
4.0
 40
4.0
 40
5.0
 40
5.0
 40
5.0
 40
6.0
 40
6.0
 40
6.0
 40
7.0
 40
7.0
 40
7.0
 40
7.0
 10
90.1996622495855
 20
-122.2826307202974
 30
0.0
 10
90.1996622495855
 20
-122.2826307202974
 30
0.0
 10
90.4761311622768
 20
-121.2136175912244
 30
0.0
 10
90.4761311622768
 20
-121.2136175912244
 30
0.0
 10
90.4761311622768
 20
-121.2136175912244
 30
0.0
 10
90.15659855601989
 20
-121.1312798091269
 30
0.0
 10
90.15659855601989
 20
-121.1312798091269
 30
0.0
 10
90.15659855601989
 20
-121.1312798091269
 30
0.0
 10
90.19380558726058
 20
-120.987619327392
 30
0.0
 10
90.19380558726058
 20
-120.987619327392
 30
0.0
 10
90.51902260106816
 20
-121.056521237097
 30
0.0
 10
90.60480547865089
 20
-120.9104491885224
 30
0.0
 10
90.6621663184803
 20
-120.8070963239649
 30
0.0
 10
90.6621663184803
 20
-120.8070963239649
 30
0.0
 10
90.8035874881498
 20
-120.8436143361085
 30
0.0
 10
90.8035874881498
 20
-120.8436143361085
 30
0.0
 10
90.8035874881498
 20
-120.8436143361085
 30
0.0
 10
90.41687551993051
 20
-122.338785776707
 30
0.0
 10
90.41687551993051
 20
-122.338785776707
 30
0.0
 10
90.41687551993051
 20
-122.338785776707
 30
0.0
 10
90.1996622495855
 20
-122.2826307202974
 30
0.0
 10
90.1996622495855
 20
-122.2826307202974
 30
0.0
  0
HATCH
  5
94
330
8F
100
AcDbEntity
  8
_U+30EC_U+30A4_U+30E4_U+30FC 1
 62
   179
420
  2234388
100
AcDbHatch
 10
0.0
 20
0.0
 30
0.0
210
0.0
220
0.0
230
1.0
  2
SOLID
 70
     1
 71
     0
 91
        1
 92
        1
 93
        1
 72
     4
 94
        3
 73
     0
 74
     1
 95
       26
 96
       22
 40
0.0
 40
0.0
 40
0.0
 40
0.0
 40
1.0
 40
1.0
 40
1.0
 40
2.0
 40
2.0
 40
2.0
 40
3.0
 40
3.0
 40
3.0
 40
4.0
 40
4.0
 40
4.0
 40
5.0
 40
5.0
 40
5.0
 40
6.0
 40
6.0
 40
6.0
 40
7.0
 40
7.0
 40
7.0
 40
7.0
 10
90.1996622495855
 20
-122.2826307202974
 10
90.1996622495855
 20
-122.2826307202974
 10
90.4761311622768
 20
-121.2136175912244
 10
90.4761311622768
 20
-121.2136175912244
 10
90.4761311622768
 20
-121.2136175912244
 10
90.15659855601989
 20
-121.1312798091269
 10
90.15659855601989
 20
-121.1312798091269
 10
90.15659855601989
 20
-121.1312798091269
 10
90.19380558726058
 20
-120.987619327392
 10
90.19380558726058
 20
-120.987619327392
 10
90.51902260106816
 20
-121.056521237097
 10
90.60480547865089
 20
-120.9104491885224
 10
90.6621663184803
 20
-120.8070963239649
 10
90.6621663184803
 20
-120.8070963239649
 10
90.8035874881498
 20
-120.8436143361085
 10
90.8035874881498
 20
-120.8436143361085
 10
90.8035874881498
 20
-120.8436143361085
 10
90.41687551993051
 20
-122.338785776707
 10
90.41687551993051
 20
-122.338785776707
 10
90.41687551993051
 20
-122.338785776707
 10
90.1996622495855
 20
-122.2826307202974
 10
90.1996622495855
 20
-122.2826307202974
 97
        0
 97
        0
 75
     2
 76
     1
 98
        0
  0
SPLINE
  5
95
330
8F
100
AcDbEntity
  8
_U+30EC_U+30A4_U+30E4_U+30FC 1
370
     0
100
AcDbSpline
210
0.0
220
0.0
230
1.0
 70
    11
 71
     3
 72
    62
 73
    58
 74
     0
 42
0.0000000001
 43
0.0000000001
 12
1.0
 22
0.0
 32
0.0
 13
1.0
 23
0.0
 33
0.0
 40
0.0
 40
0.0
 40
0.0
 40
0.0
 40
1.0
 40
1.0
 40
1.0
 40
2.0
 40
2.0
 40
2.0
 40
3.0
 40
3.0
 40
3.0
 40
4.0
 40
4.0
 40
4.0
 40
5.0
 40
5.0
 40
5.0
 40
6.0
 40
6.0
 40
6.0
 40
7.0
 40
7.0
 40
7.0
 40
8.0
 40
8.0
 40
8.0
 40
9.0
 40
9.0
 40
9.0
 40
10.0
 40
10.0
 40
10.0
 40
11.0
 40
11.0
 40
11.0
 40
12.0
 40
12.0
 40
12.0
 40
13.0
 40
13.0
 40
13.0
 40
14.0
 40
14.0
 40
14.0
 40
15.0
 40
15.0
 40
15.0
 40
16.0
 40
16.0
 40
16.0
 40
17.0
 40
17.0
 40
17.0
 40
18.0
 40
18.0
 40
18.0
 40
19.0
 40
19.0
 40
19.0
 40
19.0
 10
91.36548256179405
 20
-122.6364420266326
 30
0.0
 10
91.27315400278935
 20
-122.6126708677843
 30
0.0
 10
91.06748180231993
 20
-122.5379122957544
 30
0.0
 10
90.99306773983854
 20
-122.3263834329601
 30
0.0
 10
90.94931502717587
 20
-122.1989149000058
 30
0.0
 10
90.9703301096359
 20
-122.1017632073218
 30
0.0
 10
90.98738333228788
 20
-122.0187364061273
 30
0.0
 10
90.98738333228788
 20
-122.0187364061273
 30
0.0
 10
91.20063474282485
 20
-122.0738579338913
 30
0.0
 10
91.20063474282485
 20
-122.0738579338913
 30
0.0
 10
91.18392602972138
 20
-122.1462049390815
 30
0.0
 10
91.13535018337936
 20
-122.3759928079477
 30
0.0
 10
91.41009654832804
 20
-122.4469617749438
 30
0.0
 10
91.54307723405869
 20
-122.4814127297963
 30
0.0
 10
91.70775279825362
 20
-122.4521294181717
 30
0.0
 10
91.76494138330877
 20
-122.2309542880187
 30
0.0
 10
91.79456920448192
 20
-122.118299665651
 30
0.0
 10
91.76976451698812
 20
-122.0618000996929
 30
0.0
 10
91.74702688678546
 20
-122.0228705207096
 30
0.0
 10
91.69362790676409
 20
-121.9329535285445
 30
0.0
 10
91.58441837988168
 20
-121.891267873173
 30
0.0
 10
91.53136390940882
 20
-121.877487491232
 30
0.0
 10
91.51207137469143
 20
-121.8726643575527
 30
0.0
 10
91.47693140074188
 20
-121.8657741665822
 30
0.0
 10
91.44937063685988
 20
-121.8626735806454
 30
0.0
 10
91.44937063685988
 20
-121.8626735806454
 30
0.0
 10
91.49829099275043
 20
-121.6745713671508
 30
0.0
 10
91.49829099275043
 20
-121.6745713671508
 30
0.0
 10
91.53343096669998
 20
-121.690418806383
 30
0.0
 10
91.5737385838774
 20
-121.7028211501299
 30
0.0
 10
91.58028426529938
 20
-121.7045436978725
 30
0.0
 10
91.64367402222797
 20
-121.7210801562017
 30
0.0
 10
91.84142250308132
 20
-121.7500189582778
 30
0.0
 10
91.90067814542762
 20
-121.5209201085087
 30
0.0
 10
91.94477536763881
 20
-121.3486653342462
 30
0.0
 10
91.83177623572261
 20
-121.2625379471149
 30
0.0
 10
91.72566729477693
 20
-121.2349771832329
 30
0.0
 10
91.46935219067433
 20
-121.1688313499161
 30
0.0
 10
91.402861847809
 20
-121.3920735373603
 30
0.0
 10
91.38115774625194
 20
-121.4602864279683
 30
0.0
 10
91.38115774625194
 20
-121.4602864279683
 30
0.0
 10
91.18409828449565
 20
-121.4096435243351
 30
0.0
 10
91.18409828449565
 20
-121.4096435243351
 30
0.0
 10
91.22388913735028
 20
-121.290787730094
 30
0.0
 10
91.34481198888255
 20
-120.933186818725
 30
0.0
 10
91.78698999441437
 20
-121.0475639888353
 30
0.0
 10
92.00403100998511
 20
-121.1040635547934
 30
0.0
 10
92.20591360542075
 20
-121.2873426346087
 30
0.0
 10
92.13149954293935
 20
-121.5739745789815
 30
0.0
 10
92.08464624433995
 20
-121.7544975824086
 30
0.0
 10
91.9723361315208
 20
-121.8103081292697
 30
0.0
 10
91.86071503779871
 20
-121.8447590841221
 30
0.0
 10
91.91308048917452
 20
-121.8867892490422
 30
0.0
 10
92.0687988051078
 20
-122.0101236674141
 30
0.0
 10
91.99955238585429
 20
-122.2784966057151
 30
0.0
 10
91.91514754646566
 20
-122.6061251863624
 30
0.0
 10
91.63333873577223
 20
-122.7060329554346
 30
0.0
 10
91.36548256179405
 20
-122.6364420266326
 30
0.0
  0
HATCH
  5
96
330
8F
100
AcDbEntity
  8
_U+30EC_U+30A4_U+30E4_U+30FC 1
 62
   179
420
  2234388
100
AcDbHatch
 10
0.0
 20
0.0
 30
0.0
210
0.0
220
0.0
230
1.0
  2
SOLID
 70
     1
 71
     0
 91
        1
 92
        1
 93
        1
 72
     4
 94
        3
 73
     0
 74
     1
 95
       62
 96
       58
 40
0.0
 40
0.0
 40
0.0
 40
0.0
 40
1.0
 40
1.0
 40
1.0
 40
2.0
 40
2.0
 40
2.0
 40
3.0
 40
3.0
 40
3.0
 40
4.0
 40
4.0
 40
4.0
 40
5.0
 40
5.0
 40
5.0
 40
6.0
 40
6.0
 40
6.0
 40
7.0
 40
7.0
 40
7.0
 40
8.0
 40
8.0
 40
8.0
 40
9.0
 40
9.0
 40
9.0
 40
10.0
 40
10.0
 40
10.0
 40
11.0
 40
11.0
 40
11.0
 40
12.0
 40
12.0
 40
12.0
 40
13.0
 40
13.0
 40
13.0
 40
14.0
 40
14.0
 40
14.0
 40
15.0
 40
15.0
 40
15.0
 40
16.0
 40
16.0
 40
16.0
 40
17.0
 40
17.0
 40
17.0
 40
18.0
 40
18.0
 40
18.0
 40
19.0
 40
19.0
 40
19.0
 40
19.0
 10
91.36548256179405
 20
-122.6364420266326
 10
91.27315400278935
 20
-122.6126708677843
 10
91.06748180231993
 20
-122.5379122957544
 10
90.99306773983854
 20
-122.3263834329601
 10
90.94931502717587
 20
-122.1989149000058
 10
90.9703301096359
 20
-122.1017632073218
 10
90.98738333228788
 20
-122.0187364061273
 10
90.98738333228788
 20
-122.0187364061273
 10
91.20063474282485
 20
-122.0738579338913
 10
91.20063474282485
 20
-122.0738579338913
 10
91.18392602972138
 20
-122.1462049390815
 10
91.13535018337936
 20
-122.3759928079477
 10
91.41009654832804
 20
-122.4469617749438
 10
91.54307723405869
 20
-122.4814127297963
 10
91.70775279825362
 20
-122.4521294181717
 10
91.76494138330877
 20
-122.2309542880187
 10
91.79456920448192
 20
-122.118299665651
 10
91.76976451698812
 20
-122.0618000996929
 10
91.74702688678546
 20
-122.0228705207096
 10
91.69362790676409
 20
-121.9329535285445
 10
91.58441837988168
 20
-121.891267873173
 10
91.53136390940882
 20
-121.877487491232
 10
91.51207137469143
 20
-121.8726643575527
 10
91.47693140074188
 20
-121.8657741665822
 10
91.44937063685988
 20
-121.8626735806454
 10
91.44937063685988
 20
-121.8626735806454
 10
91.49829099275043
 20
-121.6745713671508
 10
91.49829099275043
 20
-121.6745713671508
 10
91.53343096669998
 20
-121.690418806383
 10
91.5737385838774
 20
-121.7028211501299
 10
91.58028426529938
 20
-121.7045436978725
 10
91.64367402222797
 20
-121.7210801562017
 10
91.84142250308132
 20
-121.7500189582778
 10
91.90067814542762
 20
-121.5209201085087
 10
91.94477536763881
 20
-121.3486653342462
 10
91.83177623572261
 20
-121.2625379471149
 10
91.72566729477693
 20
-121.2349771832329
 10
91.46935219067433
 20
-121.1688313499161
 10
91.402861847809
 20
-121.3920735373603
 10
91.38115774625194
 20
-121.4602864279683
 10
91.38115774625194
 20
-121.4602864279683
 10
91.18409828449565
 20
-121.4096435243351
 10
91.18409828449565
 20
-121.4096435243351
 10
91.22388913735028
 20
-121.290787730094
 10
91.34481198888255
 20
-120.933186818725
 10
91.78698999441437
 20
-121.0475639888353
 10
92.00403100998511
 20
-121.1040635547934
 10
92.20591360542075
 20
-121.2873426346087
 10
92.13149954293935
 20
-121.5739745789815
 10
92.08464624433995
 20
-121.7544975824086
 10
91.9723361315208
 20
-121.8103081292697
 10
91.86071503779871
 20
-121.8447590841221
 10
91.91308048917452
 20
-121.8867892490422
 10
92.0687988051078
 20
-122.0101236674141
 10
91.99955238585429
 20
-122.2784966057151
 10
91.91514754646566
 20
-122.6061251863624
 10
91.63333873577223
 20
-122.7060329554346
 10
91.36548256179405
 20
-122.6364420266326
 97
        0
 97
        0
 75
     2
 76
     1
 98
        0
  0
SPLINE
  5
97
330
8F
100
AcDbEntity
  8
_U+30EC_U+30A4_U+30E4_U+30FC 1
370
     0
100
AcDbSpline
210
0.0
220
0.0
230
1.0
 70
    11
 71
     3
 72
    53
 73
    49
 74
     0
 42
0.0000000001
 43
0.0000000001
 12
1.0
 22
0.0
 32
0.0
 13
1.0
 23
0.0
 33
0.0
 40
0.0
 40
0.0
 40
0.0
 40
0.0
 40
1.0
 40
1.0
 40
1.0
 40
2.0
 40
2.0
 40
2.0
 40
3.0
 40
3.0
 40
3.0
 40
4.0
 40
4.0
 40
4.0
 40
5.0
 40
5.0
 40
5.0
 40
6.0
 40
6.0
 40
6.0
 40
7.0
 40
7.0
 40
7.0
 40
8.0
 40
8.0
 40
8.0
 40
9.0
 40
9.0
 40
9.0
 40
10.0
 40
10.0
 40
10.0
 40
11.0
 40
11.0
 40
11.0
 40
12.0
 40
12.0
 40
12.0
 40
13.0
 40
13.0
 40
13.0
 40
14.0
 40
14.0
 40
14.0
 40
15.0
 40
15.0
 40
15.0
 40
16.0
 40
16.0
 40
16.0
 40
16.0
 10
92.49461260708469
 20
-122.9285861237817
 30
0.0
 10
92.41882050640919
 20
-122.9089490795158
 30
0.0
 10
92.32442489011335
 20
-122.8672634241443
 30
0.0
 10
92.24208710801587
 20
-122.780447017916
 30
0.0
 10
92.1018717217662
 20
-122.6305853643076
 30
0.0
 10
92.1142740655131
 20
-122.4979491881255
 30
0.0
 10
92.1225422946777
 20
-122.3887396612431
 30
0.0
 10
92.1225422946777
 20
-122.3887396612431
 30
0.0
 10
92.33751625295729
 20
-122.4445502081041
 30
0.0
 10
92.33751625295729
 20
-122.4445502081041
 30
0.0
 10
92.34096134844255
 20
-122.6509114276706
 30
0.0
 10
92.45671655674694
 20
-122.7112005986625
 30
0.0
 10
92.54697805846048
 20
-122.7346272479622
 30
0.0
 10
92.68202580148228
 20
-122.7694227123632
 30
0.0
 10
92.85428057574477
 20
-122.7112005986625
 30
0.0
 10
92.91215817989696
 20
-122.4862358634757
 30
0.0
 10
92.97623695592262
 20
-122.2381889885377
 30
0.0
 10
92.81982962089226
 20
-122.12553436617
 30
0.0
 10
92.70338539349082
 20
-122.0955620354483
 30
0.0
 10
92.67237953412358
 20
-122.0872938062837
 30
0.0
 10
92.53526473381064
 20
-122.0521538323342
 30
0.0
 10
92.41675344911803
 20
-122.1548176777946
 30
0.0
 10
92.41675344911803
 20
-122.1548176777946
 30
0.0
 10
92.25138886582604
 20
-122.0924614495116
 30
0.0
 10
92.25138886582604
 20
-122.0924614495116
 30
0.0
 10
92.25138886582604
 20
-122.0924614495116
 30
0.0
 10
92.58005097511888
 20
-121.3031900738409
 30
0.0
 10
92.58005097511888
 20
-121.3031900738409
 30
0.0
 10
92.58005097511888
 20
-121.3031900738409
 30
0.0
 10
93.33418237684008
 20
-121.498182478306
 30
0.0
 10
93.33418237684008
 20
-121.498182478306
 30
0.0
 10
93.33418237684008
 20
-121.498182478306
 30
0.0
 10
93.28560653049804
 20
-121.6866292013492
 30
0.0
 10
93.28560653049804
 20
-121.6866292013492
 30
0.0
 10
93.28560653049804
 20
-121.6866292013492
 30
0.0
 10
92.6892605020013
 20
-121.53228892361
 30
0.0
 10
92.6892605020013
 20
-121.53228892361
 30
0.0
 10
92.6892605020013
 20
-121.53228892361
 30
0.0
 10
92.52010631367553
 20
-121.9257188280255
 30
0.0
 10
92.52010631367553
 20
-121.9257188280255
 30
0.0
 10
92.58763018518643
 20
-121.9081488410507
 30
0.0
 10
92.67789168689997
 20
-121.8895453254304
 30
0.0
 10
92.79226885701027
 20
-121.9195176561521
 30
0.0
 10
93.03824867465711
 20
-121.9829074130807
 30
0.0
 10
93.22083873537535
 20
-122.2230305684026
 30
0.0
 10
93.14229055831166
 20
-122.5261989711046
 30
0.0
 10
93.06305336215091
 20
-122.8331569788403
 30
0.0
 10
92.78744572333092
 20
-123.0043782244572
 30
0.0
 10
92.49461260708469
 20
-122.9285861237817
 30
0.0
  0
HATCH
  5
98
330
8F
100
AcDbEntity
  8
_U+30EC_U+30A4_U+30E4_U+30FC 1
 62
   179
420
  2234388
100
AcDbHatch
 10
0.0
 20
0.0
 30
0.0
210
0.0
220
0.0
230
1.0
  2
SOLID
 70
     1
 71
     0
 91
        1
 92
        1
 93
        1
 72
     4
 94
        3
 73
     0
 74
     1
 95
       53
 96
       49
 40
0.0
 40
0.0
 40
0.0
 40
0.0
 40
1.0
 40
1.0
 40
1.0
 40
2.0
 40
2.0
 40
2.0
 40
3.0
 40
3.0
 40
3.0
 40
4.0
 40
4.0
 40
4.0
 40
5.0
 40
5.0
 40
5.0
 40
6.0
 40
6.0
 40
6.0
 40
7.0
 40
7.0
 40
7.0
 40
8.0
 40
8.0
 40
8.0
 40
9.0
 40
9.0
 40
9.0
 40
10.0
 40
10.0
 40
10.0
 40
11.0
 40
11.0
 40
11.0
 40
12.0
 40
12.0
 40
12.0
 40
13.0
 40
13.0
 40
13.0
 40
14.0
 40
14.0
 40
14.0
 40
15.0
 40
15.0
 40
15.0
 40
16.0
 40
16.0
 40
16.0
 40
16.0
 10
92.49461260708469
 20
-122.9285861237817
 10
92.41882050640919
 20
-122.9089490795158
 10
92.32442489011335
 20
-122.8672634241443
 10
92.24208710801587
 20
-122.780447017916
 10
92.1018717217662
 20
-122.6305853643076
 10
92.1142740655131
 20
-122.4979491881255
 10
92.1225422946777
 20
-122.3887396612431
 10
92.1225422946777
 20
-122.3887396612431
 10
92.33751625295729
 20
-122.4445502081041
 10
92.33751625295729
 20
-122.4445502081041
 10
92.34096134844255
 20
-122.6509114276706
 10
92.45671655674694
 20
-122.7112005986625
 10
92.54697805846048
 20
-122.7346272479622
 10
92.68202580148228
 20
-122.7694227123632
 10
92.85428057574477
 20
-122.7112005986625
 10
92.91215817989696
 20
-122.4862358634757
 10
92.97623695592262
 20
-122.2381889885377
 10
92.81982962089226
 20
-122.12553436617
 10
92.70338539349082
 20
-122.0955620354483
 10
92.67237953412358
 20
-122.0872938062837
 10
92.53526473381064
 20
-122.0521538323342
 10
92.41675344911803
 20
-122.1548176777946
 10
92.41675344911803
 20
-122.1548176777946
 10
92.25138886582604
 20
-122.0924614495116
 10
92.25138886582604
 20
-122.0924614495116
 10
92.25138886582604
 20
-122.0924614495116
 10
92.58005097511888
 20
-121.3031900738409
 10
92.58005097511888
 20
-121.3031900738409
 10
92.58005097511888
 20
-121.3031900738409
 10
93.33418237684008
 20
-121.498182478306
 10
93.33418237684008
 20
-121.498182478306
 10
93.33418237684008
 20
-121.498182478306
 10
93.28560653049804
 20
-121.6866292013492
 10
93.28560653049804
 20
-121.6866292013492
 10
93.28560653049804
 20
-121.6866292013492
 10
92.6892605020013
 20
-121.53228892361
 10
92.6892605020013
 20
-121.53228892361
 10
92.6892605020013
 20
-121.53228892361
 10
92.52010631367553
 20
-121.9257188280255
 10
92.52010631367553
 20
-121.9257188280255
 10
92.58763018518643
 20
-121.9081488410507
 10
92.67789168689997
 20
-121.8895453254304
 10
92.79226885701027
 20
-121.9195176561521
 10
93.03824867465711
 20
-121.9829074130807
 10
93.22083873537535
 20
-122.2230305684026
 10
93.14229055831166
 20
-122.5261989711046
 10
93.06305336215091
 20
-122.8331569788403
 10
92.78744572333092
 20
-123.0043782244572
 10
92.49461260708469
 20
-122.9285861237817
 97
        0
 97
        0
 75
     2
 76
     1
 98
        0
  0
SPLINE
  5
99
330
8F
100
AcDbEntity
  8
_U+30EC_U+30A4_U+30E4_U+30FC 1
370
     0
100
AcDbSpline
210
0.0
220
0.0
230
1.0
 70
    11
 71
     3
 72
    17
 73
    13
 74
     0
 42
0.0000000001
 43
0.0000000001
 12
1.0
 22
0.0
 32
0.0
 13
1.0
 23
0.0
 33
0.0
 40
0.0
 40
0.0
 40
0.0
 40
0.0
 40
1.0
 40
1.0
 40
1.0
 40
2.0
 40
2.0
 40
2.0
 40
3.0
 40
3.0
 40
3.0
 40
4.0
 40
4.0
 40
4.0
 40
4.0
 10
94.11036238966686
 20
-121.9632703688147
 30
0.0
 10
94.06902124384386
 20
-122.1231227993303
 30
0.0
 10
93.90503469874596
 20
-122.2250976256937
 30
0.0
 10
93.73898109635692
 20
-122.1820339321281
 30
0.0
 10
93.57568357035608
 20
-122.1396592576595
 30
0.0
 10
93.47922089676909
 20
-121.9725721266249
 30
0.0
 10
93.52090655214062
 20
-121.8109971483667
 30
0.0
 10
93.56259220751214
 20
-121.64907766056
 30
0.0
 10
93.72795679080413
 20
-121.5498589105848
 30
0.0
 10
93.89194333590201
 20
-121.5922335850533
 30
0.0
 10
94.05799693829105
 20
-121.6349527690704
 30
0.0
 10
94.15170353548986
 20
-121.8034179382991
 30
0.0
 10
94.11036238966686
 20
-121.9632703688147
 30
0.0
  0
SPLINE
  5
9A
330
8F
100
AcDbEntity
  8
_U+30EC_U+30A4_U+30E4_U+30FC 1
370
     0
100
AcDbSpline
210
0.0
220
0.0
230
1.0
 70
    11
 71
     3
 72
    17
 73
    13
 74
     0
 42
0.0000000001
 43
0.0000000001
 12
1.0
 22
0.0
 32
0.0
 13
1.0
 23
0.0
 33
0.0
 40
0.0
 40
0.0
 40
0.0
 40
0.0
 40
1.0
 40
1.0
 40
1.0
 40
2.0
 40
2.0
 40
2.0
 40
3.0
 40
3.0
 40
3.0
 40
4.0
 40
4.0
 40
4.0
 40
4.0
 10
93.64182940367289
 20
-121.842003007734
 30
0.0
 10
93.61668020663056
 20
-121.9384656813209
 30
0.0
 10
93.67421330123423
 20
-122.036306393102
 30
0.0
 10
93.77067597482123
 20
-122.0611110805958
 30
0.0
 10
93.86713864840821
 20
-122.0859157680896
 30
0.0
 10
93.96497936018932
 20
-122.028382673486
 30
0.0
 10
93.98978404768312
 20
-121.9322645094475
 30
0.0
 10
94.01458873517691
 20
-121.8358018358605
 30
0.0
 10
93.95946720741291
 20
-121.7383056336279
 30
0.0
 10
93.86093747653477
 20
-121.7128119270371
 30
0.0
 10
93.76240774565663
 20
-121.6876627299948
 30
0.0
 10
93.66663409116669
 20
-121.7458848436955
 30
0.0
 10
93.64182940367289
 20
-121.842003007734
 30
0.0
  0
HATCH
  5
9B
330
8F
100
AcDbEntity
  8
_U+30EC_U+30A4_U+30E4_U+30FC 1
 62
   179
420
  2234388
100
AcDbHatch
 10
0.0
 20
0.0
 30
0.0
210
0.0
220
0.0
230
1.0
  2
SOLID
 70
     1
 71
     0
 91
        2
 92
        1
 93
        1
 72
     4
 94
        3
 73
     0
 74
     1
 95
       17
 96
       13
 40
0.0
 40
0.0
 40
0.0
 40
0.0
 40
1.0
 40
1.0
 40
1.0
 40
2.0
 40
2.0
 40
2.0
 40
3.0
 40
3.0
 40
3.0
 40
4.0
 40
4.0
 40
4.0
 40
4.0
 10
94.11036238966686
 20
-121.9632703688147
 10
94.06902124384386
 20
-122.1231227993303
 10
93.90503469874596
 20
-122.2250976256937
 10
93.73898109635692
 20
-122.1820339321281
 10
93.57568357035608
 20
-122.1396592576595
 10
93.47922089676909
 20
-121.9725721266249
 10
93.52090655214062
 20
-121.8109971483667
 10
93.56259220751214
 20
-121.64907766056
 10
93.72795679080413
 20
-121.5498589105848
 10
93.89194333590201
 20
-121.5922335850533
 10
94.05799693829105
 20
-121.6349527690704
 10
94.15170353548986
 20
-121.8034179382991
 10
94.11036238966686
 20
-121.9632703688147
 97
        0
 97
        0
 92
        1
 93
        1
 72
     4
 94
        3
 73
     0
 74
     1
 95
       17
 96
       13
 40
0.0
 40
0.0
 40
0.0
 40
0.0
 40
1.0
 40
1.0
 40
1.0
 40
2.0
 40
2.0
 40
2.0
 40
3.0
 40
3.0
 40
3.0
 40
4.0
 40
4.0
 40
4.0
 40
4.0
 10
93.64182940367289
 20
-121.842003007734
 10
93.61668020663056
 20
-121.9384656813209
 10
93.67421330123423
 20
-122.036306393102
 10
93.77067597482123
 20
-122.0611110805958
 10
93.86713864840821
 20
-122.0859157680896
 10
93.96497936018932
 20
-122.028382673486
 10
93.98978404768312
 20
-121.9322645094475
 10
94.01458873517691
 20
-121.8358018358605
 10
93.95946720741291
 20
-121.7383056336279
 10
93.86093747653477
 20
-121.7128119270371
 10
93.76240774565663
 20
-121.6876627299948
 10
93.66663409116669
 20
-121.7458848436955
 10
93.64182940367289
 20
-121.842003007734
 97
        0
 97
        0
 75
     2
 76
     1
 98
        0
  0
ENDBLK
  5
92
330
8F
100
AcDbEntity
  8
0
100
AcDbBlockEnd
  0
ENDSEC
  0
SECTION
  2
ENTITIES
  0
SPLINE
  5
41
330
1F
100
AcDbEntity
  8
_U+30EC_U+30A4_U+30E4_U+30FC 1
 62
     7
420
 16777215
370
     9
100
AcDbSpline
210
0.0
220
0.0
230
1.0
 70
     8
 71
     3
 72
    11
 73
     7
 74
     0
 42
0.0000000001
 43
0.0000000001
 12
1.0
 22
0.0
 32
0.0
 13
1.0
 23
0.0
 33
0.0
 40
0.0
 40
0.0
 40
0.0
 40
0.0
 40
1.0
 40
1.0
 40
1.0
 40
2.0
 40
2.0
 40
2.0
 40
2.0
 10
86.03368053404714
 20
-125.0618035798457
 30
0.0
 10
86.86531667277004
 20
-123.0150574692462
 30
0.0
 10
89.19834189102738
 20
-122.0301019139368
 30
0.0
 10
91.24540544991355
 20
-122.8614227470625
 30
0.0
 10
93.29112845327836
 20
-123.6930610801879
 30
0.0
 10
94.27710703923506
 20
-126.0260863573824
 30
0.0
 10
93.44476317158103
 20
-128.0731499679819
 30
0.0
  0
SPLINE
  5
42
330
1F
100
AcDbEntity
  8
_U+30EC_U+30A4_U+30E4_U+30FC 1
 62
   179
420
  2234388
370
    25
100
AcDbSpline
210
0.0
220
0.0
230
1.0
 70
    11
 71
     3
 72
    62
 73
    58
 74
     0
 42
0.0000000001
 43
0.0000000001
 12
1.0
 22
0.0
 32
0.0
 13
1.0
 23
0.0
 33
0.0
 40
0.0
 40
0.0
 40
0.0
 40
0.0
 40
1.0
 40
1.0
 40
1.0
 40
2.0
 40
2.0
 40
2.0
 40
3.0
 40
3.0
 40
3.0
 40
4.0
 40
4.0
 40
4.0
 40
5.0
 40
5.0
 40
5.0
 40
6.0
 40
6.0
 40
6.0
 40
7.0
 40
7.0
 40
7.0
 40
8.0
 40
8.0
 40
8.0
 40
9.0
 40
9.0
 40
9.0
 40
10.0
 40
10.0
 40
10.0
 40
11.0
 40
11.0
 40
11.0
 40
12.0
 40
12.0
 40
12.0
 40
13.0
 40
13.0
 40
13.0
 40
14.0
 40
14.0
 40
14.0
 40
15.0
 40
15.0
 40
15.0
 40
16.0
 40
16.0
 40
16.0
 40
17.0
 40
17.0
 40
17.0
 40
18.0
 40
18.0
 40
18.0
 40
19.0
 40
19.0
 40
19.0
 40
19.0
 10
84.90232220099652
 20
-135.8018760771604
 30
0.0
 10
84.90232220099652
 20
-135.8018760771604
 30
0.0
 10
73.34951840647567
 20
-124.6614713577236
 30
0.0
 10
73.34951840647567
 20
-124.6614713577236
 30
0.0
 10
73.59826387048933
 20
-124.4037671911212
 30
0.0
 10
74.15843783028285
 20
-124.4681844133273
 30
0.0
 10
74.55460726462017
 20
-124.8533471910089
 30
0.0
 10
74.55460726462017
 20
-124.8533471910089
 30
0.0
 10
79.9034610911351
 20
-130.0199541341615
 30
0.0
 10
79.9034610911351
 20
-130.0199541341615
 30
0.0
 10
79.9034610911351
 20
-130.0199541341615
 30
0.0
 10
80.35134572784416
 20
-130.0351235786021
 30
0.0
 10
80.35134572784416
 20
-130.0351235786021
 30
0.0
 10
80.35134572784416
 20
-130.0351235786021
 30
0.0
 10
85.66918836995248
 20
-135.1728027439844
 30
0.0
 10
85.66918836995248
 20
-135.1728027439844
 30
0.0
 10
85.66918836995248
 20
-135.1728027439844
 30
0.0
 10
88.48382579814509
 20
-128.1392958012987
 30
0.0
 10
88.48382579814509
 20
-128.1392958012987
 30
0.0
 10
88.48382579814509
 20
-128.1392958012987
 30
0.0
 10
82.83525399780773
 20
-122.6864096915506
 30
0.0
 10
82.83525399780773
 20
-122.6864096915506
 30
0.0
 10
82.83525399780773
 20
-122.6864096915506
 30
0.0
 10
84.24844646175417
 20
-122.6615741360014
 30
0.0
 10
84.24844646175417
 20
-122.6615741360014
 30
0.0
 10
84.24844646175417
 20
-122.6615741360014
 30
0.0
 10
89.29341549971296
 20
-127.5332941347834
 30
0.0
 10
89.29341549971296
 20
-127.5332941347834
 30
0.0
 10
89.29341549971296
 20
-127.5332941347834
 30
0.0
 10
96.30557920970665
 20
-127.5329413570056
 30
0.0
 10
96.30557920970665
 20
-127.5329413570056
 30
0.0
 10
96.30557920970665
 20
-127.5329413570056
 30
0.0
 10
97.30535140642256
 20
-128.5313377456449
 30
0.0
 10
97.30535140642256
 20
-128.5313377456449
 30
0.0
 10
97.30535140642256
 20
-128.5313377456449
 30
0.0
 10
89.45534049558191
 20
-128.5316905234227
 30
0.0
 10
89.45534049558191
 20
-128.5316905234227
 30
0.0
 10
89.45534049558191
 20
-128.5316905234227
 30
0.0
 10
86.60006306842611
 20
-135.5486521883354
 30
0.0
 10
86.60006306842611
 20
-135.5486521883354
 30
0.0
 10
86.60006306842611
 20
-135.5486521883354
 30
0.0
 10
93.92637775429604
 20
-135.5410674661148
 30
0.0
 10
93.92637775429604
 20
-135.5410674661148
 30
0.0
 10
93.92637775429604
 20
-135.5410674661148
 30
0.0
 10
94.32741314906276
 20
-135.8411402438174
 30
0.0
 10
94.32741314906276
 20
-135.8411402438174
 30
0.0
 10
94.32741314906276
 20
-135.8411402438174
 30
0.0
 10
101.763968514896
 20
-135.8346138549301
 30
0.0
 10
101.763968514896
 20
-135.8346138549301
 30
0.0
 10
102.3165948896862
 20
-135.8325324660417
 30
0.0
 10
102.7644462671495
 20
-136.1746210770672
 30
0.0
 10
102.7644462671495
 20
-136.5325846880893
 30
0.0
 10
102.7644462671495
 20
-136.5325846880893
 30
0.0
 10
86.71510389882451
 20
-136.5336077436445
 30
0.0
 10
86.71510389882451
 20
-136.5336077436445
 30
0.0
 10
86.71510389882451
 20
-136.5336077436445
 30
0.0
 10
84.90232220099652
 20
-135.8018760771604
 30
0.0
 10
84.90232220099652
 20
-135.8018760771604
 30
0.0
  0
HATCH
  5
43
330
1F
100
AcDbEntity
  8
_U+30EC_U+30A4_U+30E4_U+30FC 1
 62
   253
420
 11711154
100
AcDbHatch
 10
0.0
 20
0.0
 30
0.0
210
0.0
220
0.0
230
1.0
  2
SOLID
 70
     1
 71
     0
 91
        1
 92
        1
 93
        1
 72
     4
 94
        3
 73
     0
 74
     1
 95
       62
 96
       58
 40
0.0
 40
0.0
 40
0.0
 40
0.0
 40
1.0
 40
1.0
 40
1.0
 40
2.0
 40
2.0
 40
2.0
 40
3.0
 40
3.0
 40
3.0
 40
4.0
 40
4.0
 40
4.0
 40
5.0
 40
5.0
 40
5.0
 40
6.0
 40
6.0
 40
6.0
 40
7.0
 40
7.0
 40
7.0
 40
8.0
 40
8.0
 40
8.0
 40
9.0
 40
9.0
 40
9.0
 40
10.0
 40
10.0
 40
10.0
 40
11.0
 40
11.0
 40
11.0
 40
12.0
 40
12.0
 40
12.0
 40
13.0
 40
13.0
 40
13.0
 40
14.0
 40
14.0
 40
14.0
 40
15.0
 40
15.0
 40
15.0
 40
16.0
 40
16.0
 40
16.0
 40
17.0
 40
17.0
 40
17.0
 40
18.0
 40
18.0
 40
18.0
 40
19.0
 40
19.0
 40
19.0
 40
19.0
 10
84.90232220099652
 20
-135.8018760771604
 10
84.90232220099652
 20
-135.8018760771604
 10
73.34951840647567
 20
-124.6614713577236
 10
73.34951840647567
 20
-124.6614713577236
 10
73.59826387048933
 20
-124.4037671911212
 10
74.15843783028285
 20
-124.4681844133273
 10
74.55460726462017
 20
-124.8533471910089
 10
74.55460726462017
 20
-124.8533471910089
 10
79.9034610911351
 20
-130.0199541341615
 10
79.9034610911351
 20
-130.0199541341615
 10
79.9034610911351
 20
-130.0199541341615
 10
80.35134572784416
 20
-130.0351235786021
 10
80.35134572784416
 20
-130.0351235786021
 10
80.35134572784416
 20
-130.0351235786021
 10
85.66918836995248
 20
-135.1728027439844
 10
85.66918836995248
 20
-135.1728027439844
 10
85.66918836995248
 20
-135.1728027439844
 10
88.48382579814509
 20
-128.1392958012987
 10
88.48382579814509
 20
-128.1392958012987
 10
88.48382579814509
 20
-128.1392958012987
 10
82.83525399780773
 20
-122.6864096915506
 10
82.83525399780773
 20
-122.6864096915506
 10
82.83525399780773
 20
-122.6864096915506
 10
84.24844646175417
 20
-122.6615741360014
 10
84.24844646175417
 20
-122.6615741360014
 10
84.24844646175417
 20
-122.6615741360014
 10
89.29341549971296
 20
-127.5332941347834
 10
89.29341549971296
 20
-127.5332941347834
 10
89.29341549971296
 20
-127.5332941347834
 10
96.30557920970665
 20
-127.5329413570056
 10
96.30557920970665
 20
-127.5329413570056
 10
96.30557920970665
 20
-127.5329413570056
 10
97.30535140642256
 20
-128.5313377456449
 10
97.30535140642256
 20
-128.5313377456449
 10
97.30535140642256
 20
-128.5313377456449
 10
89.45534049558191
 20
-128.5316905234227
 10
89.45534049558191
 20
-128.5316905234227
 10
89.45534049558191
 20
-128.5316905234227
 10
86.60006306842611
 20
-135.5486521883354
 10
86.60006306842611
 20
-135.5486521883354
 10
86.60006306842611
 20
-135.5486521883354
 10
93.92637775429604
 20
-135.5410674661148
 10
93.92637775429604
 20
-135.5410674661148
 10
93.92637775429604
 20
-135.5410674661148
 10
94.32741314906276
 20
-135.8411402438174
 10
94.32741314906276
 20
-135.8411402438174
 10
94.32741314906276
 20
-135.8411402438174
 10
101.763968514896
 20
-135.8346138549301
 10
101.763968514896
 20
-135.8346138549301
 10
102.3165948896862
 20
-135.8325324660417
 10
102.7644462671495
 20
-136.1746210770672
 10
102.7644462671495
 20
-136.5325846880893
 10
102.7644462671495
 20
-136.5325846880893
 10
86.71510389882451
 20
-136.5336077436445
 10
86.71510389882451
 20
-136.5336077436445
 10
86.71510389882451
 20
-136.5336077436445
 10
84.90232220099652
 20
-135.8018760771604
 10
84.90232220099652
 20
-135.8018760771604
 97
        0
 97
        0
 75
     2
 76
     1
 98
        0
  0
POLYLINE
  5
44
330
1F
100
AcDbEntity
  8
_U+30EC_U+30A4_U+30E4_U+30FC 1
 62
   179
420
  2234388
370
     9
100
AcDb2dPolyline
 66
     1
 10
0.0
 20
0.0
 30
0.0
  0
VERTEX
  5
45
330
44
100
AcDbEntity
  8
_U+30EC_U+30A4_U+30E4_U+30FC 1
 62
   179
420
  2234388
370
     9
100
AcDbVertex
100
AcDb2dVertex
 10
105.4805555291854
 20
-123.7492233023961
 30
0.0
  0
VERTEX
  5
46
330
44
100
AcDbEntity
  8
_U+30EC_U+30A4_U+30E4_U+30FC 1
 62
   179
420
  2234388
370
     9
100
AcDbVertex
100
AcDb2dVertex
 10
105.4805555291854
 20
-135.5341882994497
 30
0.0
  0
SEQEND
  5
47
330
44
100
AcDbEntity
  8
_U+30EC_U+30A4_U+30E4_U+30FC 1
 62
   179
420
  2234388
370
     9
  0
SPLINE
  5
48
330
1F
100
AcDbEntity
  8
_U+30EC_U+30A4_U+30E4_U+30FC 1
 62
   179
420
  2234388
370
     9
100
AcDbSpline
210
0.0
220
0.0
230
1.0
 70
    11
 71
     3
 72
    17
 73
    13
 74
     0
 42
0.0000000001
 43
0.0000000001
 12
1.0
 22
0.0
 32
0.0
 13
1.0
 23
0.0
 33
0.0
 40
0.0
 40
0.0
 40
0.0
 40
0.0
 40
1.0
 40
1.0
 40
1.0
 40
2.0
 40
2.0
 40
2.0
 40
3.0
 40
3.0
 40
3.0
 40
4.0
 40
4.0
 40
4.0
 40
4.0
 10
105.3806462004046
 20
-127.5322710792279
 30
0.0
 10
105.3806462004046
 20
-127.5873749681031
 30
0.0
 10
105.4254489770394
 20
-127.6321777458699
 30
0.0
 10
105.4805555291854
 20
-127.6321777458699
 30
0.0
 10
105.5356920297824
 20
-127.6321777458699
 30
0.0
 10
105.5804595286403
 20
-127.5873749681031
 30
0.0
 10
105.5804595286403
 20
-127.5322710792279
 30
0.0
 10
105.5804595286403
 20
-127.4764616347975
 30
0.0
 10
105.5356920297824
 20
-127.4316588570311
 30
0.0
 10
105.4805555291854
 20
-127.4316588570311
 30
0.0
 10
105.4254489770394
 20
-127.4316588570311
 30
0.0
 10
105.3806462004046
 20
-127.4764616347975
 30
0.0
 10
105.3806462004046
 20
-127.5322710792279
 30
0.0
  0
POLYLINE
  5
49
330
1F
100
AcDbEntity
  8
_U+30EC_U+30A4_U+30E4_U+30FC 1
 62
   179
420
  2234388
370
     9
100
AcDb2dPolyline
 66
     1
 10
0.0
 20
0.0
 30
0.0
  0
VERTEX
  5
4A
330
49
100
AcDbEntity
  8
_U+30EC_U+30A4_U+30E4_U+30FC 1
 62
   179
420
  2234388
370
     9
100
AcDbVertex
100
AcDb2dVertex
 10
103.8565404059545
 20
-127.5322710792279
 30
0.0
  0
VERTEX
  5
4B
330
49
100
AcDbEntity
  8
_U+30EC_U+30A4_U+30E4_U+30FC 1
 62
   179
420
  2234388
370
     9
100
AcDbVertex
100
AcDb2dVertex
 10
106.480327751158
 20
-127.5322710792279
 30
0.0
  0
SEQEND
  5
4C
330
49
100
AcDbEntity
  8
_U+30EC_U+30A4_U+30E4_U+30FC 1
 62
   179
420
  2234388
370
     9
  0
SPLINE
  5
4D
330
1F
100
AcDbEntity
  8
_U+30EC_U+30A4_U+30E4_U+30FC 1
 62
   179
420
  2234388
370
     9
100
AcDbSpline
210
0.0
220
0.0
230
1.0
 70
    11
 71
     3
 72
    17
 73
    13
 74
     0
 42
0.0000000001
 43
0.0000000001
 12
1.0
 22
0.0
 32
0.0
 13
1.0
 23
0.0
 33
0.0
 40
0.0
 40
0.0
 40
0.0
 40
0.0
 40
1.0
 40
1.0
 40
1.0
 40
2.0
 40
2.0
 40
2.0
 40
3.0
 40
3.0
 40
3.0
 40
4.0
 40
4.0
 40
4.0
 40
4.0
 10
105.3806462004046
 20
-128.5320433012004
 30
0.0
 10
105.3806462004046
 20
-128.5871471900754
 30
0.0
 10
105.4254489770394
 20
-128.6319499678421
 30
0.0
 10
105.4805555291854
 20
-128.6319499678421
 30
0.0
 10
105.5356920297824
 20
-128.6319499678421
 30
0.0
 10
105.5804595286403
 20
-128.5871471900754
 30
0.0
 10
105.5804595286403
 20
-128.5320433012004
 30
0.0
 10
105.5804595286403
 20
-128.47623385677
 30
0.0
 10
105.5356920297824
 20
-128.4314310790033
 30
0.0
 10
105.4805555291854
 20
-128.4314310790033
 30
0.0
 10
105.4254489770394
 20
-128.4314310790033
 30
0.0
 10
105.3806462004046
 20
-128.47623385677
 30
0.0
 10
105.3806462004046
 20
-128.5320433012004
 30
0.0
  0
POLYLINE
  5
4E
330
1F
100
AcDbEntity
  8
_U+30EC_U+30A4_U+30E4_U+30FC 1
 62
   179
420
  2234388
370
     9
100
AcDb2dPolyline
 66
     1
 10
0.0
 20
0.0
 30
0.0
  0
VERTEX
  5
4F
330
4E
100
AcDbEntity
  8
_U+30EC_U+30A4_U+30E4_U+30FC 1
 62
   179
420
  2234388
370
     9
100
AcDbVertex
100
AcDb2dVertex
 10
103.8565404059545
 20
-128.5320433012004
 30
0.0
  0
VERTEX
  5
50
330
4E
100
AcDbEntity
  8
_U+30EC_U+30A4_U+30E4_U+30FC 1
 62
   179
420
  2234388
370
     9
100
AcDbVertex
100
AcDb2dVertex
 10
106.480327751158
 20
-128.5320433012004
 30
0.0
  0
SEQEND
  5
51
330
4E
100
AcDbEntity
  8
_U+30EC_U+30A4_U+30E4_U+30FC 1
 62
   179
420
  2234388
370
     9
  0
SPLINE
  5
52
330
1F
100
AcDbEntity
  8
_U+30EC_U+30A4_U+30E4_U+30FC 1
 62
   179
420
  2234388
370
     9
100
AcDbSpline
210
0.0
220
0.0
230
1.0
 70
    11
 71
     3
 72
    17
 73
    13
 74
     0
 42
0.0000000001
 43
0.0000000001
 12
1.0
 22
0.0
 32
0.0
 13
1.0
 23
0.0
 33
0.0
 40
0.0
 40
0.0
 40
0.0
 40
0.0
 40
1.0
 40
1.0
 40
1.0
 40
2.0
 40
2.0
 40
2.0
 40
3.0
 40
3.0
 40
3.0
 40
4.0
 40
4.0
 40
4.0
 40
4.0
 10
105.3806462004046
 20
-135.5321069105613
 30
0.0
 10
105.3806462004046
 20
-135.5872460772144
 30
0.0
 10
105.4254489770394
 20
-135.6320488549811
 30
0.0
 10
105.4805555291854
 20
-135.6320488549811
 30
0.0
 10
105.5356920297824
 20
-135.6320488549811
 30
0.0
 10
105.5804595286403
 20
-135.5872460772144
 30
0.0
 10
105.5804595286403
 20
-135.5321069105613
 30
0.0
 10
105.5804595286403
 20
-135.4762974661308
 30
0.0
 10
105.5356920297824
 20
-135.4315299661423
 30
0.0
 10
105.4805555291854
 20
-135.4315299661423
 30
0.0
 10
105.4254489770394
 20
-135.4315299661423
 30
0.0
 10
105.3806462004046
 20
-135.4762974661308
 30
0.0
 10
105.3806462004046
 20
-135.5321069105613
 30
0.0
  0
POLYLINE
  5
53
330
1F
100
AcDbEntity
  8
_U+30EC_U+30A4_U+30E4_U+30FC 1
 62
   179
420
  2234388
370
     9
100
AcDb2dPolyline
 66
     1
 10
0.0
 20
0.0
 30
0.0
  0
VERTEX
  5
54
330
53
100
AcDbEntity
  8
_U+30EC_U+30A4_U+30E4_U+30FC 1
 62
   179
420
  2234388
370
     9
100
AcDbVertex
100
AcDb2dVertex
 10
103.8565404059545
 20
-135.5321069105613
 30
0.0
  0
VERTEX
  5
55
330
53
100
AcDbEntity
  8
_U+30EC_U+30A4_U+30E4_U+30FC 1
 62
   179
420
  2234388
370
     9
100
AcDbVertex
100
AcDb2dVertex
 10
106.480327751158
 20
-135.5321069105613
 30
0.0
  0
SEQEND
  5
56
330
53
100
AcDbEntity
  8
_U+30EC_U+30A4_U+30E4_U+30FC 1
 62
   179
420
  2234388
370
     9
  0
INSERT
  5
58
330
1F
100
AcDbEntity
  8
_U+30EC_U+30A4_U+30E4_U+30FC 1
100
AcDbBlockReference
  2
block 2
 10
0.0
 20
0.0
 30
0.0
  0
INSERT
  5
5E
330
1F
100
AcDbEntity
  8
_U+30EC_U+30A4_U+30E4_U+30FC 1
100
AcDbBlockReference
  2
block 3
 10
0.0
 20
0.0
 30
0.0
  0
SPLINE
  5
63
330
1F
100
AcDbEntity
  8
_U+30EC_U+30A4_U+30E4_U+30FC 1
 62
   179
420
  2234388
370
     9
100
AcDbSpline
210
0.0
220
0.0
230
1.0
 70
    11
 71
     3
 72
    17
 73
    13
 74
     0
 42
0.0000000001
 43
0.0000000001
 12
1.0
 22
0.0
 32
0.0
 13
1.0
 23
0.0
 33
0.0
 40
0.0
 40
0.0
 40
0.0
 40
0.0
 40
1.0
 40
1.0
 40
1.0
 40
2.0
 40
2.0
 40
2.0
 40
3.0
 40
3.0
 40
3.0
 40
4.0
 40
4.0
 40
4.0
 40
4.0
 10
85.80768892197459
 20
-140.5330141315336
 30
0.0
 10
85.80768892197459
 20
-140.477910242658
 30
0.0
 10
85.76288614533982
 20
-140.4331074648919
 30
0.0
 10
85.7070767023192
 20
-140.4331074648919
 30
0.0
 10
85.65197497858689
 20
-140.4331074648919
 30
0.0
 10
85.60717220082049
 20
-140.477910242658
 30
0.0
 10
85.60717220082049
 20
-140.5330141315336
 30
0.0
 10
85.60717220082049
 20
-140.588153298186
 30
0.0
 10
85.65197497858689
 20
-140.6329207981752
 30
0.0
 10
85.7070767023192
 20
-140.6329207981752
 30
0.0
 10
85.76288614533982
 20
-140.6329207981752
 30
0.0
 10
85.80768892197459
 20
-140.588153298186
 30
0.0
 10
85.80768892197459
 20
-140.5330141315336
 30
0.0
  0
POLYLINE
  5
64
330
1F
100
AcDbEntity
  8
_U+30EC_U+30A4_U+30E4_U+30FC 1
 62
   179
420
  2234388
370
     9
100
AcDb2dPolyline
 66
     1
 10
0.0
 20
0.0
 30
0.0
  0
VERTEX
  5
65
330
64
100
AcDbEntity
  8
_U+30EC_U+30A4_U+30E4_U+30FC 1
 62
   179
420
  2234388
370
     9
100
AcDbVertex
100
AcDb2dVertex
 10
85.7070767023192
 20
-140.5330141315336
 30
0.0
  0
VERTEX
  5
66
330
64
100
AcDbEntity
  8
_U+30EC_U+30A4_U+30E4_U+30FC 1
 62
   179
420
  2234388
370
     9
100
AcDbVertex
100
AcDb2dVertex
 10
102.6066487711752
 20
-140.5330141315336
 30
0.0
  0
SEQEND
  5
67
330
64
100
AcDbEntity
  8
_U+30EC_U+30A4_U+30E4_U+30FC 1
 62
   179
420
  2234388
370
     9
  0
POLYLINE
  5
68
330
1F
100
AcDbEntity
  8
_U+30EC_U+30A4_U+30E4_U+30FC 1
 62
   179
420
  2234388
370
     9
100
AcDb2dPolyline
 66
     1
 10
0.0
 20
0.0
 30
0.0
  0
VERTEX
  5
69
330
68
100
AcDbEntity
  8
_U+30EC_U+30A4_U+30E4_U+30FC 1
 62
   179
420
  2234388
370
     9
100
AcDbVertex
100
AcDb2dVertex
 10
85.7070767023192
 20
-138.0725302432593
 30
0.0
  0
VERTEX
  5
6A
330
68
100
AcDbEntity
  8
_U+30EC_U+30A4_U+30E4_U+30FC 1
 62
   179
420
  2234388
370
     9
100
AcDbVertex
100
AcDb2dVertex
 10
85.7070767023192
 20
-141.5327863535055
 30
0.0
  0
SEQEND
  5
6B
330
68
100
AcDbEntity
  8
_U+30EC_U+30A4_U+30E4_U+30FC 1
 62
   179
420
  2234388
370
     9
  0
SPLINE
  5
6C
330
1F
100
AcDbEntity
  8
_U+30EC_U+30A4_U+30E4_U+30FC 1
 62
   179
420
  2234388
370
     9
100
AcDbSpline
210
0.0
220
0.0
230
1.0
 70
    11
 71
     3
 72
    17
 73
    13
 74
     0
 42
0.0000000001
 43
0.0000000001
 12
1.0
 22
0.0
 32
0.0
 13
1.0
 23
0.0
 33
0.0
 40
0.0
 40
0.0
 40
0.0
 40
0.0
 40
1.0
 40
1.0
 40
1.0
 40
2.0
 40
2.0
 40
2.0
 40
3.0
 40
3.0
 40
3.0
 40
4.0
 40
4.0
 40
4.0
 40
4.0
 10
102.8078379327091
 20
-140.5330141315336
 30
0.0
 10
102.8078379327091
 20
-140.477910242658
 30
0.0
 10
102.7630704338512
 20
-140.4331074648919
 30
0.0
 10
102.7072609908306
 20
-140.4331074648919
 30
0.0
 10
102.6521218255706
 20
-140.4331074648919
 30
0.0
 10
102.6073543267128
 20
-140.477910242658
 30
0.0
 10
102.6073543267128
 20
-140.5330141315336
 30
0.0
 10
102.6073543267128
 20
-140.588153298186
 30
0.0
 10
102.6521218255706
 20
-140.6329207981752
 30
0.0
 10
102.7072609908306
 20
-140.6329207981752
 30
0.0
 10
102.7630704338512
 20
-140.6329207981752
 30
0.0
 10
102.8078379327091
 20
-140.588153298186
 30
0.0
 10
102.8078379327091
 20
-140.5330141315336
 30
0.0
  0
POLYLINE
  5
6D
330
1F
100
AcDbEntity
  8
_U+30EC_U+30A4_U+30E4_U+30FC 1
 62
   179
420
  2234388
370
     9
100
AcDb2dPolyline
 66
     1
 10
0.0
 20
0.0
 30
0.0
  0
VERTEX
  5
6E
330
6D
100
AcDbEntity
  8
_U+30EC_U+30A4_U+30E4_U+30FC 1
 62
   179
420
  2234388
370
     9
100
AcDbVertex
100
AcDb2dVertex
 10
102.7072609908306
 20
-138.0725302432593
 30
0.0
  0
VERTEX
  5
6F
330
6D
100
AcDbEntity
  8
_U+30EC_U+30A4_U+30E4_U+30FC 1
 62
   179
420
  2234388
370
     9
100
AcDbVertex
100
AcDb2dVertex
 10
102.7072609908306
 20
-141.5327863535055
 30
0.0
  0
SEQEND
  5
70
330
6D
100
AcDbEntity
  8
_U+30EC_U+30A4_U+30E4_U+30FC 1
 62
   179
420
  2234388
370
     9
  0
INSERT
  5
72
330
1F
100
AcDbEntity
  8
_U+30EC_U+30A4_U+30E4_U+30FC 1
100
AcDbBlockReference
  2
block 4
 10
0.0
 20
0.0
 30
0.0
  0
POLYLINE
  5
79
330
1F
100
AcDbEntity
  8
_U+30EC_U+30A4_U+30E4_U+30FC 1
 62
   179
420
  2234388
370
     9
100
AcDb2dPolyline
 66
     1
 10
0.0
 20
0.0
 30
0.0
  0
VERTEX
  5
7A
330
79
100
AcDbEntity
  8
_U+30EC_U+30A4_U+30E4_U+30FC 1
 62
   179
420
  2234388
370
     9
100
AcDbVertex
100
AcDb2dVertex
 10
97.33427918346233
 20
-118.345232192636
 30
0.0
  0
VERTEX
  5
7B
330
79
100
AcDbEntity
  8
_U+30EC_U+30A4_U+30E4_U+30FC 1
 62
   179
420
  2234388
370
     9
100
AcDbVertex
100
AcDb2dVertex
 10
89.3347610542137
 20
-118.345232192636
 30
0.0
  0
SEQEND
  5
7C
330
79
100
AcDbEntity
  8
_U+30EC_U+30A4_U+30E4_U+30FC 1
 62
   179
420
  2234388
370
     9
  0
SPLINE
  5
7D
330
1F
100
AcDbEntity
  8
_U+30EC_U+30A4_U+30E4_U+30FC 1
 62
   179
420
  2234388
370
     9
100
AcDbSpline
210
0.0
220
0.0
230
1.0
 70
    11
 71
     3
 72
    17
 73
    13
 74
     0
 42
0.0000000001
 43
0.0000000001
 12
1.0
 22
0.0
 32
0.0
 13
1.0
 23
0.0
 33
0.0
 40
0.0
 40
0.0
 40
0.0
 40
0.0
 40
1.0
 40
1.0
 40
1.0
 40
2.0
 40
2.0
 40
2.0
 40
3.0
 40
3.0
 40
3.0
 40
4.0
 40
4.0
 40
4.0
 40
4.0
 10
89.30375188833814
 20
-118.2453255259943
 30
0.0
 10
89.24864800085507
 20
-118.2453255259943
 30
0.0
 10
89.20384522422032
 20
-118.2900930259829
 30
0.0
 10
89.20384522422032
 20
-118.345232192636
 30
0.0
 10
89.20384522422032
 20
-118.4003360815109
 30
0.0
 10
89.24864800085507
 20
-118.4451388592776
 30
0.0
 10
89.30375188833814
 20
-118.4451388592776
 30
0.0
 10
89.3588910535981
 20
-118.4451388592776
 30
0.0
 10
89.40365855245598
 20
-118.4003360815109
 30
0.0
 10
89.40365855245598
 20
-118.345232192636
 30
0.0
 10
89.40365855245598
 20
-118.2900930259829
 30
0.0
 10
89.3588910535981
 20
-118.2453255259943
 30
0.0
 10
89.30375188833814
 20
-118.2453255259943
 30
0.0
  0
POLYLINE
  5
7E
330
1F
100
AcDbEntity
  8
_U+30EC_U+30A4_U+30E4_U+30FC 1
 62
   179
420
  2234388
370
     9
100
AcDb2dPolyline
 66
     1
 10
0.0
 20
0.0
 30
0.0
  0
VERTEX
  5
7F
330
7E
100
AcDbEntity
  8
_U+30EC_U+30A4_U+30E4_U+30FC 1
 62
   179
420
  2234388
370
     9
100
AcDbVertex
100
AcDb2dVertex
 10
89.30375188833814
 20
-116.8851908041119
 30
0.0
  0
VERTEX
  5
80
330
7E
100
AcDbEntity
  8
_U+30EC_U+30A4_U+30E4_U+30FC 1
 62
   179
420
  2234388
370
     9
100
AcDbVertex
100
AcDb2dVertex
 10
89.30375188833814
 20
-119.6254274700936
 30
0.0
  0
SEQEND
  5
81
330
7E
100
AcDbEntity
  8
_U+30EC_U+30A4_U+30E4_U+30FC 1
 62
   179
420
  2234388
370
     9
  0
SPLINE
  5
82
330
1F
100
AcDbEntity
  8
_U+30EC_U+30A4_U+30E4_U+30FC 1
 62
   179
420
  2234388
370
     9
100
AcDbSpline
210
0.0
220
0.0
230
1.0
 70
    11
 71
     3
 72
    17
 73
    13
 74
     0
 42
0.0000000001
 43
0.0000000001
 12
1.0
 22
0.0
 32
0.0
 13
1.0
 23
0.0
 33
0.0
 40
0.0
 40
0.0
 40
0.0
 40
0.0
 40
1.0
 40
1.0
 40
1.0
 40
2.0
 40
2.0
 40
2.0
 40
3.0
 40
3.0
 40
3.0
 40
4.0
 40
4.0
 40
4.0
 40
4.0
 10
97.30397557312432
 20
-118.2453255259943
 30
0.0
 10
97.24883886457643
 20
-118.2453255259943
 30
0.0
 10
97.2040689090065
 20
-118.2900930259829
 30
0.0
 10
97.2040689090065
 20
-118.345232192636
 30
0.0
 10
97.2040689090065
 20
-118.4003360815109
 30
0.0
 10
97.24883886457643
 20
-118.4451388592776
 30
0.0
 10
97.30397557312432
 20
-118.4451388592776
 30
0.0
 10
97.35907946060739
 20
-118.4451388592776
 30
0.0
 10
97.40388223724216
 20
-118.4003360815109
 30
0.0
 10
97.40388223724216
 20
-118.345232192636
 30
0.0
 10
97.40388223724216
 20
-118.2900930259829
 30
0.0
 10
97.35907946060739
 20
-118.2453255259943
 30
0.0
 10
97.30397557312432
 20
-118.2453255259943
 30
0.0
  0
POLYLINE
  5
83
330
1F
100
AcDbEntity
  8
_U+30EC_U+30A4_U+30E4_U+30FC 1
 62
   179
420
  2234388
370
     9
100
AcDb2dPolyline
 66
     1
 10
0.0
 20
0.0
 30
0.0
  0
VERTEX
  5
84
330
83
100
AcDbEntity
  8
_U+30EC_U+30A4_U+30E4_U+30FC 1
 62
   179
420
  2234388
370
     9
100
AcDbVertex
100
AcDb2dVertex
 10
97.30397557312432
 20
-116.8851908041119
 30
0.0
  0
VERTEX
  5
85
330
83
100
AcDbEntity
  8
_U+30EC_U+30A4_U+30E4_U+30FC 1
 62
   179
420
  2234388
370
     9
100
AcDbVertex
100
AcDb2dVertex
 10
97.30397557312432
 20
-126.3843674684039
 30
0.0
  0
SEQEND
  5
86
330
83
100
AcDbEntity
  8
_U+30EC_U+30A4_U+30E4_U+30FC 1
 62
   179
420
  2234388
370
     9
  0
INSERT
  5
88
330
1F
100
AcDbEntity
  8
_U+30EC_U+30A4_U+30E4_U+30FC 1
100
AcDbBlockReference
  2
block 5
 10
0.0
 20
0.0
 30
0.0
  0
INSERT
  5
90
330
1F
100
AcDbEntity
  8
_U+30EC_U+30A4_U+30E4_U+30FC 1
100
AcDbBlockReference
  2
block 6
 10
0.0
 20
0.0
 30
0.0
  0
ENDSEC
  0
SECTION
  2
OBJECTS
  0
DICTIONARY
  5
C
330
0
100
AcDbDictionary
281
     1
  3
ACAD_GROUP
350
D
  3
ACAD_LAYOUT
350
1A
  3
ACAD_MATERIAL
350
3B
  3
ACAD_MLEADERSTYLE
350
9D
  3
ACAD_MLINESTYLE
350
17
  3
ACAD_PLOTSETTINGS
350
19
  3
ACAD_PLOTSTYLENAME
350
E
  3
ACAD_TABLESTYLE
350
9C
  3
ACAD_VISUALSTYLE
350
2A
  0
SUN
  5
3F
330
29
100
AcDbSun
 90
        1
290
     0
 63
     7
421
 16777215
 40
1.0
291
     1
 91
  2455826
 92
 54000000
292
     0
 70
     2
 71
   256
280
     1
  0
DICTIONARY
  5
D
102
{ACAD_REACTORS
330
C
102
}
330
C
100
AcDbDictionary
281
     1
  0
DICTIONARY
  5
1A
102
{ACAD_REACTORS
330
C
102
}
330
C
100
AcDbDictionary
281
     1
  3
Layout1
350
1E
  3
Layout2
350
26
  3
Model
350
22
  0
DICTIONARY
  5
3B
102
{ACAD_REACTORS
330
C
102
}
330
C
100
AcDbDictionary
281
     1
  3
ByBlock
350
3D
  3
ByLayer
350
3C
  3
Global
350
3E
  0
DICTIONARY
  5
9D
102
{ACAD_REACTORS
330
C
102
}
330
C
100
AcDbDictionary
281
     1
  0
DICTIONARY
  5
17
102
{ACAD_REACTORS
330
C
102
}
330
C
100
AcDbDictionary
281
     1
  3
Standard
350
18
  0
DICTIONARY
  5
19
102
{ACAD_REACTORS
330
C
102
}
330
C
100
AcDbDictionary
281
     1
  0
ACDBDICTIONARYWDFLT
  5
E
102
{ACAD_REACTORS
330
C
102
}
330
C
100
AcDbDictionary
281
     1
  3
Normal
350
F
100
AcDbDictionaryWithDefault
340
F
  0
DICTIONARY
  5
9C
102
{ACAD_REACTORS
330
C
102
}
330
C
100
AcDbDictionary
281
     1
  0
DICTIONARY
  5
2A
102
{ACAD_REACTORS
330
C
102
}
330
C
100
AcDbDictionary
281
     1
  3
2dWireframe
350
2F
  3
3D Hidden
350
31
  3
3dWireframe
350
30
  3
Basic
350
32
  3
Brighten
350
36
  3
ColorChange
350
3A
  3
Conceptual
350
34
  3
Dim
350
35
  3
Facepattern
350
39
  3
Flat
350
2B
  3
FlatWithEdges
350
2C
  3
Gouraud
350
2D
  3
GouraudWithEdges
350
2E
  3
Linepattern
350
38
  3
Realistic
350
33
  3
Thicken
350
37
  0
LAYOUT
  5
1E
102
{ACAD_REACTORS
330
1A
102
}
330
1A
100
AcDbPlotSettings
  1

  2
none_device
  4

  6

 40
0.0
 41
0.0
 42
0.0
 43
0.0
 44
0.0
 45
0.0
 46
0.0
 47
0.0
 48
0.0
 49
0.0
140
0.0
141
0.0
142
1.0
143
1.0
 70
   688
 72
     0
 73
     0
 74
     5
  7

 75
    16
 76
     0
 77
     2
 78
   300
147
1.0
148
0.0
149
0.0
100
AcDbLayout
  1
Layout1
 70
     1
 71
     1
 10
0.0
 20
0.0
 11
12.0
 21
9.0
 12
0.0
 22
0.0
 32
0.0
 14
1.000000000000000E+20
 24
1.000000000000000E+20
 34
1.000000000000000E+20
 15
-1.000000000000000E+20
 25
-1.000000000000000E+20
 35
-1.000000000000000E+20
146
0.0
 13
0.0
 23
0.0
 33
0.0
 16
1.0
 26
0.0
 36
0.0
 17
0.0
 27
1.0
 37
0.0
 76
     0
330
1B
  0
LAYOUT
  5
26
102
{ACAD_REACTORS
330
1A
102
}
330
1A
100
AcDbPlotSettings
  1

  2
none_device
  4

  6

 40
0.0
 41
0.0
 42
0.0
 43
0.0
 44
0.0
 45
0.0
 46
0.0
 47
0.0
 48
0.0
 49
0.0
140
0.0
141
0.0
142
1.0
143
1.0
 70
   688
 72
     0
 73
     0
 74
     5
  7

 75
    16
 76
     0
 77
     2
 78
   300
147
1.0
148
0.0
149
0.0
100
AcDbLayout
  1
Layout2
 70
     1
 71
     2
 10
0.0
 20
0.0
 11
0.0
 21
0.0
 12
0.0
 22
0.0
 32
0.0
 14
0.0
 24
0.0
 34
0.0
 15
0.0
 25
0.0
 35
0.0
146
0.0
 13
0.0
 23
0.0
 33
0.0
 16
1.0
 26
0.0
 36
0.0
 17
0.0
 27
1.0
 37
0.0
 76
     0
330
23
  0
LAYOUT
  5
22
102
{ACAD_REACTORS
330
1A
102
}
330
1A
100
AcDbPlotSettings
  1

  2
none_device
  4

  6

 40
0.0
 41
0.0
 42
0.0
 43
0.0
 44
0.0
 45
0.0
 46
0.0
 47
0.0
 48
0.0
 49
0.0
140
0.0
141
0.0
142
1.0
143
1.0
 70
  1712
 72
     0
 73
     0
 74
     0
  7

 75
     0
 76
     0
 77
     2
 78
   300
147
1.0
148
0.0
149
0.0
100
AcDbLayout
  1
Model
 70
     1
 71
     0
 10
0.0
 20
0.0
 11
12.0
 21
9.0
 12
0.0
 22
0.0
 32
0.0
 14
1.000000000000000E+20
 24
1.000000000000000E+20
 34
1.000000000000000E+20
 15
-1.000000000000000E+20
 25
-1.000000000000000E+20
 35
-1.000000000000000E+20
146
0.0
 13
0.0
 23
0.0
 33
0.0
 16
1.0
 26
0.0
 36
0.0
 17
0.0
 27
1.0
 37
0.0
 76
     0
330
1F
331
29
  0
MATERIAL
  5
3D
102
{ACAD_REACTORS
330
3B
102
}
330
3B
100
AcDbMaterial
  1
ByBlock
 72
     1
 94
      127
  0
MATERIAL
  5
3C
102
{ACAD_REACTORS
330
3B
102
}
330
3B
100
AcDbMaterial
  1
ByLayer
 72
     1
 94
      127
  0
MATERIAL
  5
3E
102
{ACAD_REACTORS
330
3B
102
}
330
3B
100
AcDbMaterial
  1
Global
 72
     1
 94
      127
  0
MLINESTYLE
  5
18
102
{ACAD_REACTORS
330
17
102
}
330
17
100
AcDbMlineStyle
  2
Standard
 70
     0
  3

 62
   256
 51
90.0
 52
90.0
 71
     2
 49
0.5
 62
   256
  6
BYLAYER
 49
-0.5
 62
   256
  6
BYLAYER
  0
ACDBPLACEHOLDER
  5
F
102
{ACAD_REACTORS
330
E
102
}
330
E
  0
VISUALSTYLE
  5
2F
102
{ACAD_REACTORS
330
2A
102
}
330
2A
100
AcDbVisualStyle
  2
2dWireframe
 70
     4
177
     2
291
     0
 71
     0
176
     1
 72
     2
176
     1
 73
     0
176
     1
 90
        0
176
     1
 40
-0.6
176
     1
 41
-30.0
176
     1
 62
     5
 63
     7
421
 16777215
176
     1
 74
     1
176
     1
 91
        4
176
     1
 64
     7
176
     1
 65
   257
176
     1
 75
     1
176
     1
175
     1
176
     1
 42
1.0
176
     1
 92
        0
176
     1
 66
   257
176
     1
 43
1.0
176
     1
 76
     1
176
     1
 77
     6
176
     1
 78
     2
176
     1
 67
     7
176
     1
 79
     5
176
     1
170
     0
176
     1
171
     0
176
     1
290
     0
176
     1
 93
        1
176
     1
 44
0.0
176
     1
173
     0
176
     1
  0
VISUALSTYLE
  5
31
102
{ACAD_REACTORS
330
2A
102
}
330
2A
100
AcDbVisualStyle
  2
3D Hidden
 70
     6
177
     2
291
     0
 71
     1
176
     1
 72
     2
176
     1
 73
     2
176
     1
 90
        0
176
     1
 40
-0.6
176
     1
 41
-30.0
176
     1
 62
     5
 63
     7
421
 16777215
176
     1
 74
     2
176
     1
 91
        2
176
     1
 64
     7
176
     1
 65
   257
176
     1
 75
     2
176
     1
175
     1
176
     1
 42
40.0
176
     1
 92
        0
176
     1
 66
   257
176
     1
 43
1.0
176
     1
 76
     1
176
     1
 77
     6
176
     1
 78
     2
176
     1
 67
     7
176
     1
 79
     3
176
     1
170
     0
176
     1
171
     0
176
     1
290
     0
176
     1
 93
        1
176
     1
 44
0.0
176
     1
173
     0
176
     1
  0
VISUALSTYLE
  5
30
102
{ACAD_REACTORS
330
2A
102
}
330
2A
100
AcDbVisualStyle
  2
3dWireframe
 70
     5
177
     2
291
     0
 71
     0
176
     1
 72
     2
176
     1
 73
     0
176
     1
 90
        0
176
     1
 40
-0.6
176
     1
 41
-30.0
176
     1
 62
     5
 63
     7
421
 16777215
176
     1
 74
     1
176
     1
 91
        4
176
     1
 64
     7
176
     1
 65
   257
176
     1
 75
     1
176
     1
175
     1
176
     1
 42
1.0
176
     1
 92
        0
176
     1
 66
   257
176
     1
 43
1.0
176
     1
 76
     1
176
     1
 77
     6
176
     1
 78
     2
176
     1
 67
     7
176
     1
 79
     5
176
     1
170
     0
176
     1
171
     0
176
     1
290
     0
176
     1
 93
        1
176
     1
 44
0.0
176
     1
173
     0
176
     1
  0
VISUALSTYLE
  5
32
102
{ACAD_REACTORS
330
2A
102
}
330
2A
100
AcDbVisualStyle
  2
Basic
 70
     7
177
     2
291
     1
 71
     1
176
     1
 72
     0
176
     1
 73
     1
176
     1
 90
        0
176
     1
 40
-0.6
176
     1
 41
-30.0
176
     1
 62
     5
 63
     7
421
 16777215
176
     1
 74
     0
176
     1
 91
        4
176
     1
 64
     7
176
     1
 65
   257
176
     1
 75
     1
176
     1
175
     1
176
     1
 42
1.0
176
     1
 92
        8
176
     1
 66
     7
176
     1
 43
1.0
176
     1
 76
     1
176
     1
 77
     6
176
     1
 78
     2
176
     1
 67
     7
176
     1
 79
     5
176
     1
170
     0
176
     1
171
     0
176
     1
290
     0
176
     1
 93
        1
176
     1
 44
0.0
176
     1
173
     0
176
     1
  0
VISUALSTYLE
  5
36
102
{ACAD_REACTORS
330
2A
102
}
330
2A
100
AcDbVisualStyle
  2
Brighten
 70
    12
177
     2
291
     1
 71
     2
176
     1
 72
     2
176
     1
 73
     0
176
     1
 90
        0
176
     1
 40
-0.6
176
     1
 41
-30.0
176
     1
 62
     5
 63
     7
421
 16777215
176
     1
 74
     1
176
     1
 91
        4
176
     1
 64
     7
176
     1
 65
   257
176
     1
 75
     1
176
     1
175
     1
176
     1
 42
1.0
176
     1
 92
        8
176
     1
 66
     7
176
     1
 43
1.0
176
     1
 76
     1
176
     1
 77
     6
176
     1
 78
     2
176
     1
 67
     7
176
     1
 79
     5
176
     1
170
     0
176
     1
171
     0
176
     1
290
     0
176
     1
 93
        1
176
     1
 44
50.0
176
     1
173
     0
176
     1
  0
VISUALSTYLE
  5
3A
102
{ACAD_REACTORS
330
2A
102
}
330
2A
100
AcDbVisualStyle
  2
ColorChange
 70
    16
177
     2
291
     1
 71
     2
176
     1
 72
     2
176
     1
 73
     3
176
     1
 90
        0
176
     1
 40
-0.6
176
     1
 41
-30.0
176
     1
 62
     5
 63
     8
421
  8421504
176
     1
 74
     1
176
     1
 91
        4
176
     1
 64
     7
176
     1
 65
   257
176
     1
 75
     1
176
     1
175
     1
176
     1
 42
1.0
176
     1
 92
        8
176
     1
 66
     8
424
  8421504
176
     1
 43
1.0
176
     1
 76
     1
176
     1
 77
     6
176
     1
 78
     2
176
     1
 67
     7
176
     1
 79
     5
176
     1
170
     0
176
     1
171
     0
176
     1
290
     0
176
     1
 93
        1
176
     1
 44
0.0
176
     1
173
     0
176
     1
  0
VISUALSTYLE
  5
34
102
{ACAD_REACTORS
330
2A
102
}
330
2A
100
AcDbVisualStyle
  2
Conceptual
 70
     9
177
     2
291
     0
 71
     3
176
     1
 72
     2
176
     1
 73
     0
176
     1
 90
        0
176
     1
 40
-0.6
176
     1
 41
-30.0
176
     1
 62
     5
 63
     7
421
 16777215
176
     1
 74
     2
176
     1
 91
        2
176
     1
 64
     7
176
     1
 65
   257
176
     1
 75
     1
176
     1
175
     1
176
     1
 42
40.0
176
     1
 92
        8
176
     1
 66
     7
176
     1
 43
1.0
176
     1
 76
     1
176
     1
 77
     6
176
     1
 78
     2
176
     1
 67
     7
176
     1
 79
     3
176
     1
170
     0
176
     1
171
     0
176
     1
290
     0
176
     1
 93
        1
176
     1
 44
0.0
176
     1
173
     0
176
     1
  0
VISUALSTYLE
  5
35
102
{ACAD_REACTORS
330
2A
102
}
330
2A
100
AcDbVisualStyle
  2
Dim
 70
    11
177
     2
291
     1
 71
     2
176
     1
 72
     2
176
     1
 73
     0
176
     1
 90
        0
176
     1
 40
-0.6
176
     1
 41
-30.0
176
     1
 62
     5
 63
     7
421
 16777215
176
     1
 74
     1
176
     1
 91
        4
176
     1
 64
     7
176
     1
 65
   257
176
     1
 75
     1
176
     1
175
     1
176
     1
 42
1.0
176
     1
 92
        8
176
     1
 66
     7
176
     1
 43
1.0
176
     1
 76
     1
176
     1
 77
     6
176
     1
 78
     2
176
     1
 67
     7
176
     1
 79
     5
176
     1
170
     0
176
     1
171
     0
176
     1
290
     0
176
     1
 93
        1
176
     1
 44
-50.0
176
     1
173
     0
176
     1
  0
VISUALSTYLE
  5
39
102
{ACAD_REACTORS
330
2A
102
}
330
2A
100
AcDbVisualStyle
  2
Facepattern
 70
    15
177
     2
291
     1
 71
     2
176
     1
 72
     2
176
     1
 73
     0
176
     1
 90
        0
176
     1
 40
-0.6
176
     1
 41
-30.0
176
     1
 62
     5
 63
     7
421
 16777215
176
     1
 74
     1
176
     1
 91
        4
176
     1
 64
     7
176
     1
 65
   257
176
     1
 75
     1
176
     1
175
     1
176
     1
 42
1.0
176
     1
 92
        8
176
     1
 66
     7
176
     1
 43
1.0
176
     1
 76
     1
176
     1
 77
     6
176
     1
 78
     2
176
     1
 67
     7
176
     1
 79
     5
176
     1
170
     0
176
     1
171
     0
176
     1
290
     0
176
     1
 93
        1
176
     1
 44
0.0
176
     1
173
     0
176
     1
  0
VISUALSTYLE
  5
2B
102
{ACAD_REACTORS
330
2A
102
}
330
2A
100
AcDbVisualStyle
  2
Flat
 70
     0
177
     2
291
     1
 71
     2
176
     1
 72
     1
176
     1
 73
     1
176
     1
 90
        2
176
     1
 40
-0.6
176
     1
 41
30.0
176
     1
 62
     5
 63
     7
421
 16777215
176
     1
 74
     0
176
     1
 91
        4
176
     1
 64
     7
176
     1
 65
   257
176
     1
 75
     1
176
     1
175
     1
176
     1
 42
1.0
176
     1
 92
        8
176
     1
 66
     7
176
     1
 43
1.0
176
     1
 76
     1
176
     1
 77
     6
176
     1
 78
     2
176
     1
 67
     7
176
     1
 79
     5
176
     1
170
     0
176
     1
171
     0
176
     1
290
     0
176
     1
 93
       13
176
     1
 44
0.0
176
     1
173
     0
176
     1
  0
VISUALSTYLE
  5
2C
102
{ACAD_REACTORS
330
2A
102
}
330
2A
100
AcDbVisualStyle
  2
FlatWithEdges
 70
     1
177
     2
291
     1
 71
     2
176
     1
 72
     1
176
     1
 73
     1
176
     1
 90
        2
176
     1
 40
-0.6
176
     1
 41
30.0
176
     1
 62
     5
 63
     7
421
 16777215
176
     1
 74
     1
176
     1
 91
        4
176
     1
 64
     7
176
     1
 65
   257
176
     1
 75
     1
176
     1
175
     1
176
     1
 42
1.0
176
     1
 92
        0
176
     1
 66
   257
176
     1
 43
1.0
176
     1
 76
     1
176
     1
 77
     6
176
     1
 78
     2
176
     1
 67
     7
176
     1
 79
     5
176
     1
170
     0
176
     1
171
     0
176
     1
290
     0
176
     1
 93
       13
176
     1
 44
0.0
176
     1
173
     0
176
     1
  0
VISUALSTYLE
  5
2D
102
{ACAD_REACTORS
330
2A
102
}
330
2A
100
AcDbVisualStyle
  2
Gouraud
 70
     2
177
     2
291
     1
 71
     2
176
     1
 72
     2
176
     1
 73
     1
176
     1
 90
        2
176
     1
 40
-0.6
176
     1
 41
30.0
176
     1
 62
     5
 63
     7
421
 16777215
176
     1
 74
     0
176
     1
 91
        4
176
     1
 64
     7
176
     1
 65
   257
176
     1
 75
     1
176
     1
175
     1
176
     1
 42
1.0
176
     1
 92
        0
176
     1
 66
     7
176
     1
 43
1.0
176
     1
 76
     1
176
     1
 77
     6
176
     1
 78
     2
176
     1
 67
     7
176
     1
 79
     5
176
     1
170
     0
176
     1
171
     0
176
     1
290
     0
176
     1
 93
       13
176
     1
 44
0.0
176
     1
173
     0
176
     1
  0
VISUALSTYLE
  5
2E
102
{ACAD_REACTORS
330
2A
102
}
330
2A
100
AcDbVisualStyle
  2
GouraudWithEdges
 70
     3
177
     2
291
     1
 71
     2
176
     1
 72
     2
176
     1
 73
     1
176
     1
 90
        2
176
     1
 40
-0.6
176
     1
 41
30.0
176
     1
 62
     5
 63
     7
421
 16777215
176
     1
 74
     1
176
     1
 91
        4
176
     1
 64
     7
176
     1
 65
   257
176
     1
 75
     1
176
     1
175
     1
176
     1
 42
1.0
176
     1
 92
        0
176
     1
 66
   257
176
     1
 43
1.0
176
     1
 76
     1
176
     1
 77
     6
176
     1
 78
     2
176
     1
 67
     7
176
     1
 79
     5
176
     1
170
     0
176
     1
171
     0
176
     1
290
     0
176
     1
 93
       13
176
     1
 44
0.0
176
     1
173
     0
176
     1
  0
VISUALSTYLE
  5
38
102
{ACAD_REACTORS
330
2A
102
}
330
2A
100
AcDbVisualStyle
  2
Linepattern
 70
    14
177
     2
291
     1
 71
     2
176
     1
 72
     2
176
     1
 73
     0
176
     1
 90
        0
176
     1
 40
-0.6
176
     1
 41
-30.0
176
     1
 62
     5
 63
     7
421
 16777215
176
     1
 74
     1
176
     1
 91
        4
176
     1
 64
     7
176
     1
 65
   257
176
     1
 75
     7
176
     1
175
     7
176
     1
 42
1.0
176
     1
 92
        8
176
     1
 66
     7
176
     1
 43
1.0
176
     1
 76
     1
176
     1
 77
     6
176
     1
 78
     2
176
     1
 67
     7
176
     1
 79
     5
176
     1
170
     0
176
     1
171
     0
176
     1
290
     0
176
     1
 93
        1
176
     1
 44
0.0
176
     1
173
     0
176
     1
  0
VISUALSTYLE
  5
33
102
{ACAD_REACTORS
330
2A
102
}
330
2A
100
AcDbVisualStyle
  2
Realistic
 70
     8
177
     2
291
     0
 71
     2
176
     1
 72
     2
176
     1
 73
     0
176
     1
 90
        0
176
     1
 40
-0.6
176
     1
 41
-30.0
176
     1
 62
     5
 63
     7
421
 16777215
176
     1
 74
     1
176
     1
 91
        0
176
     1
 64
     7
176
     1
 65
   257
176
     1
 75
     1
176
     1
175
     1
176
     1
 42
1.0
176
     1
 92
        8
176
     1
 66
     8
424
  7895160
176
     1
 43
1.0
176
     1
 76
     1
176
     1
 77
     6
176
     1
 78
     2
176
     1
 67
     7
176
     1
 79
     5
176
     1
170
     0
176
     1
171
     0
176
     1
290
     0
176
     1
 93
       13
176
     1
 44
0.0
176
     1
173
     0
176
     1
  0
VISUALSTYLE
  5
37
102
{ACAD_REACTORS
330
2A
102
}
330
2A
100
AcDbVisualStyle
  2
Thicken
 70
    13
177
     2
291
     1
 71
     2
176
     1
 72
     2
176
     1
 73
     0
176
     1
 90
        0
176
     1
 40
-0.6
176
     1
 41
-30.0
176
     1
 62
     5
 63
     7
421
 16777215
176
     1
 74
     1
176
     1
 91
        4
176
     1
 64
     7
176
     1
 65
   257
176
     1
 75
     1
176
     1
175
     1
176
     1
 42
1.0
176
     1
 92
       12
176
     1
 66
     7
176
     1
 43
1.0
176
     1
 76
     1
176
     1
 77
     6
176
     1
 78
     2
176
     1
 67
     7
176
     1
 79
     5
176
     1
170
     0
176
     1
171
     0
176
     1
290
     0
176
     1
 93
        1
176
     1
 44
0.0
176
     1
173
     0
176
     1
  0
ENDSEC
  0
EOF
