  0
SECTION
  2
HEADER
  9
$ACADVER
  1
AC1024
  9
$ACADMAINTVER
 70
     6
  9
$DWGCODEPAGE
  3
UNDEFINED
  9
$INSBASE
 10
0.0
 20
0.0
 30
0.0
  9
$EXTMIN
 10
1.000000000000000E+20
 20
1.000000000000000E+20
 30
1.000000000000000E+20
  9
$EXTMAX
 10
-1.000000000000000E+20
 20
-1.000000000000000E+20
 30
-1.000000000000000E+20
  9
$LIMMIN
 10
0.0
 20
0.0
  9
$LIMMAX
 10
12.0
 20
9.0
  9
$ORTHOMODE
 70
     0
  9
$REGENMODE
 70
     1
  9
$FILLMODE
 70
     1
  9
$QTEXTMODE
 70
     0
  9
$MIRRTEXT
 70
     1
  9
$LTSCALE
 40
1.0
  9
$ATTMODE
 70
     1
  9
$TEXTSIZE
 40
0.2
  9
$TRACEWID
 40
0.05
  9
$TEXTSTYLE
  7
Standard
  9
$CLAYER
  8
0
  9
$CELTYPE
  6
ByLayer
  9
$CECOLOR
 62
   256
  9
$CELTSCALE
 40
1.0
  9
$DISPSILH
 70
     0
  9
$DIMSCALE
 40
1.0
  9
$DIMASZ
 40
0.18
  9
$DIMEXO
 40
0.0625
  9
$DIMDLI
 40
0.38
  9
$DIMRND
 40
0.0
  9
$DIMDLE
 40
0.0
  9
$DIMEXE
 40
0.18
  9
$DIMTP
 40
0.0
  9
$DIMTM
 40
0.0
  9
$DIMTXT
 40
0.18
  9
$DIMCEN
 40
0.09
  9
$DIMTSZ
 40
0.0
  9
$DIMTOL
 70
     0
  9
$DIMLIM
 70
     0
  9
$DIMTIH
 70
     1
  9
$DIMTOH
 70
     1
  9
$DIMSE1
 70
     0
  9
$DIMSE2
 70
     0
  9
$DIMTAD
 70
     0
  9
$DIMZIN
 70
     0
  9
$DIMBLK
  1

  9
$DIMASO
 70
     1
  9
$DIMSHO
 70
     1
  9
$DIMPOST
  1

  9
$DIMAPOST
  1

  9
$DIMALT
 70
     0
  9
$DIMALTD
 70
     2
  9
$DIMALTF
 40
25.4
  9
$DIMLFAC
 40
1.0
  9
$DIMTOFL
 70
     0
  9
$DIMTVP
 40
0.0
  9
$DIMTIX
 70
     0
  9
$DIMSOXD
 70
     0
  9
$DIMSAH
 70
     0
  9
$DIMBLK1
  1

  9
$DIMBLK2
  1

  9
$DIMSTYLE
  2
Standard
  9
$DIMCLRD
 70
     0
  9
$DIMCLRE
 70
     0
  9
$DIMCLRT
 70
     0
  9
$DIMTFAC
 40
1.0
  9
$DIMGAP
 40
0.09
  9
$DIMJUST
 70
     0
  9
$DIMSD1
 70
     0
  9
$DIMSD2
 70
     0
  9
$DIMTOLJ
 70
     1
  9
$DIMTZIN
 70
     0
  9
$DIMALTZ
 70
     0
  9
$DIMALTTZ
 70
     0
  9
$DIMUPT
 70
     0
  9
$DIMDEC
 70
     4
  9
$DIMTDEC
 70
     4
  9
$DIMALTU
 70
     2
  9
$DIMALTTD
 70
     2
  9
$DIMTXSTY
  7
Standard
  9
$DIMAUNIT
 70
     0
  9
$DIMADEC
 70
     0
  9
$DIMALTRND
 40
0.0
  9
$DIMAZIN
 70
     0
  9
$DIMDSEP
 70
    46
  9
$DIMATFIT
 70
     3
  9
$DIMFRAC
 70
     0
  9
$DIMLDRBLK
  1

  9
$DIMLUNIT
 70
     2
  9
$DIMLWD
 70
    -2
  9
$DIMLWE
 70
    -2
  9
$DIMTMOVE
 70
     0
  9
$DIMFXL
 40
1.0
  9
$DIMFXLON
 70
     0
  9
$DIMJOGANG
 40
0.7853981633974483
  9
$DIMTFILL
 70
     0
  9
$DIMTFILLCLR
 70
     0
  9
$DIMARCSYM
 70
     0
  9
$DIMLTYPE
  6

  9
$DIMLTEX1
  6

  9
$DIMLTEX2
  6

  9
$DIMTXTDIRECTION
 70
     0
  9
$LUNITS
 70
     2
  9
$LUPREC
 70
     4
  9
$SKETCHINC
 40
0.1
  9
$FILLETRAD
 40
0.5
  9
$AUNITS
 70
     0
  9
$AUPREC
 70
     0
  9
$MENU
  1
.
  9
$ELEVATION
 40
0.0
  9
$PELEVATION
 40
0.0
  9
$THICKNESS
 40
0.0
  9
$LIMCHECK
 70
     0
  9
$CHAMFERA
 40
0.5
  9
$CHAMFERB
 40
0.5
  9
$CHAMFERC
 40
1.0
  9
$CHAMFERD
 40
0.0
  9
$SKPOLY
 70
     0
  9
$TDCREATE
 40
2457917.620092593
  9
$TDUCREATE
 40
2457917.245092593
  9
$TDUPDATE
 40
2457917.620092593
  9
$TDUUPDATE
 40
2457917.245092593
  9
$TDINDWG
 40
0.0000000116
  9
$TDUSRTIMER
 40
0.0000000116
  9
$USRTIMER
 70
     1
  9
$ANGBASE
 50
0.0
  9
$ANGDIR
 70
     0
  9
$PDMODE
 70
     0
  9
$PDSIZE
 40
0.0
  9
$PLINEWID
 40
0.0
  9
$SPLFRAME
 70
     0
  9
$SPLINETYPE
 70
     6
  9
$SPLINESEGS
 70
     8
  9
$HANDSEED
  5
12A
  9
$SURFTAB1
 70
     6
  9
$SURFTAB2
 70
     6
  9
$SURFTYPE
 70
     6
  9
$SURFU
 70
     6
  9
$SURFV
 70
     6
  9
$UCSBASE
  2

  9
$UCSNAME
  2

  9
$UCSORG
 10
0.0
 20
0.0
 30
0.0
  9
$UCSXDIR
 10
1.0
 20
0.0
 30
0.0
  9
$UCSYDIR
 10
0.0
 20
1.0
 30
0.0
  9
$UCSORTHOREF
  2

  9
$UCSORTHOVIEW
 70
     0
  9
$UCSORGTOP
 10
0.0
 20
0.0
 30
0.0
  9
$UCSORGBOTTOM
 10
0.0
 20
0.0
 30
0.0
  9
$UCSORGLEFT
 10
0.0
 20
0.0
 30
0.0
  9
$UCSORGRIGHT
 10
0.0
 20
0.0
 30
0.0
  9
$UCSORGFRONT
 10
0.0
 20
0.0
 30
0.0
  9
$UCSORGBACK
 10
0.0
 20
0.0
 30
0.0
  9
$PUCSBASE
  2

  9
$PUCSNAME
  2

  9
$PUCSORG
 10
0.0
 20
0.0
 30
0.0
  9
$PUCSXDIR
 10
1.0
 20
0.0
 30
0.0
  9
$PUCSYDIR
 10
0.0
 20
1.0
 30
0.0
  9
$PUCSORTHOREF
  2

  9
$PUCSORTHOVIEW
 70
     0
  9
$PUCSORGTOP
 10
0.0
 20
0.0
 30
0.0
  9
$PUCSORGBOTTOM
 10
0.0
 20
0.0
 30
0.0
  9
$PUCSORGLEFT
 10
0.0
 20
0.0
 30
0.0
  9
$PUCSORGRIGHT
 10
0.0
 20
0.0
 30
0.0
  9
$PUCSORGFRONT
 10
0.0
 20
0.0
 30
0.0
  9
$PUCSORGBACK
 10
0.0
 20
0.0
 30
0.0
  9
$USERI1
 70
     0
  9
$USERI2
 70
     0
  9
$USERI3
 70
     0
  9
$USERI4
 70
     0
  9
$USERI5
 70
     0
  9
$USERR1
 40
0.0
  9
$USERR2
 40
0.0
  9
$USERR3
 40
0.0
  9
$USERR4
 40
0.0
  9
$USERR5
 40
0.0
  9
$WORLDVIEW
 70
     1
  9
$SHADEDGE
 70
     3
  9
$SHADEDIF
 70
    70
  9
$TILEMODE
 70
     1
  9
$MAXACTVP
 70
    64
  9
$PINSBASE
 10
0.0
 20
0.0
 30
0.0
  9
$PLIMCHECK
 70
     0
  9
$PEXTMIN
 10
1.000000000000000E+20
 20
1.000000000000000E+20
 30
1.000000000000000E+20
  9
$PEXTMAX
 10
-1.000000000000000E+20
 20
-1.000000000000000E+20
 30
-1.000000000000000E+20
  9
$PLIMMIN
 10
0.0
 20
0.0
  9
$PLIMMAX
 10
12.0
 20
9.0
  9
$UNITMODE
 70
     0
  9
$VISRETAIN
 70
     1
  9
$PLINEGEN
 70
     0
  9
$PSLTSCALE
 70
     1
  9
$TREEDEPTH
 70
  3020
  9
$CMLSTYLE
  2
Standard
  9
$CMLJUST
 70
     0
  9
$CMLSCALE
 40
1.0
  9
$PROXYGRAPHICS
 70
     1
  9
$MEASUREMENT
 70
     0
  9
$CELWEIGHT
370
    -1
  9
$ENDCAPS
280
     0
  9
$JOINSTYLE
280
     0
  9
$LWDISPLAY
290
     1
  9
$INSUNITS
 70
     1
  9
$HYPERLINKBASE
  1

  9
$STYLESHEET
  1

  9
$XEDIT
290
     1
  9
$CEPSNTYPE
380
     0
  9
$PSTYLEMODE
290
     1
  9
$FINGERPRINTGUID
  2
{E93A0240-B1C8-7A51-2470-9061C9EEAA29}
  9
$VERSIONGUID
  2
{FAEB1C32-E019-11D5-929B-00C0DF256EC4}
  9
$EXTNAMES
290
     1
  9
$PSVPSCALE
 40
0.0
  9
$OLESTARTUP
290
     0
  9
$SORTENTS
280
   127
  9
$INDEXCTL
280
     0
  9
$HIDETEXT
280
     1
  9
$XCLIPFRAME
280
     2
  9
$HALOGAP
280
     0
  9
$OBSCOLOR
 70
   257
  9
$OBSLTYPE
280
     0
  9
$INTERSECTIONDISPLAY
280
     0
  9
$INTERSECTIONCOLOR
 70
   257
  9
$DIMASSOC
280
     2
  9
$PROJECTNAME
  1

  9
$CAMERADISPLAY
290
     0
  9
$LENSLENGTH
 40
50.0
  9
$CAMERAHEIGHT
 40
0.0
  9
$STEPSPERSEC
 40
2.0
  9
$STEPSIZE
 40
6.0
  9
$3DDWFPREC
 40
2.0
  9
$PSOLWIDTH
 40
0.25
  9
$PSOLHEIGHT
 40
4.0
  9
$LOFTANG1
 40
1.570796326794897
  9
$LOFTANG2
 40
1.570796326794897
  9
$LOFTMAG1
 40
0.0
  9
$LOFTMAG2
 40
0.0
  9
$LOFTPARAM
 70
     7
  9
$LOFTNORMALS
280
     1
  9
$LATITUDE
 40
37.795
  9
$LONGITUDE
 40
-122.394
  9
$NORTHDIRECTION
 40
0.0
  9
$TIMEZONE
 70
 -8000
  9
$LIGHTGLYPHDISPLAY
280
     1
  9
$TILEMODELIGHTSYNCH
280
     1
  9
$CMATERIAL
347
3C
  9
$SOLIDHIST
280
     1
  9
$SHOWHIST
280
     1
  9
$DWFFRAME
280
     2
  9
$DGNFRAME
280
     2
  9
$REALWORLDSCALE
290
     1
  9
$INTERFERECOLOR
 62
   256
  9
$CSHADOW
280
     0
  9
$SHADOWPLANELOCATION
 40
0.0
  0
ENDSEC
  0
SECTION
  2
CLASSES
  0
CLASS
  1
ACDBDICTIONARYWDFLT
  2
AcDbDictionaryWithDefault
  3
ObjectDBX Classes
 90
        0
 91
        4
280
     0
281
     0
  0
CLASS
  1
VISUALSTYLE
  2
AcDbVisualStyle
  3
ObjectDBX Classes
 90
     4095
 91
        4
280
     0
281
     0
  0
CLASS
  1
MATERIAL
  2
AcDbMaterial
  3
ObjectDBX Classes
 90
     1153
 91
        4
280
     0
281
     0
  0
CLASS
  1
SUN
  2
AcDbSun
  3
SCENEOE
 90
     1024
 91
        4
280
     0
281
     0
  0
ENDSEC
  0
SECTION
  2
TABLES
  0
TABLE
  2
VPORT
  5
8
330
0
100
AcDbSymbolTable
 70
     1
  0
VPORT
  5
29
330
8
100
AcDbSymbolTableRecord
100
AcDbViewportTableRecord
  2
*Active
 70
     0
 10
0.0
 20
0.0
 11
1.0
 21
1.0
 12
0.0
 22
0.0
 13
0.0
 23
0.0
 14
0.5
 24
0.5
 15
0.5
 25
0.5
 16
0.0
 26
0.0
 36
1.0
 17
91.00082462281999
 27
-128.4993055234307
 37
0.0
 40
256.9986110468615
 41
0.7081814508812795
 42
50.0
 43
0.0
 44
0.0
 50
0.0
 51
0.0
 71
     0
 72
   100
 73
     1
 74
     3
 75
     0
 76
     0
 77
     0
 78
     0
281
     0
 65
     1
110
0.0
120
0.0
130
0.0
111
1.0
121
0.0
131
0.0
112
0.0
122
1.0
132
0.0
 79
     0
146
0.0
 60
     3
 61
     5
292
     1
282
     1
141
0.0
142
0.0
 63
   250
361
3F
  0
ENDTAB
  0
TABLE
  2
LTYPE
  5
5
330
0
100
AcDbSymbolTable
 70
     1
  0
LTYPE
  5
14
330
5
100
AcDbSymbolTableRecord
100
AcDbLinetypeTableRecord
  2
ByBlock
 70
     0
  3

 72
    65
 73
     0
 40
0.0
  0
LTYPE
  5
15
330
5
100
AcDbSymbolTableRecord
100
AcDbLinetypeTableRecord
  2
ByLayer
 70
     0
  3

 72
    65
 73
     0
 40
0.0
  0
LTYPE
  5
16
330
5
100
AcDbSymbolTableRecord
100
AcDbLinetypeTableRecord
  2
Continuous
 70
     0
  3
Solid line
 72
    65
 73
     0
 40
0.0
  0
ENDTAB
  0
TABLE
  2
LAYER
  5
2
330
0
100
AcDbSymbolTable
 70
     2
  0
LAYER
  5
10
330
2
100
AcDbSymbolTableRecord
100
AcDbLayerTableRecord
  2
0
 70
     0
 62
     7
  6
Continuous
370
    -3
390
F
347
3E
  0
LAYER
  5
40
330
2
100
AcDbSymbolTableRecord
100
AcDbLayerTableRecord
  2
_U+30EC_U+30A4_U+30E4_U+30FC 1
 70
     0
 62
     7
  6
Continuous
370
    -3
390
F
347
3E
  0
ENDTAB
  0
TABLE
  2
STYLE
  5
3
330
0
100
AcDbSymbolTable
 70
     1
  0
STYLE
  5
11
330
3
100
AcDbSymbolTableRecord
100
AcDbTextStyleTableRecord
  2
Standard
 70
     0
 40
0.0
 41
1.0
 50
0.0
 71
     0
 42
0.2
  3
txt
  4

  0
ENDTAB
  0
TABLE
  2
VIEW
  5
6
330
0
100
AcDbSymbolTable
 70
     0
  0
ENDTAB
  0
TABLE
  2
UCS
  5
7
330
0
100
AcDbSymbolTable
 70
     0
  0
ENDTAB
  0
TABLE
  2
APPID
  5
9
330
0
100
AcDbSymbolTable
 70
     1
  0
APPID
  5
12
330
9
100
AcDbSymbolTableRecord
100
AcDbRegAppTableRecord
  2
ACAD
 70
     0
  0
ENDTAB
  0
TABLE
  2
DIMSTYLE
  5
A
330
0
100
AcDbSymbolTable
 70
     1
100
AcDbDimStyleTable
  0
DIMSTYLE
105
27
330
A
100
AcDbSymbolTableRecord
100
AcDbDimStyleTableRecord
  2
Standard
 70
     0
178
     0
340
11
  0
ENDTAB
  0
TABLE
  2
BLOCK_RECORD
  5
1
330
0
100
AcDbSymbolTable
 70
     8
  0
BLOCK_RECORD
  5
1F
330
1
100
AcDbSymbolTableRecord
100
AcDbBlockTableRecord
  2
*Model_Space
340
22
 70
     0
280
     1
281
     0
  0
BLOCK_RECORD
  5
1B
330
1
100
AcDbSymbolTableRecord
100
AcDbBlockTableRecord
  2
*Paper_Space
340
1E
 70
     0
280
     1
281
     0
  0
BLOCK_RECORD
  5
23
330
1
100
AcDbSymbolTableRecord
100
AcDbBlockTableRecord
  2
*Paper_Space0
340
26
 70
     0
280
     1
281
     0
  0
BLOCK_RECORD
  5
AB
330
1
100
AcDbSymbolTableRecord
100
AcDbBlockTableRecord
  2
block 2
340
0
102
{BLKREFS
331
AC
102
}
 70
     0
280
     1
281
     0
  0
BLOCK_RECORD
  5
B9
330
1
100
AcDbSymbolTableRecord
100
AcDbBlockTableRecord
  2
block 3
340
0
102
{BLKREFS
331
BA
102
}
 70
     0
280
     1
281
     0
  0
BLOCK_RECORD
  5
D0
330
1
100
AcDbSymbolTableRecord
100
AcDbBlockTableRecord
  2
block 4
340
0
102
{BLKREFS
331
D1
102
}
 70
     0
280
     1
281
     0
  0
BLOCK_RECORD
  5
E4
330
1
100
AcDbSymbolTableRecord
100
AcDbBlockTableRecord
  2
block 5
340
0
102
{BLKREFS
331
E5
102
}
 70
     0
280
     1
281
     0
  0
BLOCK_RECORD
  5
F8
330
1
100
AcDbSymbolTableRecord
100
AcDbBlockTableRecord
  2
block 6
340
0
102
{BLKREFS
331
F9
102
}
 70
     0
280
     1
281
     0
  0
BLOCK_RECORD
  5
111
330
1
100
AcDbSymbolTableRecord
100
AcDbBlockTableRecord
  2
block 7
340
0
102
{BLKREFS
331
112
102
}
 70
     0
280
     1
281
     0
  0
BLOCK_RECORD
  5
121
330
1
100
AcDbSymbolTableRecord
100
AcDbBlockTableRecord
  2
block 8
340
0
102
{BLKREFS
331
122
102
}
 70
     0
280
     1
281
     0
  0
ENDTAB
  0
ENDSEC
  0
SECTION
  2
BLOCKS
  0
BLOCK
  5
20
330
1F
100
AcDbEntity
  8
0
100
AcDbBlockBegin
  2
*Model_Space
 70
     0
 10
0.0
 20
0.0
 30
0.0
  3
*Model_Space
  1

  0
ENDBLK
  5
21
330
1F
100
AcDbEntity
  8
0
100
AcDbBlockEnd
  0
BLOCK
  5
1C
330
1B
100
AcDbEntity
 67
     1
  8
0
100
AcDbBlockBegin
  2
*Paper_Space
 70
     0
 10
0.0
 20
0.0
 30
0.0
  3
*Paper_Space
  1

  0
ENDBLK
  5
1D
330
1B
100
AcDbEntity
 67
     1
  8
0
100
AcDbBlockEnd
  0
BLOCK
  5
24
330
23
100
AcDbEntity
  8
0
100
AcDbBlockBegin
  2
*Paper_Space0
 70
     0
 10
0.0
 20
0.0
 30
0.0
  3
*Paper_Space0
  1

  0
ENDBLK
  5
25
330
23
100
AcDbEntity
  8
0
100
AcDbBlockEnd
  0
BLOCK
  5
AD
330
AB
100
AcDbEntity
  8
0
100
AcDbBlockBegin
  2
block 2
 70
     0
 10
0.0
 20
0.0
 30
0.0
  3
block 2
  1

  0
SPLINE
  5
AF
330
AB
100
AcDbEntity
  8
_U+30EC_U+30A4_U+30E4_U+30FC 1
370
     0
100
AcDbSpline
210
0.0
220
0.0
230
1.0
 70
    11
 71
     3
 72
    26
 73
    22
 74
     0
 42
0.0000000001
 43
0.0000000001
 12
1.0
 22
0.0
 32
0.0
 13
1.0
 23
0.0
 33
0.0
 40
0.0
 40
0.0
 40
0.0
 40
0.0
 40
1.0
 40
1.0
 40
1.0
 40
2.0
 40
2.0
 40
2.0
 40
3.0
 40
3.0
 40
3.0
 40
4.0
 40
4.0
 40
4.0
 40
5.0
 40
5.0
 40
5.0
 40
6.0
 40
6.0
 40
6.0
 40
7.0
 40
7.0
 40
7.0
 40
7.0
 10
94.16927352246464
 20
-111.1432589782906
 30
0.0
 10
94.16927352246464
 20
-111.1432589782906
 30
0.0
 10
93.91605900429877
 20
-111.1432589782906
 30
0.0
 10
93.91605900429877
 20
-111.1432589782906
 30
0.0
 10
93.94293074908371
 20
-110.8344061680379
 30
0.0
 10
94.14894745910166
 20
-110.3160915522821
 30
0.0
 10
94.58302949024313
 20
-109.8105237898217
 30
0.0
 10
94.58302949024313
 20
-109.8105237898217
 30
0.0
 10
93.68764917362671
 20
-109.8105237898217
 30
0.0
 10
93.68764917362671
 20
-109.8105237898217
 30
0.0
 10
93.68764917362671
 20
-109.8105237898217
 30
0.0
 10
93.68764917362671
 20
-109.5989949270273
 30
0.0
 10
93.68764917362671
 20
-109.5989949270273
 30
0.0
 10
93.68764917362671
 20
-109.5989949270273
 30
0.0
 10
94.836244008409
 20
-109.5989949270273
 30
0.0
 10
94.836244008409
 20
-109.5989949270273
 30
0.0
 10
94.836244008409
 20
-109.5989949270273
 30
0.0
 10
94.836244008409
 20
-109.8105237898217
 30
0.0
 10
94.836244008409
 20
-109.8105237898217
 30
0.0
 10
94.49035642168991
 20
-110.1002563201312
 30
0.0
 10
94.20544702505975
 20
-110.6926404888199
 30
0.0
 10
94.16927352246464
 20
-111.1432589782906
 30
0.0
  0
HATCH
  5
B0
330
AB
100
AcDbEntity
  8
_U+30EC_U+30A4_U+30E4_U+30FC 1
 62
     7
420
 16777215
100
AcDbHatch
 10
0.0
 20
0.0
 30
0.0
210
0.0
220
0.0
230
1.0
  2
SOLID
 70
     1
 71
     0
 91
        1
 92
        1
 93
        1
 72
     4
 94
        3
 73
     0
 74
     1
 95
       26
 96
       22
 40
0.0
 40
0.0
 40
0.0
 40
0.0
 40
1.0
 40
1.0
 40
1.0
 40
2.0
 40
2.0
 40
2.0
 40
3.0
 40
3.0
 40
3.0
 40
4.0
 40
4.0
 40
4.0
 40
5.0
 40
5.0
 40
5.0
 40
6.0
 40
6.0
 40
6.0
 40
7.0
 40
7.0
 40
7.0
 40
7.0
 10
94.16927352246464
 20
-111.1432589782906
 10
94.16927352246464
 20
-111.1432589782906
 10
93.91605900429877
 20
-111.1432589782906
 10
93.91605900429877
 20
-111.1432589782906
 10
93.94293074908371
 20
-110.8344061680379
 10
94.14894745910166
 20
-110.3160915522821
 10
94.58302949024313
 20
-109.8105237898217
 10
94.58302949024313
 20
-109.8105237898217
 10
93.68764917362671
 20
-109.8105237898217
 10
93.68764917362671
 20
-109.8105237898217
 10
93.68764917362671
 20
-109.8105237898217
 10
93.68764917362671
 20
-109.5989949270273
 10
93.68764917362671
 20
-109.5989949270273
 10
93.68764917362671
 20
-109.5989949270273
 10
94.836244008409
 20
-109.5989949270273
 10
94.836244008409
 20
-109.5989949270273
 10
94.836244008409
 20
-109.5989949270273
 10
94.836244008409
 20
-109.8105237898217
 10
94.836244008409
 20
-109.8105237898217
 10
94.49035642168991
 20
-110.1002563201312
 10
94.20544702505975
 20
-110.6926404888199
 10
94.16927352246464
 20
-111.1432589782906
 97
        0
 97
        0
 75
     2
 76
     1
 98
        0
  0
ENDBLK
  5
AE
330
AB
100
AcDbEntity
  8
0
100
AcDbBlockEnd
  0
BLOCK
  5
BB
330
B9
100
AcDbEntity
  8
0
100
AcDbBlockBegin
  2
block 3
 70
     0
 10
0.0
 20
0.0
 30
0.0
  3
block 3
  1

  0
SPLINE
  5
BD
330
B9
100
AcDbEntity
  8
_U+30EC_U+30A4_U+30E4_U+30FC 1
370
     0
100
AcDbSpline
210
0.0
220
0.0
230
1.0
 70
    11
 71
     3
 72
    26
 73
    22
 74
     0
 42
0.0000000001
 43
0.0000000001
 12
1.0
 22
0.0
 32
0.0
 13
1.0
 23
0.0
 33
0.0
 40
0.0
 40
0.0
 40
0.0
 40
0.0
 40
1.0
 40
1.0
 40
1.0
 40
2.0
 40
2.0
 40
2.0
 40
3.0
 40
3.0
 40
3.0
 40
4.0
 40
4.0
 40
4.0
 40
5.0
 40
5.0
 40
5.0
 40
6.0
 40
6.0
 40
6.0
 40
7.0
 40
7.0
 40
7.0
 40
7.0
 10
111.2435112569113
 20
-124.4106662015362
 30
0.0
 10
111.2435112569113
 20
-124.4106662015362
 30
0.0
 10
111.2435112569113
 20
-124.6638807197021
 30
0.0
 10
111.2435112569113
 20
-124.6638807197021
 30
0.0
 10
110.9344861918844
 20
-124.6368367201429
 30
0.0
 10
110.4163438309029
 20
-124.4311645196735
 30
0.0
 10
109.9106038136682
 20
-123.997082488532
 30
0.0
 10
109.9106038136682
 20
-123.997082488532
 30
0.0
 10
109.9106038136682
 20
-124.8922905503742
 30
0.0
 10
109.9106038136682
 20
-124.8922905503742
 30
0.0
 10
109.9106038136682
 20
-124.8922905503742
 30
0.0
 10
109.6990749508739
 20
-124.8922905503742
 30
0.0
 10
109.6990749508739
 20
-124.8922905503742
 30
0.0
 10
109.6990749508739
 20
-124.8922905503742
 30
0.0
 10
109.6990749508739
 20
-123.7438679703661
 30
0.0
 10
109.6990749508739
 20
-123.7438679703661
 30
0.0
 10
109.6990749508739
 20
-123.7438679703661
 30
0.0
 10
109.9106038136682
 20
-123.7438679703661
 30
0.0
 10
109.9106038136682
 20
-123.7438679703661
 30
0.0
 10
110.2006808535262
 20
-124.0897555570852
 30
0.0
 10
110.7928927674407
 20
-124.3744926989411
 30
0.0
 10
111.2435112569113
 20
-124.4106662015362
 30
0.0
  0
HATCH
  5
BE
330
B9
100
AcDbEntity
  8
_U+30EC_U+30A4_U+30E4_U+30FC 1
 62
     7
420
 16777215
100
AcDbHatch
 10
0.0
 20
0.0
 30
0.0
210
0.0
220
0.0
230
1.0
  2
SOLID
 70
     1
 71
     0
 91
        1
 92
        1
 93
        1
 72
     4
 94
        3
 73
     0
 74
     1
 95
       26
 96
       22
 40
0.0
 40
0.0
 40
0.0
 40
0.0
 40
1.0
 40
1.0
 40
1.0
 40
2.0
 40
2.0
 40
2.0
 40
3.0
 40
3.0
 40
3.0
 40
4.0
 40
4.0
 40
4.0
 40
5.0
 40
5.0
 40
5.0
 40
6.0
 40
6.0
 40
6.0
 40
7.0
 40
7.0
 40
7.0
 40
7.0
 10
111.2435112569113
 20
-124.4106662015362
 10
111.2435112569113
 20
-124.4106662015362
 10
111.2435112569113
 20
-124.6638807197021
 10
111.2435112569113
 20
-124.6638807197021
 10
110.9344861918844
 20
-124.6368367201429
 10
110.4163438309029
 20
-124.4311645196735
 10
109.9106038136682
 20
-123.997082488532
 10
109.9106038136682
 20
-123.997082488532
 10
109.9106038136682
 20
-124.8922905503742
 10
109.9106038136682
 20
-124.8922905503742
 10
109.9106038136682
 20
-124.8922905503742
 10
109.6990749508739
 20
-124.8922905503742
 10
109.6990749508739
 20
-124.8922905503742
 10
109.6990749508739
 20
-124.8922905503742
 10
109.6990749508739
 20
-123.7438679703661
 10
109.6990749508739
 20
-123.7438679703661
 10
109.6990749508739
 20
-123.7438679703661
 10
109.9106038136682
 20
-123.7438679703661
 10
109.9106038136682
 20
-123.7438679703661
 10
110.2006808535262
 20
-124.0897555570852
 10
110.7928927674407
 20
-124.3744926989411
 10
111.2435112569113
 20
-124.4106662015362
 97
        0
 97
        0
 75
     2
 76
     1
 98
        0
  0
ENDBLK
  5
BC
330
B9
100
AcDbEntity
  8
0
100
AcDbBlockEnd
  0
BLOCK
  5
D2
330
D0
100
AcDbEntity
  8
0
100
AcDbBlockBegin
  2
block 4
 70
     0
 10
0.0
 20
0.0
 30
0.0
  3
block 4
  1

  0
SPLINE
  5
D4
330
D0
100
AcDbEntity
  8
_U+30EC_U+30A4_U+30E4_U+30FC 1
370
     0
100
AcDbSpline
210
0.0
220
0.0
230
1.0
 70
    11
 71
     3
 72
    26
 73
    22
 74
     0
 42
0.0000000001
 43
0.0000000001
 12
1.0
 22
0.0
 32
0.0
 13
1.0
 23
0.0
 33
0.0
 40
0.0
 40
0.0
 40
0.0
 40
0.0
 40
1.0
 40
1.0
 40
1.0
 40
2.0
 40
2.0
 40
2.0
 40
3.0
 40
3.0
 40
3.0
 40
4.0
 40
4.0
 40
4.0
 40
5.0
 40
5.0
 40
5.0
 40
6.0
 40
6.0
 40
6.0
 40
7.0
 40
7.0
 40
7.0
 40
7.0
 10
82.66386038515002
 20
-111.142914468742
 30
0.0
 10
82.66386038515002
 20
-111.142914468742
 30
0.0
 10
82.66386038515002
 20
-110.0385891109452
 30
0.0
 10
82.66386038515002
 20
-110.0385891109452
 30
0.0
 10
82.66386038515002
 20
-110.0385891109452
 30
0.0
 10
82.31108260746042
 20
-110.0385891109452
 30
0.0
 10
82.31108260746042
 20
-110.0385891109452
 30
0.0
 10
82.31108260746042
 20
-110.0385891109452
 30
0.0
 10
82.31108260746042
 20
-109.8906222598537
 30
0.0
 10
82.31108260746042
 20
-109.8906222598537
 30
0.0
 10
82.66609969721543
 20
-109.8758083492672
 30
0.0
 10
82.71588132697728
 20
-109.7128553328148
 30
0.0
 10
82.74757620544158
 20
-109.5986504174788
 30
0.0
 10
82.74757620544158
 20
-109.5986504174788
 30
0.0
 10
82.90346677614913
 20
-109.5986504174788
 30
0.0
 10
82.90346677614913
 20
-109.5986504174788
 30
0.0
 10
82.90346677614913
 20
-109.5986504174788
 30
0.0
 10
82.90346677614913
 20
-111.142914468742
 30
0.0
 10
82.90346677614913
 20
-111.142914468742
 30
0.0
 10
82.90346677614913
 20
-111.142914468742
 30
0.0
 10
82.66386038515002
 20
-111.142914468742
 30
0.0
 10
82.66386038515002
 20
-111.142914468742
 30
0.0
  0
HATCH
  5
D5
330
D0
100
AcDbEntity
  8
_U+30EC_U+30A4_U+30E4_U+30FC 1
 62
     7
420
 16777215
100
AcDbHatch
 10
0.0
 20
0.0
 30
0.0
210
0.0
220
0.0
230
1.0
  2
SOLID
 70
     1
 71
     0
 91
        1
 92
        1
 93
        1
 72
     4
 94
        3
 73
     0
 74
     1
 95
       26
 96
       22
 40
0.0
 40
0.0
 40
0.0
 40
0.0
 40
1.0
 40
1.0
 40
1.0
 40
2.0
 40
2.0
 40
2.0
 40
3.0
 40
3.0
 40
3.0
 40
4.0
 40
4.0
 40
4.0
 40
5.0
 40
5.0
 40
5.0
 40
6.0
 40
6.0
 40
6.0
 40
7.0
 40
7.0
 40
7.0
 40
7.0
 10
82.66386038515002
 20
-111.142914468742
 10
82.66386038515002
 20
-111.142914468742
 10
82.66386038515002
 20
-110.0385891109452
 10
82.66386038515002
 20
-110.0385891109452
 10
82.66386038515002
 20
-110.0385891109452
 10
82.31108260746042
 20
-110.0385891109452
 10
82.31108260746042
 20
-110.0385891109452
 10
82.31108260746042
 20
-110.0385891109452
 10
82.31108260746042
 20
-109.8906222598537
 10
82.31108260746042
 20
-109.8906222598537
 10
82.66609969721543
 20
-109.8758083492672
 10
82.71588132697728
 20
-109.7128553328148
 10
82.74757620544158
 20
-109.5986504174788
 10
82.74757620544158
 20
-109.5986504174788
 10
82.90346677614913
 20
-109.5986504174788
 10
82.90346677614913
 20
-109.5986504174788
 10
82.90346677614913
 20
-109.5986504174788
 10
82.90346677614913
 20
-111.142914468742
 10
82.90346677614913
 20
-111.142914468742
 10
82.90346677614913
 20
-111.142914468742
 10
82.66386038515002
 20
-111.142914468742
 10
82.66386038515002
 20
-111.142914468742
 97
        0
 97
        0
 75
     2
 76
     1
 98
        0
  0
SPLINE
  5
D6
330
D0
100
AcDbEntity
  8
_U+30EC_U+30A4_U+30E4_U+30FC 1
370
     0
100
AcDbSpline
210
0.0
220
0.0
230
1.0
 70
    11
 71
     3
 72
    62
 73
    58
 74
     0
 42
0.0000000001
 43
0.0000000001
 12
1.0
 22
0.0
 32
0.0
 13
1.0
 23
0.0
 33
0.0
 40
0.0
 40
0.0
 40
0.0
 40
0.0
 40
1.0
 40
1.0
 40
1.0
 40
2.0
 40
2.0
 40
2.0
 40
3.0
 40
3.0
 40
3.0
 40
4.0
 40
4.0
 40
4.0
 40
5.0
 40
5.0
 40
5.0
 40
6.0
 40
6.0
 40
6.0
 40
7.0
 40
7.0
 40
7.0
 40
8.0
 40
8.0
 40
8.0
 40
9.0
 40
9.0
 40
9.0
 40
10.0
 40
10.0
 40
10.0
 40
11.0
 40
11.0
 40
11.0
 40
12.0
 40
12.0
 40
12.0
 40
13.0
 40
13.0
 40
13.0
 40
14.0
 40
14.0
 40
14.0
 40
15.0
 40
15.0
 40
15.0
 40
16.0
 40
16.0
 40
16.0
 40
17.0
 40
17.0
 40
17.0
 40
18.0
 40
18.0
 40
18.0
 40
19.0
 40
19.0
 40
19.0
 40
19.0
 10
83.96455618560609
 20
-111.1937296271495
 30
0.0
 10
83.86292586879122
 20
-111.1937296271495
 30
0.0
 10
83.63003741398833
 20
-111.1725422899152
 30
0.0
 10
83.4965399639349
 20
-110.9863348789375
 30
0.0
 10
83.41747502254842
 20
-110.8741970208926
 30
0.0
 10
83.41299639841759
 20
-110.7748060161431
 30
0.0
 10
83.4083455195125
 20
-110.6902289219802
 30
0.0
 10
83.4083455195125
 20
-110.6902289219802
 30
0.0
 10
83.64364554115507
 20
-110.6902289219802
 30
0.0
 10
83.64364554115507
 20
-110.6902289219802
 30
0.0
 10
83.64588485322048
 20
-110.7642984749131
 30
0.0
 10
83.65708141354754
 20
-110.9990817322329
 30
0.0
 10
83.96007756147526
 20
-110.9990817322329
 30
0.0
 10
84.10701088392116
 20
-110.9990817322329
 30
0.0
 10
84.26979164559923
 20
-110.9293185486566
 30
0.0
 10
84.26979164559923
 20
-110.7007364632102
 30
0.0
 10
84.26979164559923
 20
-110.5844644905831
 30
0.0
 10
84.22913951887327
 20
-110.5357163894668
 30
0.0
 10
84.19520532834356
 20
-110.5040215110025
 30
0.0
 10
84.11614038695708
 20
-110.4299519580696
 30
0.0
 10
83.99177243993957
 20
-110.4173773595484
 30
0.0
 10
83.93303356191605
 20
-110.4173773595484
 30
0.0
 10
83.91253524377882
 20
-110.4173773595484
 30
0.0
 10
83.87412242911827
 20
-110.4194444168396
 30
0.0
 10
83.84483911749365
 20
-110.4235785314219
 30
0.0
 10
83.84483911749365
 20
-110.4235785314219
 30
0.0
 10
83.84483911749365
 20
-110.2289306365053
 30
0.0
 10
83.84483911749365
 20
-110.2289306365053
 30
0.0
 10
83.88549124421961
 20
-110.235304063153
 30
0.0
 10
83.93062199507638
 20
-110.2375433752184
 30
0.0
 10
83.93751218604687
 20
-110.2375433752184
 30
0.0
 10
84.00761987917171
 20
-110.2375433752184
 30
0.0
 10
84.22001001583736
 20
-110.2163560379841
 30
0.0
 10
84.22001001583736
 20
-109.9793334685989
 30
0.0
 10
84.22001001583736
 20
-109.8017387963343
 30
0.0
 10
84.07996688436195
 20
-109.7466172685703
 30
0.0
 10
83.96231687354067
 20
-109.7466172685703
 30
0.0
 10
83.67981904375019
 20
-109.7466172685703
 30
0.0
 10
83.67068954071428
 20
-109.9793334685989
 30
0.0
 10
83.66621091658345
 20
-110.0513359642406
 30
0.0
 10
83.66621091658345
 20
-110.0513359642406
 30
0.0
 10
83.44916990101271
 20
-110.0513359642406
 30
0.0
 10
83.44916990101271
 20
-110.0513359642406
 30
0.0
 10
83.45812714927436
 20
-109.9264512529003
 30
0.0
 10
83.48758271567324
 20
-109.5499023163625
 30
0.0
 10
83.9759250007074
 20
-109.5499023163625
 30
0.0
 10
84.21553139170653
 20
-109.5499023163625
 30
0.0
 10
84.47322453400322
 20
-109.676854084994
 30
0.0
 10
84.47322453400322
 20
-109.9729600419512
 30
0.0
 10
84.47322453400322
 20
-110.159167452929
 30
0.0
 10
84.37159421718836
 20
-110.2416774898007
 30
0.0
 10
84.2653130214684
 20
-110.3030001894381
 30
0.0
 10
84.3309420904624
 20
-110.3305609533201
 30
0.0
 10
84.5252454758305
 20
-110.4110039329007
 30
0.0
 10
84.5252454758305
 20
-110.6881618646891
 30
0.0
 10
84.5252454758305
 20
-111.0266424961149
 30
0.0
 10
84.26083439733758
 20
-111.1937296271495
 30
0.0
 10
83.96455618560609
 20
-111.1937296271495
 30
0.0
  0
HATCH
  5
D7
330
D0
100
AcDbEntity
  8
_U+30EC_U+30A4_U+30E4_U+30FC 1
 62
     7
420
 16777215
100
AcDbHatch
 10
0.0
 20
0.0
 30
0.0
210
0.0
220
0.0
230
1.0
  2
SOLID
 70
     1
 71
     0
 91
        1
 92
        1
 93
        1
 72
     4
 94
        3
 73
     0
 74
     1
 95
       62
 96
       58
 40
0.0
 40
0.0
 40
0.0
 40
0.0
 40
1.0
 40
1.0
 40
1.0
 40
2.0
 40
2.0
 40
2.0
 40
3.0
 40
3.0
 40
3.0
 40
4.0
 40
4.0
 40
4.0
 40
5.0
 40
5.0
 40
5.0
 40
6.0
 40
6.0
 40
6.0
 40
7.0
 40
7.0
 40
7.0
 40
8.0
 40
8.0
 40
8.0
 40
9.0
 40
9.0
 40
9.0
 40
10.0
 40
10.0
 40
10.0
 40
11.0
 40
11.0
 40
11.0
 40
12.0
 40
12.0
 40
12.0
 40
13.0
 40
13.0
 40
13.0
 40
14.0
 40
14.0
 40
14.0
 40
15.0
 40
15.0
 40
15.0
 40
16.0
 40
16.0
 40
16.0
 40
17.0
 40
17.0
 40
17.0
 40
18.0
 40
18.0
 40
18.0
 40
19.0
 40
19.0
 40
19.0
 40
19.0
 10
83.96455618560609
 20
-111.1937296271495
 10
83.86292586879122
 20
-111.1937296271495
 10
83.63003741398833
 20
-111.1725422899152
 10
83.4965399639349
 20
-110.9863348789375
 10
83.41747502254842
 20
-110.8741970208926
 10
83.41299639841759
 20
-110.7748060161431
 10
83.4083455195125
 20
-110.6902289219802
 10
83.4083455195125
 20
-110.6902289219802
 10
83.64364554115507
 20
-110.6902289219802
 10
83.64364554115507
 20
-110.6902289219802
 10
83.64588485322048
 20
-110.7642984749131
 10
83.65708141354754
 20
-110.9990817322329
 10
83.96007756147526
 20
-110.9990817322329
 10
84.10701088392116
 20
-110.9990817322329
 10
84.26979164559923
 20
-110.9293185486566
 10
84.26979164559923
 20
-110.7007364632102
 10
84.26979164559923
 20
-110.5844644905831
 10
84.22913951887327
 20
-110.5357163894668
 10
84.19520532834356
 20
-110.5040215110025
 10
84.11614038695708
 20
-110.4299519580696
 10
83.99177243993957
 20
-110.4173773595484
 10
83.93303356191605
 20
-110.4173773595484
 10
83.91253524377882
 20
-110.4173773595484
 10
83.87412242911827
 20
-110.4194444168396
 10
83.84483911749365
 20
-110.4235785314219
 10
83.84483911749365
 20
-110.4235785314219
 10
83.84483911749365
 20
-110.2289306365053
 10
83.84483911749365
 20
-110.2289306365053
 10
83.88549124421961
 20
-110.235304063153
 10
83.93062199507638
 20
-110.2375433752184
 10
83.93751218604687
 20
-110.2375433752184
 10
84.00761987917171
 20
-110.2375433752184
 10
84.22001001583736
 20
-110.2163560379841
 10
84.22001001583736
 20
-109.9793334685989
 10
84.22001001583736
 20
-109.8017387963343
 10
84.07996688436195
 20
-109.7466172685703
 10
83.96231687354067
 20
-109.7466172685703
 10
83.67981904375019
 20
-109.7466172685703
 10
83.67068954071428
 20
-109.9793334685989
 10
83.66621091658345
 20
-110.0513359642406
 10
83.66621091658345
 20
-110.0513359642406
 10
83.44916990101271
 20
-110.0513359642406
 10
83.44916990101271
 20
-110.0513359642406
 10
83.45812714927436
 20
-109.9264512529003
 10
83.48758271567324
 20
-109.5499023163625
 10
83.9759250007074
 20
-109.5499023163625
 10
84.21553139170653
 20
-109.5499023163625
 10
84.47322453400322
 20
-109.676854084994
 10
84.47322453400322
 20
-109.9729600419512
 10
84.47322453400322
 20
-110.159167452929
 10
84.37159421718836
 20
-110.2416774898007
 10
84.2653130214684
 20
-110.3030001894381
 10
84.3309420904624
 20
-110.3305609533201
 10
84.5252454758305
 20
-110.4110039329007
 10
84.5252454758305
 20
-110.6881618646891
 10
84.5252454758305
 20
-111.0266424961149
 10
84.26083439733758
 20
-111.1937296271495
 10
83.96455618560609
 20
-111.1937296271495
 97
        0
 97
        0
 75
     2
 76
     1
 98
        0
  0
ENDBLK
  5
D3
330
D0
100
AcDbEntity
  8
0
100
AcDbBlockEnd
  0
BLOCK
  5
E6
330
E4
100
AcDbEntity
  8
0
100
AcDbBlockBegin
  2
block 5
 70
     0
 10
0.0
 20
0.0
 30
0.0
  3
block 5
  1

  0
SPLINE
  5
E8
330
E4
100
AcDbEntity
  8
_U+30EC_U+30A4_U+30E4_U+30FC 1
370
     0
100
AcDbSpline
210
0.0
220
0.0
230
1.0
 70
    11
 71
     3
 72
    62
 73
    58
 74
     0
 42
0.0000000001
 43
0.0000000001
 12
1.0
 22
0.0
 32
0.0
 13
1.0
 23
0.0
 33
0.0
 40
0.0
 40
0.0
 40
0.0
 40
0.0
 40
1.0
 40
1.0
 40
1.0
 40
2.0
 40
2.0
 40
2.0
 40
3.0
 40
3.0
 40
3.0
 40
4.0
 40
4.0
 40
4.0
 40
5.0
 40
5.0
 40
5.0
 40
6.0
 40
6.0
 40
6.0
 40
7.0
 40
7.0
 40
7.0
 40
8.0
 40
8.0
 40
8.0
 40
9.0
 40
9.0
 40
9.0
 40
10.0
 40
10.0
 40
10.0
 40
11.0
 40
11.0
 40
11.0
 40
12.0
 40
12.0
 40
12.0
 40
13.0
 40
13.0
 40
13.0
 40
14.0
 40
14.0
 40
14.0
 40
15.0
 40
15.0
 40
15.0
 40
16.0
 40
16.0
 40
16.0
 40
17.0
 40
17.0
 40
17.0
 40
18.0
 40
18.0
 40
18.0
 40
19.0
 40
19.0
 40
19.0
 40
19.0
 10
90.28837345833068
 20
-146.1936604452224
 30
0.0
 10
90.18674314151582
 20
-146.1936604452224
 30
0.0
 10
89.95385468671293
 20
-146.1726453627624
 30
0.0
 10
89.8203572366595
 20
-145.9866102065589
 30
0.0
 10
89.74129229527301
 20
-145.8743000937398
 30
0.0
 10
89.73681367114219
 20
-145.7750813437646
 30
0.0
 10
89.73233504701136
 20
-145.6903319948274
 30
0.0
 10
89.73233504701136
 20
-145.6903319948274
 30
0.0
 10
89.96729055910541
 20
-145.6903319948274
 30
0.0
 10
89.96729055910541
 20
-145.6903319948274
 30
0.0
 10
89.96970212594508
 20
-145.7644015477603
 30
0.0
 10
89.98089868627214
 20
-145.9990125503058
 30
0.0
 10
90.28389483419987
 20
-145.9990125503058
 30
0.0
 10
90.43082815664577
 20
-145.9990125503058
 30
0.0
 10
90.59360891832382
 20
-145.9294216215038
 30
0.0
 10
90.59360891832382
 20
-145.7010117908317
 30
0.0
 10
90.59360891832382
 20
-145.5845675634303
 30
0.0
 10
90.55295679159788
 20
-145.5359917170882
 30
0.0
 10
90.51902260106816
 20
-145.5042968386239
 30
0.0
 10
90.43995765968168
 20
-145.4302272856911
 30
0.0
 10
90.31558971266416
 20
-145.4174804323956
 30
0.0
 10
90.25667857986639
 20
-145.4174804323956
 30
0.0
 10
90.23635251650342
 20
-145.4174804323956
 30
0.0
 10
90.19793970184288
 20
-145.4195474896868
 30
0.0
 10
90.16865639021826
 20
-145.4236816042691
 30
0.0
 10
90.16865639021826
 20
-145.4236816042691
 30
0.0
 10
90.16865639021826
 20
-145.2290337093525
 30
0.0
 10
90.16865639021826
 20
-145.2290337093525
 30
0.0
 10
90.2093085169442
 20
-145.2355793907744
 30
0.0
 10
90.25443926780098
 20
-145.2376464480656
 30
0.0
 10
90.26132945877147
 20
-145.2376464480656
 30
0.0
 10
90.33143715189631
 20
-145.2376464480656
 30
0.0
 10
90.54382728856197
 20
-145.2162868560571
 30
0.0
 10
90.54382728856197
 20
-144.9796087962204
 30
0.0
 10
90.54382728856197
 20
-144.8018418691815
 30
0.0
 10
90.40378415708656
 20
-144.7467203414175
 30
0.0
 10
90.28613414626528
 20
-144.7467203414175
 30
0.0
 10
90.00346406170053
 20
-144.7467203414175
 30
0.0
 10
89.99450681343887
 20
-144.9796087962204
 30
0.0
 10
89.99002818930805
 20
-145.0512667823136
 30
0.0
 10
89.99002818930805
 20
-145.0512667823136
 30
0.0
 10
89.7729871737373
 20
-145.0512667823136
 30
0.0
 10
89.7729871737373
 20
-145.0512667823136
 30
0.0
 10
89.78194442199896
 20
-144.9265543257475
 30
0.0
 10
89.81139998839785
 20
-144.5500053892097
 30
0.0
 10
90.29974227343202
 20
-144.5500053892097
 30
0.0
 10
90.53934866443115
 20
-144.5500053892097
 30
0.0
 10
90.79721406150209
 20
-144.6771294126154
 30
0.0
 10
90.79721406150209
 20
-144.9730631147984
 30
0.0
 10
90.79721406150209
 20
-145.1594427805504
 30
0.0
 10
90.6952392351387
 20
-145.2417805626479
 30
0.0
 10
90.589130294193
 20
-145.3031032622853
 30
0.0
 10
90.65458710841274
 20
-145.3306640261673
 30
0.0
 10
90.84923500332937
 20
-145.4109347509737
 30
0.0
 10
90.84923500332937
 20
-145.6882649375363
 30
0.0
 10
90.84923500332937
 20
-146.0265733141878
 30
0.0
 10
90.58465167006217
 20
-146.1936604452224
 30
0.0
 10
90.28837345833068
 20
-146.1936604452224
 30
0.0
  0
HATCH
  5
E9
330
E4
100
AcDbEntity
  8
_U+30EC_U+30A4_U+30E4_U+30FC 1
 62
     7
420
 16777215
100
AcDbHatch
 10
0.0
 20
0.0
 30
0.0
210
0.0
220
0.0
230
1.0
  2
SOLID
 70
     1
 71
     0
 91
        1
 92
        1
 93
        1
 72
     4
 94
        3
 73
     0
 74
     1
 95
       62
 96
       58
 40
0.0
 40
0.0
 40
0.0
 40
0.0
 40
1.0
 40
1.0
 40
1.0
 40
2.0
 40
2.0
 40
2.0
 40
3.0
 40
3.0
 40
3.0
 40
4.0
 40
4.0
 40
4.0
 40
5.0
 40
5.0
 40
5.0
 40
6.0
 40
6.0
 40
6.0
 40
7.0
 40
7.0
 40
7.0
 40
8.0
 40
8.0
 40
8.0
 40
9.0
 40
9.0
 40
9.0
 40
10.0
 40
10.0
 40
10.0
 40
11.0
 40
11.0
 40
11.0
 40
12.0
 40
12.0
 40
12.0
 40
13.0
 40
13.0
 40
13.0
 40
14.0
 40
14.0
 40
14.0
 40
15.0
 40
15.0
 40
15.0
 40
16.0
 40
16.0
 40
16.0
 40
17.0
 40
17.0
 40
17.0
 40
18.0
 40
18.0
 40
18.0
 40
19.0
 40
19.0
 40
19.0
 40
19.0
 10
90.28837345833068
 20
-146.1936604452224
 10
90.18674314151582
 20
-146.1936604452224
 10
89.95385468671293
 20
-146.1726453627624
 10
89.8203572366595
 20
-145.9866102065589
 10
89.74129229527301
 20
-145.8743000937398
 10
89.73681367114219
 20
-145.7750813437646
 10
89.73233504701136
 20
-145.6903319948274
 10
89.73233504701136
 20
-145.6903319948274
 10
89.96729055910541
 20
-145.6903319948274
 10
89.96729055910541
 20
-145.6903319948274
 10
89.96970212594508
 20
-145.7644015477603
 10
89.98089868627214
 20
-145.9990125503058
 10
90.28389483419987
 20
-145.9990125503058
 10
90.43082815664577
 20
-145.9990125503058
 10
90.59360891832382
 20
-145.9294216215038
 10
90.59360891832382
 20
-145.7010117908317
 10
90.59360891832382
 20
-145.5845675634303
 10
90.55295679159788
 20
-145.5359917170882
 10
90.51902260106816
 20
-145.5042968386239
 10
90.43995765968168
 20
-145.4302272856911
 10
90.31558971266416
 20
-145.4174804323956
 10
90.25667857986639
 20
-145.4174804323956
 10
90.23635251650342
 20
-145.4174804323956
 10
90.19793970184288
 20
-145.4195474896868
 10
90.16865639021826
 20
-145.4236816042691
 10
90.16865639021826
 20
-145.4236816042691
 10
90.16865639021826
 20
-145.2290337093525
 10
90.16865639021826
 20
-145.2290337093525
 10
90.2093085169442
 20
-145.2355793907744
 10
90.25443926780098
 20
-145.2376464480656
 10
90.26132945877147
 20
-145.2376464480656
 10
90.33143715189631
 20
-145.2376464480656
 10
90.54382728856197
 20
-145.2162868560571
 10
90.54382728856197
 20
-144.9796087962204
 10
90.54382728856197
 20
-144.8018418691815
 10
90.40378415708656
 20
-144.7467203414175
 10
90.28613414626528
 20
-144.7467203414175
 10
90.00346406170053
 20
-144.7467203414175
 10
89.99450681343887
 20
-144.9796087962204
 10
89.99002818930805
 20
-145.0512667823136
 10
89.99002818930805
 20
-145.0512667823136
 10
89.7729871737373
 20
-145.0512667823136
 10
89.7729871737373
 20
-145.0512667823136
 10
89.78194442199896
 20
-144.9265543257475
 10
89.81139998839785
 20
-144.5500053892097
 10
90.29974227343202
 20
-144.5500053892097
 10
90.53934866443115
 20
-144.5500053892097
 10
90.79721406150209
 20
-144.6771294126154
 10
90.79721406150209
 20
-144.9730631147984
 10
90.79721406150209
 20
-145.1594427805504
 10
90.6952392351387
 20
-145.2417805626479
 10
90.589130294193
 20
-145.3031032622853
 10
90.65458710841274
 20
-145.3306640261673
 10
90.84923500332937
 20
-145.4109347509737
 10
90.84923500332937
 20
-145.6882649375363
 10
90.84923500332937
 20
-146.0265733141878
 10
90.58465167006217
 20
-146.1936604452224
 10
90.28837345833068
 20
-146.1936604452224
 97
        0
 97
        0
 75
     2
 76
     1
 98
        0
  0
SPLINE
  5
EA
330
E4
100
AcDbEntity
  8
_U+30EC_U+30A4_U+30E4_U+30FC 1
370
     0
100
AcDbSpline
210
0.0
220
0.0
230
1.0
 70
    11
 71
     3
 72
    44
 73
    40
 74
     0
 42
0.0000000001
 43
0.0000000001
 12
1.0
 22
0.0
 32
0.0
 13
1.0
 23
0.0
 33
0.0
 40
0.0
 40
0.0
 40
0.0
 40
0.0
 40
1.0
 40
1.0
 40
1.0
 40
2.0
 40
2.0
 40
2.0
 40
3.0
 40
3.0
 40
3.0
 40
4.0
 40
4.0
 40
4.0
 40
5.0
 40
5.0
 40
5.0
 40
6.0
 40
6.0
 40
6.0
 40
7.0
 40
7.0
 40
7.0
 40
8.0
 40
8.0
 40
8.0
 40
9.0
 40
9.0
 40
9.0
 40
10.0
 40
10.0
 40
10.0
 40
11.0
 40
11.0
 40
11.0
 40
12.0
 40
12.0
 40
12.0
 40
13.0
 40
13.0
 40
13.0
 40
13.0
 10
91.65469832778078
 20
-145.5611409141306
 30
0.0
 10
91.42180987297789
 20
-145.7199598160006
 30
0.0
 10
91.32224661345417
 20
-145.7940293689335
 30
0.0
 10
91.27022567162689
 20
-145.9376898506684
 30
0.0
 10
91.27022567162689
 20
-145.9376898506684
 30
0.0
 10
92.10256074086325
 20
-145.9376898506684
 30
0.0
 10
92.10256074086325
 20
-145.9376898506684
 30
0.0
 10
92.10256074086325
 20
-145.9376898506684
 30
0.0
 10
92.10256074086325
 20
-146.1430175415892
 30
0.0
 10
92.10256074086325
 20
-146.1430175415892
 30
0.0
 10
92.10256074086325
 20
-146.1430175415892
 30
0.0
 10
91.00357528106855
 20
-146.1430175415892
 30
0.0
 10
91.00357528106855
 20
-146.1430175415892
 30
0.0
 10
91.03768172637253
 20
-145.7854166302203
 30
0.0
 10
91.1076171647231
 20
-145.7072129627051
 30
0.0
 10
91.51896156566193
 20
-145.4088676936825
 30
0.0
 10
91.79250214719077
 20
-145.2100856841836
 30
0.0
 10
91.86278209508987
 20
-145.1422173031242
 30
0.0
 10
91.86278209508987
 20
-145.0047579932627
 30
0.0
 10
91.86278209508987
 20
-144.8862467085701
 30
0.0
 10
91.78595646576879
 20
-144.7553330801306
 30
0.0
 10
91.57546113162003
 20
-144.7553330801306
 30
0.0
 10
91.29744192596037
 20
-144.7553330801306
 30
0.0
 10
91.28848467769872
 20
-144.9858099680938
 30
0.0
 10
91.2840060535679
 20
-145.1022541954953
 30
0.0
 10
91.2840060535679
 20
-145.1022541954953
 30
0.0
 10
91.04422740779451
 20
-145.1022541954953
 30
0.0
 10
91.04422740779451
 20
-145.1022541954953
 30
0.0
 10
91.05318465605615
 20
-144.9751301720896
 30
0.0
 10
91.06455347115748
 20
-144.8631645688189
 30
0.0
 10
91.15068085828872
 20
-144.7446532841263
 30
0.0
 10
91.26815861433575
 20
-144.5837673249652
 30
0.0
 10
91.46694062383466
 20
-144.5500053892097
 30
0.0
 10
91.59130857085218
 20
-144.5500053892097
 30
0.0
 10
91.88758678258367
 20
-144.5500053892097
 30
0.0
 10
92.10910642228522
 20
-144.7339734881221
 30
0.0
 10
92.10910642228522
 20
-145.0068250505539
 30
0.0
 10
92.10910642228522
 20
-145.2355793907744
 30
0.0
 10
91.9847384752677
 20
-145.3347981407496
 30
0.0
 10
91.65469832778078
 20
-145.5611409141306
 30
0.0
  0
HATCH
  5
EB
330
E4
100
AcDbEntity
  8
_U+30EC_U+30A4_U+30E4_U+30FC 1
 62
     7
420
 16777215
100
AcDbHatch
 10
0.0
 20
0.0
 30
0.0
210
0.0
220
0.0
230
1.0
  2
SOLID
 70
     1
 71
     0
 91
        1
 92
        1
 93
        1
 72
     4
 94
        3
 73
     0
 74
     1
 95
       44
 96
       40
 40
0.0
 40
0.0
 40
0.0
 40
0.0
 40
1.0
 40
1.0
 40
1.0
 40
2.0
 40
2.0
 40
2.0
 40
3.0
 40
3.0
 40
3.0
 40
4.0
 40
4.0
 40
4.0
 40
5.0
 40
5.0
 40
5.0
 40
6.0
 40
6.0
 40
6.0
 40
7.0
 40
7.0
 40
7.0
 40
8.0
 40
8.0
 40
8.0
 40
9.0
 40
9.0
 40
9.0
 40
10.0
 40
10.0
 40
10.0
 40
11.0
 40
11.0
 40
11.0
 40
12.0
 40
12.0
 40
12.0
 40
13.0
 40
13.0
 40
13.0
 40
13.0
 10
91.65469832778078
 20
-145.5611409141306
 10
91.42180987297789
 20
-145.7199598160006
 10
91.32224661345417
 20
-145.7940293689335
 10
91.27022567162689
 20
-145.9376898506684
 10
91.27022567162689
 20
-145.9376898506684
 10
92.10256074086325
 20
-145.9376898506684
 10
92.10256074086325
 20
-145.9376898506684
 10
92.10256074086325
 20
-145.9376898506684
 10
92.10256074086325
 20
-146.1430175415892
 10
92.10256074086325
 20
-146.1430175415892
 10
92.10256074086325
 20
-146.1430175415892
 10
91.00357528106855
 20
-146.1430175415892
 10
91.00357528106855
 20
-146.1430175415892
 10
91.03768172637253
 20
-145.7854166302203
 10
91.1076171647231
 20
-145.7072129627051
 10
91.51896156566193
 20
-145.4088676936825
 10
91.79250214719077
 20
-145.2100856841836
 10
91.86278209508987
 20
-145.1422173031242
 10
91.86278209508987
 20
-145.0047579932627
 10
91.86278209508987
 20
-144.8862467085701
 10
91.78595646576879
 20
-144.7553330801306
 10
91.57546113162003
 20
-144.7553330801306
 10
91.29744192596037
 20
-144.7553330801306
 10
91.28848467769872
 20
-144.9858099680938
 10
91.2840060535679
 20
-145.1022541954953
 10
91.2840060535679
 20
-145.1022541954953
 10
91.04422740779451
 20
-145.1022541954953
 10
91.04422740779451
 20
-145.1022541954953
 10
91.05318465605615
 20
-144.9751301720896
 10
91.06455347115748
 20
-144.8631645688189
 10
91.15068085828872
 20
-144.7446532841263
 10
91.26815861433575
 20
-144.5837673249652
 10
91.46694062383466
 20
-144.5500053892097
 10
91.59130857085218
 20
-144.5500053892097
 10
91.88758678258367
 20
-144.5500053892097
 10
92.10910642228522
 20
-144.7339734881221
 10
92.10910642228522
 20
-145.0068250505539
 10
92.10910642228522
 20
-145.2355793907744
 10
91.9847384752677
 20
-145.3347981407496
 10
91.65469832778078
 20
-145.5611409141306
 97
        0
 97
        0
 75
     2
 76
     1
 98
        0
  0
ENDBLK
  5
E7
330
E4
100
AcDbEntity
  8
0
100
AcDbBlockEnd
  0
BLOCK
  5
FA
330
F8
100
AcDbEntity
  8
0
100
AcDbBlockBegin
  2
block 6
 70
     0
 10
0.0
 20
0.0
 30
0.0
  3
block 6
  1

  0
SPLINE
  5
FC
330
F8
100
AcDbEntity
  8
_U+30EC_U+30A4_U+30E4_U+30FC 1
370
     0
100
AcDbSpline
210
0.0
220
0.0
230
1.0
 70
    11
 71
     3
 72
    44
 73
    40
 74
     0
 42
0.0000000001
 43
0.0000000001
 12
1.0
 22
0.0
 32
0.0
 13
1.0
 23
0.0
 33
0.0
 40
0.0
 40
0.0
 40
0.0
 40
0.0
 40
1.0
 40
1.0
 40
1.0
 40
2.0
 40
2.0
 40
2.0
 40
3.0
 40
3.0
 40
3.0
 40
4.0
 40
4.0
 40
4.0
 40
5.0
 40
5.0
 40
5.0
 40
6.0
 40
6.0
 40
6.0
 40
7.0
 40
7.0
 40
7.0
 40
8.0
 40
8.0
 40
8.0
 40
9.0
 40
9.0
 40
9.0
 40
10.0
 40
10.0
 40
10.0
 40
11.0
 40
11.0
 40
11.0
 40
12.0
 40
12.0
 40
12.0
 40
13.0
 40
13.0
 40
13.0
 40
13.0
 10
70.66183673363663
 20
-130.682118022885
 30
0.0
 10
70.82048338073238
 20
-130.9150064776879
 30
0.0
 10
70.89455293366525
 20
-131.0145697372116
 30
0.0
 10
71.03838567017443
 20
-131.0662461694904
 30
0.0
 10
71.03838567017443
 20
-131.0662461694904
 30
0.0
 10
71.03838567017443
 20
-130.2346001193511
 30
0.0
 10
71.03838567017443
 20
-130.2346001193511
 30
0.0
 10
71.03838567017443
 20
-130.2346001193511
 30
0.0
 10
71.24354110632106
 20
-130.2346001193511
 30
0.0
 10
71.24354110632106
 20
-130.2346001193511
 30
0.0
 10
71.24354110632106
 20
-130.2346001193511
 30
0.0
 10
71.24354110632106
 20
-131.3332410695972
 30
0.0
 10
71.24354110632106
 20
-131.3332410695972
 30
0.0
 10
70.88594019495213
 20
-131.2991346242933
 30
0.0
 10
70.80773652743696
 20
-131.2291991859427
 30
0.0
 10
70.50939125841433
 20
-130.8178547850039
 30
0.0
 10
70.31060924891541
 20
-130.544314203475
 30
0.0
 10
70.24291312263024
 20
-130.4740342555759
 30
0.0
 10
70.10545381276877
 20
-130.4740342555759
 30
0.0
 10
69.98694252807618
 20
-130.4740342555759
 30
0.0
 10
69.85568439008817
 20
-130.550859884897
 30
0.0
 10
69.85568439008817
 20
-130.7613552190458
 30
0.0
 10
69.85568439008817
 20
-131.0393744247054
 30
0.0
 10
70.08633353282565
 20
-131.0483316729671
 30
0.0
 10
70.2027777602271
 20
-131.0528102970979
 30
0.0
 10
70.2027777602271
 20
-131.0528102970979
 30
0.0
 10
70.2027777602271
 20
-131.2925889428713
 30
0.0
 10
70.2027777602271
 20
-131.2925889428713
 30
0.0
 10
70.07582599159564
 20
-131.2832871850611
 30
0.0
 10
69.96368813355075
 20
-131.2722628795083
 30
0.0
 10
69.84517684885816
 20
-131.1861354923771
 30
0.0
 10
69.68446314447125
 20
-131.0686577363301
 30
0.0
 10
69.65052895394153
 20
-130.8698757268311
 30
0.0
 10
69.65052895394153
 20
-130.7455077798136
 30
0.0
 10
69.65052895394153
 20
-130.4492295680821
 30
0.0
 10
69.83466930762815
 20
-130.2277099283806
 30
0.0
 10
70.10752087005993
 20
-130.2277099283806
 30
0.0
 10
70.33593070073199
 20
-130.2277099283806
 30
0.0
 10
70.43549396025571
 20
-130.3520778753981
 30
0.0
 10
70.66183673363663
 20
-130.682118022885
 30
0.0
  0
HATCH
  5
FD
330
F8
100
AcDbEntity
  8
_U+30EC_U+30A4_U+30E4_U+30FC 1
 62
     7
420
 16777215
100
AcDbHatch
 10
0.0
 20
0.0
 30
0.0
210
0.0
220
0.0
230
1.0
  2
SOLID
 70
     1
 71
     0
 91
        1
 92
        1
 93
        1
 72
     4
 94
        3
 73
     0
 74
     1
 95
       44
 96
       40
 40
0.0
 40
0.0
 40
0.0
 40
0.0
 40
1.0
 40
1.0
 40
1.0
 40
2.0
 40
2.0
 40
2.0
 40
3.0
 40
3.0
 40
3.0
 40
4.0
 40
4.0
 40
4.0
 40
5.0
 40
5.0
 40
5.0
 40
6.0
 40
6.0
 40
6.0
 40
7.0
 40
7.0
 40
7.0
 40
8.0
 40
8.0
 40
8.0
 40
9.0
 40
9.0
 40
9.0
 40
10.0
 40
10.0
 40
10.0
 40
11.0
 40
11.0
 40
11.0
 40
12.0
 40
12.0
 40
12.0
 40
13.0
 40
13.0
 40
13.0
 40
13.0
 10
70.66183673363663
 20
-130.682118022885
 10
70.82048338073238
 20
-130.9150064776879
 10
70.89455293366525
 20
-131.0145697372116
 10
71.03838567017443
 20
-131.0662461694904
 10
71.03838567017443
 20
-131.0662461694904
 10
71.03838567017443
 20
-130.2346001193511
 10
71.03838567017443
 20
-130.2346001193511
 10
71.03838567017443
 20
-130.2346001193511
 10
71.24354110632106
 20
-130.2346001193511
 10
71.24354110632106
 20
-130.2346001193511
 10
71.24354110632106
 20
-130.2346001193511
 10
71.24354110632106
 20
-131.3332410695972
 10
71.24354110632106
 20
-131.3332410695972
 10
70.88594019495213
 20
-131.2991346242933
 10
70.80773652743696
 20
-131.2291991859427
 10
70.50939125841433
 20
-130.8178547850039
 10
70.31060924891541
 20
-130.544314203475
 10
70.24291312263024
 20
-130.4740342555759
 10
70.10545381276877
 20
-130.4740342555759
 10
69.98694252807618
 20
-130.4740342555759
 10
69.85568439008817
 20
-130.550859884897
 10
69.85568439008817
 20
-130.7613552190458
 10
69.85568439008817
 20
-131.0393744247054
 10
70.08633353282565
 20
-131.0483316729671
 10
70.2027777602271
 20
-131.0528102970979
 10
70.2027777602271
 20
-131.0528102970979
 10
70.2027777602271
 20
-131.2925889428713
 10
70.2027777602271
 20
-131.2925889428713
 10
70.07582599159564
 20
-131.2832871850611
 10
69.96368813355075
 20
-131.2722628795083
 10
69.84517684885816
 20
-131.1861354923771
 10
69.68446314447125
 20
-131.0686577363301
 10
69.65052895394153
 20
-130.8698757268311
 10
69.65052895394153
 20
-130.7455077798136
 10
69.65052895394153
 20
-130.4492295680821
 10
69.83466930762815
 20
-130.2277099283806
 10
70.10752087005993
 20
-130.2277099283806
 10
70.33593070073199
 20
-130.2277099283806
 10
70.43549396025571
 20
-130.3520778753981
 10
70.66183673363663
 20
-130.682118022885
 97
        0
 97
        0
 75
     2
 76
     1
 98
        0
  0
SPLINE
  5
FE
330
F8
100
AcDbEntity
  8
_U+30EC_U+30A4_U+30E4_U+30FC 1
370
     0
100
AcDbSpline
210
0.0
220
0.0
230
1.0
 70
    11
 71
     3
 72
    26
 73
    22
 74
     0
 42
0.0000000001
 43
0.0000000001
 12
1.0
 22
0.0
 32
0.0
 13
1.0
 23
0.0
 33
0.0
 40
0.0
 40
0.0
 40
0.0
 40
0.0
 40
1.0
 40
1.0
 40
1.0
 40
2.0
 40
2.0
 40
2.0
 40
3.0
 40
3.0
 40
3.0
 40
4.0
 40
4.0
 40
4.0
 40
5.0
 40
5.0
 40
5.0
 40
6.0
 40
6.0
 40
6.0
 40
7.0
 40
7.0
 40
7.0
 40
7.0
 10
71.24354110632106
 20
-129.6186170465884
 30
0.0
 10
71.24354110632106
 20
-129.6186170465884
 30
0.0
 10
71.24354110632106
 20
-129.8718315647543
 30
0.0
 10
71.24354110632106
 20
-129.8718315647543
 30
0.0
 10
70.93468829606842
 20
-129.8446153104208
 30
0.0
 10
70.41637368031257
 20
-129.6389431099514
 30
0.0
 10
69.91080591785216
 20
-129.2048610788099
 30
0.0
 10
69.91080591785216
 20
-129.2048610788099
 30
0.0
 10
69.91080591785216
 20
-130.1002413954263
 30
0.0
 10
69.91080591785216
 20
-130.1002413954263
 30
0.0
 10
69.91080591785216
 20
-130.1002413954263
 30
0.0
 10
69.69927705505782
 20
-130.1002413954263
 30
0.0
 10
69.69927705505782
 20
-130.1002413954263
 30
0.0
 10
69.69927705505782
 20
-130.1002413954263
 30
0.0
 10
69.69927705505782
 20
-128.951646560644
 30
0.0
 10
69.69927705505782
 20
-128.951646560644
 30
0.0
 10
69.69927705505782
 20
-128.951646560644
 30
0.0
 10
69.91080591785216
 20
-128.951646560644
 30
0.0
 10
69.91080591785216
 20
-128.951646560644
 30
0.0
 10
70.20053844816168
 20
-129.2975341473631
 30
0.0
 10
70.79292261685039
 20
-129.5824435439933
 30
0.0
 10
71.24354110632106
 20
-129.6186170465884
 30
0.0
  0
HATCH
  5
FF
330
F8
100
AcDbEntity
  8
_U+30EC_U+30A4_U+30E4_U+30FC 1
 62
     7
420
 16777215
100
AcDbHatch
 10
0.0
 20
0.0
 30
0.0
210
0.0
220
0.0
230
1.0
  2
SOLID
 70
     1
 71
     0
 91
        1
 92
        1
 93
        1
 72
     4
 94
        3
 73
     0
 74
     1
 95
       26
 96
       22
 40
0.0
 40
0.0
 40
0.0
 40
0.0
 40
1.0
 40
1.0
 40
1.0
 40
2.0
 40
2.0
 40
2.0
 40
3.0
 40
3.0
 40
3.0
 40
4.0
 40
4.0
 40
4.0
 40
5.0
 40
5.0
 40
5.0
 40
6.0
 40
6.0
 40
6.0
 40
7.0
 40
7.0
 40
7.0
 40
7.0
 10
71.24354110632106
 20
-129.6186170465884
 10
71.24354110632106
 20
-129.6186170465884
 10
71.24354110632106
 20
-129.8718315647543
 10
71.24354110632106
 20
-129.8718315647543
 10
70.93468829606842
 20
-129.8446153104208
 10
70.41637368031257
 20
-129.6389431099514
 10
69.91080591785216
 20
-129.2048610788099
 10
69.91080591785216
 20
-129.2048610788099
 10
69.91080591785216
 20
-130.1002413954263
 10
69.91080591785216
 20
-130.1002413954263
 10
69.91080591785216
 20
-130.1002413954263
 10
69.69927705505782
 20
-130.1002413954263
 10
69.69927705505782
 20
-130.1002413954263
 10
69.69927705505782
 20
-130.1002413954263
 10
69.69927705505782
 20
-128.951646560644
 10
69.69927705505782
 20
-128.951646560644
 10
69.69927705505782
 20
-128.951646560644
 10
69.91080591785216
 20
-128.951646560644
 10
69.91080591785216
 20
-128.951646560644
 10
70.20053844816168
 20
-129.2975341473631
 10
70.79292261685039
 20
-129.5824435439933
 10
71.24354110632106
 20
-129.6186170465884
 97
        0
 97
        0
 75
     2
 76
     1
 98
        0
  0
ENDBLK
  5
FB
330
F8
100
AcDbEntity
  8
0
100
AcDbBlockEnd
  0
BLOCK
  5
113
330
111
100
AcDbEntity
  8
0
100
AcDbBlockBegin
  2
block 7
 70
     0
 10
0.0
 20
0.0
 30
0.0
  3
block 7
  1

  0
SPLINE
  5
115
330
111
100
AcDbEntity
  8
_U+30EC_U+30A4_U+30E4_U+30FC 1
370
     0
100
AcDbSpline
210
0.0
220
0.0
230
1.0
 70
    11
 71
     3
 72
    26
 73
    22
 74
     0
 42
0.0000000001
 43
0.0000000001
 12
1.0
 22
0.0
 32
0.0
 13
1.0
 23
0.0
 33
0.0
 40
0.0
 40
0.0
 40
0.0
 40
0.0
 40
1.0
 40
1.0
 40
1.0
 40
2.0
 40
2.0
 40
2.0
 40
3.0
 40
3.0
 40
3.0
 40
4.0
 40
4.0
 40
4.0
 40
5.0
 40
5.0
 40
5.0
 40
6.0
 40
6.0
 40
6.0
 40
7.0
 40
7.0
 40
7.0
 40
7.0
 10
111.2438557664599
 20
-135.9155625745281
 30
0.0
 10
111.2438557664599
 20
-135.9155625745281
 30
0.0
 10
110.1397026634373
 20
-135.9155625745281
 30
0.0
 10
110.1397026634373
 20
-135.9155625745281
 30
0.0
 10
110.1397026634373
 20
-135.9155625745281
 30
0.0
 10
110.1397026634373
 20
-136.2679958426691
 30
0.0
 10
110.1397026634373
 20
-136.2679958426691
 30
0.0
 10
110.1397026634373
 20
-136.2679958426691
 30
0.0
 10
109.9915635575716
 20
-136.2679958426691
 30
0.0
 10
109.9915635575716
 20
-136.2679958426691
 30
0.0
 10
109.976749646985
 20
-135.9131510076884
 30
0.0
 10
109.8137966305327
 20
-135.8635416327008
 30
0.0
 10
109.6994194604224
 20
-135.8318467542365
 30
0.0
 10
109.6994194604224
 20
-135.8318467542365
 30
0.0
 10
109.6994194604224
 20
-135.6757839287547
 30
0.0
 10
109.6994194604224
 20
-135.6757839287547
 30
0.0
 10
109.6994194604224
 20
-135.6757839287547
 30
0.0
 10
111.2438557664599
 20
-135.6757839287547
 30
0.0
 10
111.2438557664599
 20
-135.6757839287547
 30
0.0
 10
111.2438557664599
 20
-135.6757839287547
 30
0.0
 10
111.2438557664599
 20
-135.9155625745281
 30
0.0
 10
111.2438557664599
 20
-135.9155625745281
 30
0.0
  0
HATCH
  5
116
330
111
100
AcDbEntity
  8
_U+30EC_U+30A4_U+30E4_U+30FC 1
 62
     7
420
 16777215
100
AcDbHatch
 10
0.0
 20
0.0
 30
0.0
210
0.0
220
0.0
230
1.0
  2
SOLID
 70
     1
 71
     0
 91
        1
 92
        1
 93
        1
 72
     4
 94
        3
 73
     0
 74
     1
 95
       26
 96
       22
 40
0.0
 40
0.0
 40
0.0
 40
0.0
 40
1.0
 40
1.0
 40
1.0
 40
2.0
 40
2.0
 40
2.0
 40
3.0
 40
3.0
 40
3.0
 40
4.0
 40
4.0
 40
4.0
 40
5.0
 40
5.0
 40
5.0
 40
6.0
 40
6.0
 40
6.0
 40
7.0
 40
7.0
 40
7.0
 40
7.0
 10
111.2438557664599
 20
-135.9155625745281
 10
111.2438557664599
 20
-135.9155625745281
 10
110.1397026634373
 20
-135.9155625745281
 10
110.1397026634373
 20
-135.9155625745281
 10
110.1397026634373
 20
-135.9155625745281
 10
110.1397026634373
 20
-136.2679958426691
 10
110.1397026634373
 20
-136.2679958426691
 10
110.1397026634373
 20
-136.2679958426691
 10
109.9915635575716
 20
-136.2679958426691
 10
109.9915635575716
 20
-136.2679958426691
 10
109.976749646985
 20
-135.9131510076884
 10
109.8137966305327
 20
-135.8635416327008
 10
109.6994194604224
 20
-135.8318467542365
 10
109.6994194604224
 20
-135.8318467542365
 10
109.6994194604224
 20
-135.6757839287547
 10
109.6994194604224
 20
-135.6757839287547
 10
109.6994194604224
 20
-135.6757839287547
 10
111.2438557664599
 20
-135.6757839287547
 10
111.2438557664599
 20
-135.6757839287547
 10
111.2438557664599
 20
-135.6757839287547
 10
111.2438557664599
 20
-135.9155625745281
 10
111.2438557664599
 20
-135.9155625745281
 97
        0
 97
        0
 75
     2
 76
     1
 98
        0
  0
SPLINE
  5
117
330
111
100
AcDbEntity
  8
_U+30EC_U+30A4_U+30E4_U+30FC 1
370
     0
100
AcDbSpline
210
0.0
220
0.0
230
1.0
 70
    11
 71
     3
 72
    62
 73
    58
 74
     0
 42
0.0000000001
 43
0.0000000001
 12
1.0
 22
0.0
 32
0.0
 13
1.0
 23
0.0
 33
0.0
 40
0.0
 40
0.0
 40
0.0
 40
0.0
 40
1.0
 40
1.0
 40
1.0
 40
2.0
 40
2.0
 40
2.0
 40
3.0
 40
3.0
 40
3.0
 40
4.0
 40
4.0
 40
4.0
 40
5.0
 40
5.0
 40
5.0
 40
6.0
 40
6.0
 40
6.0
 40
7.0
 40
7.0
 40
7.0
 40
8.0
 40
8.0
 40
8.0
 40
9.0
 40
9.0
 40
9.0
 40
10.0
 40
10.0
 40
10.0
 40
11.0
 40
11.0
 40
11.0
 40
12.0
 40
12.0
 40
12.0
 40
13.0
 40
13.0
 40
13.0
 40
14.0
 40
14.0
 40
14.0
 40
15.0
 40
15.0
 40
15.0
 40
16.0
 40
16.0
 40
16.0
 40
17.0
 40
17.0
 40
17.0
 40
18.0
 40
18.0
 40
18.0
 40
19.0
 40
19.0
 40
19.0
 40
19.0
 10
111.294498670093
 20
-134.6146945192977
 30
0.0
 10
111.294498670093
 20
-134.7163248361126
 30
0.0
 10
111.273483587633
 20
-134.9492132909155
 30
0.0
 10
111.0874484314295
 20
-135.0825384861946
 30
0.0
 10
110.9751383186104
 20
-135.1617756823554
 30
0.0
 10
110.8759195686352
 20
-135.1662543064862
 30
0.0
 10
110.791170219698
 20
-135.170732930617
 30
0.0
 10
110.791170219698
 20
-135.170732930617
 30
0.0
 10
110.791170219698
 20
-134.935777418523
 30
0.0
 10
110.791170219698
 20
-134.935777418523
 30
0.0
 10
110.8652397726309
 20
-134.9333658516833
 30
0.0
 10
111.0998507751764
 20
-134.921997036582
 30
0.0
 10
111.0998507751764
 20
-134.6191731434286
 30
0.0
 10
111.0998507751764
 20
-134.4720675662084
 30
0.0
 10
111.0302598463744
 20
-134.3094590593046
 30
0.0
 10
110.8018500157023
 20
-134.3094590593046
 30
0.0
 10
110.6854057883009
 20
-134.3094590593046
 30
0.0
 10
110.6368299419589
 20
-134.3501111860305
 30
0.0
 10
110.6051350634946
 20
-134.383873121786
 30
0.0
 10
110.5310655105617
 20
-134.4631103179467
 30
0.0
 10
110.5183186572663
 20
-134.5874782649643
 30
0.0
 10
110.5183186572663
 20
-134.646389397762
 30
0.0
 10
110.5183186572663
 20
-134.666715461125
 30
0.0
 10
110.5203857145574
 20
-134.7049560210113
 30
0.0
 10
110.5245198291397
 20
-134.7345838421844
 30
0.0
 10
110.5245198291397
 20
-134.7345838421844
 30
0.0
 10
110.3298719342231
 20
-134.7345838421844
 30
0.0
 10
110.3298719342231
 20
-134.7345838421844
 30
0.0
 10
110.3364176156451
 20
-134.6939317154585
 30
0.0
 10
110.3384846729362
 20
-134.6484564550532
 30
0.0
 10
110.3384846729362
 20
-134.6419107736312
 30
0.0
 10
110.3384846729362
 20
-134.5716308257321
 30
0.0
 10
110.3171250809277
 20
-134.3590684342922
 30
0.0
 10
110.080447021091
 20
-134.3590684342922
 30
0.0
 10
109.9026800940521
 20
-134.3590684342922
 30
0.0
 10
109.8475585662881
 20
-134.4992838205418
 30
0.0
 10
109.8475585662881
 20
-134.6167615765889
 30
0.0
 10
109.8475585662881
 20
-134.8996039159279
 30
0.0
 10
110.080447021091
 20
-134.9085611641895
 30
0.0
 10
110.1521050071842
 20
-134.9130397883204
 30
0.0
 10
110.1521050071842
 20
-134.9130397883204
 30
0.0
 10
110.1521050071842
 20
-135.1300808038911
 30
0.0
 10
110.1521050071842
 20
-135.1300808038911
 30
0.0
 10
110.0273925506182
 20
-135.1211235556295
 30
0.0
 10
109.6508436140803
 20
-135.0918402440048
 30
0.0
 10
109.6508436140803
 20
-134.6033257041964
 30
0.0
 10
109.6508436140803
 20
-134.363547058423
 30
0.0
 10
109.7779676374861
 20
-134.1058539161263
 30
0.0
 10
110.073901339669
 20
-134.1058539161263
 30
0.0
 10
110.260281005421
 20
-134.1058539161263
 30
0.0
 10
110.3426187875185
 20
-134.2078287424897
 30
0.0
 10
110.403941487156
 20
-134.3139376834354
 30
0.0
 10
110.431502251038
 20
-134.2484808692157
 30
0.0
 10
110.5117729758443
 20
-134.053832974299
 30
0.0
 10
110.7891031624069
 20
-134.053832974299
 30
0.0
 10
111.1274115390584
 20
-134.053832974299
 30
0.0
 10
111.294498670093
 20
-134.3184163075662
 30
0.0
 10
111.294498670093
 20
-134.6146945192977
 30
0.0
  0
HATCH
  5
118
330
111
100
AcDbEntity
  8
_U+30EC_U+30A4_U+30E4_U+30FC 1
 62
     7
420
 16777215
100
AcDbHatch
 10
0.0
 20
0.0
 30
0.0
210
0.0
220
0.0
230
1.0
  2
SOLID
 70
     1
 71
     0
 91
        1
 92
        1
 93
        1
 72
     4
 94
        3
 73
     0
 74
     1
 95
       62
 96
       58
 40
0.0
 40
0.0
 40
0.0
 40
0.0
 40
1.0
 40
1.0
 40
1.0
 40
2.0
 40
2.0
 40
2.0
 40
3.0
 40
3.0
 40
3.0
 40
4.0
 40
4.0
 40
4.0
 40
5.0
 40
5.0
 40
5.0
 40
6.0
 40
6.0
 40
6.0
 40
7.0
 40
7.0
 40
7.0
 40
8.0
 40
8.0
 40
8.0
 40
9.0
 40
9.0
 40
9.0
 40
10.0
 40
10.0
 40
10.0
 40
11.0
 40
11.0
 40
11.0
 40
12.0
 40
12.0
 40
12.0
 40
13.0
 40
13.0
 40
13.0
 40
14.0
 40
14.0
 40
14.0
 40
15.0
 40
15.0
 40
15.0
 40
16.0
 40
16.0
 40
16.0
 40
17.0
 40
17.0
 40
17.0
 40
18.0
 40
18.0
 40
18.0
 40
19.0
 40
19.0
 40
19.0
 40
19.0
 10
111.294498670093
 20
-134.6146945192977
 10
111.294498670093
 20
-134.7163248361126
 10
111.273483587633
 20
-134.9492132909155
 10
111.0874484314295
 20
-135.0825384861946
 10
110.9751383186104
 20
-135.1617756823554
 10
110.8759195686352
 20
-135.1662543064862
 10
110.791170219698
 20
-135.170732930617
 10
110.791170219698
 20
-135.170732930617
 10
110.791170219698
 20
-134.935777418523
 10
110.791170219698
 20
-134.935777418523
 10
110.8652397726309
 20
-134.9333658516833
 10
111.0998507751764
 20
-134.921997036582
 10
111.0998507751764
 20
-134.6191731434286
 10
111.0998507751764
 20
-134.4720675662084
 10
111.0302598463744
 20
-134.3094590593046
 10
110.8018500157023
 20
-134.3094590593046
 10
110.6854057883009
 20
-134.3094590593046
 10
110.6368299419589
 20
-134.3501111860305
 10
110.6051350634946
 20
-134.383873121786
 10
110.5310655105617
 20
-134.4631103179467
 10
110.5183186572663
 20
-134.5874782649643
 10
110.5183186572663
 20
-134.646389397762
 10
110.5183186572663
 20
-134.666715461125
 10
110.5203857145574
 20
-134.7049560210113
 10
110.5245198291397
 20
-134.7345838421844
 10
110.5245198291397
 20
-134.7345838421844
 10
110.3298719342231
 20
-134.7345838421844
 10
110.3298719342231
 20
-134.7345838421844
 10
110.3364176156451
 20
-134.6939317154585
 10
110.3384846729362
 20
-134.6484564550532
 10
110.3384846729362
 20
-134.6419107736312
 10
110.3384846729362
 20
-134.5716308257321
 10
110.3171250809277
 20
-134.3590684342922
 10
110.080447021091
 20
-134.3590684342922
 10
109.9026800940521
 20
-134.3590684342922
 10
109.8475585662881
 20
-134.4992838205418
 10
109.8475585662881
 20
-134.6167615765889
 10
109.8475585662881
 20
-134.8996039159279
 10
110.080447021091
 20
-134.9085611641895
 10
110.1521050071842
 20
-134.9130397883204
 10
110.1521050071842
 20
-134.9130397883204
 10
110.1521050071842
 20
-135.1300808038911
 10
110.1521050071842
 20
-135.1300808038911
 10
110.0273925506182
 20
-135.1211235556295
 10
109.6508436140803
 20
-135.0918402440048
 10
109.6508436140803
 20
-134.6033257041964
 10
109.6508436140803
 20
-134.363547058423
 10
109.7779676374861
 20
-134.1058539161263
 10
110.073901339669
 20
-134.1058539161263
 10
110.260281005421
 20
-134.1058539161263
 10
110.3426187875185
 20
-134.2078287424897
 10
110.403941487156
 20
-134.3139376834354
 10
110.431502251038
 20
-134.2484808692157
 10
110.5117729758443
 20
-134.053832974299
 10
110.7891031624069
 20
-134.053832974299
 10
111.1274115390584
 20
-134.053832974299
 10
111.294498670093
 20
-134.3184163075662
 10
111.294498670093
 20
-134.6146945192977
 97
        0
 97
        0
 75
     2
 76
     1
 98
        0
  0
ENDBLK
  5
114
330
111
100
AcDbEntity
  8
0
100
AcDbBlockEnd
  0
BLOCK
  5
123
330
121
100
AcDbEntity
  8
0
100
AcDbBlockBegin
  2
block 8
 70
     0
 10
0.0
 20
0.0
 30
0.0
  3
block 8
  1

  0
SPLINE
  5
125
330
121
100
AcDbEntity
  8
_U+30EC_U+30A4_U+30E4_U+30FC 1
370
     0
100
AcDbSpline
210
0.0
220
0.0
230
1.0
 70
    11
 71
     3
 72
    26
 73
    22
 74
     0
 42
0.0000000001
 43
0.0000000001
 12
1.0
 22
0.0
 32
0.0
 13
1.0
 23
0.0
 33
0.0
 40
0.0
 40
0.0
 40
0.0
 40
0.0
 40
1.0
 40
1.0
 40
1.0
 40
2.0
 40
2.0
 40
2.0
 40
3.0
 40
3.0
 40
3.0
 40
4.0
 40
4.0
 40
4.0
 40
5.0
 40
5.0
 40
5.0
 40
6.0
 40
6.0
 40
6.0
 40
7.0
 40
7.0
 40
7.0
 40
7.0
 10
74.77648652644477
 20
-111.1589341627485
 30
0.0
 10
74.77648652644477
 20
-111.1589341627485
 30
0.0
 10
74.77648652644477
 20
-110.0546088049516
 30
0.0
 10
74.77648652644477
 20
-110.0546088049516
 30
0.0
 10
74.77648652644477
 20
-110.0546088049516
 30
0.0
 10
74.42370874875519
 20
-110.0546088049516
 30
0.0
 10
74.42370874875519
 20
-110.0546088049516
 30
0.0
 10
74.42370874875519
 20
-110.0546088049516
 30
0.0
 10
74.42370874875519
 20
-109.9064696990859
 30
0.0
 10
74.42370874875519
 20
-109.9064696990859
 30
0.0
 10
74.77872583851018
 20
-109.8918280432736
 30
0.0
 10
74.82850746827204
 20
-109.7288750268213
 30
0.0
 10
74.86003009196207
 20
-109.6146701114852
 30
0.0
 10
74.86003009196207
 20
-109.6146701114852
 30
0.0
 10
75.0160929174439
 20
-109.6146701114852
 30
0.0
 10
75.0160929174439
 20
-109.6146701114852
 30
0.0
 10
75.0160929174439
 20
-109.6146701114852
 30
0.0
 10
75.0160929174439
 20
-111.1589341627485
 30
0.0
 10
75.0160929174439
 20
-111.1589341627485
 30
0.0
 10
75.0160929174439
 20
-111.1589341627485
 30
0.0
 10
74.77648652644477
 20
-111.1589341627485
 30
0.0
 10
74.77648652644477
 20
-111.1589341627485
 30
0.0
  0
HATCH
  5
126
330
121
100
AcDbEntity
  8
_U+30EC_U+30A4_U+30E4_U+30FC 1
 62
     7
420
 16777215
100
AcDbHatch
 10
0.0
 20
0.0
 30
0.0
210
0.0
220
0.0
230
1.0
  2
SOLID
 70
     1
 71
     0
 91
        1
 92
        1
 93
        1
 72
     4
 94
        3
 73
     0
 74
     1
 95
       26
 96
       22
 40
0.0
 40
0.0
 40
0.0
 40
0.0
 40
1.0
 40
1.0
 40
1.0
 40
2.0
 40
2.0
 40
2.0
 40
3.0
 40
3.0
 40
3.0
 40
4.0
 40
4.0
 40
4.0
 40
5.0
 40
5.0
 40
5.0
 40
6.0
 40
6.0
 40
6.0
 40
7.0
 40
7.0
 40
7.0
 40
7.0
 10
74.77648652644477
 20
-111.1589341627485
 10
74.77648652644477
 20
-111.1589341627485
 10
74.77648652644477
 20
-110.0546088049516
 10
74.77648652644477
 20
-110.0546088049516
 10
74.77648652644477
 20
-110.0546088049516
 10
74.42370874875519
 20
-110.0546088049516
 10
74.42370874875519
 20
-110.0546088049516
 10
74.42370874875519
 20
-110.0546088049516
 10
74.42370874875519
 20
-109.9064696990859
 10
74.42370874875519
 20
-109.9064696990859
 10
74.77872583851018
 20
-109.8918280432736
 10
74.82850746827204
 20
-109.7288750268213
 10
74.86003009196207
 20
-109.6146701114852
 10
74.86003009196207
 20
-109.6146701114852
 10
75.0160929174439
 20
-109.6146701114852
 10
75.0160929174439
 20
-109.6146701114852
 10
75.0160929174439
 20
-109.6146701114852
 10
75.0160929174439
 20
-111.1589341627485
 10
75.0160929174439
 20
-111.1589341627485
 10
75.0160929174439
 20
-111.1589341627485
 10
74.77648652644477
 20
-111.1589341627485
 10
74.77648652644477
 20
-111.1589341627485
 97
        0
 97
        0
 75
     2
 76
     1
 98
        0
  0
ENDBLK
  5
124
330
121
100
AcDbEntity
  8
0
100
AcDbBlockEnd
  0
ENDSEC
  0
SECTION
  2
ENTITIES
  0
SPLINE
  5
41
330
1F
100
AcDbEntity
  8
_U+30EC_U+30A4_U+30E4_U+30FC 1
370
     0
100
AcDbSpline
210
0.0
220
0.0
230
1.0
 70
    11
 71
     3
 72
    74
 73
    70
 74
     0
 42
0.0000000001
 43
0.0000000001
 12
1.0
 22
0.0
 32
0.0
 13
1.0
 23
0.0
 33
0.0
 40
0.0
 40
0.0
 40
0.0
 40
0.0
 40
1.0
 40
1.0
 40
1.0
 40
2.0
 40
2.0
 40
2.0
 40
3.0
 40
3.0
 40
3.0
 40
4.0
 40
4.0
 40
4.0
 40
5.0
 40
5.0
 40
5.0
 40
6.0
 40
6.0
 40
6.0
 40
7.0
 40
7.0
 40
7.0
 40
8.0
 40
8.0
 40
8.0
 40
9.0
 40
9.0
 40
9.0
 40
10.0
 40
10.0
 40
10.0
 40
11.0
 40
11.0
 40
11.0
 40
12.0
 40
12.0
 40
12.0
 40
13.0
 40
13.0
 40
13.0
 40
14.0
 40
14.0
 40
14.0
 40
15.0
 40
15.0
 40
15.0
 40
16.0
 40
16.0
 40
16.0
 40
17.0
 40
17.0
 40
17.0
 40
18.0
 40
18.0
 40
18.0
 40
19.0
 40
19.0
 40
19.0
 40
20.0
 40
20.0
 40
20.0
 40
21.0
 40
21.0
 40
21.0
 40
22.0
 40
22.0
 40
22.0
 40
23.0
 40
23.0
 40
23.0
 40
23.0
 10
106.8399819965072
 20
-142.2397177422176
 30
0.0
 10
106.8399819965072
 20
-142.2397177422176
 30
0.0
 10
97.84002139278199
 20
-142.2397177422176
 30
0.0
 10
97.84002139278199
 20
-142.2397177422176
 30
0.0
 10
97.84002139278199
 20
-142.2397177422176
 30
0.0
 10
96.46612837227737
 20
-141.739514131232
 30
0.0
 10
96.46612837227737
 20
-141.739514131232
 30
0.0
 10
96.46612837227737
 20
-141.739514131232
 30
0.0
 10
80.25419073032279
 20
-141.739514131232
 30
0.0
 10
80.25419073032279
 20
-141.739514131232
 30
0.0
 10
80.25419073032279
 20
-141.739514131232
 30
0.0
 10
78.97124381860905
 20
-140.4565319093304
 30
0.0
 10
78.97124381860905
 20
-140.4565319093304
 30
0.0
 10
78.97124381860905
 20
-140.4565319093304
 30
0.0
 10
90.6886868530055
 20
-128.7397588567039
 30
0.0
 10
90.6886868530055
 20
-128.7397588567039
 30
0.0
 10
90.6886868530055
 20
-128.7397588567039
 30
0.0
 10
97.84002139278199
 20
-128.7397588567039
 30
0.0
 10
97.84002139278199
 20
-128.7397588567039
 30
0.0
 10
97.84002139278199
 20
-128.7397588567039
 30
0.0
 10
97.84002139278199
 20
-128.239555245718
 30
0.0
 10
97.84002139278199
 20
-128.239555245718
 30
0.0
 10
97.84002139278199
 20
-128.239555245718
 30
0.0
 10
95.8398067215895
 20
-127.739316356954
 30
0.0
 10
95.8398067215895
 20
-127.739316356954
 30
0.0
 10
95.8398067215895
 20
-127.739316356954
 30
0.0
 10
90.84027775506772
 20
-127.739316356954
 30
0.0
 10
90.84027775506772
 20
-127.739316356954
 30
0.0
 10
90.84027775506772
 20
-127.739316356954
 30
0.0
 10
90.84027775506772
 20
-122.7397849693152
 30
0.0
 10
90.84027775506772
 20
-122.7397849693152
 30
0.0
 10
90.84027775506772
 20
-122.7397849693152
 30
0.0
 10
90.340038866304
 20
-120.7395702475928
 30
0.0
 10
90.340038866304
 20
-120.7395702475928
 30
0.0
 10
90.340038866304
 20
-120.7395702475928
 30
0.0
 10
89.83983298577269
 20
-120.7395702475928
 30
0.0
 10
89.83983298577269
 20
-120.7395702475928
 30
0.0
 10
89.83983298577269
 20
-120.7395702475928
 30
0.0
 10
89.83983298577269
 20
-127.8909049680274
 30
0.0
 10
89.83983298577269
 20
-127.8909049680274
 30
0.0
 10
89.83983298577269
 20
-127.8909049680274
 30
0.0
 10
78.12306022913691
 20
-139.6083482984313
 30
0.0
 10
78.12306022913691
 20
-139.6083482984313
 30
0.0
 10
78.12306022913691
 20
-139.6083482984313
 30
0.0
 10
76.84011331742317
 20
-138.3254013543073
 30
0.0
 10
76.84011331742317
 20
-138.3254013543073
 30
0.0
 10
76.84011331742317
 20
-138.3254013543073
 30
0.0
 10
76.84011331742317
 20
-122.113463302805
 30
0.0
 10
76.84011331742317
 20
-122.113463302805
 30
0.0
 10
76.84011331742317
 20
-122.113463302805
 30
0.0
 10
76.33987444129643
 20
-120.7395702475928
 30
0.0
 10
76.33987444129643
 20
-120.7395702475928
 30
0.0
 10
76.33987444129643
 20
-120.7395702475928
 30
0.0
 10
76.33987444129643
 20
-116.7398110819262
 30
0.0
 10
76.33987444129643
 20
-116.7398110819262
 30
0.0
 10
76.33987444129643
 20
-116.4635155264398
 30
0.0
 10
76.11663666921393
 20
-116.2395721931622
 30
0.0
 10
75.84034112070727
 20
-116.2395721931622
 30
0.0
 10
75.84034112070727
 20
-116.2395721931622
 30
0.0
 10
75.84034112070727
 20
-138.7394919097595
 30
0.0
 10
75.84034112070727
 20
-138.7394919097595
 30
0.0
 10
75.84034112070727
 20
-138.7394919097595
 30
0.0
 10
79.84010018533156
 20
-142.7392510754264
 30
0.0
 10
79.84010018533156
 20
-142.7392510754264
 30
0.0
 10
79.84010018533156
 20
-142.7392510754264
 30
0.0
 10
107.3402208726339
 20
-142.7392510754264
 30
0.0
 10
107.3402208726339
 20
-142.7392510754264
 30
0.0
 10
107.3402208726339
 20
-142.4636610754955
 30
0.0
 10
107.1162775450139
 20
-142.2397177422176
 30
0.0
 10
106.8399819965072
 20
-142.2397177422176
 30
0.0
  0
HATCH
  5
42
330
1F
100
AcDbEntity
  8
_U+30EC_U+30A4_U+30E4_U+30FC 1
 62
   253
420
 11711154
100
AcDbHatch
 10
0.0
 20
0.0
 30
0.0
210
0.0
220
0.0
230
1.0
  2
SOLID
 70
     1
 71
     0
 91
        1
 92
        1
 93
        1
 72
     4
 94
        3
 73
     0
 74
     1
 95
       74
 96
       70
 40
0.0
 40
0.0
 40
0.0
 40
0.0
 40
1.0
 40
1.0
 40
1.0
 40
2.0
 40
2.0
 40
2.0
 40
3.0
 40
3.0
 40
3.0
 40
4.0
 40
4.0
 40
4.0
 40
5.0
 40
5.0
 40
5.0
 40
6.0
 40
6.0
 40
6.0
 40
7.0
 40
7.0
 40
7.0
 40
8.0
 40
8.0
 40
8.0
 40
9.0
 40
9.0
 40
9.0
 40
10.0
 40
10.0
 40
10.0
 40
11.0
 40
11.0
 40
11.0
 40
12.0
 40
12.0
 40
12.0
 40
13.0
 40
13.0
 40
13.0
 40
14.0
 40
14.0
 40
14.0
 40
15.0
 40
15.0
 40
15.0
 40
16.0
 40
16.0
 40
16.0
 40
17.0
 40
17.0
 40
17.0
 40
18.0
 40
18.0
 40
18.0
 40
19.0
 40
19.0
 40
19.0
 40
20.0
 40
20.0
 40
20.0
 40
21.0
 40
21.0
 40
21.0
 40
22.0
 40
22.0
 40
22.0
 40
23.0
 40
23.0
 40
23.0
 40
23.0
 10
106.8399819965072
 20
-142.2397177422176
 10
106.8399819965072
 20
-142.2397177422176
 10
97.84002139278199
 20
-142.2397177422176
 10
97.84002139278199
 20
-142.2397177422176
 10
97.84002139278199
 20
-142.2397177422176
 10
96.46612837227737
 20
-141.739514131232
 10
96.46612837227737
 20
-141.739514131232
 10
96.46612837227737
 20
-141.739514131232
 10
80.25419073032279
 20
-141.739514131232
 10
80.25419073032279
 20
-141.739514131232
 10
80.25419073032279
 20
-141.739514131232
 10
78.97124381860905
 20
-140.4565319093304
 10
78.97124381860905
 20
-140.4565319093304
 10
78.97124381860905
 20
-140.4565319093304
 10
90.6886868530055
 20
-128.7397588567039
 10
90.6886868530055
 20
-128.7397588567039
 10
90.6886868530055
 20
-128.7397588567039
 10
97.84002139278199
 20
-128.7397588567039
 10
97.84002139278199
 20
-128.7397588567039
 10
97.84002139278199
 20
-128.7397588567039
 10
97.84002139278199
 20
-128.239555245718
 10
97.84002139278199
 20
-128.239555245718
 10
97.84002139278199
 20
-128.239555245718
 10
95.8398067215895
 20
-127.739316356954
 10
95.8398067215895
 20
-127.739316356954
 10
95.8398067215895
 20
-127.739316356954
 10
90.84027775506772
 20
-127.739316356954
 10
90.84027775506772
 20
-127.739316356954
 10
90.84027775506772
 20
-127.739316356954
 10
90.84027775506772
 20
-122.7397849693152
 10
90.84027775506772
 20
-122.7397849693152
 10
90.84027775506772
 20
-122.7397849693152
 10
90.340038866304
 20
-120.7395702475928
 10
90.340038866304
 20
-120.7395702475928
 10
90.340038866304
 20
-120.7395702475928
 10
89.83983298577269
 20
-120.7395702475928
 10
89.83983298577269
 20
-120.7395702475928
 10
89.83983298577269
 20
-120.7395702475928
 10
89.83983298577269
 20
-127.8909049680274
 10
89.83983298577269
 20
-127.8909049680274
 10
89.83983298577269
 20
-127.8909049680274
 10
78.12306022913691
 20
-139.6083482984313
 10
78.12306022913691
 20
-139.6083482984313
 10
78.12306022913691
 20
-139.6083482984313
 10
76.84011331742317
 20
-138.3254013543073
 10
76.84011331742317
 20
-138.3254013543073
 10
76.84011331742317
 20
-138.3254013543073
 10
76.84011331742317
 20
-122.113463302805
 10
76.84011331742317
 20
-122.113463302805
 10
76.84011331742317
 20
-122.113463302805
 10
76.33987444129643
 20
-120.7395702475928
 10
76.33987444129643
 20
-120.7395702475928
 10
76.33987444129643
 20
-120.7395702475928
 10
76.33987444129643
 20
-116.7398110819262
 10
76.33987444129643
 20
-116.7398110819262
 10
76.33987444129643
 20
-116.4635155264398
 10
76.11663666921393
 20
-116.2395721931622
 10
75.84034112070727
 20
-116.2395721931622
 10
75.84034112070727
 20
-116.2395721931622
 10
75.84034112070727
 20
-138.7394919097595
 10
75.84034112070727
 20
-138.7394919097595
 10
75.84034112070727
 20
-138.7394919097595
 10
79.84010018533156
 20
-142.7392510754264
 10
79.84010018533156
 20
-142.7392510754264
 10
79.84010018533156
 20
-142.7392510754264
 10
107.3402208726339
 20
-142.7392510754264
 10
107.3402208726339
 20
-142.7392510754264
 10
107.3402208726339
 20
-142.4636610754955
 10
107.1162775450139
 20
-142.2397177422176
 10
106.8399819965072
 20
-142.2397177422176
 97
        0
 97
        0
 75
     2
 76
     1
 98
        0
  0
POLYLINE
  5
43
330
1F
100
AcDbEntity
  8
_U+30EC_U+30A4_U+30E4_U+30FC 1
 62
     7
420
 16777215
370
    25
100
AcDb2dPolyline
 66
     1
 10
0.0
 20
0.0
 30
0.0
  0
VERTEX
  5
44
330
43
100
AcDbEntity
  8
_U+30EC_U+30A4_U+30E4_U+30FC 1
 62
     7
420
 16777215
370
    25
100
AcDbVertex
100
AcDb2dVertex
 10
75.84034112070727
 20
-116.2395721931622
 30
0.0
  0
VERTEX
  5
45
330
43
100
AcDbEntity
  8
_U+30EC_U+30A4_U+30E4_U+30FC 1
 62
     7
420
 16777215
370
    25
100
AcDbVertex
100
AcDb2dVertex
 10
75.84034112070727
 20
-138.7394919097595
 30
0.0
  0
SEQEND
  5
46
330
43
100
AcDbEntity
  8
_U+30EC_U+30A4_U+30E4_U+30FC 1
 62
     7
420
 16777215
370
    25
  0
POLYLINE
  5
47
330
1F
100
AcDbEntity
  8
_U+30EC_U+30A4_U+30E4_U+30FC 1
 62
     7
420
 16777215
370
    25
100
AcDb2dPolyline
 66
     1
 10
0.0
 20
0.0
 30
0.0
  0
VERTEX
  5
48
330
47
100
AcDbEntity
  8
_U+30EC_U+30A4_U+30E4_U+30FC 1
 62
     7
420
 16777215
370
    25
100
AcDbVertex
100
AcDb2dVertex
 10
79.84010018533156
 20
-142.7392510754264
 30
0.0
  0
VERTEX
  5
49
330
47
100
AcDbEntity
  8
_U+30EC_U+30A4_U+30E4_U+30FC 1
 62
     7
420
 16777215
370
    25
100
AcDbVertex
100
AcDb2dVertex
 10
75.84034112070727
 20
-138.7394919097595
 30
0.0
  0
SEQEND
  5
4A
330
47
100
AcDbEntity
  8
_U+30EC_U+30A4_U+30E4_U+30FC 1
 62
     7
420
 16777215
370
    25
  0
POLYLINE
  5
4B
330
1F
100
AcDbEntity
  8
_U+30EC_U+30A4_U+30E4_U+30FC 1
 62
     7
420
 16777215
370
    25
100
AcDb2dPolyline
 66
     1
 10
0.0
 20
0.0
 30
0.0
  0
VERTEX
  5
4C
330
4B
100
AcDbEntity
  8
_U+30EC_U+30A4_U+30E4_U+30FC 1
 62
     7
420
 16777215
370
    25
100
AcDbVertex
100
AcDb2dVertex
 10
76.84011331742317
 20
-122.113463302805
 30
0.0
  0
VERTEX
  5
4D
330
4B
100
AcDbEntity
  8
_U+30EC_U+30A4_U+30E4_U+30FC 1
 62
     7
420
 16777215
370
    25
100
AcDbVertex
100
AcDb2dVertex
 10
76.84011331742317
 20
-138.3254013543073
 30
0.0
  0
SEQEND
  5
4E
330
4B
100
AcDbEntity
  8
_U+30EC_U+30A4_U+30E4_U+30FC 1
 62
     7
420
 16777215
370
    25
  0
POLYLINE
  5
4F
330
1F
100
AcDbEntity
  8
_U+30EC_U+30A4_U+30E4_U+30FC 1
 62
     7
420
 16777215
370
    25
100
AcDb2dPolyline
 66
     1
 10
0.0
 20
0.0
 30
0.0
  0
VERTEX
  5
50
330
4F
100
AcDbEntity
  8
_U+30EC_U+30A4_U+30E4_U+30FC 1
 62
     7
420
 16777215
370
    25
100
AcDbVertex
100
AcDb2dVertex
 10
80.25419073032279
 20
-141.739514131232
 30
0.0
  0
VERTEX
  5
51
330
4F
100
AcDbEntity
  8
_U+30EC_U+30A4_U+30E4_U+30FC 1
 62
     7
420
 16777215
370
    25
100
AcDbVertex
100
AcDb2dVertex
 10
96.46612837227737
 20
-141.739514131232
 30
0.0
  0
SEQEND
  5
52
330
4F
100
AcDbEntity
  8
_U+30EC_U+30A4_U+30E4_U+30FC 1
 62
     7
420
 16777215
370
    25
  0
POLYLINE
  5
53
330
1F
100
AcDbEntity
  8
_U+30EC_U+30A4_U+30E4_U+30FC 1
 62
     7
420
 16777215
370
    25
100
AcDb2dPolyline
 66
     1
 10
0.0
 20
0.0
 30
0.0
  0
VERTEX
  5
54
330
53
100
AcDbEntity
  8
_U+30EC_U+30A4_U+30E4_U+30FC 1
 62
     7
420
 16777215
370
    25
100
AcDbVertex
100
AcDb2dVertex
 10
89.83983298577269
 20
-120.7395702475928
 30
0.0
  0
VERTEX
  5
55
330
53
100
AcDbEntity
  8
_U+30EC_U+30A4_U+30E4_U+30FC 1
 62
     7
420
 16777215
370
    25
100
AcDbVertex
100
AcDb2dVertex
 10
89.83983298577269
 20
-127.8909049680274
 30
0.0
  0
SEQEND
  5
56
330
53
100
AcDbEntity
  8
_U+30EC_U+30A4_U+30E4_U+30FC 1
 62
     7
420
 16777215
370
    25
  0
POLYLINE
  5
57
330
1F
100
AcDbEntity
  8
_U+30EC_U+30A4_U+30E4_U+30FC 1
 62
     7
420
 16777215
370
    25
100
AcDb2dPolyline
 66
     1
 10
0.0
 20
0.0
 30
0.0
  0
VERTEX
  5
58
330
57
100
AcDbEntity
  8
_U+30EC_U+30A4_U+30E4_U+30FC 1
 62
     7
420
 16777215
370
    25
100
AcDbVertex
100
AcDb2dVertex
 10
90.6886868530055
 20
-128.7397588567039
 30
0.0
  0
VERTEX
  5
59
330
57
100
AcDbEntity
  8
_U+30EC_U+30A4_U+30E4_U+30FC 1
 62
     7
420
 16777215
370
    25
100
AcDbVertex
100
AcDb2dVertex
 10
97.84002139278199
 20
-128.7397588567039
 30
0.0
  0
SEQEND
  5
5A
330
57
100
AcDbEntity
  8
_U+30EC_U+30A4_U+30E4_U+30FC 1
 62
     7
420
 16777215
370
    25
  0
POLYLINE
  5
5B
330
1F
100
AcDbEntity
  8
_U+30EC_U+30A4_U+30E4_U+30FC 1
 62
     7
420
 16777215
370
    25
100
AcDb2dPolyline
 66
     1
 10
0.0
 20
0.0
 30
0.0
  0
VERTEX
  5
5C
330
5B
100
AcDbEntity
  8
_U+30EC_U+30A4_U+30E4_U+30FC 1
 62
     7
420
 16777215
370
    25
100
AcDbVertex
100
AcDb2dVertex
 10
76.33987444129643
 20
-116.7398110819262
 30
0.0
  0
VERTEX
  5
5D
330
5B
100
AcDbEntity
  8
_U+30EC_U+30A4_U+30E4_U+30FC 1
 62
     7
420
 16777215
370
    25
100
AcDbVertex
100
AcDb2dVertex
 10
76.33987444129643
 20
-120.7395702475928
 30
0.0
  0
SEQEND
  5
5E
330
5B
100
AcDbEntity
  8
_U+30EC_U+30A4_U+30E4_U+30FC 1
 62
     7
420
 16777215
370
    25
  0
POLYLINE
  5
5F
330
1F
100
AcDbEntity
  8
_U+30EC_U+30A4_U+30E4_U+30FC 1
 62
     7
420
 16777215
370
    25
100
AcDb2dPolyline
 66
     1
 10
0.0
 20
0.0
 30
0.0
  0
VERTEX
  5
60
330
5F
100
AcDbEntity
  8
_U+30EC_U+30A4_U+30E4_U+30FC 1
 62
     7
420
 16777215
370
    25
100
AcDbVertex
100
AcDb2dVertex
 10
76.84011331742317
 20
-122.113463302805
 30
0.0
  0
VERTEX
  5
61
330
5F
100
AcDbEntity
  8
_U+30EC_U+30A4_U+30E4_U+30FC 1
 62
     7
420
 16777215
370
    25
100
AcDbVertex
100
AcDb2dVertex
 10
76.33987444129643
 20
-120.7395702475928
 30
0.0
  0
SEQEND
  5
62
330
5F
100
AcDbEntity
  8
_U+30EC_U+30A4_U+30E4_U+30FC 1
 62
     7
420
 16777215
370
    25
  0
POLYLINE
  5
63
330
1F
100
AcDbEntity
  8
_U+30EC_U+30A4_U+30E4_U+30FC 1
 62
     7
420
 16777215
370
    25
100
AcDb2dPolyline
 66
     1
 10
0.0
 20
0.0
 30
0.0
  0
VERTEX
  5
64
330
63
100
AcDbEntity
  8
_U+30EC_U+30A4_U+30E4_U+30FC 1
 62
     7
420
 16777215
370
    25
100
AcDbVertex
100
AcDb2dVertex
 10
97.84002139278199
 20
-142.2397177422176
 30
0.0
  0
VERTEX
  5
65
330
63
100
AcDbEntity
  8
_U+30EC_U+30A4_U+30E4_U+30FC 1
 62
     7
420
 16777215
370
    25
100
AcDbVertex
100
AcDb2dVertex
 10
106.8399819965072
 20
-142.2397177422176
 30
0.0
  0
SEQEND
  5
66
330
63
100
AcDbEntity
  8
_U+30EC_U+30A4_U+30E4_U+30FC 1
 62
     7
420
 16777215
370
    25
  0
POLYLINE
  5
67
330
1F
100
AcDbEntity
  8
_U+30EC_U+30A4_U+30E4_U+30FC 1
 62
     7
420
 16777215
370
    25
100
AcDb2dPolyline
 66
     1
 10
0.0
 20
0.0
 30
0.0
  0
VERTEX
  5
68
330
67
100
AcDbEntity
  8
_U+30EC_U+30A4_U+30E4_U+30FC 1
 62
     7
420
 16777215
370
    25
100
AcDbVertex
100
AcDb2dVertex
 10
96.46612837227737
 20
-141.739514131232
 30
0.0
  0
VERTEX
  5
69
330
67
100
AcDbEntity
  8
_U+30EC_U+30A4_U+30E4_U+30FC 1
 62
     7
420
 16777215
370
    25
100
AcDbVertex
100
AcDb2dVertex
 10
97.84002139278199
 20
-142.2397177422176
 30
0.0
  0
SEQEND
  5
6A
330
67
100
AcDbEntity
  8
_U+30EC_U+30A4_U+30E4_U+30FC 1
 62
     7
420
 16777215
370
    25
  0
POLYLINE
  5
6B
330
1F
100
AcDbEntity
  8
_U+30EC_U+30A4_U+30E4_U+30FC 1
 62
     7
420
 16777215
370
    25
100
AcDb2dPolyline
 66
     1
 10
0.0
 20
0.0
 30
0.0
  0
VERTEX
  5
6C
330
6B
100
AcDbEntity
  8
_U+30EC_U+30A4_U+30E4_U+30FC 1
 62
     7
420
 16777215
370
    25
100
AcDbVertex
100
AcDb2dVertex
 10
79.84010018533156
 20
-142.7392510754264
 30
0.0
  0
VERTEX
  5
6D
330
6B
100
AcDbEntity
  8
_U+30EC_U+30A4_U+30E4_U+30FC 1
 62
     7
420
 16777215
370
    25
100
AcDbVertex
100
AcDb2dVertex
 10
107.3402208726339
 20
-142.7392510754264
 30
0.0
  0
SEQEND
  5
6E
330
6B
100
AcDbEntity
  8
_U+30EC_U+30A4_U+30E4_U+30FC 1
 62
     7
420
 16777215
370
    25
  0
POLYLINE
  5
6F
330
1F
100
AcDbEntity
  8
_U+30EC_U+30A4_U+30E4_U+30FC 1
 62
     7
420
 16777215
370
    25
100
AcDb2dPolyline
 66
     1
 10
0.0
 20
0.0
 30
0.0
  0
VERTEX
  5
70
330
6F
100
AcDbEntity
  8
_U+30EC_U+30A4_U+30E4_U+30FC 1
 62
     7
420
 16777215
370
    25
100
AcDbVertex
100
AcDb2dVertex
 10
80.25419073032279
 20
-141.739514131232
 30
0.0
  0
VERTEX
  5
71
330
6F
100
AcDbEntity
  8
_U+30EC_U+30A4_U+30E4_U+30FC 1
 62
     7
420
 16777215
370
    25
100
AcDbVertex
100
AcDb2dVertex
 10
78.97124381860905
 20
-140.4565319093304
 30
0.0
  0
SEQEND
  5
72
330
6F
100
AcDbEntity
  8
_U+30EC_U+30A4_U+30E4_U+30FC 1
 62
     7
420
 16777215
370
    25
  0
POLYLINE
  5
73
330
1F
100
AcDbEntity
  8
_U+30EC_U+30A4_U+30E4_U+30FC 1
 62
     7
420
 16777215
370
    25
100
AcDb2dPolyline
 66
     1
 10
0.0
 20
0.0
 30
0.0
  0
VERTEX
  5
74
330
73
100
AcDbEntity
  8
_U+30EC_U+30A4_U+30E4_U+30FC 1
 62
     7
420
 16777215
370
    25
100
AcDbVertex
100
AcDb2dVertex
 10
78.12306022913691
 20
-139.6083482984313
 30
0.0
  0
VERTEX
  5
75
330
73
100
AcDbEntity
  8
_U+30EC_U+30A4_U+30E4_U+30FC 1
 62
     7
420
 16777215
370
    25
100
AcDbVertex
100
AcDb2dVertex
 10
76.84011331742317
 20
-138.3254013543073
 30
0.0
  0
SEQEND
  5
76
330
73
100
AcDbEntity
  8
_U+30EC_U+30A4_U+30E4_U+30FC 1
 62
     7
420
 16777215
370
    25
  0
POLYLINE
  5
77
330
1F
100
AcDbEntity
  8
_U+30EC_U+30A4_U+30E4_U+30FC 1
 62
     7
420
 16777215
370
    25
100
AcDb2dPolyline
 66
     1
 10
0.0
 20
0.0
 30
0.0
  0
VERTEX
  5
78
330
77
100
AcDbEntity
  8
_U+30EC_U+30A4_U+30E4_U+30FC 1
 62
     7
420
 16777215
370
    25
100
AcDbVertex
100
AcDb2dVertex
 10
78.12306022913691
 20
-139.6083482984313
 30
0.0
  0
VERTEX
  5
79
330
77
100
AcDbEntity
  8
_U+30EC_U+30A4_U+30E4_U+30FC 1
 62
     7
420
 16777215
370
    25
100
AcDbVertex
100
AcDb2dVertex
 10
89.83983298577269
 20
-127.8909049680274
 30
0.0
  0
SEQEND
  5
7A
330
77
100
AcDbEntity
  8
_U+30EC_U+30A4_U+30E4_U+30FC 1
 62
     7
420
 16777215
370
    25
  0
POLYLINE
  5
7B
330
1F
100
AcDbEntity
  8
_U+30EC_U+30A4_U+30E4_U+30FC 1
 62
     7
420
 16777215
370
    25
100
AcDb2dPolyline
 66
     1
 10
0.0
 20
0.0
 30
0.0
  0
VERTEX
  5
7C
330
7B
100
AcDbEntity
  8
_U+30EC_U+30A4_U+30E4_U+30FC 1
 62
     7
420
 16777215
370
    25
100
AcDbVertex
100
AcDb2dVertex
 10
78.97124381860905
 20
-140.4565319093304
 30
0.0
  0
VERTEX
  5
7D
330
7B
100
AcDbEntity
  8
_U+30EC_U+30A4_U+30E4_U+30FC 1
 62
     7
420
 16777215
370
    25
100
AcDbVertex
100
AcDb2dVertex
 10
90.6886868530055
 20
-128.7397588567039
 30
0.0
  0
SEQEND
  5
7E
330
7B
100
AcDbEntity
  8
_U+30EC_U+30A4_U+30E4_U+30FC 1
 62
     7
420
 16777215
370
    25
  0
POLYLINE
  5
7F
330
1F
100
AcDbEntity
  8
_U+30EC_U+30A4_U+30E4_U+30FC 1
 62
     7
420
 16777215
370
    25
100
AcDb2dPolyline
 66
     1
 10
0.0
 20
0.0
 30
0.0
  0
VERTEX
  5
80
330
7F
100
AcDbEntity
  8
_U+30EC_U+30A4_U+30E4_U+30FC 1
 62
     7
420
 16777215
370
    25
100
AcDbVertex
100
AcDb2dVertex
 10
97.84002139278199
 20
-128.239555245718
 30
0.0
  0
VERTEX
  5
81
330
7F
100
AcDbEntity
  8
_U+30EC_U+30A4_U+30E4_U+30FC 1
 62
     7
420
 16777215
370
    25
100
AcDbVertex
100
AcDb2dVertex
 10
97.84002139278199
 20
-128.7397588567039
 30
0.0
  0
SEQEND
  5
82
330
7F
100
AcDbEntity
  8
_U+30EC_U+30A4_U+30E4_U+30FC 1
 62
     7
420
 16777215
370
    25
  0
POLYLINE
  5
83
330
1F
100
AcDbEntity
  8
_U+30EC_U+30A4_U+30E4_U+30FC 1
 62
     7
420
 16777215
370
    25
100
AcDb2dPolyline
 66
     1
 10
0.0
 20
0.0
 30
0.0
  0
VERTEX
  5
84
330
83
100
AcDbEntity
  8
_U+30EC_U+30A4_U+30E4_U+30FC 1
 62
     7
420
 16777215
370
    25
100
AcDbVertex
100
AcDb2dVertex
 10
89.83983298577269
 20
-120.7395702475928
 30
0.0
  0
VERTEX
  5
85
330
83
100
AcDbEntity
  8
_U+30EC_U+30A4_U+30E4_U+30FC 1
 62
     7
420
 16777215
370
    25
100
AcDbVertex
100
AcDb2dVertex
 10
90.340038866304
 20
-120.7395702475928
 30
0.0
  0
SEQEND
  5
86
330
83
100
AcDbEntity
  8
_U+30EC_U+30A4_U+30E4_U+30FC 1
 62
     7
420
 16777215
370
    25
  0
POLYLINE
  5
87
330
1F
100
AcDbEntity
  8
_U+30EC_U+30A4_U+30E4_U+30FC 1
 62
     7
420
 16777215
370
    25
100
AcDb2dPolyline
 66
     1
 10
0.0
 20
0.0
 30
0.0
  0
VERTEX
  5
88
330
87
100
AcDbEntity
  8
_U+30EC_U+30A4_U+30E4_U+30FC 1
 62
     7
420
 16777215
370
    25
100
AcDbVertex
100
AcDb2dVertex
 10
90.84027775506772
 20
-127.739316356954
 30
0.0
  0
VERTEX
  5
89
330
87
100
AcDbEntity
  8
_U+30EC_U+30A4_U+30E4_U+30FC 1
 62
     7
420
 16777215
370
    25
100
AcDbVertex
100
AcDb2dVertex
 10
95.8398067215895
 20
-127.739316356954
 30
0.0
  0
SEQEND
  5
8A
330
87
100
AcDbEntity
  8
_U+30EC_U+30A4_U+30E4_U+30FC 1
 62
     7
420
 16777215
370
    25
  0
POLYLINE
  5
8B
330
1F
100
AcDbEntity
  8
_U+30EC_U+30A4_U+30E4_U+30FC 1
 62
     7
420
 16777215
370
    25
100
AcDb2dPolyline
 66
     1
 10
0.0
 20
0.0
 30
0.0
  0
VERTEX
  5
8C
330
8B
100
AcDbEntity
  8
_U+30EC_U+30A4_U+30E4_U+30FC 1
 62
     7
420
 16777215
370
    25
100
AcDbVertex
100
AcDb2dVertex
 10
90.84027775506772
 20
-122.7397849693152
 30
0.0
  0
VERTEX
  5
8D
330
8B
100
AcDbEntity
  8
_U+30EC_U+30A4_U+30E4_U+30FC 1
 62
     7
420
 16777215
370
    25
100
AcDbVertex
100
AcDb2dVertex
 10
90.84027775506772
 20
-127.739316356954
 30
0.0
  0
SEQEND
  5
8E
330
8B
100
AcDbEntity
  8
_U+30EC_U+30A4_U+30E4_U+30FC 1
 62
     7
420
 16777215
370
    25
  0
POLYLINE
  5
8F
330
1F
100
AcDbEntity
  8
_U+30EC_U+30A4_U+30E4_U+30FC 1
 62
     7
420
 16777215
370
    25
100
AcDb2dPolyline
 66
     1
 10
0.0
 20
0.0
 30
0.0
  0
VERTEX
  5
90
330
8F
100
AcDbEntity
  8
_U+30EC_U+30A4_U+30E4_U+30FC 1
 62
     7
420
 16777215
370
    25
100
AcDbVertex
100
AcDb2dVertex
 10
90.84027775506772
 20
-122.7397849693152
 30
0.0
  0
VERTEX
  5
91
330
8F
100
AcDbEntity
  8
_U+30EC_U+30A4_U+30E4_U+30FC 1
 62
     7
420
 16777215
370
    25
100
AcDbVertex
100
AcDb2dVertex
 10
90.340038866304
 20
-120.7395702475928
 30
0.0
  0
SEQEND
  5
92
330
8F
100
AcDbEntity
  8
_U+30EC_U+30A4_U+30E4_U+30FC 1
 62
     7
420
 16777215
370
    25
  0
POLYLINE
  5
93
330
1F
100
AcDbEntity
  8
_U+30EC_U+30A4_U+30E4_U+30FC 1
 62
     7
420
 16777215
370
    25
100
AcDb2dPolyline
 66
     1
 10
0.0
 20
0.0
 30
0.0
  0
VERTEX
  5
94
330
93
100
AcDbEntity
  8
_U+30EC_U+30A4_U+30E4_U+30FC 1
 62
     7
420
 16777215
370
    25
100
AcDbVertex
100
AcDb2dVertex
 10
95.8398067215895
 20
-127.739316356954
 30
0.0
  0
VERTEX
  5
95
330
93
100
AcDbEntity
  8
_U+30EC_U+30A4_U+30E4_U+30FC 1
 62
     7
420
 16777215
370
    25
100
AcDbVertex
100
AcDb2dVertex
 10
97.84002139278199
 20
-128.239555245718
 30
0.0
  0
SEQEND
  5
96
330
93
100
AcDbEntity
  8
_U+30EC_U+30A4_U+30E4_U+30FC 1
 62
     7
420
 16777215
370
    25
  0
SPLINE
  5
97
330
1F
100
AcDbEntity
  8
_U+30EC_U+30A4_U+30E4_U+30FC 1
 62
     7
420
 16777215
370
    25
100
AcDbSpline
210
0.0
220
0.0
230
1.0
 70
     8
 71
     3
 72
     8
 73
     4
 74
     0
 42
0.0000000001
 43
0.0000000001
 12
1.0
 22
0.0
 32
0.0
 13
1.0
 23
0.0
 33
0.0
 40
0.0
 40
0.0
 40
0.0
 40
0.0
 40
1.0
 40
1.0
 40
1.0
 40
1.0
 10
76.33987444129643
 20
-116.7398110819262
 30
0.0
 10
76.33987444129643
 20
-116.4635155264398
 30
0.0
 10
76.11663666921393
 20
-116.2395721931622
 30
0.0
 10
75.84034112070727
 20
-116.2395721931622
 30
0.0
  0
SPLINE
  5
98
330
1F
100
AcDbEntity
  8
_U+30EC_U+30A4_U+30E4_U+30FC 1
 62
     7
420
 16777215
370
    25
100
AcDbSpline
210
0.0
220
0.0
230
1.0
 70
     8
 71
     3
 72
     8
 73
     4
 74
     0
 42
0.0000000001
 43
0.0000000001
 12
1.0
 22
0.0
 32
0.0
 13
1.0
 23
0.0
 33
0.0
 40
0.0
 40
0.0
 40
0.0
 40
0.0
 40
1.0
 40
1.0
 40
1.0
 40
1.0
 10
107.3402208726339
 20
-142.7392510754264
 30
0.0
 10
107.3402208726339
 20
-142.4636610754955
 30
0.0
 10
107.1162775450139
 20
-142.2397177422176
 30
0.0
 10
106.8399819965072
 20
-142.2397177422176
 30
0.0
  0
SPLINE
  5
99
330
1F
100
AcDbEntity
  8
_U+30EC_U+30A4_U+30E4_U+30FC 1
 62
     7
420
 16777215
370
     9
100
AcDbSpline
210
0.0
220
0.0
230
1.0
 70
    11
 71
     3
 72
    17
 73
    13
 74
     0
 42
0.0000000001
 43
0.0000000001
 12
1.0
 22
0.0
 32
0.0
 13
1.0
 23
0.0
 33
0.0
 40
0.0
 40
0.0
 40
0.0
 40
0.0
 40
1.0
 40
1.0
 40
1.0
 40
2.0
 40
2.0
 40
2.0
 40
3.0
 40
3.0
 40
3.0
 40
4.0
 40
4.0
 40
4.0
 40
4.0
 10
71.94048872020079
 20
-116.2395721931622
 30
0.0
 10
71.94048872020079
 20
-116.1844683042873
 30
0.0
 10
71.89568594356602
 20
-116.1396655265206
 30
0.0
 10
71.83987650054539
 20
-116.1396655265206
 30
0.0
 10
71.78477261306232
 20
-116.1396655265206
 30
0.0
 10
71.73996983642756
 20
-116.1844683042873
 30
0.0
 10
71.73996983642756
 20
-116.2395721931622
 30
0.0
 10
71.73996983642756
 20
-116.2947113598153
 30
0.0
 10
71.78477261306232
 20
-116.3395141375817
 30
0.0
 10
71.83987650054539
 20
-116.3395141375817
 30
0.0
 10
71.89568594356602
 20
-116.3395141375817
 30
0.0
 10
71.94048872020079
 20
-116.2947113598153
 30
0.0
 10
71.94048872020079
 20
-116.2395721931622
 30
0.0
  0
SPLINE
  5
9A
330
1F
100
AcDbEntity
  8
_U+30EC_U+30A4_U+30E4_U+30FC 1
 62
     7
420
 16777215
370
     9
100
AcDbSpline
210
0.0
220
0.0
230
1.0
 70
    11
 71
     3
 72
    17
 73
    13
 74
     0
 42
0.0000000001
 43
0.0000000001
 12
1.0
 22
0.0
 32
0.0
 13
1.0
 23
0.0
 33
0.0
 40
0.0
 40
0.0
 40
0.0
 40
0.0
 40
1.0
 40
1.0
 40
1.0
 40
2.0
 40
2.0
 40
2.0
 40
3.0
 40
3.0
 40
3.0
 40
4.0
 40
4.0
 40
4.0
 40
4.0
 10
76.940019981541
 20
-111.7396094165094
 30
0.0
 10
76.940019981541
 20
-111.6844702498567
 30
0.0
 10
76.89521720490625
 20
-111.6397027498678
 30
0.0
 10
76.84011331742317
 20
-111.6397027498678
 30
0.0
 10
76.78497415216322
 20
-111.6397027498678
 30
0.0
 10
76.74020665330534
 20
-111.6844702498567
 30
0.0
 10
76.74020665330534
 20
-111.7396094165094
 30
0.0
 10
76.74020665330534
 20
-111.7947133053847
 30
0.0
 10
76.78497415216322
 20
-111.8395160831514
 30
0.0
 10
76.84011331742317
 20
-111.8395160831514
 30
0.0
 10
76.89521720490625
 20
-111.8395160831514
 30
0.0
 10
76.940019981541
 20
-111.7947133053847
 30
0.0
 10
76.940019981541
 20
-111.7396094165094
 30
0.0
  0
SPLINE
  5
9B
330
1F
100
AcDbEntity
  8
_U+30EC_U+30A4_U+30E4_U+30FC 1
 62
     7
420
 16777215
370
     9
100
AcDbSpline
210
0.0
220
0.0
230
1.0
 70
    11
 71
     3
 72
    17
 73
    13
 74
     0
 42
0.0000000001
 43
0.0000000001
 12
1.0
 22
0.0
 32
0.0
 13
1.0
 23
0.0
 33
0.0
 40
0.0
 40
0.0
 40
0.0
 40
0.0
 40
1.0
 40
1.0
 40
1.0
 40
2.0
 40
2.0
 40
2.0
 40
3.0
 40
3.0
 40
3.0
 40
4.0
 40
4.0
 40
4.0
 40
4.0
 10
89.93973964989053
 20
-111.7396094165094
 30
0.0
 10
89.93973964989053
 20
-111.6844702498567
 30
0.0
 10
89.89564242879332
 20
-111.6397027498678
 30
0.0
 10
89.83983298577269
 20
-111.6397027498678
 30
0.0
 10
89.78469382051274
 20
-111.6397027498678
 30
0.0
 10
89.73992632165485
 20
-111.6844702498567
 30
0.0
 10
89.73992632165485
 20
-111.7396094165094
 30
0.0
 10
89.73992632165485
 20
-111.7947133053847
 30
0.0
 10
89.78469382051274
 20
-111.8395160831514
 30
0.0
 10
89.83983298577269
 20
-111.8395160831514
 30
0.0
 10
89.89564242879332
 20
-111.8395160831514
 30
0.0
 10
89.93973964989053
 20
-111.7947133053847
 30
0.0
 10
89.93973964989053
 20
-111.7396094165094
 30
0.0
  0
SPLINE
  5
9C
330
1F
100
AcDbEntity
  8
_U+30EC_U+30A4_U+30E4_U+30FC 1
 62
     7
420
 16777215
370
     9
100
AcDbSpline
210
0.0
220
0.0
230
1.0
 70
    11
 71
     3
 72
    17
 73
    13
 74
     0
 42
0.0000000001
 43
0.0000000001
 12
1.0
 22
0.0
 32
0.0
 13
1.0
 23
0.0
 33
0.0
 40
0.0
 40
0.0
 40
0.0
 40
0.0
 40
1.0
 40
1.0
 40
1.0
 40
2.0
 40
2.0
 40
2.0
 40
3.0
 40
3.0
 40
3.0
 40
4.0
 40
4.0
 40
4.0
 40
4.0
 10
97.93993053107057
 20
-111.7396094165094
 30
0.0
 10
97.93993053107057
 20
-111.6844702498567
 30
0.0
 10
97.89512775330385
 20
-111.6397027498678
 30
0.0
 10
97.84002139278199
 20
-111.6397027498678
 30
0.0
 10
97.78488222752205
 20
-111.6397027498678
 30
0.0
 10
97.74011472866415
 20
-111.6844702498567
 30
0.0
 10
97.74011472866415
 20
-111.7396094165094
 30
0.0
 10
97.74011472866415
 20
-111.7947133053847
 30
0.0
 10
97.78488222752205
 20
-111.8395160831514
 30
0.0
 10
97.84002139278199
 20
-111.8395160831514
 30
0.0
 10
97.89512775330385
 20
-111.8395160831514
 30
0.0
 10
97.93993053107057
 20
-111.7947133053847
 30
0.0
 10
97.93993053107057
 20
-111.7396094165094
 30
0.0
  0
SPLINE
  5
9D
330
1F
100
AcDbEntity
  8
_U+30EC_U+30A4_U+30E4_U+30FC 1
 62
     7
420
 16777215
370
     9
100
AcDbSpline
210
0.0
220
0.0
230
1.0
 70
    11
 71
     3
 72
    17
 73
    13
 74
     0
 42
0.0000000001
 43
0.0000000001
 12
1.0
 22
0.0
 32
0.0
 13
1.0
 23
0.0
 33
0.0
 40
0.0
 40
0.0
 40
0.0
 40
0.0
 40
1.0
 40
1.0
 40
1.0
 40
2.0
 40
2.0
 40
2.0
 40
3.0
 40
3.0
 40
3.0
 40
4.0
 40
4.0
 40
4.0
 40
4.0
 10
111.9400901997259
 20
-120.7395702475928
 30
0.0
 10
111.9400901997259
 20
-120.6844663587179
 30
0.0
 10
111.895322700868
 20
-120.6396635809512
 30
0.0
 10
111.8401835356081
 20
-120.6396635809512
 30
0.0
 10
111.785079648125
 20
-120.6396635809512
 30
0.0
 10
111.7402768714903
 20
-120.6844663587179
 30
0.0
 10
111.7402768714903
 20
-120.7395702475928
 30
0.0
 10
111.7402768714903
 20
-120.7947094142459
 30
0.0
 10
111.785079648125
 20
-120.8394769142344
 30
0.0
 10
111.8401835356081
 20
-120.8394769142344
 30
0.0
 10
111.895322700868
 20
-120.8394769142344
 30
0.0
 10
111.9400901997259
 20
-120.7947094142459
 30
0.0
 10
111.9400901997259
 20
-120.7395702475928
 30
0.0
  0
SPLINE
  5
9E
330
1F
100
AcDbEntity
  8
_U+30EC_U+30A4_U+30E4_U+30FC 1
 62
     7
420
 16777215
370
     9
100
AcDbSpline
210
0.0
220
0.0
230
1.0
 70
    11
 71
     3
 72
    17
 73
    13
 74
     0
 42
0.0000000001
 43
0.0000000001
 12
1.0
 22
0.0
 32
0.0
 13
1.0
 23
0.0
 33
0.0
 40
0.0
 40
0.0
 40
0.0
 40
0.0
 40
1.0
 40
1.0
 40
1.0
 40
2.0
 40
2.0
 40
2.0
 40
3.0
 40
3.0
 40
3.0
 40
4.0
 40
4.0
 40
4.0
 40
4.0
 10
111.9400901997259
 20
-128.7397588567039
 30
0.0
 10
111.9400901997259
 20
-128.684654967829
 30
0.0
 10
111.895322700868
 20
-128.6398521900623
 30
0.0
 10
111.8401835356081
 20
-128.6398521900623
 30
0.0
 10
111.785079648125
 20
-128.6398521900623
 30
0.0
 10
111.7402768714903
 20
-128.684654967829
 30
0.0
 10
111.7402768714903
 20
-128.7397588567039
 30
0.0
 10
111.7402768714903
 20
-128.794898023357
 30
0.0
 10
111.785079648125
 20
-128.8396655233456
 30
0.0
 10
111.8401835356081
 20
-128.8396655233456
 30
0.0
 10
111.895322700868
 20
-128.8396655233456
 30
0.0
 10
111.9400901997259
 20
-128.794898023357
 30
0.0
 10
111.9400901997259
 20
-128.7397588567039
 30
0.0
  0
SPLINE
  5
9F
330
1F
100
AcDbEntity
  8
_U+30EC_U+30A4_U+30E4_U+30FC 1
 62
     7
420
 16777215
370
     9
100
AcDbSpline
210
0.0
220
0.0
230
1.0
 70
    11
 71
     3
 72
    17
 73
    13
 74
     0
 42
0.0000000001
 43
0.0000000001
 12
1.0
 22
0.0
 32
0.0
 13
1.0
 23
0.0
 33
0.0
 40
0.0
 40
0.0
 40
0.0
 40
0.0
 40
1.0
 40
1.0
 40
1.0
 40
2.0
 40
2.0
 40
2.0
 40
3.0
 40
3.0
 40
3.0
 40
4.0
 40
4.0
 40
4.0
 40
4.0
 10
111.9400901997259
 20
-141.739514131232
 30
0.0
 10
111.9400901997259
 20
-141.6843749645789
 30
0.0
 10
111.895322700868
 20
-141.6395721868122
 30
0.0
 10
111.8401835356081
 20
-141.6395721868122
 30
0.0
 10
111.785079648125
 20
-141.6395721868122
 30
0.0
 10
111.7402768714903
 20
-141.6843749645789
 30
0.0
 10
111.7402768714903
 20
-141.739514131232
 30
0.0
 10
111.7402768714903
 20
-141.7946180201069
 30
0.0
 10
111.785079648125
 20
-141.8394207978736
 30
0.0
 10
111.8401835356081
 20
-141.8394207978736
 30
0.0
 10
111.895322700868
 20
-141.8394207978736
 30
0.0
 10
111.9400901997259
 20
-141.7946180201069
 30
0.0
 10
111.9400901997259
 20
-141.739514131232
 30
0.0
  0
SPLINE
  5
A0
330
1F
100
AcDbEntity
  8
_U+30EC_U+30A4_U+30E4_U+30FC 1
 62
     7
420
 16777215
370
     9
100
AcDbSpline
210
0.0
220
0.0
230
1.0
 70
    11
 71
     3
 72
    17
 73
    13
 74
     0
 42
0.0000000001
 43
0.0000000001
 12
1.0
 22
0.0
 32
0.0
 13
1.0
 23
0.0
 33
0.0
 40
0.0
 40
0.0
 40
0.0
 40
0.0
 40
1.0
 40
1.0
 40
1.0
 40
2.0
 40
2.0
 40
2.0
 40
3.0
 40
3.0
 40
3.0
 40
4.0
 40
4.0
 40
4.0
 40
4.0
 10
107.4401275367518
 20
-146.7397157966481
 30
0.0
 10
107.4401275367518
 20
-146.6845766299957
 30
0.0
 10
107.395324760117
 20
-146.6398091300065
 30
0.0
 10
107.3402208726339
 20
-146.6398091300065
 30
0.0
 10
107.285081707374
 20
-146.6398091300065
 30
0.0
 10
107.2403142085161
 20
-146.6845766299957
 30
0.0
 10
107.2403142085161
 20
-146.7397157966481
 30
0.0
 10
107.2403142085161
 20
-146.7948196855237
 30
0.0
 10
107.285081707374
 20
-146.8396224632904
 30
0.0
 10
107.3402208726339
 20
-146.8396224632904
 30
0.0
 10
107.395324760117
 20
-146.8396224632904
 30
0.0
 10
107.4401275367518
 20
-146.7948196855237
 30
0.0
 10
107.4401275367518
 20
-146.7397157966481
 30
0.0
  0
SPLINE
  5
A1
330
1F
100
AcDbEntity
  8
_U+30EC_U+30A4_U+30E4_U+30FC 1
 62
     7
420
 16777215
370
     9
100
AcDbSpline
210
0.0
220
0.0
230
1.0
 70
    11
 71
     3
 72
    17
 73
    13
 74
     0
 42
0.0000000001
 43
0.0000000001
 12
1.0
 22
0.0
 32
0.0
 13
1.0
 23
0.0
 33
0.0
 40
0.0
 40
0.0
 40
0.0
 40
0.0
 40
1.0
 40
1.0
 40
1.0
 40
2.0
 40
2.0
 40
2.0
 40
3.0
 40
3.0
 40
3.0
 40
4.0
 40
4.0
 40
4.0
 40
4.0
 10
71.94048872020079
 20
-142.7392510754264
 30
0.0
 10
71.94048872020079
 20
-142.6841471865515
 30
0.0
 10
71.89568594356602
 20
-142.6393444087847
 30
0.0
 10
71.83987650054539
 20
-142.6393444087847
 30
0.0
 10
71.78477261306232
 20
-142.6393444087847
 30
0.0
 10
71.73996983642756
 20
-142.6841471865515
 30
0.0
 10
71.73996983642756
 20
-142.7392510754264
 30
0.0
 10
71.73996983642756
 20
-142.7950605198568
 30
0.0
 10
71.78477261306232
 20
-142.8398632976235
 30
0.0
 10
71.83987650054539
 20
-142.8398632976235
 30
0.0
 10
71.89568594356602
 20
-142.8398632976235
 30
0.0
 10
71.94048872020079
 20
-142.7950605198568
 30
0.0
 10
71.94048872020079
 20
-142.7392510754264
 30
0.0
  0
SPLINE
  5
A2
330
1F
100
AcDbEntity
  8
_U+30EC_U+30A4_U+30E4_U+30FC 1
 62
     7
420
 16777215
370
     9
100
AcDbSpline
210
0.0
220
0.0
230
1.0
 70
    11
 71
     3
 72
    17
 73
    13
 74
     0
 42
0.0000000001
 43
0.0000000001
 12
1.0
 22
0.0
 32
0.0
 13
1.0
 23
0.0
 33
0.0
 40
0.0
 40
0.0
 40
0.0
 40
0.0
 40
1.0
 40
1.0
 40
1.0
 40
2.0
 40
2.0
 40
2.0
 40
3.0
 40
3.0
 40
3.0
 40
4.0
 40
4.0
 40
4.0
 40
4.0
 10
75.94024778482509
 20
-146.7397157966481
 30
0.0
 10
75.94024778482509
 20
-146.6845766299957
 30
0.0
 10
75.89544500819034
 20
-146.6398091300065
 30
0.0
 10
75.84034112070727
 20
-146.6398091300065
 30
0.0
 10
75.7852019554473
 20
-146.6398091300065
 30
0.0
 10
75.74043445658943
 20
-146.6845766299957
 30
0.0
 10
75.74043445658943
 20
-146.7397157966481
 30
0.0
 10
75.74043445658943
 20
-146.7948196855237
 30
0.0
 10
75.7852019554473
 20
-146.8396224632904
 30
0.0
 10
75.84034112070727
 20
-146.8396224632904
 30
0.0
 10
75.89544500819034
 20
-146.8396224632904
 30
0.0
 10
75.94024778482509
 20
-146.7948196855237
 30
0.0
 10
75.94024778482509
 20
-146.7397157966481
 30
0.0
  0
POLYLINE
  5
A3
330
1F
100
AcDbEntity
  8
_U+30EC_U+30A4_U+30E4_U+30FC 1
 62
     7
420
 16777215
370
     9
100
AcDb2dPolyline
 66
     1
 10
0.0
 20
0.0
 30
0.0
  0
VERTEX
  5
A4
330
A3
100
AcDbEntity
  8
_U+30EC_U+30A4_U+30E4_U+30FC 1
 62
     7
420
 16777215
370
     9
100
AcDbVertex
100
AcDb2dVertex
 10
89.83983298577269
 20
-111.7396094165094
 30
0.0
  0
VERTEX
  5
A5
330
A3
100
AcDbEntity
  8
_U+30EC_U+30A4_U+30E4_U+30FC 1
 62
     7
420
 16777215
370
     9
100
AcDbVertex
100
AcDb2dVertex
 10
97.84002139278199
 20
-111.7396094165094
 30
0.0
  0
SEQEND
  5
A6
330
A3
100
AcDbEntity
  8
_U+30EC_U+30A4_U+30E4_U+30FC 1
 62
     7
420
 16777215
370
     9
  0
POLYLINE
  5
A7
330
1F
100
AcDbEntity
  8
_U+30EC_U+30A4_U+30E4_U+30FC 1
 62
     7
420
 16777215
370
     9
100
AcDb2dPolyline
 66
     1
 10
0.0
 20
0.0
 30
0.0
  0
VERTEX
  5
A8
330
A7
100
AcDbEntity
  8
_U+30EC_U+30A4_U+30E4_U+30FC 1
 62
     7
420
 16777215
370
     9
100
AcDbVertex
100
AcDb2dVertex
 10
97.84002139278199
 20
-125.6550346908085
 30
0.0
  0
VERTEX
  5
A9
330
A7
100
AcDbEntity
  8
_U+30EC_U+30A4_U+30E4_U+30FC 1
 62
     7
420
 16777215
370
     9
100
AcDbVertex
100
AcDb2dVertex
 10
97.84002139278199
 20
-110.7398371945372
 30
0.0
  0
SEQEND
  5
AA
330
A7
100
AcDbEntity
  8
_U+30EC_U+30A4_U+30E4_U+30FC 1
 62
     7
420
 16777215
370
     9
  0
INSERT
  5
AC
330
1F
100
AcDbEntity
  8
_U+30EC_U+30A4_U+30E4_U+30FC 1
100
AcDbBlockReference
  2
block 2
 10
0.0
 20
0.0
 30
0.0
  0
POLYLINE
  5
B1
330
1F
100
AcDbEntity
  8
_U+30EC_U+30A4_U+30E4_U+30FC 1
 62
     7
420
 16777215
370
     9
100
AcDb2dPolyline
 66
     1
 10
0.0
 20
0.0
 30
0.0
  0
VERTEX
  5
B2
330
B1
100
AcDbEntity
  8
_U+30EC_U+30A4_U+30E4_U+30FC 1
 62
     7
420
 16777215
370
     9
100
AcDbVertex
100
AcDb2dVertex
 10
111.8401835356081
 20
-128.7397588567039
 30
0.0
  0
VERTEX
  5
B3
330
B1
100
AcDbEntity
  8
_U+30EC_U+30A4_U+30E4_U+30FC 1
 62
     7
420
 16777215
370
     9
100
AcDbVertex
100
AcDb2dVertex
 10
111.8401835356081
 20
-120.7395702475928
 30
0.0
  0
SEQEND
  5
B4
330
B1
100
AcDbEntity
  8
_U+30EC_U+30A4_U+30E4_U+30FC 1
 62
     7
420
 16777215
370
     9
  0
POLYLINE
  5
B5
330
1F
100
AcDbEntity
  8
_U+30EC_U+30A4_U+30E4_U+30FC 1
 62
     7
420
 16777215
370
     9
100
AcDb2dPolyline
 66
     1
 10
0.0
 20
0.0
 30
0.0
  0
VERTEX
  5
B6
330
B5
100
AcDbEntity
  8
_U+30EC_U+30A4_U+30E4_U+30FC 1
 62
     7
420
 16777215
370
     9
100
AcDbVertex
100
AcDb2dVertex
 10
92.92455707374148
 20
-120.7395702475928
 30
0.0
  0
VERTEX
  5
B7
330
B5
100
AcDbEntity
  8
_U+30EC_U+30A4_U+30E4_U+30FC 1
 62
     7
420
 16777215
370
     9
100
AcDbVertex
100
AcDb2dVertex
 10
112.839955732324
 20
-120.7395702475928
 30
0.0
  0
SEQEND
  5
B8
330
B5
100
AcDbEntity
  8
_U+30EC_U+30A4_U+30E4_U+30FC 1
 62
     7
420
 16777215
370
     9
  0
INSERT
  5
BA
330
1F
100
AcDbEntity
  8
_U+30EC_U+30A4_U+30E4_U+30FC 1
100
AcDbBlockReference
  2
block 3
 10
0.0
 20
0.0
 30
0.0
  0
POLYLINE
  5
BF
330
1F
100
AcDbEntity
  8
_U+30EC_U+30A4_U+30E4_U+30FC 1
 62
     7
420
 16777215
370
     9
100
AcDb2dPolyline
 66
     1
 10
0.0
 20
0.0
 30
0.0
  0
VERTEX
  5
C0
330
BF
100
AcDbEntity
  8
_U+30EC_U+30A4_U+30E4_U+30FC 1
 62
     7
420
 16777215
370
     9
100
AcDbVertex
100
AcDb2dVertex
 10
76.84011331742317
 20
-111.7396094165094
 30
0.0
  0
VERTEX
  5
C1
330
BF
100
AcDbEntity
  8
_U+30EC_U+30A4_U+30E4_U+30FC 1
 62
     7
420
 16777215
370
     9
100
AcDbVertex
100
AcDb2dVertex
 10
89.83983298577269
 20
-111.7396094165094
 30
0.0
  0
SEQEND
  5
C2
330
BF
100
AcDbEntity
  8
_U+30EC_U+30A4_U+30E4_U+30FC 1
 62
     7
420
 16777215
370
     9
  0
POLYLINE
  5
C3
330
1F
100
AcDbEntity
  8
_U+30EC_U+30A4_U+30E4_U+30FC 1
 62
     7
420
 16777215
370
     9
100
AcDb2dPolyline
 66
     1
 10
0.0
 20
0.0
 30
0.0
  0
VERTEX
  5
C4
330
C3
100
AcDbEntity
  8
_U+30EC_U+30A4_U+30E4_U+30FC 1
 62
     7
420
 16777215
370
     9
100
AcDbVertex
100
AcDb2dVertex
 10
76.84011331742317
 20
-119.5730752478844
 30
0.0
  0
VERTEX
  5
C5
330
C3
100
AcDbEntity
  8
_U+30EC_U+30A4_U+30E4_U+30FC 1
 62
     7
420
 16777215
370
     9
100
AcDbVertex
100
AcDb2dVertex
 10
76.84011331742317
 20
-110.7398371945372
 30
0.0
  0
SEQEND
  5
C6
330
C3
100
AcDbEntity
  8
_U+30EC_U+30A4_U+30E4_U+30FC 1
 62
     7
420
 16777215
370
     9
  0
POLYLINE
  5
C7
330
1F
100
AcDbEntity
  8
_U+30EC_U+30A4_U+30E4_U+30FC 1
 62
     7
420
 16777215
370
     9
100
AcDb2dPolyline
 66
     1
 10
0.0
 20
0.0
 30
0.0
  0
VERTEX
  5
C8
330
C7
100
AcDbEntity
  8
_U+30EC_U+30A4_U+30E4_U+30FC 1
 62
     7
420
 16777215
370
     9
100
AcDbVertex
100
AcDb2dVertex
 10
89.83983298577269
 20
-118.1998524704499
 30
0.0
  0
VERTEX
  5
C9
330
C7
100
AcDbEntity
  8
_U+30EC_U+30A4_U+30E4_U+30FC 1
 62
     7
420
 16777215
370
     9
100
AcDbVertex
100
AcDb2dVertex
 10
89.83983298577269
 20
-110.7398371945372
 30
0.0
  0
SEQEND
  5
CA
330
C7
100
AcDbEntity
  8
_U+30EC_U+30A4_U+30E4_U+30FC 1
 62
     7
420
 16777215
370
     9
  0
SPLINE
  5
CB
330
1F
100
AcDbEntity
  8
_U+30EC_U+30A4_U+30E4_U+30FC 1
 62
     7
420
 16777215
370
     9
100
AcDbSpline
210
0.0
220
0.0
230
1.0
 70
    11
 71
     3
 72
    17
 73
    13
 74
     0
 42
0.0000000001
 43
0.0000000001
 12
1.0
 22
0.0
 32
0.0
 13
1.0
 23
0.0
 33
0.0
 40
0.0
 40
0.0
 40
0.0
 40
0.0
 40
1.0
 40
1.0
 40
1.0
 40
2.0
 40
2.0
 40
2.0
 40
3.0
 40
3.0
 40
3.0
 40
4.0
 40
4.0
 40
4.0
 40
4.0
 10
90.94018212436711
 20
-111.7396094165094
 30
0.0
 10
90.94018212436711
 20
-111.6844702498567
 30
0.0
 10
90.89541462550922
 20
-111.6397027498678
 30
0.0
 10
90.84027775506772
 20
-111.6397027498678
 30
0.0
 10
90.7851715727662
 20
-111.6397027498678
 30
0.0
 10
90.74036879613143
 20
-111.6844702498567
 30
0.0
 10
90.74036879613143
 20
-111.7396094165094
 30
0.0
 10
90.74036879613143
 20
-111.7947133053847
 30
0.0
 10
90.7851715727662
 20
-111.8395160831514
 30
0.0
 10
90.84027775506772
 20
-111.8395160831514
 30
0.0
 10
90.89541462550922
 20
-111.8395160831514
 30
0.0
 10
90.94018212436711
 20
-111.7947133053847
 30
0.0
 10
90.94018212436711
 20
-111.7396094165094
 30
0.0
  0
POLYLINE
  5
CC
330
1F
100
AcDbEntity
  8
_U+30EC_U+30A4_U+30E4_U+30FC 1
 62
     7
420
 16777215
370
     9
100
AcDb2dPolyline
 66
     1
 10
0.0
 20
0.0
 30
0.0
  0
VERTEX
  5
CD
330
CC
100
AcDbEntity
  8
_U+30EC_U+30A4_U+30E4_U+30FC 1
 62
     7
420
 16777215
370
     9
100
AcDbVertex
100
AcDb2dVertex
 10
90.84027775506772
 20
-118.1998524704499
 30
0.0
  0
VERTEX
  5
CE
330
CC
100
AcDbEntity
  8
_U+30EC_U+30A4_U+30E4_U+30FC 1
 62
     7
420
 16777215
370
     9
100
AcDbVertex
100
AcDb2dVertex
 10
90.84027775506772
 20
-110.7398371945372
 30
0.0
  0
SEQEND
  5
CF
330
CC
100
AcDbEntity
  8
_U+30EC_U+30A4_U+30E4_U+30FC 1
 62
     7
420
 16777215
370
     9
  0
INSERT
  5
D1
330
1F
100
AcDbEntity
  8
_U+30EC_U+30A4_U+30E4_U+30FC 1
100
AcDbBlockReference
  2
block 4
 10
0.0
 20
0.0
 30
0.0
  0
POLYLINE
  5
D8
330
1F
100
AcDbEntity
  8
_U+30EC_U+30A4_U+30E4_U+30FC 1
 62
     7
420
 16777215
370
     9
100
AcDb2dPolyline
 66
     1
 10
0.0
 20
0.0
 30
0.0
  0
VERTEX
  5
D9
330
D8
100
AcDbEntity
  8
_U+30EC_U+30A4_U+30E4_U+30FC 1
 62
     7
420
 16777215
370
     9
100
AcDbVertex
100
AcDb2dVertex
 10
75.84034112070727
 20
-146.7397157966481
 30
0.0
  0
VERTEX
  5
DA
330
D8
100
AcDbEntity
  8
_U+30EC_U+30A4_U+30E4_U+30FC 1
 62
     7
420
 16777215
370
     9
100
AcDbVertex
100
AcDb2dVertex
 10
107.3402208726339
 20
-146.7397157966481
 30
0.0
  0
SEQEND
  5
DB
330
D8
100
AcDbEntity
  8
_U+30EC_U+30A4_U+30E4_U+30FC 1
 62
     7
420
 16777215
370
     9
  0
POLYLINE
  5
DC
330
1F
100
AcDbEntity
  8
_U+30EC_U+30A4_U+30E4_U+30FC 1
 62
     7
420
 16777215
370
     9
100
AcDb2dPolyline
 66
     1
 10
0.0
 20
0.0
 30
0.0
  0
VERTEX
  5
DD
330
DC
100
AcDbEntity
  8
_U+30EC_U+30A4_U+30E4_U+30FC 1
 62
     7
420
 16777215
370
     9
100
AcDbVertex
100
AcDb2dVertex
 10
75.84034112070727
 20
-141.2792449646802
 30
0.0
  0
VERTEX
  5
DE
330
DC
100
AcDbEntity
  8
_U+30EC_U+30A4_U+30E4_U+30FC 1
 62
     7
420
 16777215
370
     9
100
AcDbVertex
100
AcDb2dVertex
 10
75.84034112070727
 20
-147.7394880186207
 30
0.0
  0
SEQEND
  5
DF
330
DC
100
AcDbEntity
  8
_U+30EC_U+30A4_U+30E4_U+30FC 1
 62
     7
420
 16777215
370
     9
  0
POLYLINE
  5
E0
330
1F
100
AcDbEntity
  8
_U+30EC_U+30A4_U+30E4_U+30FC 1
 62
     7
420
 16777215
370
     9
100
AcDb2dPolyline
 66
     1
 10
0.0
 20
0.0
 30
0.0
  0
VERTEX
  5
E1
330
E0
100
AcDbEntity
  8
_U+30EC_U+30A4_U+30E4_U+30FC 1
 62
     7
420
 16777215
370
     9
100
AcDbVertex
100
AcDb2dVertex
 10
107.3402208726339
 20
-145.2796744081244
 30
0.0
  0
VERTEX
  5
E2
330
E0
100
AcDbEntity
  8
_U+30EC_U+30A4_U+30E4_U+30FC 1
 62
     7
420
 16777215
370
     9
100
AcDbVertex
100
AcDb2dVertex
 10
107.3402208726339
 20
-147.7394880186207
 30
0.0
  0
SEQEND
  5
E3
330
E0
100
AcDbEntity
  8
_U+30EC_U+30A4_U+30E4_U+30FC 1
 62
     7
420
 16777215
370
     9
  0
INSERT
  5
E5
330
1F
100
AcDbEntity
  8
_U+30EC_U+30A4_U+30E4_U+30FC 1
100
AcDbBlockReference
  2
block 5
 10
0.0
 20
0.0
 30
0.0
  0
POLYLINE
  5
EC
330
1F
100
AcDbEntity
  8
_U+30EC_U+30A4_U+30E4_U+30FC 1
 62
     7
420
 16777215
370
     9
100
AcDb2dPolyline
 66
     1
 10
0.0
 20
0.0
 30
0.0
  0
VERTEX
  5
ED
330
EC
100
AcDbEntity
  8
_U+30EC_U+30A4_U+30E4_U+30FC 1
 62
     7
420
 16777215
370
     9
100
AcDbVertex
100
AcDb2dVertex
 10
71.83987650054539
 20
-116.2395721931622
 30
0.0
  0
VERTEX
  5
EE
330
EC
100
AcDbEntity
  8
_U+30EC_U+30A4_U+30E4_U+30FC 1
 62
     7
420
 16777215
370
     9
100
AcDbVertex
100
AcDb2dVertex
 10
71.83987650054539
 20
-142.7392510754264
 30
0.0
  0
SEQEND
  5
EF
330
EC
100
AcDbEntity
  8
_U+30EC_U+30A4_U+30E4_U+30FC 1
 62
     7
420
 16777215
370
     9
  0
POLYLINE
  5
F0
330
1F
100
AcDbEntity
  8
_U+30EC_U+30A4_U+30E4_U+30FC 1
 62
     7
420
 16777215
370
     9
100
AcDb2dPolyline
 66
     1
 10
0.0
 20
0.0
 30
0.0
  0
VERTEX
  5
F1
330
F0
100
AcDbEntity
  8
_U+30EC_U+30A4_U+30E4_U+30FC 1
 62
     7
420
 16777215
370
     9
100
AcDbVertex
100
AcDb2dVertex
 10
73.29991785218553
 20
-116.2395721931622
 30
0.0
  0
VERTEX
  5
F2
330
F0
100
AcDbEntity
  8
_U+30EC_U+30A4_U+30E4_U+30FC 1
 62
     7
420
 16777215
370
     9
100
AcDbVertex
100
AcDb2dVertex
 10
70.84010430382948
 20
-116.2395721931622
 30
0.0
  0
SEQEND
  5
F3
330
F0
100
AcDbEntity
  8
_U+30EC_U+30A4_U+30E4_U+30FC 1
 62
     7
420
 16777215
370
     9
  0
POLYLINE
  5
F4
330
1F
100
AcDbEntity
  8
_U+30EC_U+30A4_U+30E4_U+30FC 1
 62
     7
420
 16777215
370
     9
100
AcDb2dPolyline
 66
     1
 10
0.0
 20
0.0
 30
0.0
  0
VERTEX
  5
F5
330
F4
100
AcDbEntity
  8
_U+30EC_U+30A4_U+30E4_U+30FC 1
 62
     7
420
 16777215
370
     9
100
AcDbVertex
100
AcDb2dVertex
 10
77.3003471945705
 20
-142.7392510754264
 30
0.0
  0
VERTEX
  5
F6
330
F4
100
AcDbEntity
  8
_U+30EC_U+30A4_U+30E4_U+30FC 1
 62
     7
420
 16777215
370
     9
100
AcDbVertex
100
AcDb2dVertex
 10
70.84010430382948
 20
-142.7392510754264
 30
0.0
  0
SEQEND
  5
F7
330
F4
100
AcDbEntity
  8
_U+30EC_U+30A4_U+30E4_U+30FC 1
 62
     7
420
 16777215
370
     9
  0
INSERT
  5
F9
330
1F
100
AcDbEntity
  8
_U+30EC_U+30A4_U+30E4_U+30FC 1
100
AcDbBlockReference
  2
block 6
 10
0.0
 20
0.0
 30
0.0
  0
POLYLINE
  5
100
330
1F
100
AcDbEntity
  8
_U+30EC_U+30A4_U+30E4_U+30FC 1
 62
     7
420
 16777215
370
     9
100
AcDb2dPolyline
 66
     1
 10
0.0
 20
0.0
 30
0.0
  0
VERTEX
  5
101
330
100
100
AcDbEntity
  8
_U+30EC_U+30A4_U+30E4_U+30FC 1
 62
     7
420
 16777215
370
     9
100
AcDbVertex
100
AcDb2dVertex
 10
111.8401835356081
 20
-128.7397588567039
 30
0.0
  0
VERTEX
  5
102
330
100
100
AcDbEntity
  8
_U+30EC_U+30A4_U+30E4_U+30FC 1
 62
     7
420
 16777215
370
     9
100
AcDbVertex
100
AcDb2dVertex
 10
111.8401835356081
 20
-141.739514131232
 30
0.0
  0
SEQEND
  5
103
330
100
100
AcDbEntity
  8
_U+30EC_U+30A4_U+30E4_U+30FC 1
 62
     7
420
 16777215
370
     9
  0
POLYLINE
  5
104
330
1F
100
AcDbEntity
  8
_U+30EC_U+30A4_U+30E4_U+30FC 1
 62
     7
420
 16777215
370
     9
100
AcDb2dPolyline
 66
     1
 10
0.0
 20
0.0
 30
0.0
  0
VERTEX
  5
105
330
104
100
AcDbEntity
  8
_U+30EC_U+30A4_U+30E4_U+30FC 1
 62
     7
420
 16777215
370
     9
100
AcDbVertex
100
AcDb2dVertex
 10
100.3797416415715
 20
-128.7397588567039
 30
0.0
  0
VERTEX
  5
106
330
104
100
AcDbEntity
  8
_U+30EC_U+30A4_U+30E4_U+30FC 1
 62
     7
420
 16777215
370
     9
100
AcDbVertex
100
AcDb2dVertex
 10
112.839955732324
 20
-128.7397588567039
 30
0.0
  0
SEQEND
  5
107
330
104
100
AcDbEntity
  8
_U+30EC_U+30A4_U+30E4_U+30FC 1
 62
     7
420
 16777215
370
     9
  0
SPLINE
  5
108
330
1F
100
AcDbEntity
  8
_U+30EC_U+30A4_U+30E4_U+30FC 1
 62
     7
420
 16777215
370
     9
100
AcDbSpline
210
0.0
220
0.0
230
1.0
 70
    11
 71
     3
 72
    17
 73
    13
 74
     0
 42
0.0000000001
 43
0.0000000001
 12
1.0
 22
0.0
 32
0.0
 13
1.0
 23
0.0
 33
0.0
 40
0.0
 40
0.0
 40
0.0
 40
0.0
 40
1.0
 40
1.0
 40
1.0
 40
2.0
 40
2.0
 40
2.0
 40
3.0
 40
3.0
 40
3.0
 40
4.0
 40
4.0
 40
4.0
 40
4.0
 10
111.9400901997259
 20
-127.739316356954
 30
0.0
 10
111.9400901997259
 20
-127.6842124680791
 30
0.0
 10
111.895322700868
 20
-127.6394096903124
 30
0.0
 10
111.8401835356081
 20
-127.6394096903124
 30
0.0
 10
111.785079648125
 20
-127.6394096903124
 30
0.0
 10
111.7402768714903
 20
-127.6842124680791
 30
0.0
 10
111.7402768714903
 20
-127.739316356954
 30
0.0
 10
111.7402768714903
 20
-127.7944555236071
 30
0.0
 10
111.785079648125
 20
-127.8392230235957
 30
0.0
 10
111.8401835356081
 20
-127.8392230235957
 30
0.0
 10
111.895322700868
 20
-127.8392230235957
 30
0.0
 10
111.9400901997259
 20
-127.7944555236071
 30
0.0
 10
111.9400901997259
 20
-127.739316356954
 30
0.0
  0
POLYLINE
  5
109
330
1F
100
AcDbEntity
  8
_U+30EC_U+30A4_U+30E4_U+30FC 1
 62
     7
420
 16777215
370
     9
100
AcDb2dPolyline
 66
     1
 10
0.0
 20
0.0
 30
0.0
  0
VERTEX
  5
10A
330
109
100
AcDbEntity
  8
_U+30EC_U+30A4_U+30E4_U+30FC 1
 62
     7
420
 16777215
370
     9
100
AcDbVertex
100
AcDb2dVertex
 10
100.3797416415715
 20
-127.739316356954
 30
0.0
  0
VERTEX
  5
10B
330
109
100
AcDbEntity
  8
_U+30EC_U+30A4_U+30E4_U+30FC 1
 62
     7
420
 16777215
370
     9
100
AcDbVertex
100
AcDb2dVertex
 10
112.839955732324
 20
-127.739316356954
 30
0.0
  0
SEQEND
  5
10C
330
109
100
AcDbEntity
  8
_U+30EC_U+30A4_U+30E4_U+30FC 1
 62
     7
420
 16777215
370
     9
  0
POLYLINE
  5
10D
330
1F
100
AcDbEntity
  8
_U+30EC_U+30A4_U+30E4_U+30FC 1
 62
     7
420
 16777215
370
     9
100
AcDb2dPolyline
 66
     1
 10
0.0
 20
0.0
 30
0.0
  0
VERTEX
  5
10E
330
10D
100
AcDbEntity
  8
_U+30EC_U+30A4_U+30E4_U+30FC 1
 62
     7
420
 16777215
370
     9
100
AcDbVertex
100
AcDb2dVertex
 10
99.00651636302223
 20
-141.739514131232
 30
0.0
  0
VERTEX
  5
10F
330
10D
100
AcDbEntity
  8
_U+30EC_U+30A4_U+30E4_U+30FC 1
 62
     7
420
 16777215
370
     9
100
AcDbVertex
100
AcDb2dVertex
 10
112.839955732324
 20
-141.739514131232
 30
0.0
  0
SEQEND
  5
110
330
10D
100
AcDbEntity
  8
_U+30EC_U+30A4_U+30E4_U+30FC 1
 62
     7
420
 16777215
370
     9
  0
INSERT
  5
112
330
1F
100
AcDbEntity
  8
_U+30EC_U+30A4_U+30E4_U+30FC 1
100
AcDbBlockReference
  2
block 7
 10
0.0
 20
0.0
 30
0.0
  0
POLYLINE
  5
119
330
1F
100
AcDbEntity
  8
_U+30EC_U+30A4_U+30E4_U+30FC 1
 62
     7
420
 16777215
370
     9
100
AcDb2dPolyline
 66
     1
 10
0.0
 20
0.0
 30
0.0
  0
VERTEX
  5
11A
330
119
100
AcDbEntity
  8
_U+30EC_U+30A4_U+30E4_U+30FC 1
 62
     7
420
 16777215
370
     9
100
AcDbVertex
100
AcDb2dVertex
 10
74.10467449832113
 20
-111.739256638732
 30
0.0
  0
VERTEX
  5
11B
330
119
100
AcDbEntity
  8
_U+30EC_U+30A4_U+30E4_U+30FC 1
 62
     7
420
 16777215
370
     9
100
AcDbVertex
100
AcDb2dVertex
 10
81.34420553521963
 20
-111.739256638732
 30
0.0
  0
SEQEND
  5
11C
330
119
100
AcDbEntity
  8
_U+30EC_U+30A4_U+30E4_U+30FC 1
 62
     7
420
 16777215
370
     9
  0
POLYLINE
  5
11D
330
1F
100
AcDbEntity
  8
_U+30EC_U+30A4_U+30E4_U+30FC 1
 62
     7
420
 16777215
370
     9
100
AcDb2dPolyline
 66
     1
 10
0.0
 20
0.0
 30
0.0
  0
VERTEX
  5
11E
330
11D
100
AcDbEntity
  8
_U+30EC_U+30A4_U+30E4_U+30FC 1
 62
     7
420
 16777215
370
     9
100
AcDbVertex
100
AcDb2dVertex
 10
75.83550806527501
 20
-113.5851310827149
 30
0.0
  0
VERTEX
  5
11F
330
11D
100
AcDbEntity
  8
_U+30EC_U+30A4_U+30E4_U+30FC 1
 62
     7
420
 16777215
370
     9
100
AcDbVertex
100
AcDb2dVertex
 10
75.83550806527501
 20
-110.7756794167505
 30
0.0
  0
SEQEND
  5
120
330
11D
100
AcDbEntity
  8
_U+30EC_U+30A4_U+30E4_U+30FC 1
 62
     7
420
 16777215
370
     9
  0
INSERT
  5
122
330
1F
100
AcDbEntity
  8
_U+30EC_U+30A4_U+30E4_U+30FC 1
100
AcDbBlockReference
  2
block 8
 10
0.0
 20
0.0
 30
0.0
  0
SPLINE
  5
127
330
1F
100
AcDbEntity
  8
_U+30EC_U+30A4_U+30E4_U+30FC 1
 62
     7
420
 16777215
370
     9
100
AcDbSpline
210
0.0
220
0.0
230
1.0
 70
    11
 71
     3
 72
    17
 73
    13
 74
     0
 42
0.0000000001
 43
0.0000000001
 12
1.0
 22
0.0
 32
0.0
 13
1.0
 23
0.0
 33
0.0
 40
0.0
 40
0.0
 40
0.0
 40
0.0
 40
1.0
 40
1.0
 40
1.0
 40
2.0
 40
2.0
 40
2.0
 40
3.0
 40
3.0
 40
3.0
 40
4.0
 40
4.0
 40
4.0
 40
4.0
 10
75.93576942546058
 20
-111.7550963609502
 30
0.0
 10
75.93576942546058
 20
-111.699992472075
 30
0.0
 10
75.89096664769386
 20
-111.6551896943086
 30
0.0
 10
75.83586084304379
 20
-111.6551896943086
 30
0.0
 10
75.78005140002315
 20
-111.6551896943086
 30
0.0
 10
75.73524862338839
 20
-111.699992472075
 30
0.0
 10
75.73524862338839
 20
-111.7550963609502
 30
0.0
 10
75.73524862338839
 20
-111.8105883053807
 30
0.0
 10
75.78005140002315
 20
-111.8553558053696
 30
0.0
 10
75.83586084304379
 20
-111.8553558053696
 30
0.0
 10
75.89096664769386
 20
-111.8553558053696
 30
0.0
 10
75.93576942546058
 20
-111.8105883053807
 30
0.0
 10
75.93576942546058
 20
-111.7550963609502
 30
0.0
  0
ENDSEC
  0
SECTION
  2
OBJECTS
  0
DICTIONARY
  5
C
330
0
100
AcDbDictionary
281
     1
  3
ACAD_GROUP
350
D
  3
ACAD_LAYOUT
350
1A
  3
ACAD_MATERIAL
350
3B
  3
ACAD_MLEADERSTYLE
350
129
  3
ACAD_MLINESTYLE
350
17
  3
ACAD_PLOTSETTINGS
350
19
  3
ACAD_PLOTSTYLENAME
350
E
  3
ACAD_TABLESTYLE
350
128
  3
ACAD_VISUALSTYLE
350
2A
  0
SUN
  5
3F
330
29
100
AcDbSun
 90
        1
290
     0
 63
     7
421
 16777215
 40
1.0
291
     1
 91
  2455826
 92
 54000000
292
     0
 70
     2
 71
   256
280
     1
  0
DICTIONARY
  5
D
102
{ACAD_REACTORS
330
C
102
}
330
C
100
AcDbDictionary
281
     1
  0
DICTIONARY
  5
1A
102
{ACAD_REACTORS
330
C
102
}
330
C
100
AcDbDictionary
281
     1
  3
Layout1
350
1E
  3
Layout2
350
26
  3
Model
350
22
  0
DICTIONARY
  5
3B
102
{ACAD_REACTORS
330
C
102
}
330
C
100
AcDbDictionary
281
     1
  3
ByBlock
350
3D
  3
ByLayer
350
3C
  3
Global
350
3E
  0
DICTIONARY
  5
129
102
{ACAD_REACTORS
330
C
102
}
330
C
100
AcDbDictionary
281
     1
  0
DICTIONARY
  5
17
102
{ACAD_REACTORS
330
C
102
}
330
C
100
AcDbDictionary
281
     1
  3
Standard
350
18
  0
DICTIONARY
  5
19
102
{ACAD_REACTORS
330
C
102
}
330
C
100
AcDbDictionary
281
     1
  0
ACDBDICTIONARYWDFLT
  5
E
102
{ACAD_REACTORS
330
C
102
}
330
C
100
AcDbDictionary
281
     1
  3
Normal
350
F
100
AcDbDictionaryWithDefault
340
F
  0
DICTIONARY
  5
128
102
{ACAD_REACTORS
330
C
102
}
330
C
100
AcDbDictionary
281
     1
  0
DICTIONARY
  5
2A
102
{ACAD_REACTORS
330
C
102
}
330
C
100
AcDbDictionary
281
     1
  3
2dWireframe
350
2F
  3
3D Hidden
350
31
  3
3dWireframe
350
30
  3
Basic
350
32
  3
Brighten
350
36
  3
ColorChange
350
3A
  3
Conceptual
350
34
  3
Dim
350
35
  3
Facepattern
350
39
  3
Flat
350
2B
  3
FlatWithEdges
350
2C
  3
Gouraud
350
2D
  3
GouraudWithEdges
350
2E
  3
Linepattern
350
38
  3
Realistic
350
33
  3
Thicken
350
37
  0
LAYOUT
  5
1E
102
{ACAD_REACTORS
330
1A
102
}
330
1A
100
AcDbPlotSettings
  1

  2
none_device
  4

  6

 40
0.0
 41
0.0
 42
0.0
 43
0.0
 44
0.0
 45
0.0
 46
0.0
 47
0.0
 48
0.0
 49
0.0
140
0.0
141
0.0
142
1.0
143
1.0
 70
   688
 72
     0
 73
     0
 74
     5
  7

 75
    16
 76
     0
 77
     2
 78
   300
147
1.0
148
0.0
149
0.0
100
AcDbLayout
  1
Layout1
 70
     1
 71
     1
 10
0.0
 20
0.0
 11
12.0
 21
9.0
 12
0.0
 22
0.0
 32
0.0
 14
1.000000000000000E+20
 24
1.000000000000000E+20
 34
1.000000000000000E+20
 15
-1.000000000000000E+20
 25
-1.000000000000000E+20
 35
-1.000000000000000E+20
146
0.0
 13
0.0
 23
0.0
 33
0.0
 16
1.0
 26
0.0
 36
0.0
 17
0.0
 27
1.0
 37
0.0
 76
     0
330
1B
  0
LAYOUT
  5
26
102
{ACAD_REACTORS
330
1A
102
}
330
1A
100
AcDbPlotSettings
  1

  2
none_device
  4

  6

 40
0.0
 41
0.0
 42
0.0
 43
0.0
 44
0.0
 45
0.0
 46
0.0
 47
0.0
 48
0.0
 49
0.0
140
0.0
141
0.0
142
1.0
143
1.0
 70
   688
 72
     0
 73
     0
 74
     5
  7

 75
    16
 76
     0
 77
     2
 78
   300
147
1.0
148
0.0
149
0.0
100
AcDbLayout
  1
Layout2
 70
     1
 71
     2
 10
0.0
 20
0.0
 11
0.0
 21
0.0
 12
0.0
 22
0.0
 32
0.0
 14
0.0
 24
0.0
 34
0.0
 15
0.0
 25
0.0
 35
0.0
146
0.0
 13
0.0
 23
0.0
 33
0.0
 16
1.0
 26
0.0
 36
0.0
 17
0.0
 27
1.0
 37
0.0
 76
     0
330
23
  0
LAYOUT
  5
22
102
{ACAD_REACTORS
330
1A
102
}
330
1A
100
AcDbPlotSettings
  1

  2
none_device
  4

  6

 40
0.0
 41
0.0
 42
0.0
 43
0.0
 44
0.0
 45
0.0
 46
0.0
 47
0.0
 48
0.0
 49
0.0
140
0.0
141
0.0
142
1.0
143
1.0
 70
  1712
 72
     0
 73
     0
 74
     0
  7

 75
     0
 76
     0
 77
     2
 78
   300
147
1.0
148
0.0
149
0.0
100
AcDbLayout
  1
Model
 70
     1
 71
     0
 10
0.0
 20
0.0
 11
12.0
 21
9.0
 12
0.0
 22
0.0
 32
0.0
 14
1.000000000000000E+20
 24
1.000000000000000E+20
 34
1.000000000000000E+20
 15
-1.000000000000000E+20
 25
-1.000000000000000E+20
 35
-1.000000000000000E+20
146
0.0
 13
0.0
 23
0.0
 33
0.0
 16
1.0
 26
0.0
 36
0.0
 17
0.0
 27
1.0
 37
0.0
 76
     0
330
1F
331
29
  0
MATERIAL
  5
3D
102
{ACAD_REACTORS
330
3B
102
}
330
3B
100
AcDbMaterial
  1
ByBlock
 72
     1
 94
      127
  0
MATERIAL
  5
3C
102
{ACAD_REACTORS
330
3B
102
}
330
3B
100
AcDbMaterial
  1
ByLayer
 72
     1
 94
      127
  0
MATERIAL
  5
3E
102
{ACAD_REACTORS
330
3B
102
}
330
3B
100
AcDbMaterial
  1
Global
 72
     1
 94
      127
  0
MLINESTYLE
  5
18
102
{ACAD_REACTORS
330
17
102
}
330
17
100
AcDbMlineStyle
  2
Standard
 70
     0
  3

 62
   256
 51
90.0
 52
90.0
 71
     2
 49
0.5
 62
   256
  6
BYLAYER
 49
-0.5
 62
   256
  6
BYLAYER
  0
ACDBPLACEHOLDER
  5
F
102
{ACAD_REACTORS
330
E
102
}
330
E
  0
VISUALSTYLE
  5
2F
102
{ACAD_REACTORS
330
2A
102
}
330
2A
100
AcDbVisualStyle
  2
2dWireframe
 70
     4
177
     2
291
     0
 71
     0
176
     1
 72
     2
176
     1
 73
     0
176
     1
 90
        0
176
     1
 40
-0.6
176
     1
 41
-30.0
176
     1
 62
     5
 63
     7
421
 16777215
176
     1
 74
     1
176
     1
 91
        4
176
     1
 64
     7
176
     1
 65
   257
176
     1
 75
     1
176
     1
175
     1
176
     1
 42
1.0
176
     1
 92
        0
176
     1
 66
   257
176
     1
 43
1.0
176
     1
 76
     1
176
     1
 77
     6
176
     1
 78
     2
176
     1
 67
     7
176
     1
 79
     5
176
     1
170
     0
176
     1
171
     0
176
     1
290
     0
176
     1
 93
        1
176
     1
 44
0.0
176
     1
173
     0
176
     1
  0
VISUALSTYLE
  5
31
102
{ACAD_REACTORS
330
2A
102
}
330
2A
100
AcDbVisualStyle
  2
3D Hidden
 70
     6
177
     2
291
     0
 71
     1
176
     1
 72
     2
176
     1
 73
     2
176
     1
 90
        0
176
     1
 40
-0.6
176
     1
 41
-30.0
176
     1
 62
     5
 63
     7
421
 16777215
176
     1
 74
     2
176
     1
 91
        2
176
     1
 64
     7
176
     1
 65
   257
176
     1
 75
     2
176
     1
175
     1
176
     1
 42
40.0
176
     1
 92
        0
176
     1
 66
   257
176
     1
 43
1.0
176
     1
 76
     1
176
     1
 77
     6
176
     1
 78
     2
176
     1
 67
     7
176
     1
 79
     3
176
     1
170
     0
176
     1
171
     0
176
     1
290
     0
176
     1
 93
        1
176
     1
 44
0.0
176
     1
173
     0
176
     1
  0
VISUALSTYLE
  5
30
102
{ACAD_REACTORS
330
2A
102
}
330
2A
100
AcDbVisualStyle
  2
3dWireframe
 70
     5
177
     2
291
     0
 71
     0
176
     1
 72
     2
176
     1
 73
     0
176
     1
 90
        0
176
     1
 40
-0.6
176
     1
 41
-30.0
176
     1
 62
     5
 63
     7
421
 16777215
176
     1
 74
     1
176
     1
 91
        4
176
     1
 64
     7
176
     1
 65
   257
176
     1
 75
     1
176
     1
175
     1
176
     1
 42
1.0
176
     1
 92
        0
176
     1
 66
   257
176
     1
 43
1.0
176
     1
 76
     1
176
     1
 77
     6
176
     1
 78
     2
176
     1
 67
     7
176
     1
 79
     5
176
     1
170
     0
176
     1
171
     0
176
     1
290
     0
176
     1
 93
        1
176
     1
 44
0.0
176
     1
173
     0
176
     1
  0
VISUALSTYLE
  5
32
102
{ACAD_REACTORS
330
2A
102
}
330
2A
100
AcDbVisualStyle
  2
Basic
 70
     7
177
     2
291
     1
 71
     1
176
     1
 72
     0
176
     1
 73
     1
176
     1
 90
        0
176
     1
 40
-0.6
176
     1
 41
-30.0
176
     1
 62
     5
 63
     7
421
 16777215
176
     1
 74
     0
176
     1
 91
        4
176
     1
 64
     7
176
     1
 65
   257
176
     1
 75
     1
176
     1
175
     1
176
     1
 42
1.0
176
     1
 92
        8
176
     1
 66
     7
176
     1
 43
1.0
176
     1
 76
     1
176
     1
 77
     6
176
     1
 78
     2
176
     1
 67
     7
176
     1
 79
     5
176
     1
170
     0
176
     1
171
     0
176
     1
290
     0
176
     1
 93
        1
176
     1
 44
0.0
176
     1
173
     0
176
     1
  0
VISUALSTYLE
  5
36
102
{ACAD_REACTORS
330
2A
102
}
330
2A
100
AcDbVisualStyle
  2
Brighten
 70
    12
177
     2
291
     1
 71
     2
176
     1
 72
     2
176
     1
 73
     0
176
     1
 90
        0
176
     1
 40
-0.6
176
     1
 41
-30.0
176
     1
 62
     5
 63
     7
421
 16777215
176
     1
 74
     1
176
     1
 91
        4
176
     1
 64
     7
176
     1
 65
   257
176
     1
 75
     1
176
     1
175
     1
176
     1
 42
1.0
176
     1
 92
        8
176
     1
 66
     7
176
     1
 43
1.0
176
     1
 76
     1
176
     1
 77
     6
176
     1
 78
     2
176
     1
 67
     7
176
     1
 79
     5
176
     1
170
     0
176
     1
171
     0
176
     1
290
     0
176
     1
 93
        1
176
     1
 44
50.0
176
     1
173
     0
176
     1
  0
VISUALSTYLE
  5
3A
102
{ACAD_REACTORS
330
2A
102
}
330
2A
100
AcDbVisualStyle
  2
ColorChange
 70
    16
177
     2
291
     1
 71
     2
176
     1
 72
     2
176
     1
 73
     3
176
     1
 90
        0
176
     1
 40
-0.6
176
     1
 41
-30.0
176
     1
 62
     5
 63
     8
421
  8421504
176
     1
 74
     1
176
     1
 91
        4
176
     1
 64
     7
176
     1
 65
   257
176
     1
 75
     1
176
     1
175
     1
176
     1
 42
1.0
176
     1
 92
        8
176
     1
 66
     8
424
  8421504
176
     1
 43
1.0
176
     1
 76
     1
176
     1
 77
     6
176
     1
 78
     2
176
     1
 67
     7
176
     1
 79
     5
176
     1
170
     0
176
     1
171
     0
176
     1
290
     0
176
     1
 93
        1
176
     1
 44
0.0
176
     1
173
     0
176
     1
  0
VISUALSTYLE
  5
34
102
{ACAD_REACTORS
330
2A
102
}
330
2A
100
AcDbVisualStyle
  2
Conceptual
 70
     9
177
     2
291
     0
 71
     3
176
     1
 72
     2
176
     1
 73
     0
176
     1
 90
        0
176
     1
 40
-0.6
176
     1
 41
-30.0
176
     1
 62
     5
 63
     7
421
 16777215
176
     1
 74
     2
176
     1
 91
        2
176
     1
 64
     7
176
     1
 65
   257
176
     1
 75
     1
176
     1
175
     1
176
     1
 42
40.0
176
     1
 92
        8
176
     1
 66
     7
176
     1
 43
1.0
176
     1
 76
     1
176
     1
 77
     6
176
     1
 78
     2
176
     1
 67
     7
176
     1
 79
     3
176
     1
170
     0
176
     1
171
     0
176
     1
290
     0
176
     1
 93
        1
176
     1
 44
0.0
176
     1
173
     0
176
     1
  0
VISUALSTYLE
  5
35
102
{ACAD_REACTORS
330
2A
102
}
330
2A
100
AcDbVisualStyle
  2
Dim
 70
    11
177
     2
291
     1
 71
     2
176
     1
 72
     2
176
     1
 73
     0
176
     1
 90
        0
176
     1
 40
-0.6
176
     1
 41
-30.0
176
     1
 62
     5
 63
     7
421
 16777215
176
     1
 74
     1
176
     1
 91
        4
176
     1
 64
     7
176
     1
 65
   257
176
     1
 75
     1
176
     1
175
     1
176
     1
 42
1.0
176
     1
 92
        8
176
     1
 66
     7
176
     1
 43
1.0
176
     1
 76
     1
176
     1
 77
     6
176
     1
 78
     2
176
     1
 67
     7
176
     1
 79
     5
176
     1
170
     0
176
     1
171
     0
176
     1
290
     0
176
     1
 93
        1
176
     1
 44
-50.0
176
     1
173
     0
176
     1
  0
VISUALSTYLE
  5
39
102
{ACAD_REACTORS
330
2A
102
}
330
2A
100
AcDbVisualStyle
  2
Facepattern
 70
    15
177
     2
291
     1
 71
     2
176
     1
 72
     2
176
     1
 73
     0
176
     1
 90
        0
176
     1
 40
-0.6
176
     1
 41
-30.0
176
     1
 62
     5
 63
     7
421
 16777215
176
     1
 74
     1
176
     1
 91
        4
176
     1
 64
     7
176
     1
 65
   257
176
     1
 75
     1
176
     1
175
     1
176
     1
 42
1.0
176
     1
 92
        8
176
     1
 66
     7
176
     1
 43
1.0
176
     1
 76
     1
176
     1
 77
     6
176
     1
 78
     2
176
     1
 67
     7
176
     1
 79
     5
176
     1
170
     0
176
     1
171
     0
176
     1
290
     0
176
     1
 93
        1
176
     1
 44
0.0
176
     1
173
     0
176
     1
  0
VISUALSTYLE
  5
2B
102
{ACAD_REACTORS
330
2A
102
}
330
2A
100
AcDbVisualStyle
  2
Flat
 70
     0
177
     2
291
     1
 71
     2
176
     1
 72
     1
176
     1
 73
     1
176
     1
 90
        2
176
     1
 40
-0.6
176
     1
 41
30.0
176
     1
 62
     5
 63
     7
421
 16777215
176
     1
 74
     0
176
     1
 91
        4
176
     1
 64
     7
176
     1
 65
   257
176
     1
 75
     1
176
     1
175
     1
176
     1
 42
1.0
176
     1
 92
        8
176
     1
 66
     7
176
     1
 43
1.0
176
     1
 76
     1
176
     1
 77
     6
176
     1
 78
     2
176
     1
 67
     7
176
     1
 79
     5
176
     1
170
     0
176
     1
171
     0
176
     1
290
     0
176
     1
 93
       13
176
     1
 44
0.0
176
     1
173
     0
176
     1
  0
VISUALSTYLE
  5
2C
102
{ACAD_REACTORS
330
2A
102
}
330
2A
100
AcDbVisualStyle
  2
FlatWithEdges
 70
     1
177
     2
291
     1
 71
     2
176
     1
 72
     1
176
     1
 73
     1
176
     1
 90
        2
176
     1
 40
-0.6
176
     1
 41
30.0
176
     1
 62
     5
 63
     7
421
 16777215
176
     1
 74
     1
176
     1
 91
        4
176
     1
 64
     7
176
     1
 65
   257
176
     1
 75
     1
176
     1
175
     1
176
     1
 42
1.0
176
     1
 92
        0
176
     1
 66
   257
176
     1
 43
1.0
176
     1
 76
     1
176
     1
 77
     6
176
     1
 78
     2
176
     1
 67
     7
176
     1
 79
     5
176
     1
170
     0
176
     1
171
     0
176
     1
290
     0
176
     1
 93
       13
176
     1
 44
0.0
176
     1
173
     0
176
     1
  0
VISUALSTYLE
  5
2D
102
{ACAD_REACTORS
330
2A
102
}
330
2A
100
AcDbVisualStyle
  2
Gouraud
 70
     2
177
     2
291
     1
 71
     2
176
     1
 72
     2
176
     1
 73
     1
176
     1
 90
        2
176
     1
 40
-0.6
176
     1
 41
30.0
176
     1
 62
     5
 63
     7
421
 16777215
176
     1
 74
     0
176
     1
 91
        4
176
     1
 64
     7
176
     1
 65
   257
176
     1
 75
     1
176
     1
175
     1
176
     1
 42
1.0
176
     1
 92
        0
176
     1
 66
     7
176
     1
 43
1.0
176
     1
 76
     1
176
     1
 77
     6
176
     1
 78
     2
176
     1
 67
     7
176
     1
 79
     5
176
     1
170
     0
176
     1
171
     0
176
     1
290
     0
176
     1
 93
       13
176
     1
 44
0.0
176
     1
173
     0
176
     1
  0
VISUALSTYLE
  5
2E
102
{ACAD_REACTORS
330
2A
102
}
330
2A
100
AcDbVisualStyle
  2
GouraudWithEdges
 70
     3
177
     2
291
     1
 71
     2
176
     1
 72
     2
176
     1
 73
     1
176
     1
 90
        2
176
     1
 40
-0.6
176
     1
 41
30.0
176
     1
 62
     5
 63
     7
421
 16777215
176
     1
 74
     1
176
     1
 91
        4
176
     1
 64
     7
176
     1
 65
   257
176
     1
 75
     1
176
     1
175
     1
176
     1
 42
1.0
176
     1
 92
        0
176
     1
 66
   257
176
     1
 43
1.0
176
     1
 76
     1
176
     1
 77
     6
176
     1
 78
     2
176
     1
 67
     7
176
     1
 79
     5
176
     1
170
     0
176
     1
171
     0
176
     1
290
     0
176
     1
 93
       13
176
     1
 44
0.0
176
     1
173
     0
176
     1
  0
VISUALSTYLE
  5
38
102
{ACAD_REACTORS
330
2A
102
}
330
2A
100
AcDbVisualStyle
  2
Linepattern
 70
    14
177
     2
291
     1
 71
     2
176
     1
 72
     2
176
     1
 73
     0
176
     1
 90
        0
176
     1
 40
-0.6
176
     1
 41
-30.0
176
     1
 62
     5
 63
     7
421
 16777215
176
     1
 74
     1
176
     1
 91
        4
176
     1
 64
     7
176
     1
 65
   257
176
     1
 75
     7
176
     1
175
     7
176
     1
 42
1.0
176
     1
 92
        8
176
     1
 66
     7
176
     1
 43
1.0
176
     1
 76
     1
176
     1
 77
     6
176
     1
 78
     2
176
     1
 67
     7
176
     1
 79
     5
176
     1
170
     0
176
     1
171
     0
176
     1
290
     0
176
     1
 93
        1
176
     1
 44
0.0
176
     1
173
     0
176
     1
  0
VISUALSTYLE
  5
33
102
{ACAD_REACTORS
330
2A
102
}
330
2A
100
AcDbVisualStyle
  2
Realistic
 70
     8
177
     2
291
     0
 71
     2
176
     1
 72
     2
176
     1
 73
     0
176
     1
 90
        0
176
     1
 40
-0.6
176
     1
 41
-30.0
176
     1
 62
     5
 63
     7
421
 16777215
176
     1
 74
     1
176
     1
 91
        0
176
     1
 64
     7
176
     1
 65
   257
176
     1
 75
     1
176
     1
175
     1
176
     1
 42
1.0
176
     1
 92
        8
176
     1
 66
     8
424
  7895160
176
     1
 43
1.0
176
     1
 76
     1
176
     1
 77
     6
176
     1
 78
     2
176
     1
 67
     7
176
     1
 79
     5
176
     1
170
     0
176
     1
171
     0
176
     1
290
     0
176
     1
 93
       13
176
     1
 44
0.0
176
     1
173
     0
176
     1
  0
VISUALSTYLE
  5
37
102
{ACAD_REACTORS
330
2A
102
}
330
2A
100
AcDbVisualStyle
  2
Thicken
 70
    13
177
     2
291
     1
 71
     2
176
     1
 72
     2
176
     1
 73
     0
176
     1
 90
        0
176
     1
 40
-0.6
176
     1
 41
-30.0
176
     1
 62
     5
 63
     7
421
 16777215
176
     1
 74
     1
176
     1
 91
        4
176
     1
 64
     7
176
     1
 65
   257
176
     1
 75
     1
176
     1
175
     1
176
     1
 42
1.0
176
     1
 92
       12
176
     1
 66
     7
176
     1
 43
1.0
176
     1
 76
     1
176
     1
 77
     6
176
     1
 78
     2
176
     1
 67
     7
176
     1
 79
     5
176
     1
170
     0
176
     1
171
     0
176
     1
290
     0
176
     1
 93
        1
176
     1
 44
0.0
176
     1
173
     0
176
     1
  0
ENDSEC
  0
EOF
