  0
SECTION
  2
HEADER
  9
$ACADVER
  1
AC1024
  9
$ACADMAINTVER
 70
     6
  9
$DWGCODEPAGE
  3
UNDEFINED
  9
$INSBASE
 10
0.0
 20
0.0
 30
0.0
  9
$EXTMIN
 10
1.000000000000000E+20
 20
1.000000000000000E+20
 30
1.000000000000000E+20
  9
$EXTMAX
 10
-1.000000000000000E+20
 20
-1.000000000000000E+20
 30
-1.000000000000000E+20
  9
$LIMMIN
 10
0.0
 20
0.0
  9
$LIMMAX
 10
12.0
 20
9.0
  9
$ORTHOMODE
 70
     0
  9
$REGENMODE
 70
     1
  9
$FILLMODE
 70
     1
  9
$QTEXTMODE
 70
     0
  9
$MIRRTEXT
 70
     1
  9
$LTSCALE
 40
1.0
  9
$ATTMODE
 70
     1
  9
$TEXTSIZE
 40
0.2
  9
$TRACEWID
 40
0.05
  9
$TEXTSTYLE
  7
Standard
  9
$CLAYER
  8
0
  9
$CELTYPE
  6
ByLayer
  9
$CECOLOR
 62
   256
  9
$CELTSCALE
 40
1.0
  9
$DISPSILH
 70
     0
  9
$DIMSCALE
 40
1.0
  9
$DIMASZ
 40
0.18
  9
$DIMEXO
 40
0.0625
  9
$DIMDLI
 40
0.38
  9
$DIMRND
 40
0.0
  9
$DIMDLE
 40
0.0
  9
$DIMEXE
 40
0.18
  9
$DIMTP
 40
0.0
  9
$DIMTM
 40
0.0
  9
$DIMTXT
 40
0.18
  9
$DIMCEN
 40
0.09
  9
$DIMTSZ
 40
0.0
  9
$DIMTOL
 70
     0
  9
$DIMLIM
 70
     0
  9
$DIMTIH
 70
     1
  9
$DIMTOH
 70
     1
  9
$DIMSE1
 70
     0
  9
$DIMSE2
 70
     0
  9
$DIMTAD
 70
     0
  9
$DIMZIN
 70
     0
  9
$DIMBLK
  1

  9
$DIMASO
 70
     1
  9
$DIMSHO
 70
     1
  9
$DIMPOST
  1

  9
$DIMAPOST
  1

  9
$DIMALT
 70
     0
  9
$DIMALTD
 70
     2
  9
$DIMALTF
 40
25.4
  9
$DIMLFAC
 40
1.0
  9
$DIMTOFL
 70
     0
  9
$DIMTVP
 40
0.0
  9
$DIMTIX
 70
     0
  9
$DIMSOXD
 70
     0
  9
$DIMSAH
 70
     0
  9
$DIMBLK1
  1

  9
$DIMBLK2
  1

  9
$DIMSTYLE
  2
Standard
  9
$DIMCLRD
 70
     0
  9
$DIMCLRE
 70
     0
  9
$DIMCLRT
 70
     0
  9
$DIMTFAC
 40
1.0
  9
$DIMGAP
 40
0.09
  9
$DIMJUST
 70
     0
  9
$DIMSD1
 70
     0
  9
$DIMSD2
 70
     0
  9
$DIMTOLJ
 70
     1
  9
$DIMTZIN
 70
     0
  9
$DIMALTZ
 70
     0
  9
$DIMALTTZ
 70
     0
  9
$DIMUPT
 70
     0
  9
$DIMDEC
 70
     4
  9
$DIMTDEC
 70
     4
  9
$DIMALTU
 70
     2
  9
$DIMALTTD
 70
     2
  9
$DIMTXSTY
  7
Standard
  9
$DIMAUNIT
 70
     0
  9
$DIMADEC
 70
     0
  9
$DIMALTRND
 40
0.0
  9
$DIMAZIN
 70
     0
  9
$DIMDSEP
 70
    46
  9
$DIMATFIT
 70
     3
  9
$DIMFRAC
 70
     0
  9
$DIMLDRBLK
  1

  9
$DIMLUNIT
 70
     2
  9
$DIMLWD
 70
    -2
  9
$DIMLWE
 70
    -2
  9
$DIMTMOVE
 70
     0
  9
$DIMFXL
 40
1.0
  9
$DIMFXLON
 70
     0
  9
$DIMJOGANG
 40
0.7853981633974483
  9
$DIMTFILL
 70
     0
  9
$DIMTFILLCLR
 70
     0
  9
$DIMARCSYM
 70
     0
  9
$DIMLTYPE
  6

  9
$DIMLTEX1
  6

  9
$DIMLTEX2
  6

  9
$DIMTXTDIRECTION
 70
     0
  9
$LUNITS
 70
     2
  9
$LUPREC
 70
     4
  9
$SKETCHINC
 40
0.1
  9
$FILLETRAD
 40
0.5
  9
$AUNITS
 70
     0
  9
$AUPREC
 70
     0
  9
$MENU
  1
.
  9
$ELEVATION
 40
0.0
  9
$PELEVATION
 40
0.0
  9
$THICKNESS
 40
0.0
  9
$LIMCHECK
 70
     0
  9
$CHAMFERA
 40
0.5
  9
$CHAMFERB
 40
0.5
  9
$CHAMFERC
 40
1.0
  9
$CHAMFERD
 40
0.0
  9
$SKPOLY
 70
     0
  9
$TDCREATE
 40
2457917.620011574
  9
$TDUCREATE
 40
2457917.245011574
  9
$TDUPDATE
 40
2457917.620011574
  9
$TDUUPDATE
 40
2457917.245011574
  9
$TDINDWG
 40
0.0000000116
  9
$TDUSRTIMER
 40
0.0000000116
  9
$USRTIMER
 70
     1
  9
$ANGBASE
 50
0.0
  9
$ANGDIR
 70
     0
  9
$PDMODE
 70
     0
  9
$PDSIZE
 40
0.0
  9
$PLINEWID
 40
0.0
  9
$SPLFRAME
 70
     0
  9
$SPLINETYPE
 70
     6
  9
$SPLINESEGS
 70
     8
  9
$HANDSEED
  5
159
  9
$SURFTAB1
 70
     6
  9
$SURFTAB2
 70
     6
  9
$SURFTYPE
 70
     6
  9
$SURFU
 70
     6
  9
$SURFV
 70
     6
  9
$UCSBASE
  2

  9
$UCSNAME
  2

  9
$UCSORG
 10
0.0
 20
0.0
 30
0.0
  9
$UCSXDIR
 10
1.0
 20
0.0
 30
0.0
  9
$UCSYDIR
 10
0.0
 20
1.0
 30
0.0
  9
$UCSORTHOREF
  2

  9
$UCSORTHOVIEW
 70
     0
  9
$UCSORGTOP
 10
0.0
 20
0.0
 30
0.0
  9
$UCSORGBOTTOM
 10
0.0
 20
0.0
 30
0.0
  9
$UCSORGLEFT
 10
0.0
 20
0.0
 30
0.0
  9
$UCSORGRIGHT
 10
0.0
 20
0.0
 30
0.0
  9
$UCSORGFRONT
 10
0.0
 20
0.0
 30
0.0
  9
$UCSORGBACK
 10
0.0
 20
0.0
 30
0.0
  9
$PUCSBASE
  2

  9
$PUCSNAME
  2

  9
$PUCSORG
 10
0.0
 20
0.0
 30
0.0
  9
$PUCSXDIR
 10
1.0
 20
0.0
 30
0.0
  9
$PUCSYDIR
 10
0.0
 20
1.0
 30
0.0
  9
$PUCSORTHOREF
  2

  9
$PUCSORTHOVIEW
 70
     0
  9
$PUCSORGTOP
 10
0.0
 20
0.0
 30
0.0
  9
$PUCSORGBOTTOM
 10
0.0
 20
0.0
 30
0.0
  9
$PUCSORGLEFT
 10
0.0
 20
0.0
 30
0.0
  9
$PUCSORGRIGHT
 10
0.0
 20
0.0
 30
0.0
  9
$PUCSORGFRONT
 10
0.0
 20
0.0
 30
0.0
  9
$PUCSORGBACK
 10
0.0
 20
0.0
 30
0.0
  9
$USERI1
 70
     0
  9
$USERI2
 70
     0
  9
$USERI3
 70
     0
  9
$USERI4
 70
     0
  9
$USERI5
 70
     0
  9
$USERR1
 40
0.0
  9
$USERR2
 40
0.0
  9
$USERR3
 40
0.0
  9
$USERR4
 40
0.0
  9
$USERR5
 40
0.0
  9
$WORLDVIEW
 70
     1
  9
$SHADEDGE
 70
     3
  9
$SHADEDIF
 70
    70
  9
$TILEMODE
 70
     1
  9
$MAXACTVP
 70
    64
  9
$PINSBASE
 10
0.0
 20
0.0
 30
0.0
  9
$PLIMCHECK
 70
     0
  9
$PEXTMIN
 10
1.000000000000000E+20
 20
1.000000000000000E+20
 30
1.000000000000000E+20
  9
$PEXTMAX
 10
-1.000000000000000E+20
 20
-1.000000000000000E+20
 30
-1.000000000000000E+20
  9
$PLIMMIN
 10
0.0
 20
0.0
  9
$PLIMMAX
 10
12.0
 20
9.0
  9
$UNITMODE
 70
     0
  9
$VISRETAIN
 70
     1
  9
$PLINEGEN
 70
     0
  9
$PSLTSCALE
 70
     1
  9
$TREEDEPTH
 70
  3020
  9
$CMLSTYLE
  2
Standard
  9
$CMLJUST
 70
     0
  9
$CMLSCALE
 40
1.0
  9
$PROXYGRAPHICS
 70
     1
  9
$MEASUREMENT
 70
     0
  9
$CELWEIGHT
370
    -1
  9
$ENDCAPS
280
     0
  9
$JOINSTYLE
280
     0
  9
$LWDISPLAY
290
     1
  9
$INSUNITS
 70
     1
  9
$HYPERLINKBASE
  1

  9
$STYLESHEET
  1

  9
$XEDIT
290
     1
  9
$CEPSNTYPE
380
     0
  9
$PSTYLEMODE
290
     1
  9
$FINGERPRINTGUID
  2
{B93A8E65-4F65-7956-C4B4-A15868E06D08}
  9
$VERSIONGUID
  2
{FAEB1C32-E019-11D5-929B-00C0DF256EC4}
  9
$EXTNAMES
290
     1
  9
$PSVPSCALE
 40
0.0
  9
$OLESTARTUP
290
     0
  9
$SORTENTS
280
   127
  9
$INDEXCTL
280
     0
  9
$HIDETEXT
280
     1
  9
$XCLIPFRAME
280
     2
  9
$HALOGAP
280
     0
  9
$OBSCOLOR
 70
   257
  9
$OBSLTYPE
280
     0
  9
$INTERSECTIONDISPLAY
280
     0
  9
$INTERSECTIONCOLOR
 70
   257
  9
$DIMASSOC
280
     2
  9
$PROJECTNAME
  1

  9
$CAMERADISPLAY
290
     0
  9
$LENSLENGTH
 40
50.0
  9
$CAMERAHEIGHT
 40
0.0
  9
$STEPSPERSEC
 40
2.0
  9
$STEPSIZE
 40
6.0
  9
$3DDWFPREC
 40
2.0
  9
$PSOLWIDTH
 40
0.25
  9
$PSOLHEIGHT
 40
4.0
  9
$LOFTANG1
 40
1.570796326794897
  9
$LOFTANG2
 40
1.570796326794897
  9
$LOFTMAG1
 40
0.0
  9
$LOFTMAG2
 40
0.0
  9
$LOFTPARAM
 70
     7
  9
$LOFTNORMALS
280
     1
  9
$LATITUDE
 40
37.795
  9
$LONGITUDE
 40
-122.394
  9
$NORTHDIRECTION
 40
0.0
  9
$TIMEZONE
 70
 -8000
  9
$LIGHTGLYPHDISPLAY
280
     1
  9
$TILEMODELIGHTSYNCH
280
     1
  9
$CMATERIAL
347
3C
  9
$SOLIDHIST
280
     1
  9
$SHOWHIST
280
     1
  9
$DWFFRAME
280
     2
  9
$DGNFRAME
280
     2
  9
$REALWORLDSCALE
290
     1
  9
$INTERFERECOLOR
 62
   256
  9
$CSHADOW
280
     0
  9
$SHADOWPLANELOCATION
 40
0.0
  0
ENDSEC
  0
SECTION
  2
CLASSES
  0
CLASS
  1
ACDBDICTIONARYWDFLT
  2
AcDbDictionaryWithDefault
  3
ObjectDBX Classes
 90
        0
 91
        4
280
     0
281
     0
  0
CLASS
  1
VISUALSTYLE
  2
AcDbVisualStyle
  3
ObjectDBX Classes
 90
     4095
 91
        4
280
     0
281
     0
  0
CLASS
  1
MATERIAL
  2
AcDbMaterial
  3
ObjectDBX Classes
 90
     1153
 91
        4
280
     0
281
     0
  0
CLASS
  1
SUN
  2
AcDbSun
  3
SCENEOE
 90
     1024
 91
        4
280
     0
281
     0
  0
ENDSEC
  0
SECTION
  2
TABLES
  0
TABLE
  2
VPORT
  5
8
330
0
100
AcDbSymbolTable
 70
     1
  0
VPORT
  5
29
330
8
100
AcDbSymbolTableRecord
100
AcDbViewportTableRecord
  2
*Active
 70
     0
 10
0.0
 20
0.0
 11
1.0
 21
1.0
 12
0.0
 22
0.0
 13
0.0
 23
0.0
 14
0.5
 24
0.5
 15
0.5
 25
0.5
 16
0.0
 26
0.0
 36
1.0
 17
91.00082462281999
 27
-128.4993055234307
 37
0.0
 40
256.9986110468615
 41
0.7081814508812795
 42
50.0
 43
0.0
 44
0.0
 50
0.0
 51
0.0
 71
     0
 72
   100
 73
     1
 74
     3
 75
     0
 76
     0
 77
     0
 78
     0
281
     0
 65
     1
110
0.0
120
0.0
130
0.0
111
1.0
121
0.0
131
0.0
112
0.0
122
1.0
132
0.0
 79
     0
146
0.0
 60
     3
 61
     5
292
     1
282
     1
141
0.0
142
0.0
 63
   250
361
3F
  0
ENDTAB
  0
TABLE
  2
LTYPE
  5
5
330
0
100
AcDbSymbolTable
 70
     2
  0
LTYPE
  5
14
330
5
100
AcDbSymbolTableRecord
100
AcDbLinetypeTableRecord
  2
ByBlock
 70
     0
  3

 72
    65
 73
     0
 40
0.0
  0
LTYPE
  5
15
330
5
100
AcDbSymbolTableRecord
100
AcDbLinetypeTableRecord
  2
ByLayer
 70
     0
  3

 72
    65
 73
     0
 40
0.0
  0
LTYPE
  5
16
330
5
100
AcDbSymbolTableRecord
100
AcDbLinetypeTableRecord
  2
Continuous
 70
     0
  3
Solid line
 72
    65
 73
     0
 40
0.0
  0
LTYPE
  5
146
330
5
100
AcDbSymbolTableRecord
100
AcDbLinetypeTableRecord
  2
AI-Linetype-1
 70
     0
  3
Adobe Illustrator Linetype No. 1
 72
    65
 73
     2
 40
1.411111110758333
 49
0.7055555553791667
 74
     0
 49
-0.7055555553791667
 74
     0
  0
ENDTAB
  0
TABLE
  2
LAYER
  5
2
330
0
100
AcDbSymbolTable
 70
     2
  0
LAYER
  5
10
330
2
100
AcDbSymbolTableRecord
100
AcDbLayerTableRecord
  2
0
 70
     0
 62
     7
  6
Continuous
370
    -3
390
F
347
3E
  0
LAYER
  5
40
330
2
100
AcDbSymbolTableRecord
100
AcDbLayerTableRecord
  2
_U+30EC_U+30A4_U+30E4_U+30FC 1
 70
     0
 62
     7
  6
Continuous
370
    -3
390
F
347
3E
  0
ENDTAB
  0
TABLE
  2
STYLE
  5
3
330
0
100
AcDbSymbolTable
 70
     1
  0
STYLE
  5
11
330
3
100
AcDbSymbolTableRecord
100
AcDbTextStyleTableRecord
  2
Standard
 70
     0
 40
0.0
 41
1.0
 50
0.0
 71
     0
 42
0.2
  3
txt
  4

  0
ENDTAB
  0
TABLE
  2
VIEW
  5
6
330
0
100
AcDbSymbolTable
 70
     0
  0
ENDTAB
  0
TABLE
  2
UCS
  5
7
330
0
100
AcDbSymbolTable
 70
     0
  0
ENDTAB
  0
TABLE
  2
APPID
  5
9
330
0
100
AcDbSymbolTable
 70
     1
  0
APPID
  5
12
330
9
100
AcDbSymbolTableRecord
100
AcDbRegAppTableRecord
  2
ACAD
 70
     0
  0
ENDTAB
  0
TABLE
  2
DIMSTYLE
  5
A
330
0
100
AcDbSymbolTable
 70
     1
100
AcDbDimStyleTable
  0
DIMSTYLE
105
27
330
A
100
AcDbSymbolTableRecord
100
AcDbDimStyleTableRecord
  2
Standard
 70
     0
178
     0
340
11
  0
ENDTAB
  0
TABLE
  2
BLOCK_RECORD
  5
1
330
0
100
AcDbSymbolTable
 70
     8
  0
BLOCK_RECORD
  5
1F
330
1
100
AcDbSymbolTableRecord
100
AcDbBlockTableRecord
  2
*Model_Space
340
22
 70
     0
280
     1
281
     0
  0
BLOCK_RECORD
  5
1B
330
1
100
AcDbSymbolTableRecord
100
AcDbBlockTableRecord
  2
*Paper_Space
340
1E
 70
     0
280
     1
281
     0
  0
BLOCK_RECORD
  5
23
330
1
100
AcDbSymbolTableRecord
100
AcDbBlockTableRecord
  2
*Paper_Space0
340
26
 70
     0
280
     1
281
     0
  0
BLOCK_RECORD
  5
AB
330
1
100
AcDbSymbolTableRecord
100
AcDbBlockTableRecord
  2
block 2
340
0
102
{BLKREFS
331
AC
102
}
 70
     0
280
     1
281
     0
  0
BLOCK_RECORD
  5
B9
330
1
100
AcDbSymbolTableRecord
100
AcDbBlockTableRecord
  2
block 3
340
0
102
{BLKREFS
331
BA
102
}
 70
     0
280
     1
281
     0
  0
BLOCK_RECORD
  5
CB
330
1
100
AcDbSymbolTableRecord
100
AcDbBlockTableRecord
  2
block 4
340
0
102
{BLKREFS
331
CC
102
}
 70
     0
280
     1
281
     0
  0
BLOCK_RECORD
  5
EE
330
1
100
AcDbSymbolTableRecord
100
AcDbBlockTableRecord
  2
block 5
340
0
102
{BLKREFS
331
EF
102
}
 70
     0
280
     1
281
     0
  0
BLOCK_RECORD
  5
10B
330
1
100
AcDbSymbolTableRecord
100
AcDbBlockTableRecord
  2
block 6
340
0
102
{BLKREFS
331
10C
102
}
 70
     0
280
     1
281
     0
  0
BLOCK_RECORD
  5
12F
330
1
100
AcDbSymbolTableRecord
100
AcDbBlockTableRecord
  2
block 7
340
0
102
{BLKREFS
331
130
102
}
 70
     0
280
     1
281
     0
  0
BLOCK_RECORD
  5
150
330
1
100
AcDbSymbolTableRecord
100
AcDbBlockTableRecord
  2
block 8
340
0
102
{BLKREFS
331
151
102
}
 70
     0
280
     1
281
     0
  0
ENDTAB
  0
ENDSEC
  0
SECTION
  2
BLOCKS
  0
BLOCK
  5
20
330
1F
100
AcDbEntity
  8
0
100
AcDbBlockBegin
  2
*Model_Space
 70
     0
 10
0.0
 20
0.0
 30
0.0
  3
*Model_Space
  1

  0
ENDBLK
  5
21
330
1F
100
AcDbEntity
  8
0
100
AcDbBlockEnd
  0
BLOCK
  5
1C
330
1B
100
AcDbEntity
 67
     1
  8
0
100
AcDbBlockBegin
  2
*Paper_Space
 70
     0
 10
0.0
 20
0.0
 30
0.0
  3
*Paper_Space
  1

  0
ENDBLK
  5
1D
330
1B
100
AcDbEntity
 67
     1
  8
0
100
AcDbBlockEnd
  0
BLOCK
  5
24
330
23
100
AcDbEntity
  8
0
100
AcDbBlockBegin
  2
*Paper_Space0
 70
     0
 10
0.0
 20
0.0
 30
0.0
  3
*Paper_Space0
  1

  0
ENDBLK
  5
25
330
23
100
AcDbEntity
  8
0
100
AcDbBlockEnd
  0
BLOCK
  5
AD
330
AB
100
AcDbEntity
  8
0
100
AcDbBlockBegin
  2
block 2
 70
     0
 10
0.0
 20
0.0
 30
0.0
  3
block 2
  1

  0
SPLINE
  5
AF
330
AB
100
AcDbEntity
  8
_U+30EC_U+30A4_U+30E4_U+30FC 1
370
     0
100
AcDbSpline
210
0.0
220
0.0
230
1.0
 70
    11
 71
     3
 72
    26
 73
    22
 74
     0
 42
0.0000000001
 43
0.0000000001
 12
1.0
 22
0.0
 32
0.0
 13
1.0
 23
0.0
 33
0.0
 40
0.0
 40
0.0
 40
0.0
 40
0.0
 40
1.0
 40
1.0
 40
1.0
 40
2.0
 40
2.0
 40
2.0
 40
3.0
 40
3.0
 40
3.0
 40
4.0
 40
4.0
 40
4.0
 40
5.0
 40
5.0
 40
5.0
 40
6.0
 40
6.0
 40
6.0
 40
7.0
 40
7.0
 40
7.0
 40
7.0
 10
90.95499943472653
 20
-114.3182589774968
 30
0.0
 10
90.95499943472653
 20
-114.3182589774968
 30
0.0
 10
90.70178491656067
 20
-114.3182589774968
 30
0.0
 10
90.70178491656067
 20
-114.3182589774968
 30
0.0
 10
90.72882891611988
 20
-114.0094061672442
 30
0.0
 10
90.93450111658929
 20
-113.4910915514883
 30
0.0
 10
91.36858314773077
 20
-112.9855237890279
 30
0.0
 10
91.36858314773077
 20
-112.9855237890279
 30
0.0
 10
90.4733750858886
 20
-112.9855237890279
 30
0.0
 10
90.4733750858886
 20
-112.9855237890279
 30
0.0
 10
90.4733750858886
 20
-112.9855237890279
 30
0.0
 10
90.4733750858886
 20
-112.7739949262336
 30
0.0
 10
90.4733750858886
 20
-112.7739949262336
 30
0.0
 10
90.4733750858886
 20
-112.7739949262336
 30
0.0
 10
91.6219699206709
 20
-112.7739949262336
 30
0.0
 10
91.6219699206709
 20
-112.7739949262336
 30
0.0
 10
91.6219699206709
 20
-112.7739949262336
 30
0.0
 10
91.6219699206709
 20
-112.9855237890279
 30
0.0
 10
91.6219699206709
 20
-112.9855237890279
 30
0.0
 10
91.27591007917755
 20
-113.2752563193374
 30
0.0
 10
90.99117293732165
 20
-113.8676404880262
 30
0.0
 10
90.95499943472653
 20
-114.3182589774968
 30
0.0
  0
HATCH
  5
B0
330
AB
100
AcDbEntity
  8
_U+30EC_U+30A4_U+30E4_U+30FC 1
 62
   179
420
  2234388
100
AcDbHatch
 10
0.0
 20
0.0
 30
0.0
210
0.0
220
0.0
230
1.0
  2
SOLID
 70
     1
 71
     0
 91
        1
 92
        1
 93
        1
 72
     4
 94
        3
 73
     0
 74
     1
 95
       26
 96
       22
 40
0.0
 40
0.0
 40
0.0
 40
0.0
 40
1.0
 40
1.0
 40
1.0
 40
2.0
 40
2.0
 40
2.0
 40
3.0
 40
3.0
 40
3.0
 40
4.0
 40
4.0
 40
4.0
 40
5.0
 40
5.0
 40
5.0
 40
6.0
 40
6.0
 40
6.0
 40
7.0
 40
7.0
 40
7.0
 40
7.0
 10
90.95499943472653
 20
-114.3182589774968
 10
90.95499943472653
 20
-114.3182589774968
 10
90.70178491656067
 20
-114.3182589774968
 10
90.70178491656067
 20
-114.3182589774968
 10
90.72882891611988
 20
-114.0094061672442
 10
90.93450111658929
 20
-113.4910915514883
 10
91.36858314773077
 20
-112.9855237890279
 10
91.36858314773077
 20
-112.9855237890279
 10
90.4733750858886
 20
-112.9855237890279
 10
90.4733750858886
 20
-112.9855237890279
 10
90.4733750858886
 20
-112.9855237890279
 10
90.4733750858886
 20
-112.7739949262336
 10
90.4733750858886
 20
-112.7739949262336
 10
90.4733750858886
 20
-112.7739949262336
 10
91.6219699206709
 20
-112.7739949262336
 10
91.6219699206709
 20
-112.7739949262336
 10
91.6219699206709
 20
-112.7739949262336
 10
91.6219699206709
 20
-112.9855237890279
 10
91.6219699206709
 20
-112.9855237890279
 10
91.27591007917755
 20
-113.2752563193374
 10
90.99117293732165
 20
-113.8676404880262
 10
90.95499943472653
 20
-114.3182589774968
 97
        0
 97
        0
 75
     2
 76
     1
 98
        0
  0
ENDBLK
  5
AE
330
AB
100
AcDbEntity
  8
0
100
AcDbBlockEnd
  0
BLOCK
  5
BB
330
B9
100
AcDbEntity
  8
0
100
AcDbBlockBegin
  2
block 3
 70
     0
 10
0.0
 20
0.0
 30
0.0
  3
block 3
  1

  0
SPLINE
  5
BD
330
B9
100
AcDbEntity
  8
_U+30EC_U+30A4_U+30E4_U+30FC 1
370
     0
100
AcDbSpline
210
0.0
220
0.0
230
1.0
 70
    11
 71
     3
 72
    26
 73
    22
 74
     0
 42
0.0000000001
 43
0.0000000001
 12
1.0
 22
0.0
 32
0.0
 13
1.0
 23
0.0
 33
0.0
 40
0.0
 40
0.0
 40
0.0
 40
0.0
 40
1.0
 40
1.0
 40
1.0
 40
2.0
 40
2.0
 40
2.0
 40
3.0
 40
3.0
 40
3.0
 40
4.0
 40
4.0
 40
4.0
 40
5.0
 40
5.0
 40
5.0
 40
6.0
 40
6.0
 40
6.0
 40
7.0
 40
7.0
 40
7.0
 40
7.0
 10
107.9548231066919
 20
-127.510563119164
 30
0.0
 10
107.9548231066919
 20
-127.510563119164
 30
0.0
 10
107.9548231066919
 20
-127.7637776373299
 30
0.0
 10
107.9548231066919
 20
-127.7637776373299
 30
0.0
 10
107.6457980416649
 20
-127.7367336377707
 30
0.0
 10
107.1276556806834
 20
-127.5310614373013
 30
0.0
 10
106.6219156634487
 20
-127.0969794061598
 30
0.0
 10
106.6219156634487
 20
-127.0969794061598
 30
0.0
 10
106.6219156634487
 20
-127.992187468002
 30
0.0
 10
106.6219156634487
 20
-127.992187468002
 30
0.0
 10
106.6219156634487
 20
-127.992187468002
 30
0.0
 10
106.4103868006544
 20
-127.992187468002
 30
0.0
 10
106.4103868006544
 20
-127.992187468002
 30
0.0
 10
106.4103868006544
 20
-127.992187468002
 30
0.0
 10
106.4103868006544
 20
-126.8437648879939
 30
0.0
 10
106.4103868006544
 20
-126.8437648879939
 30
0.0
 10
106.4103868006544
 20
-126.8437648879939
 30
0.0
 10
106.6219156634487
 20
-126.8437648879939
 30
0.0
 10
106.6219156634487
 20
-126.8437648879939
 30
0.0
 10
106.9119927033067
 20
-127.189652474713
 30
0.0
 10
107.5042046172212
 20
-127.4743896165689
 30
0.0
 10
107.9548231066919
 20
-127.510563119164
 30
0.0
  0
HATCH
  5
BE
330
B9
100
AcDbEntity
  8
_U+30EC_U+30A4_U+30E4_U+30FC 1
 62
   179
420
  2234388
100
AcDbHatch
 10
0.0
 20
0.0
 30
0.0
210
0.0
220
0.0
230
1.0
  2
SOLID
 70
     1
 71
     0
 91
        1
 92
        1
 93
        1
 72
     4
 94
        3
 73
     0
 74
     1
 95
       26
 96
       22
 40
0.0
 40
0.0
 40
0.0
 40
0.0
 40
1.0
 40
1.0
 40
1.0
 40
2.0
 40
2.0
 40
2.0
 40
3.0
 40
3.0
 40
3.0
 40
4.0
 40
4.0
 40
4.0
 40
5.0
 40
5.0
 40
5.0
 40
6.0
 40
6.0
 40
6.0
 40
7.0
 40
7.0
 40
7.0
 40
7.0
 10
107.9548231066919
 20
-127.510563119164
 10
107.9548231066919
 20
-127.510563119164
 10
107.9548231066919
 20
-127.7637776373299
 10
107.9548231066919
 20
-127.7637776373299
 10
107.6457980416649
 20
-127.7367336377707
 10
107.1276556806834
 20
-127.5310614373013
 10
106.6219156634487
 20
-127.0969794061598
 10
106.6219156634487
 20
-127.0969794061598
 10
106.6219156634487
 20
-127.992187468002
 10
106.6219156634487
 20
-127.992187468002
 10
106.6219156634487
 20
-127.992187468002
 10
106.4103868006544
 20
-127.992187468002
 10
106.4103868006544
 20
-127.992187468002
 10
106.4103868006544
 20
-127.992187468002
 10
106.4103868006544
 20
-126.8437648879939
 10
106.4103868006544
 20
-126.8437648879939
 10
106.4103868006544
 20
-126.8437648879939
 10
106.6219156634487
 20
-126.8437648879939
 10
106.6219156634487
 20
-126.8437648879939
 10
106.9119927033067
 20
-127.189652474713
 10
107.5042046172212
 20
-127.4743896165689
 10
107.9548231066919
 20
-127.510563119164
 97
        0
 97
        0
 75
     2
 76
     1
 98
        0
  0
ENDBLK
  5
BC
330
B9
100
AcDbEntity
  8
0
100
AcDbBlockEnd
  0
BLOCK
  5
CD
330
CB
100
AcDbEntity
  8
0
100
AcDbBlockBegin
  2
block 4
 70
     0
 10
0.0
 20
0.0
 30
0.0
  3
block 4
  1

  0
SPLINE
  5
CF
330
CB
100
AcDbEntity
  8
_U+30EC_U+30A4_U+30E4_U+30FC 1
370
     0
100
AcDbSpline
210
0.0
220
0.0
230
1.0
 70
    11
 71
     3
 72
    44
 73
    40
 74
     0
 42
0.0000000001
 43
0.0000000001
 12
1.0
 22
0.0
 32
0.0
 13
1.0
 23
0.0
 33
0.0
 40
0.0
 40
0.0
 40
0.0
 40
0.0
 40
1.0
 40
1.0
 40
1.0
 40
2.0
 40
2.0
 40
2.0
 40
3.0
 40
3.0
 40
3.0
 40
4.0
 40
4.0
 40
4.0
 40
5.0
 40
5.0
 40
5.0
 40
6.0
 40
6.0
 40
6.0
 40
7.0
 40
7.0
 40
7.0
 40
8.0
 40
8.0
 40
8.0
 40
9.0
 40
9.0
 40
9.0
 40
10.0
 40
10.0
 40
10.0
 40
11.0
 40
11.0
 40
11.0
 40
12.0
 40
12.0
 40
12.0
 40
13.0
 40
13.0
 40
13.0
 40
13.0
 10
90.60738930026483
 20
-142.2366237708645
 30
0.0
 10
90.37450084546194
 20
-142.3954426727345
 30
0.0
 10
90.27510984071247
 20
-142.4695122256674
 30
0.0
 10
90.22308889888521
 20
-142.6131727074023
 30
0.0
 10
90.22308889888521
 20
-142.6131727074023
 30
0.0
 10
91.05490720379878
 20
-142.6131727074023
 30
0.0
 10
91.05490720379878
 20
-142.6131727074023
 30
0.0
 10
91.05490720379878
 20
-142.6131727074023
 30
0.0
 10
91.05490720379878
 20
-142.8185003983232
 30
0.0
 10
91.05490720379878
 20
-142.8185003983232
 30
0.0
 10
91.05490720379878
 20
-142.8185003983232
 30
0.0
 10
89.9562662535526
 20
-142.8185003983232
 30
0.0
 10
89.9562662535526
 20
-142.8185003983232
 30
0.0
 10
89.99020044408232
 20
-142.4608994869542
 30
0.0
 10
90.06030813720714
 20
-142.382695819439
 30
0.0
 10
90.47182479292024
 20
-142.0843505504164
 30
0.0
 10
90.74519311967482
 20
-141.8855685409175
 30
0.0
 10
90.81547306757392
 20
-141.8177001598581
 30
0.0
 10
90.81547306757392
 20
-141.6802408499966
 30
0.0
 10
90.81547306757392
 20
-141.561729565304
 30
0.0
 10
90.73864743825284
 20
-141.4308159368645
 30
0.0
 10
90.52815210410408
 20
-141.4308159368645
 30
0.0
 10
90.25013289844442
 20
-141.4308159368645
 30
0.0
 10
90.24117565018277
 20
-141.6612928248277
 30
0.0
 10
90.23669702605194
 20
-141.7777370522292
 30
0.0
 10
90.23669702605194
 20
-141.7777370522292
 30
0.0
 10
89.99691838027856
 20
-141.7777370522292
 30
0.0
 10
89.99691838027856
 20
-141.7777370522292
 30
0.0
 10
90.00604788331447
 20
-141.6506130288235
 30
0.0
 10
90.01741669841579
 20
-141.5386474255529
 30
0.0
 10
90.10319957599852
 20
-141.4201361408603
 30
0.0
 10
90.2208495868198
 20
-141.2592501816991
 30
0.0
 10
90.41980385109296
 20
-141.2254882459436
 30
0.0
 10
90.54399954333623
 20
-141.2254882459436
 30
0.0
 10
90.84027775506772
 20
-141.2254882459436
 30
0.0
 10
91.06179739476927
 20
-141.409456344856
 30
0.0
 10
91.06179739476927
 20
-141.6823079072878
 30
0.0
 10
91.06179739476927
 20
-141.9110622475083
 30
0.0
 10
90.93742944775175
 20
-142.0102809974835
 30
0.0
 10
90.60738930026483
 20
-142.2366237708645
 30
0.0
  0
HATCH
  5
D0
330
CB
100
AcDbEntity
  8
_U+30EC_U+30A4_U+30E4_U+30FC 1
 62
   179
420
  2234388
100
AcDbHatch
 10
0.0
 20
0.0
 30
0.0
210
0.0
220
0.0
230
1.0
  2
SOLID
 70
     1
 71
     0
 91
        1
 92
        1
 93
        1
 72
     4
 94
        3
 73
     0
 74
     1
 95
       44
 96
       40
 40
0.0
 40
0.0
 40
0.0
 40
0.0
 40
1.0
 40
1.0
 40
1.0
 40
2.0
 40
2.0
 40
2.0
 40
3.0
 40
3.0
 40
3.0
 40
4.0
 40
4.0
 40
4.0
 40
5.0
 40
5.0
 40
5.0
 40
6.0
 40
6.0
 40
6.0
 40
7.0
 40
7.0
 40
7.0
 40
8.0
 40
8.0
 40
8.0
 40
9.0
 40
9.0
 40
9.0
 40
10.0
 40
10.0
 40
10.0
 40
11.0
 40
11.0
 40
11.0
 40
12.0
 40
12.0
 40
12.0
 40
13.0
 40
13.0
 40
13.0
 40
13.0
 10
90.60738930026483
 20
-142.2366237708645
 10
90.37450084546194
 20
-142.3954426727345
 10
90.27510984071247
 20
-142.4695122256674
 10
90.22308889888521
 20
-142.6131727074023
 10
90.22308889888521
 20
-142.6131727074023
 10
91.05490720379878
 20
-142.6131727074023
 10
91.05490720379878
 20
-142.6131727074023
 10
91.05490720379878
 20
-142.6131727074023
 10
91.05490720379878
 20
-142.8185003983232
 10
91.05490720379878
 20
-142.8185003983232
 10
91.05490720379878
 20
-142.8185003983232
 10
89.9562662535526
 20
-142.8185003983232
 10
89.9562662535526
 20
-142.8185003983232
 10
89.99020044408232
 20
-142.4608994869542
 10
90.06030813720714
 20
-142.382695819439
 10
90.47182479292024
 20
-142.0843505504164
 10
90.74519311967482
 20
-141.8855685409175
 10
90.81547306757392
 20
-141.8177001598581
 10
90.81547306757392
 20
-141.6802408499966
 10
90.81547306757392
 20
-141.561729565304
 10
90.73864743825284
 20
-141.4308159368645
 10
90.52815210410408
 20
-141.4308159368645
 10
90.25013289844442
 20
-141.4308159368645
 10
90.24117565018277
 20
-141.6612928248277
 10
90.23669702605194
 20
-141.7777370522292
 10
90.23669702605194
 20
-141.7777370522292
 10
89.99691838027856
 20
-141.7777370522292
 10
89.99691838027856
 20
-141.7777370522292
 10
90.00604788331447
 20
-141.6506130288235
 10
90.01741669841579
 20
-141.5386474255529
 10
90.10319957599852
 20
-141.4201361408603
 10
90.2208495868198
 20
-141.2592501816991
 10
90.41980385109296
 20
-141.2254882459436
 10
90.54399954333623
 20
-141.2254882459436
 10
90.84027775506772
 20
-141.2254882459436
 10
91.06179739476927
 20
-141.409456344856
 10
91.06179739476927
 20
-141.6823079072878
 10
91.06179739476927
 20
-141.9110622475083
 10
90.93742944775175
 20
-142.0102809974835
 10
90.60738930026483
 20
-142.2366237708645
 97
        0
 97
        0
 75
     2
 76
     1
 98
        0
  0
SPLINE
  5
D1
330
CB
100
AcDbEntity
  8
_U+30EC_U+30A4_U+30E4_U+30FC 1
370
     0
100
AcDbSpline
210
0.0
220
0.0
230
1.0
 70
    11
 71
     3
 72
    53
 73
    49
 74
     0
 42
0.0000000001
 43
0.0000000001
 12
1.0
 22
0.0
 32
0.0
 13
1.0
 23
0.0
 33
0.0
 40
0.0
 40
0.0
 40
0.0
 40
0.0
 40
1.0
 40
1.0
 40
1.0
 40
2.0
 40
2.0
 40
2.0
 40
3.0
 40
3.0
 40
3.0
 40
4.0
 40
4.0
 40
4.0
 40
5.0
 40
5.0
 40
5.0
 40
6.0
 40
6.0
 40
6.0
 40
7.0
 40
7.0
 40
7.0
 40
8.0
 40
8.0
 40
8.0
 40
9.0
 40
9.0
 40
9.0
 40
10.0
 40
10.0
 40
10.0
 40
11.0
 40
11.0
 40
11.0
 40
12.0
 40
12.0
 40
12.0
 40
13.0
 40
13.0
 40
13.0
 40
14.0
 40
14.0
 40
14.0
 40
15.0
 40
15.0
 40
15.0
 40
16.0
 40
16.0
 40
16.0
 40
16.0
 10
91.74530433904285
 20
-142.8691433019563
 30
0.0
 10
91.6619330282998
 20
-142.8691433019563
 30
0.0
 10
91.5530680109659
 20
-142.8522623340786
 30
0.0
 10
91.44489201272906
 20
-142.78887257715
 30
0.0
 10
91.2592013660741
 20
-142.6789740311706
 30
0.0
 10
91.23680824541997
 20
-142.5477158931825
 30
0.0
 10
91.21648218205699
 20
-142.4398844044942
 30
0.0
 10
91.21648218205699
 20
-142.4398844044942
 30
0.0
 10
91.45384926099071
 20
-142.4398844044942
 30
0.0
 10
91.45384926099071
 20
-142.4398844044942
 30
0.0
 10
91.51241588423996
 20
-142.6386664139931
 30
0.0
 10
91.6481526463588
 20
-142.6682942351663
 30
0.0
 10
91.74771590588252
 20
-142.6682942351663
 30
0.0
 10
91.89688854039383
 20
-142.6682942351663
 30
0.0
 10
92.05949704729763
 20
-142.5687309756426
 30
0.0
 10
92.05949704729763
 20
-142.3361870303882
 30
0.0
 10
92.05949704729763
 20
-142.0802164358341
 30
0.0
 10
91.86760522876921
 20
-142.0102809974835
 30
0.0
 10
91.73875865762086
 20
-142.0102809974835
 30
0.0
 10
91.7046522123169
 20
-142.0102809974835
 30
0.0
 10
91.5530680109659
 20
-142.0102809974835
 30
0.0
 10
91.45832788512153
 20
-142.1394720781804
 30
0.0
 10
91.45832788512153
 20
-142.1394720781804
 30
0.0
 10
91.27057018117542
 20
-142.1205240530115
 30
0.0
 10
91.27057018117542
 20
-142.1205240530115
 30
0.0
 10
91.27057018117542
 20
-142.1205240530115
 30
0.0
 10
91.39941675232376
 20
-141.2740640922857
 30
0.0
 10
91.39941675232376
 20
-141.2740640922857
 30
0.0
 10
91.39941675232376
 20
-141.2740640922857
 30
0.0
 10
92.2314073120116
 20
-141.2740640922857
 30
0.0
 10
92.2314073120116
 20
-141.2740640922857
 30
0.0
 10
92.2314073120116
 20
-141.2740640922857
 30
0.0
 10
92.2314073120116
 20
-141.4687119872023
 30
0.0
 10
92.2314073120116
 20
-141.4687119872023
 30
0.0
 10
92.2314073120116
 20
-141.4687119872023
 30
0.0
 10
91.5737385838774
 20
-141.4687119872023
 30
0.0
 10
91.5737385838774
 20
-141.4687119872023
 30
0.0
 10
91.5737385838774
 20
-141.4687119872023
 30
0.0
 10
91.5034586359783
 20
-141.891769712791
 30
0.0
 10
91.5034586359783
 20
-141.891769712791
 30
0.0
 10
91.56891545019805
 20
-141.8580077770355
 30
0.0
 10
91.65710989462045
 20
-141.8177001598581
 30
0.0
 10
91.78388940847765
 20
-141.8177001598581
 30
0.0
 10
92.0550184231668
 20
-141.8177001598581
 30
0.0
 10
92.30823294133266
 20
-142.0040798256101
 30
0.0
 10
92.30823294133266
 20
-142.3172390052193
 30
0.0
 10
92.30823294133266
 20
-142.6345322994108
 30
0.0
 10
92.0687988051078
 20
-142.8691433019563
 30
0.0
 10
91.74530433904285
 20
-142.8691433019563
 30
0.0
  0
HATCH
  5
D2
330
CB
100
AcDbEntity
  8
_U+30EC_U+30A4_U+30E4_U+30FC 1
 62
   179
420
  2234388
100
AcDbHatch
 10
0.0
 20
0.0
 30
0.0
210
0.0
220
0.0
230
1.0
  2
SOLID
 70
     1
 71
     0
 91
        1
 92
        1
 93
        1
 72
     4
 94
        3
 73
     0
 74
     1
 95
       53
 96
       49
 40
0.0
 40
0.0
 40
0.0
 40
0.0
 40
1.0
 40
1.0
 40
1.0
 40
2.0
 40
2.0
 40
2.0
 40
3.0
 40
3.0
 40
3.0
 40
4.0
 40
4.0
 40
4.0
 40
5.0
 40
5.0
 40
5.0
 40
6.0
 40
6.0
 40
6.0
 40
7.0
 40
7.0
 40
7.0
 40
8.0
 40
8.0
 40
8.0
 40
9.0
 40
9.0
 40
9.0
 40
10.0
 40
10.0
 40
10.0
 40
11.0
 40
11.0
 40
11.0
 40
12.0
 40
12.0
 40
12.0
 40
13.0
 40
13.0
 40
13.0
 40
14.0
 40
14.0
 40
14.0
 40
15.0
 40
15.0
 40
15.0
 40
16.0
 40
16.0
 40
16.0
 40
16.0
 10
91.74530433904285
 20
-142.8691433019563
 10
91.6619330282998
 20
-142.8691433019563
 10
91.5530680109659
 20
-142.8522623340786
 10
91.44489201272906
 20
-142.78887257715
 10
91.2592013660741
 20
-142.6789740311706
 10
91.23680824541997
 20
-142.5477158931825
 10
91.21648218205699
 20
-142.4398844044942
 10
91.21648218205699
 20
-142.4398844044942
 10
91.45384926099071
 20
-142.4398844044942
 10
91.45384926099071
 20
-142.4398844044942
 10
91.51241588423996
 20
-142.6386664139931
 10
91.6481526463588
 20
-142.6682942351663
 10
91.74771590588252
 20
-142.6682942351663
 10
91.89688854039383
 20
-142.6682942351663
 10
92.05949704729763
 20
-142.5687309756426
 10
92.05949704729763
 20
-142.3361870303882
 10
92.05949704729763
 20
-142.0802164358341
 10
91.86760522876921
 20
-142.0102809974835
 10
91.73875865762086
 20
-142.0102809974835
 10
91.7046522123169
 20
-142.0102809974835
 10
91.5530680109659
 20
-142.0102809974835
 10
91.45832788512153
 20
-142.1394720781804
 10
91.45832788512153
 20
-142.1394720781804
 10
91.27057018117542
 20
-142.1205240530115
 10
91.27057018117542
 20
-142.1205240530115
 10
91.27057018117542
 20
-142.1205240530115
 10
91.39941675232376
 20
-141.2740640922857
 10
91.39941675232376
 20
-141.2740640922857
 10
91.39941675232376
 20
-141.2740640922857
 10
92.2314073120116
 20
-141.2740640922857
 10
92.2314073120116
 20
-141.2740640922857
 10
92.2314073120116
 20
-141.2740640922857
 10
92.2314073120116
 20
-141.4687119872023
 10
92.2314073120116
 20
-141.4687119872023
 10
92.2314073120116
 20
-141.4687119872023
 10
91.5737385838774
 20
-141.4687119872023
 10
91.5737385838774
 20
-141.4687119872023
 10
91.5737385838774
 20
-141.4687119872023
 10
91.5034586359783
 20
-141.891769712791
 10
91.5034586359783
 20
-141.891769712791
 10
91.56891545019805
 20
-141.8580077770355
 10
91.65710989462045
 20
-141.8177001598581
 10
91.78388940847765
 20
-141.8177001598581
 10
92.0550184231668
 20
-141.8177001598581
 10
92.30823294133266
 20
-142.0040798256101
 10
92.30823294133266
 20
-142.3172390052193
 10
92.30823294133266
 20
-142.6345322994108
 10
92.0687988051078
 20
-142.8691433019563
 10
91.74530433904285
 20
-142.8691433019563
 97
        0
 97
        0
 75
     2
 76
     1
 98
        0
  0
POLYLINE
  5
D3
330
CB
100
AcDbEntity
  8
_U+30EC_U+30A4_U+30E4_U+30FC 1
370
     0
100
AcDb2dPolyline
 66
     1
 10
0.0
 20
0.0
 30
0.0
  0
VERTEX
  5
D4
330
D3
100
AcDbEntity
  8
_U+30EC_U+30A4_U+30E4_U+30FC 1
370
     0
100
AcDbVertex
100
AcDb2dVertex
 10
92.55317923033394
 20
-142.8185003983232
 30
0.0
  0
VERTEX
  5
D5
330
D3
100
AcDbEntity
  8
_U+30EC_U+30A4_U+30E4_U+30FC 1
370
     0
100
AcDbVertex
100
AcDb2dVertex
 10
92.55317923033394
 20
-142.5666639183514
 30
0.0
  0
VERTEX
  5
D6
330
D3
100
AcDbEntity
  8
_U+30EC_U+30A4_U+30E4_U+30FC 1
370
     0
100
AcDbVertex
100
AcDb2dVertex
 10
92.82224118773195
 20
-142.5666639183514
 30
0.0
  0
VERTEX
  5
D7
330
D3
100
AcDbEntity
  8
_U+30EC_U+30A4_U+30E4_U+30FC 1
370
     0
100
AcDbVertex
100
AcDb2dVertex
 10
92.82224118773195
 20
-142.8185003983232
 30
0.0
  0
VERTEX
  5
D8
330
D3
100
AcDbEntity
  8
_U+30EC_U+30A4_U+30E4_U+30FC 1
370
     0
100
AcDbVertex
100
AcDb2dVertex
 10
92.55317923033394
 20
-142.8185003983232
 30
0.0
  0
SEQEND
  5
D9
330
D3
100
AcDbEntity
  8
_U+30EC_U+30A4_U+30E4_U+30FC 1
370
     0
  0
HATCH
  5
DA
330
CB
100
AcDbEntity
  8
_U+30EC_U+30A4_U+30E4_U+30FC 1
 62
   179
420
  2234388
100
AcDbHatch
 10
0.0
 20
0.0
 30
0.0
210
0.0
220
0.0
230
1.0
  2
SOLID
 70
     1
 71
     0
 91
        1
 92
        1
 93
        4
 72
     1
 10
92.55317923033394
 20
-142.8185003983232
 11
92.55317923033394
 21
-142.5666639183514
 72
     1
 10
92.55317923033394
 20
-142.5666639183514
 11
92.82224118773195
 21
-142.5666639183514
 72
     1
 10
92.82224118773195
 20
-142.5666639183514
 11
92.82224118773195
 21
-142.8185003983232
 72
     1
 10
92.82224118773195
 20
-142.8185003983232
 11
92.55317923033394
 21
-142.8185003983232
 97
        0
 75
     2
 76
     1
 98
        0
  0
SPLINE
  5
DB
330
CB
100
AcDbEntity
  8
_U+30EC_U+30A4_U+30E4_U+30FC 1
370
     0
100
AcDbSpline
210
0.0
220
0.0
230
1.0
 70
    11
 71
     3
 72
    53
 73
    49
 74
     0
 42
0.0000000001
 43
0.0000000001
 12
1.0
 22
0.0
 32
0.0
 13
1.0
 23
0.0
 33
0.0
 40
0.0
 40
0.0
 40
0.0
 40
0.0
 40
1.0
 40
1.0
 40
1.0
 40
2.0
 40
2.0
 40
2.0
 40
3.0
 40
3.0
 40
3.0
 40
4.0
 40
4.0
 40
4.0
 40
5.0
 40
5.0
 40
5.0
 40
6.0
 40
6.0
 40
6.0
 40
7.0
 40
7.0
 40
7.0
 40
8.0
 40
8.0
 40
8.0
 40
9.0
 40
9.0
 40
9.0
 40
10.0
 40
10.0
 40
10.0
 40
11.0
 40
11.0
 40
11.0
 40
12.0
 40
12.0
 40
12.0
 40
13.0
 40
13.0
 40
13.0
 40
14.0
 40
14.0
 40
14.0
 40
15.0
 40
15.0
 40
15.0
 40
16.0
 40
16.0
 40
16.0
 40
16.0
 10
93.58877493320003
 20
-142.8691433019563
 30
0.0
 10
93.50505911290846
 20
-142.8691433019563
 30
0.0
 10
93.39688311467161
 20
-142.8522623340786
 30
0.0
 10
93.28801809733773
 20
-142.78887257715
 30
0.0
 10
93.10267196023128
 20
-142.6789740311706
 30
0.0
 10
93.08027883957716
 20
-142.5477158931825
 30
0.0
 10
93.05995277621419
 20
-142.4398844044942
 30
0.0
 10
93.05995277621419
 20
-142.4398844044942
 30
0.0
 10
93.29731985514789
 20
-142.4398844044942
 30
0.0
 10
93.29731985514789
 20
-142.4398844044942
 30
0.0
 10
93.35588647839714
 20
-142.6386664139931
 30
0.0
 10
93.49162324051599
 20
-142.6682942351663
 30
0.0
 10
93.59118650003971
 20
-142.6682942351663
 30
0.0
 10
93.74035913455103
 20
-142.6682942351663
 30
0.0
 10
93.90331215100335
 20
-142.5687309756426
 30
0.0
 10
93.90331215100335
 20
-142.3361870303882
 30
0.0
 10
93.90331215100335
 20
-142.0802164358341
 30
0.0
 10
93.7110758229264
 20
-142.0102809974835
 30
0.0
 10
93.58222925177806
 20
-142.0102809974835
 30
0.0
 10
93.54812280647408
 20
-142.0102809974835
 30
0.0
 10
93.39688311467161
 20
-142.0102809974835
 30
0.0
 10
93.30179847927872
 20
-142.1394720781804
 30
0.0
 10
93.30179847927872
 20
-142.1394720781804
 30
0.0
 10
93.11404077533261
 20
-142.1205240530115
 30
0.0
 10
93.11404077533261
 20
-142.1205240530115
 30
0.0
 10
93.11404077533261
 20
-142.1205240530115
 30
0.0
 10
93.24288734648096
 20
-141.2740640922857
 30
0.0
 10
93.24288734648096
 20
-141.2740640922857
 30
0.0
 10
93.24288734648096
 20
-141.2740640922857
 30
0.0
 10
94.07487790616878
 20
-141.2740640922857
 30
0.0
 10
94.07487790616878
 20
-141.2740640922857
 30
0.0
 10
94.07487790616878
 20
-141.2740640922857
 30
0.0
 10
94.07487790616878
 20
-141.4687119872023
 30
0.0
 10
94.07487790616878
 20
-141.4687119872023
 30
0.0
 10
94.07487790616878
 20
-141.4687119872023
 30
0.0
 10
93.4172091780346
 20
-141.4687119872023
 30
0.0
 10
93.4172091780346
 20
-141.4687119872023
 30
0.0
 10
93.4172091780346
 20
-141.4687119872023
 30
0.0
 10
93.3469292301355
 20
-141.891769712791
 30
0.0
 10
93.3469292301355
 20
-141.891769712791
 30
0.0
 10
93.41238604435524
 20
-141.8580077770355
 30
0.0
 10
93.50058048877764
 20
-141.8177001598581
 30
0.0
 10
93.62736000263483
 20
-141.8177001598581
 30
0.0
 10
93.898489017324
 20
-141.8177001598581
 30
0.0
 10
94.15170353548986
 20
-142.0040798256101
 30
0.0
 10
94.15170353548986
 20
-142.3172390052193
 30
0.0
 10
94.15170353548986
 20
-142.6345322994108
 30
0.0
 10
93.91226939926499
 20
-142.8691433019563
 30
0.0
 10
93.58877493320003
 20
-142.8691433019563
 30
0.0
  0
HATCH
  5
DC
330
CB
100
AcDbEntity
  8
_U+30EC_U+30A4_U+30E4_U+30FC 1
 62
   179
420
  2234388
100
AcDbHatch
 10
0.0
 20
0.0
 30
0.0
210
0.0
220
0.0
230
1.0
  2
SOLID
 70
     1
 71
     0
 91
        1
 92
        1
 93
        1
 72
     4
 94
        3
 73
     0
 74
     1
 95
       53
 96
       49
 40
0.0
 40
0.0
 40
0.0
 40
0.0
 40
1.0
 40
1.0
 40
1.0
 40
2.0
 40
2.0
 40
2.0
 40
3.0
 40
3.0
 40
3.0
 40
4.0
 40
4.0
 40
4.0
 40
5.0
 40
5.0
 40
5.0
 40
6.0
 40
6.0
 40
6.0
 40
7.0
 40
7.0
 40
7.0
 40
8.0
 40
8.0
 40
8.0
 40
9.0
 40
9.0
 40
9.0
 40
10.0
 40
10.0
 40
10.0
 40
11.0
 40
11.0
 40
11.0
 40
12.0
 40
12.0
 40
12.0
 40
13.0
 40
13.0
 40
13.0
 40
14.0
 40
14.0
 40
14.0
 40
15.0
 40
15.0
 40
15.0
 40
16.0
 40
16.0
 40
16.0
 40
16.0
 10
93.58877493320003
 20
-142.8691433019563
 10
93.50505911290846
 20
-142.8691433019563
 10
93.39688311467161
 20
-142.8522623340786
 10
93.28801809733773
 20
-142.78887257715
 10
93.10267196023128
 20
-142.6789740311706
 10
93.08027883957716
 20
-142.5477158931825
 10
93.05995277621419
 20
-142.4398844044942
 10
93.05995277621419
 20
-142.4398844044942
 10
93.29731985514789
 20
-142.4398844044942
 10
93.29731985514789
 20
-142.4398844044942
 10
93.35588647839714
 20
-142.6386664139931
 10
93.49162324051599
 20
-142.6682942351663
 10
93.59118650003971
 20
-142.6682942351663
 10
93.74035913455103
 20
-142.6682942351663
 10
93.90331215100335
 20
-142.5687309756426
 10
93.90331215100335
 20
-142.3361870303882
 10
93.90331215100335
 20
-142.0802164358341
 10
93.7110758229264
 20
-142.0102809974835
 10
93.58222925177806
 20
-142.0102809974835
 10
93.54812280647408
 20
-142.0102809974835
 10
93.39688311467161
 20
-142.0102809974835
 10
93.30179847927872
 20
-142.1394720781804
 10
93.30179847927872
 20
-142.1394720781804
 10
93.11404077533261
 20
-142.1205240530115
 10
93.11404077533261
 20
-142.1205240530115
 10
93.11404077533261
 20
-142.1205240530115
 10
93.24288734648096
 20
-141.2740640922857
 10
93.24288734648096
 20
-141.2740640922857
 10
93.24288734648096
 20
-141.2740640922857
 10
94.07487790616878
 20
-141.2740640922857
 10
94.07487790616878
 20
-141.2740640922857
 10
94.07487790616878
 20
-141.2740640922857
 10
94.07487790616878
 20
-141.4687119872023
 10
94.07487790616878
 20
-141.4687119872023
 10
94.07487790616878
 20
-141.4687119872023
 10
93.4172091780346
 20
-141.4687119872023
 10
93.4172091780346
 20
-141.4687119872023
 10
93.4172091780346
 20
-141.4687119872023
 10
93.3469292301355
 20
-141.891769712791
 10
93.3469292301355
 20
-141.891769712791
 10
93.41238604435524
 20
-141.8580077770355
 10
93.50058048877764
 20
-141.8177001598581
 10
93.62736000263483
 20
-141.8177001598581
 10
93.898489017324
 20
-141.8177001598581
 10
94.15170353548986
 20
-142.0040798256101
 10
94.15170353548986
 20
-142.3172390052193
 10
94.15170353548986
 20
-142.6345322994108
 10
93.91226939926499
 20
-142.8691433019563
 10
93.58877493320003
 20
-142.8691433019563
 97
        0
 97
        0
 75
     2
 76
     1
 98
        0
  0
ENDBLK
  5
CE
330
CB
100
AcDbEntity
  8
0
100
AcDbBlockEnd
  0
BLOCK
  5
F0
330
EE
100
AcDbEntity
  8
0
100
AcDbBlockBegin
  2
block 5
 70
     0
 10
0.0
 20
0.0
 30
0.0
  3
block 5
  1

  0
SPLINE
  5
F2
330
EE
100
AcDbEntity
  8
_U+30EC_U+30A4_U+30E4_U+30FC 1
370
     0
100
AcDbSpline
210
0.0
220
0.0
230
1.0
 70
    11
 71
     3
 72
    32
 73
    28
 74
     0
 42
0.0000000001
 43
0.0000000001
 12
1.0
 22
0.0
 32
0.0
 13
1.0
 23
0.0
 33
0.0
 40
0.0
 40
0.0
 40
0.0
 40
0.0
 40
1.0
 40
1.0
 40
1.0
 40
2.0
 40
2.0
 40
2.0
 40
3.0
 40
3.0
 40
3.0
 40
4.0
 40
4.0
 40
4.0
 40
5.0
 40
5.0
 40
5.0
 40
6.0
 40
6.0
 40
6.0
 40
7.0
 40
7.0
 40
7.0
 40
8.0
 40
8.0
 40
8.0
 40
9.0
 40
9.0
 40
9.0
 40
9.0
 10
82.5307074446451
 20
-114.3695909002271
 30
0.0
 10
81.97914765745661
 20
-114.3695909002271
 30
0.0
 10
81.9700181544207
 20
-113.8152750366503
 30
0.0
 10
81.9700181544207
 20
-113.6016791165649
 30
0.0
 10
81.9700181544207
 20
-113.3710299738274
 30
0.0
 10
81.99034421778367
 20
-112.7236965321489
 30
0.0
 10
82.57135957137105
 20
-112.7236965321489
 30
0.0
 10
82.7567057084775
 20
-112.7236965321489
 30
0.0
 10
83.01904972967927
 20
-112.7934597157252
 30
0.0
 10
83.05970185640521
 20
-113.1255669205033
 30
0.0
 10
83.05970185640521
 20
-113.1255669205033
 30
0.0
 10
82.83146428050742
 20
-113.1255669205033
 30
0.0
 10
82.83146428050742
 20
-113.1255669205033
 30
0.0
 10
82.8200954654061
 20
-113.0685505902225
 30
0.0
 10
82.78616127487638
 20
-112.9204114843567
 30
0.0
 10
82.56912025930563
 20
-112.9204114843567
 30
0.0
 10
82.25716686311627
 20
-112.9204114843567
 30
0.0
 10
82.21410316955064
 20
-113.2483845745525
 30
0.0
 10
82.20066729715818
 20
-113.4535400106991
 30
0.0
 10
82.30005830190763
 20
-113.3753363431839
 30
0.0
 10
82.37240530709788
 20
-113.3160807008376
 30
0.0
 10
82.56688094724022
 20
-113.3160807008376
 30
0.0
 10
82.75911727531717
 20
-113.3160807008376
 30
0.0
 10
83.0822672318336
 20
-113.423912189526
 30
0.0
 10
83.0822672318336
 20
-113.8300889472369
 30
0.0
 10
83.0822672318336
 20
-114.1494492987196
 30
0.0
 10
82.86987709516795
 20
-114.3695909002271
 30
0.0
 10
82.5307074446451
 20
-114.3695909002271
 30
0.0
  0
SPLINE
  5
F3
330
EE
100
AcDbEntity
  8
_U+30EC_U+30A4_U+30E4_U+30FC 1
370
     0
100
AcDbSpline
210
0.0
220
0.0
230
1.0
 70
    11
 71
     3
 72
    17
 73
    13
 74
     0
 42
0.0000000001
 43
0.0000000001
 12
1.0
 22
0.0
 32
0.0
 13
1.0
 23
0.0
 33
0.0
 40
0.0
 40
0.0
 40
0.0
 40
0.0
 40
1.0
 40
1.0
 40
1.0
 40
2.0
 40
2.0
 40
2.0
 40
3.0
 40
3.0
 40
3.0
 40
4.0
 40
4.0
 40
4.0
 40
4.0
 10
82.54879419594266
 20
-113.5107285957543
 30
0.0
 10
82.26853567821759
 20
-113.5107285957543
 30
0.0
 10
82.22771129671739
 20
-113.7222574585486
 30
0.0
 10
82.22771129671739
 20
-113.8385294311758
 30
0.0
 10
82.22771129671739
 20
-114.0140570461493
 30
0.0
 10
82.32951386830652
 20
-114.1770100626016
 30
0.0
 10
82.52622882051428
 20
-114.1770100626016
 30
0.0
 10
82.65507539166262
 20
-114.1770100626016
 30
0.0
 10
82.84266084083448
 20
-114.1177544202553
 30
0.0
 10
82.84266084083448
 20
-113.8321560045281
 30
0.0
 10
82.84266084083448
 20
-113.6078802884383
 30
0.0
 10
82.69348820632315
 20
-113.5107285957543
 30
0.0
 10
82.54879419594266
 20
-113.5107285957543
 30
0.0
  0
HATCH
  5
F4
330
EE
100
AcDbEntity
  8
_U+30EC_U+30A4_U+30E4_U+30FC 1
 62
   179
420
  2234388
100
AcDbHatch
 10
0.0
 20
0.0
 30
0.0
210
0.0
220
0.0
230
1.0
  2
SOLID
 70
     1
 71
     0
 91
        2
 92
        1
 93
        1
 72
     4
 94
        3
 73
     0
 74
     1
 95
       32
 96
       28
 40
0.0
 40
0.0
 40
0.0
 40
0.0
 40
1.0
 40
1.0
 40
1.0
 40
2.0
 40
2.0
 40
2.0
 40
3.0
 40
3.0
 40
3.0
 40
4.0
 40
4.0
 40
4.0
 40
5.0
 40
5.0
 40
5.0
 40
6.0
 40
6.0
 40
6.0
 40
7.0
 40
7.0
 40
7.0
 40
8.0
 40
8.0
 40
8.0
 40
9.0
 40
9.0
 40
9.0
 40
9.0
 10
82.5307074446451
 20
-114.3695909002271
 10
81.97914765745661
 20
-114.3695909002271
 10
81.9700181544207
 20
-113.8152750366503
 10
81.9700181544207
 20
-113.6016791165649
 10
81.9700181544207
 20
-113.3710299738274
 10
81.99034421778367
 20
-112.7236965321489
 10
82.57135957137105
 20
-112.7236965321489
 10
82.7567057084775
 20
-112.7236965321489
 10
83.01904972967927
 20
-112.7934597157252
 10
83.05970185640521
 20
-113.1255669205033
 10
83.05970185640521
 20
-113.1255669205033
 10
82.83146428050742
 20
-113.1255669205033
 10
82.83146428050742
 20
-113.1255669205033
 10
82.8200954654061
 20
-113.0685505902225
 10
82.78616127487638
 20
-112.9204114843567
 10
82.56912025930563
 20
-112.9204114843567
 10
82.25716686311627
 20
-112.9204114843567
 10
82.21410316955064
 20
-113.2483845745525
 10
82.20066729715818
 20
-113.4535400106991
 10
82.30005830190763
 20
-113.3753363431839
 10
82.37240530709788
 20
-113.3160807008376
 10
82.56688094724022
 20
-113.3160807008376
 10
82.75911727531717
 20
-113.3160807008376
 10
83.0822672318336
 20
-113.423912189526
 10
83.0822672318336
 20
-113.8300889472369
 10
83.0822672318336
 20
-114.1494492987196
 10
82.86987709516795
 20
-114.3695909002271
 10
82.5307074446451
 20
-114.3695909002271
 97
        0
 97
        0
 92
        1
 93
        1
 72
     4
 94
        3
 73
     0
 74
     1
 95
       17
 96
       13
 40
0.0
 40
0.0
 40
0.0
 40
0.0
 40
1.0
 40
1.0
 40
1.0
 40
2.0
 40
2.0
 40
2.0
 40
3.0
 40
3.0
 40
3.0
 40
4.0
 40
4.0
 40
4.0
 40
4.0
 10
82.54879419594266
 20
-113.5107285957543
 10
82.26853567821759
 20
-113.5107285957543
 10
82.22771129671739
 20
-113.7222574585486
 10
82.22771129671739
 20
-113.8385294311758
 10
82.22771129671739
 20
-114.0140570461493
 10
82.32951386830652
 20
-114.1770100626016
 10
82.52622882051428
 20
-114.1770100626016
 10
82.65507539166262
 20
-114.1770100626016
 10
82.84266084083448
 20
-114.1177544202553
 10
82.84266084083448
 20
-113.8321560045281
 10
82.84266084083448
 20
-113.6078802884383
 10
82.69348820632315
 20
-113.5107285957543
 10
82.54879419594266
 20
-113.5107285957543
 97
        0
 97
        0
 75
     2
 76
     1
 98
        0
  0
POLYLINE
  5
F5
330
EE
100
AcDbEntity
  8
_U+30EC_U+30A4_U+30E4_U+30FC 1
370
     0
100
AcDb2dPolyline
 66
     1
 10
0.0
 20
0.0
 30
0.0
  0
VERTEX
  5
F6
330
F5
100
AcDbEntity
  8
_U+30EC_U+30A4_U+30E4_U+30FC 1
370
     0
100
AcDbVertex
100
AcDb2dVertex
 10
83.3137776484424
 20
-114.3187757418196
 30
0.0
  0
VERTEX
  5
F7
330
F5
100
AcDbEntity
  8
_U+30EC_U+30A4_U+30E4_U+30FC 1
370
     0
100
AcDbVertex
100
AcDb2dVertex
 10
83.3137776484424
 20
-114.0671115166221
 30
0.0
  0
VERTEX
  5
F8
330
F5
100
AcDbEntity
  8
_U+30EC_U+30A4_U+30E4_U+30FC 1
370
     0
100
AcDbVertex
100
AcDb2dVertex
 10
83.5828396058404
 20
-114.0671115166221
 30
0.0
  0
VERTEX
  5
F9
330
F5
100
AcDbEntity
  8
_U+30EC_U+30A4_U+30E4_U+30FC 1
370
     0
100
AcDbVertex
100
AcDb2dVertex
 10
83.5828396058404
 20
-114.3187757418196
 30
0.0
  0
VERTEX
  5
FA
330
F5
100
AcDbEntity
  8
_U+30EC_U+30A4_U+30E4_U+30FC 1
370
     0
100
AcDbVertex
100
AcDb2dVertex
 10
83.3137776484424
 20
-114.3187757418196
 30
0.0
  0
SEQEND
  5
FB
330
F5
100
AcDbEntity
  8
_U+30EC_U+30A4_U+30E4_U+30FC 1
370
     0
  0
HATCH
  5
FC
330
EE
100
AcDbEntity
  8
_U+30EC_U+30A4_U+30E4_U+30FC 1
 62
   179
420
  2234388
100
AcDbHatch
 10
0.0
 20
0.0
 30
0.0
210
0.0
220
0.0
230
1.0
  2
SOLID
 70
     1
 71
     0
 91
        1
 92
        1
 93
        4
 72
     1
 10
83.3137776484424
 20
-114.3187757418196
 11
83.3137776484424
 21
-114.0671115166221
 72
     1
 10
83.3137776484424
 20
-114.0671115166221
 11
83.5828396058404
 21
-114.0671115166221
 72
     1
 10
83.5828396058404
 20
-114.0671115166221
 11
83.5828396058404
 21
-114.3187757418196
 72
     1
 10
83.5828396058404
 20
-114.3187757418196
 11
83.3137776484424
 21
-114.3187757418196
 97
        0
 75
     2
 76
     1
 98
        0
  0
SPLINE
  5
FD
330
EE
100
AcDbEntity
  8
_U+30EC_U+30A4_U+30E4_U+30FC 1
370
     0
100
AcDbSpline
210
0.0
220
0.0
230
1.0
 70
    11
 71
     3
 72
    53
 73
    49
 74
     0
 42
0.0000000001
 43
0.0000000001
 12
1.0
 22
0.0
 32
0.0
 13
1.0
 23
0.0
 33
0.0
 40
0.0
 40
0.0
 40
0.0
 40
0.0
 40
1.0
 40
1.0
 40
1.0
 40
2.0
 40
2.0
 40
2.0
 40
3.0
 40
3.0
 40
3.0
 40
4.0
 40
4.0
 40
4.0
 40
5.0
 40
5.0
 40
5.0
 40
6.0
 40
6.0
 40
6.0
 40
7.0
 40
7.0
 40
7.0
 40
8.0
 40
8.0
 40
8.0
 40
9.0
 40
9.0
 40
9.0
 40
10.0
 40
10.0
 40
10.0
 40
11.0
 40
11.0
 40
11.0
 40
12.0
 40
12.0
 40
12.0
 40
13.0
 40
13.0
 40
13.0
 40
14.0
 40
14.0
 40
14.0
 40
15.0
 40
15.0
 40
15.0
 40
16.0
 40
16.0
 40
16.0
 40
16.0
 10
84.34954560608276
 20
-114.3695909002271
 30
0.0
 10
84.26582978579118
 20
-114.3695909002271
 30
0.0
 10
84.15730927800581
 20
-114.3527099323493
 30
0.0
 10
84.04878877022044
 20
-114.2891479206465
 30
0.0
 10
83.863442633114
 20
-114.1790771198927
 30
0.0
 10
83.84087725768562
 20
-114.047991236679
 30
0.0
 10
83.82037893954838
 20
-113.9401597479907
 30
0.0
 10
83.82037893954838
 20
-113.9401597479907
 30
0.0
 10
84.05791827325636
 20
-113.9401597479907
 30
0.0
 10
84.05791827325636
 20
-113.9401597479907
 30
0.0
 10
84.11665715127987
 20
-114.1389417574896
 30
0.0
 10
84.25222165862445
 20
-114.1685695786627
 30
0.0
 10
84.35178491814817
 20
-114.1685695786627
 30
0.0
 10
84.50095755265949
 20
-114.1685695786627
 30
0.0
 10
84.66373831433754
 20
-114.0691785739133
 30
0.0
 10
84.66373831433754
 20
-113.8364623738846
 30
0.0
 10
84.66373831433754
 20
-113.5804917793306
 30
0.0
 10
84.4715019862606
 20
-113.5107285957543
 30
0.0
 10
84.34265541511226
 20
-113.5107285957543
 30
0.0
 10
84.30872122458254
 20
-113.5107285957543
 30
0.0
 10
84.15730927800581
 20
-113.5107285957543
 30
0.0
 10
84.06239689738719
 20
-113.6397474216769
 30
0.0
 10
84.06239689738719
 20
-113.6397474216769
 30
0.0
 10
83.87463919344107
 20
-113.6206271417337
 30
0.0
 10
83.87463919344107
 20
-113.6206271417337
 30
0.0
 10
83.87463919344107
 20
-113.6206271417337
 30
0.0
 10
84.00348576458941
 20
-112.7745116905564
 30
0.0
 10
84.00348576458941
 20
-112.7745116905564
 30
0.0
 10
84.00348576458941
 20
-112.7745116905564
 30
0.0
 10
84.83547632427725
 20
-112.7745116905564
 30
0.0
 10
84.83547632427725
 20
-112.7745116905564
 30
0.0
 10
84.83547632427725
 20
-112.7745116905564
 30
0.0
 10
84.83547632427725
 20
-112.969159585473
 30
0.0
 10
84.83547632427725
 20
-112.969159585473
 30
0.0
 10
84.83547632427725
 20
-112.969159585473
 30
0.0
 10
84.17763534136878
 20
-112.969159585473
 30
0.0
 10
84.17763534136878
 20
-112.969159585473
 30
0.0
 10
84.17763534136878
 20
-112.969159585473
 30
0.0
 10
84.10752764824396
 20
-113.3922173110617
 30
0.0
 10
84.10752764824396
 20
-113.3922173110617
 30
0.0
 10
84.17315671723796
 20
-113.358283120532
 30
0.0
 10
84.26135116166036
 20
-113.3181477581288
 30
0.0
 10
84.38795842074329
 20
-113.3181477581288
 30
0.0
 10
84.65925969020671
 20
-113.3181477581288
 30
0.0
 10
84.91247420837259
 20
-113.5043551691066
 30
0.0
 10
84.91247420837259
 20
-113.8173420939415
 30
0.0
 10
84.91247420837259
 20
-114.1348076429073
 30
0.0
 10
84.67286781737346
 20
-114.3695909002271
 30
0.0
 10
84.34954560608276
 20
-114.3695909002271
 30
0.0
  0
HATCH
  5
FE
330
EE
100
AcDbEntity
  8
_U+30EC_U+30A4_U+30E4_U+30FC 1
 62
   179
420
  2234388
100
AcDbHatch
 10
0.0
 20
0.0
 30
0.0
210
0.0
220
0.0
230
1.0
  2
SOLID
 70
     1
 71
     0
 91
        1
 92
        1
 93
        1
 72
     4
 94
        3
 73
     0
 74
     1
 95
       53
 96
       49
 40
0.0
 40
0.0
 40
0.0
 40
0.0
 40
1.0
 40
1.0
 40
1.0
 40
2.0
 40
2.0
 40
2.0
 40
3.0
 40
3.0
 40
3.0
 40
4.0
 40
4.0
 40
4.0
 40
5.0
 40
5.0
 40
5.0
 40
6.0
 40
6.0
 40
6.0
 40
7.0
 40
7.0
 40
7.0
 40
8.0
 40
8.0
 40
8.0
 40
9.0
 40
9.0
 40
9.0
 40
10.0
 40
10.0
 40
10.0
 40
11.0
 40
11.0
 40
11.0
 40
12.0
 40
12.0
 40
12.0
 40
13.0
 40
13.0
 40
13.0
 40
14.0
 40
14.0
 40
14.0
 40
15.0
 40
15.0
 40
15.0
 40
16.0
 40
16.0
 40
16.0
 40
16.0
 10
84.34954560608276
 20
-114.3695909002271
 10
84.26582978579118
 20
-114.3695909002271
 10
84.15730927800581
 20
-114.3527099323493
 10
84.04878877022044
 20
-114.2891479206465
 10
83.863442633114
 20
-114.1790771198927
 10
83.84087725768562
 20
-114.047991236679
 10
83.82037893954838
 20
-113.9401597479907
 10
83.82037893954838
 20
-113.9401597479907
 10
84.05791827325636
 20
-113.9401597479907
 10
84.05791827325636
 20
-113.9401597479907
 10
84.11665715127987
 20
-114.1389417574896
 10
84.25222165862445
 20
-114.1685695786627
 10
84.35178491814817
 20
-114.1685695786627
 10
84.50095755265949
 20
-114.1685695786627
 10
84.66373831433754
 20
-114.0691785739133
 10
84.66373831433754
 20
-113.8364623738846
 10
84.66373831433754
 20
-113.5804917793306
 10
84.4715019862606
 20
-113.5107285957543
 10
84.34265541511226
 20
-113.5107285957543
 10
84.30872122458254
 20
-113.5107285957543
 10
84.15730927800581
 20
-113.5107285957543
 10
84.06239689738719
 20
-113.6397474216769
 10
84.06239689738719
 20
-113.6397474216769
 10
83.87463919344107
 20
-113.6206271417337
 10
83.87463919344107
 20
-113.6206271417337
 10
83.87463919344107
 20
-113.6206271417337
 10
84.00348576458941
 20
-112.7745116905564
 10
84.00348576458941
 20
-112.7745116905564
 10
84.00348576458941
 20
-112.7745116905564
 10
84.83547632427725
 20
-112.7745116905564
 10
84.83547632427725
 20
-112.7745116905564
 10
84.83547632427725
 20
-112.7745116905564
 10
84.83547632427725
 20
-112.969159585473
 10
84.83547632427725
 20
-112.969159585473
 10
84.83547632427725
 20
-112.969159585473
 10
84.17763534136878
 20
-112.969159585473
 10
84.17763534136878
 20
-112.969159585473
 10
84.17763534136878
 20
-112.969159585473
 10
84.10752764824396
 20
-113.3922173110617
 10
84.10752764824396
 20
-113.3922173110617
 10
84.17315671723796
 20
-113.358283120532
 10
84.26135116166036
 20
-113.3181477581288
 10
84.38795842074329
 20
-113.3181477581288
 10
84.65925969020671
 20
-113.3181477581288
 10
84.91247420837259
 20
-113.5043551691066
 10
84.91247420837259
 20
-113.8173420939415
 10
84.91247420837259
 20
-114.1348076429073
 10
84.67286781737346
 20
-114.3695909002271
 10
84.34954560608276
 20
-114.3695909002271
 97
        0
 97
        0
 75
     2
 76
     1
 98
        0
  0
ENDBLK
  5
F1
330
EE
100
AcDbEntity
  8
0
100
AcDbBlockEnd
  0
BLOCK
  5
10D
330
10B
100
AcDbEntity
  8
0
100
AcDbBlockBegin
  2
block 6
 70
     0
 10
0.0
 20
0.0
 30
0.0
  3
block 6
  1

  0
SPLINE
  5
10F
330
10B
100
AcDbEntity
  8
_U+30EC_U+30A4_U+30E4_U+30FC 1
370
     0
100
AcDbSpline
210
0.0
220
0.0
230
1.0
 70
    11
 71
     3
 72
    44
 73
    40
 74
     0
 42
0.0000000001
 43
0.0000000001
 12
1.0
 22
0.0
 32
0.0
 13
1.0
 23
0.0
 33
0.0
 40
0.0
 40
0.0
 40
0.0
 40
0.0
 40
1.0
 40
1.0
 40
1.0
 40
2.0
 40
2.0
 40
2.0
 40
3.0
 40
3.0
 40
3.0
 40
4.0
 40
4.0
 40
4.0
 40
5.0
 40
5.0
 40
5.0
 40
6.0
 40
6.0
 40
6.0
 40
7.0
 40
7.0
 40
7.0
 40
8.0
 40
8.0
 40
8.0
 40
9.0
 40
9.0
 40
9.0
 40
10.0
 40
10.0
 40
10.0
 40
11.0
 40
11.0
 40
11.0
 40
12.0
 40
12.0
 40
12.0
 40
13.0
 40
13.0
 40
13.0
 40
13.0
 10
73.87232121634095
 20
-130.3582790472715
 30
0.0
 10
74.0309678634367
 20
-130.5911675020744
 30
0.0
 10
74.10503741636958
 20
-130.6907307615982
 30
0.0
 10
74.24887015287875
 20
-130.7424071938769
 30
0.0
 10
74.24887015287875
 20
-130.7424071938769
 30
0.0
 10
74.24887015287875
 20
-129.9107611437376
 30
0.0
 10
74.24887015287875
 20
-129.9107611437376
 30
0.0
 10
74.24887015287875
 20
-129.9107611437376
 30
0.0
 10
74.45402558902539
 20
-129.9107611437376
 30
0.0
 10
74.45402558902539
 20
-129.9107611437376
 30
0.0
 10
74.45402558902539
 20
-129.9107611437376
 30
0.0
 10
74.45402558902539
 20
-131.0094020939838
 30
0.0
 10
74.45402558902539
 20
-131.0094020939838
 30
0.0
 10
74.09642467765646
 20
-130.9752956486798
 30
0.0
 10
74.01822101014127
 20
-130.9053602103292
 30
0.0
 10
73.71987574111864
 20
-130.4940158093904
 30
0.0
 10
73.52109373161973
 20
-130.2204752278616
 30
0.0
 10
73.45339760533457
 20
-130.1501952799624
 30
0.0
 10
73.3159382954731
 20
-130.1501952799624
 30
0.0
 10
73.1974270107805
 20
-130.1501952799624
 30
0.0
 10
73.06616887279249
 20
-130.2270209092835
 30
0.0
 10
73.06616887279249
 20
-130.4375162434323
 30
0.0
 10
73.06616887279249
 20
-130.715535449092
 30
0.0
 10
73.29681801552996
 20
-130.7244926973536
 30
0.0
 10
73.41326224293141
 20
-130.7289713214844
 30
0.0
 10
73.41326224293141
 20
-130.7289713214844
 30
0.0
 10
73.41326224293141
 20
-130.9687499672578
 30
0.0
 10
73.41326224293141
 20
-130.9687499672578
 30
0.0
 10
73.28631047429995
 20
-130.9594482094477
 30
0.0
 10
73.17417261625508
 20
-130.9484239038948
 30
0.0
 10
73.05566133156248
 20
-130.8622965167636
 30
0.0
 10
72.89494762717557
 20
-130.7448187607166
 30
0.0
 10
72.86101343664586
 20
-130.5460367512177
 30
0.0
 10
72.86101343664586
 20
-130.4216688042002
 30
0.0
 10
72.86101343664586
 20
-130.1253905924686
 30
0.0
 10
73.04515379033246
 20
-129.9038709527671
 30
0.0
 10
73.31800535276425
 20
-129.9038709527671
 30
0.0
 10
73.54641518343631
 20
-129.9038709527671
 30
0.0
 10
73.64597844296004
 20
-130.0282388997846
 30
0.0
 10
73.87232121634095
 20
-130.3582790472715
 30
0.0
  0
HATCH
  5
110
330
10B
100
AcDbEntity
  8
_U+30EC_U+30A4_U+30E4_U+30FC 1
 62
   179
420
  2234388
100
AcDbHatch
 10
0.0
 20
0.0
 30
0.0
210
0.0
220
0.0
230
1.0
  2
SOLID
 70
     1
 71
     0
 91
        1
 92
        1
 93
        1
 72
     4
 94
        3
 73
     0
 74
     1
 95
       44
 96
       40
 40
0.0
 40
0.0
 40
0.0
 40
0.0
 40
1.0
 40
1.0
 40
1.0
 40
2.0
 40
2.0
 40
2.0
 40
3.0
 40
3.0
 40
3.0
 40
4.0
 40
4.0
 40
4.0
 40
5.0
 40
5.0
 40
5.0
 40
6.0
 40
6.0
 40
6.0
 40
7.0
 40
7.0
 40
7.0
 40
8.0
 40
8.0
 40
8.0
 40
9.0
 40
9.0
 40
9.0
 40
10.0
 40
10.0
 40
10.0
 40
11.0
 40
11.0
 40
11.0
 40
12.0
 40
12.0
 40
12.0
 40
13.0
 40
13.0
 40
13.0
 40
13.0
 10
73.87232121634095
 20
-130.3582790472715
 10
74.0309678634367
 20
-130.5911675020744
 10
74.10503741636958
 20
-130.6907307615982
 10
74.24887015287875
 20
-130.7424071938769
 10
74.24887015287875
 20
-130.7424071938769
 10
74.24887015287875
 20
-129.9107611437376
 10
74.24887015287875
 20
-129.9107611437376
 10
74.24887015287875
 20
-129.9107611437376
 10
74.45402558902539
 20
-129.9107611437376
 10
74.45402558902539
 20
-129.9107611437376
 10
74.45402558902539
 20
-129.9107611437376
 10
74.45402558902539
 20
-131.0094020939838
 10
74.45402558902539
 20
-131.0094020939838
 10
74.09642467765646
 20
-130.9752956486798
 10
74.01822101014127
 20
-130.9053602103292
 10
73.71987574111864
 20
-130.4940158093904
 10
73.52109373161973
 20
-130.2204752278616
 10
73.45339760533457
 20
-130.1501952799624
 10
73.3159382954731
 20
-130.1501952799624
 10
73.1974270107805
 20
-130.1501952799624
 10
73.06616887279249
 20
-130.2270209092835
 10
73.06616887279249
 20
-130.4375162434323
 10
73.06616887279249
 20
-130.715535449092
 10
73.29681801552996
 20
-130.7244926973536
 10
73.41326224293141
 20
-130.7289713214844
 10
73.41326224293141
 20
-130.7289713214844
 10
73.41326224293141
 20
-130.9687499672578
 10
73.41326224293141
 20
-130.9687499672578
 10
73.28631047429995
 20
-130.9594482094477
 10
73.17417261625508
 20
-130.9484239038948
 10
73.05566133156248
 20
-130.8622965167636
 10
72.89494762717557
 20
-130.7448187607166
 10
72.86101343664586
 20
-130.5460367512177
 10
72.86101343664586
 20
-130.4216688042002
 10
72.86101343664586
 20
-130.1253905924686
 10
73.04515379033246
 20
-129.9038709527671
 10
73.31800535276425
 20
-129.9038709527671
 10
73.54641518343631
 20
-129.9038709527671
 10
73.64597844296004
 20
-130.0282388997846
 10
73.87232121634095
 20
-130.3582790472715
 97
        0
 97
        0
 75
     2
 76
     1
 98
        0
  0
SPLINE
  5
111
330
10B
100
AcDbEntity
  8
_U+30EC_U+30A4_U+30E4_U+30FC 1
370
     0
100
AcDbSpline
210
0.0
220
0.0
230
1.0
 70
    11
 71
     3
 72
    29
 73
    25
 74
     0
 42
0.0000000001
 43
0.0000000001
 12
1.0
 22
0.0
 32
0.0
 13
1.0
 23
0.0
 33
0.0
 40
0.0
 40
0.0
 40
0.0
 40
0.0
 40
1.0
 40
1.0
 40
1.0
 40
2.0
 40
2.0
 40
2.0
 40
3.0
 40
3.0
 40
3.0
 40
4.0
 40
4.0
 40
4.0
 40
5.0
 40
5.0
 40
5.0
 40
6.0
 40
6.0
 40
6.0
 40
7.0
 40
7.0
 40
7.0
 40
8.0
 40
8.0
 40
8.0
 40
8.0
 10
74.27625866198649
 20
-128.7749131622507
 30
0.0
 10
74.48572046748968
 20
-128.8903238610066
 30
0.0
 10
74.50484074743282
 20
-129.075669998113
 30
0.0
 10
74.50484074743282
 20
-129.2000379451306
 30
0.0
 10
74.50484074743282
 20
-129.371603700296
 30
0.0
 10
74.45833195838195
 20
-129.523187901647
 30
0.0
 10
74.27625866198649
 20
-129.6248182184619
 30
0.0
 10
74.08178302184415
 20
-129.7357502930869
 30
0.0
 10
73.84476045245896
 20
-129.7560763564499
 30
0.0
 10
73.68180743600664
 20
-129.7560763564499
 30
0.0
 10
73.53797469949745
 20
-129.7560763564499
 30
0.0
 10
73.28631047429995
 20
-129.737817350378
 30
0.0
 10
73.08735621002677
 20
-129.6248182184619
 30
0.0
 10
72.8842678311713
 20
-129.5097520292545
 30
0.0
 10
72.86101343664586
 20
-129.3378417645405
 30
0.0
 10
72.86101343664586
 20
-129.2000379451306
 30
0.0
 10
72.86101343664586
 20
-129.0301947377077
 30
0.0
 10
72.90545516840558
 20
-128.8765434790656
 30
0.0
 10
73.08735621002677
 20
-128.7749131622507
 30
0.0
 10
73.27993704765224
 20
-128.6684597117565
 30
0.0
 10
73.5083468783243
 20
-128.6436550242627
 30
0.0
 10
73.68180743600664
 20
-128.6436550242627
 30
0.0
 10
73.85320093639781
 20
-128.6436550242627
 30
0.0
 10
74.08385007913529
 20
-128.6663926544653
 30
0.0
 10
74.27625866198649
 20
-128.7749131622507
 30
0.0
  0
SPLINE
  5
112
330
10B
100
AcDbEntity
  8
_U+30EC_U+30A4_U+30E4_U+30FC 1
370
     0
100
AcDbSpline
210
0.0
220
0.0
230
1.0
 70
    11
 71
     3
 72
    17
 73
    13
 74
     0
 42
0.0000000001
 43
0.0000000001
 12
1.0
 22
0.0
 32
0.0
 13
1.0
 23
0.0
 33
0.0
 40
0.0
 40
0.0
 40
0.0
 40
0.0
 40
1.0
 40
1.0
 40
1.0
 40
2.0
 40
2.0
 40
2.0
 40
3.0
 40
3.0
 40
3.0
 40
4.0
 40
4.0
 40
4.0
 40
4.0
 10
73.05359427427133
 20
-129.2000379451306
 30
0.0
 10
73.05359427427133
 20
-129.4666883356889
 30
0.0
 10
73.33695337793313
 20
-129.5162977106765
 30
0.0
 10
73.68180743600664
 20
-129.5162977106765
 30
0.0
 10
74.00134004226356
 20
-129.5162977106765
 30
0.0
 10
74.31019285251621
 20
-129.4780571507902
 30
0.0
 10
74.31019285251621
 20
-129.2000379451306
 30
0.0
 10
74.31019285251621
 20
-128.9354546118634
 30
0.0
 10
74.02872855137129
 20
-128.8834336700361
 30
0.0
 10
73.68180743600664
 20
-128.8834336700361
 30
0.0
 10
73.36244708452398
 20
-128.8834336700361
 30
0.0
 10
73.05359427427133
 20
-128.924085796762
 30
0.0
 10
73.05359427427133
 20
-129.2000379451306
 30
0.0
  0
HATCH
  5
113
330
10B
100
AcDbEntity
  8
_U+30EC_U+30A4_U+30E4_U+30FC 1
 62
   179
420
  2234388
100
AcDbHatch
 10
0.0
 20
0.0
 30
0.0
210
0.0
220
0.0
230
1.0
  2
SOLID
 70
     1
 71
     0
 91
        2
 92
        1
 93
        1
 72
     4
 94
        3
 73
     0
 74
     1
 95
       29
 96
       25
 40
0.0
 40
0.0
 40
0.0
 40
0.0
 40
1.0
 40
1.0
 40
1.0
 40
2.0
 40
2.0
 40
2.0
 40
3.0
 40
3.0
 40
3.0
 40
4.0
 40
4.0
 40
4.0
 40
5.0
 40
5.0
 40
5.0
 40
6.0
 40
6.0
 40
6.0
 40
7.0
 40
7.0
 40
7.0
 40
8.0
 40
8.0
 40
8.0
 40
8.0
 10
74.27625866198649
 20
-128.7749131622507
 10
74.48572046748968
 20
-128.8903238610066
 10
74.50484074743282
 20
-129.075669998113
 10
74.50484074743282
 20
-129.2000379451306
 10
74.50484074743282
 20
-129.371603700296
 10
74.45833195838195
 20
-129.523187901647
 10
74.27625866198649
 20
-129.6248182184619
 10
74.08178302184415
 20
-129.7357502930869
 10
73.84476045245896
 20
-129.7560763564499
 10
73.68180743600664
 20
-129.7560763564499
 10
73.53797469949745
 20
-129.7560763564499
 10
73.28631047429995
 20
-129.737817350378
 10
73.08735621002677
 20
-129.6248182184619
 10
72.8842678311713
 20
-129.5097520292545
 10
72.86101343664586
 20
-129.3378417645405
 10
72.86101343664586
 20
-129.2000379451306
 10
72.86101343664586
 20
-129.0301947377077
 10
72.90545516840558
 20
-128.8765434790656
 10
73.08735621002677
 20
-128.7749131622507
 10
73.27993704765224
 20
-128.6684597117565
 10
73.5083468783243
 20
-128.6436550242627
 10
73.68180743600664
 20
-128.6436550242627
 10
73.85320093639781
 20
-128.6436550242627
 10
74.08385007913529
 20
-128.6663926544653
 10
74.27625866198649
 20
-128.7749131622507
 97
        0
 97
        0
 92
        1
 93
        1
 72
     4
 94
        3
 73
     0
 74
     1
 95
       17
 96
       13
 40
0.0
 40
0.0
 40
0.0
 40
0.0
 40
1.0
 40
1.0
 40
1.0
 40
2.0
 40
2.0
 40
2.0
 40
3.0
 40
3.0
 40
3.0
 40
4.0
 40
4.0
 40
4.0
 40
4.0
 10
73.05359427427133
 20
-129.2000379451306
 10
73.05359427427133
 20
-129.4666883356889
 10
73.33695337793313
 20
-129.5162977106765
 10
73.68180743600664
 20
-129.5162977106765
 10
74.00134004226356
 20
-129.5162977106765
 10
74.31019285251621
 20
-129.4780571507902
 10
74.31019285251621
 20
-129.2000379451306
 10
74.31019285251621
 20
-128.9354546118634
 10
74.02872855137129
 20
-128.8834336700361
 10
73.68180743600664
 20
-128.8834336700361
 10
73.36244708452398
 20
-128.8834336700361
 10
73.05359427427133
 20
-128.924085796762
 10
73.05359427427133
 20
-129.2000379451306
 97
        0
 97
        0
 75
     2
 76
     1
 98
        0
  0
POLYLINE
  5
114
330
10B
100
AcDbEntity
  8
_U+30EC_U+30A4_U+30E4_U+30FC 1
370
     0
100
AcDb2dPolyline
 66
     1
 10
0.0
 20
0.0
 30
0.0
  0
VERTEX
  5
115
330
114
100
AcDbEntity
  8
_U+30EC_U+30A4_U+30E4_U+30FC 1
370
     0
100
AcDbVertex
100
AcDb2dVertex
 10
74.45402558902539
 20
-128.4124891172024
 30
0.0
  0
VERTEX
  5
116
330
114
100
AcDbEntity
  8
_U+30EC_U+30A4_U+30E4_U+30FC 1
370
     0
100
AcDbVertex
100
AcDb2dVertex
 10
74.20236136382789
 20
-128.4124891172024
 30
0.0
  0
VERTEX
  5
117
330
114
100
AcDbEntity
  8
_U+30EC_U+30A4_U+30E4_U+30FC 1
370
     0
100
AcDbVertex
100
AcDb2dVertex
 10
74.20236136382789
 20
-128.1434271598044
 30
0.0
  0
VERTEX
  5
118
330
114
100
AcDbEntity
  8
_U+30EC_U+30A4_U+30E4_U+30FC 1
370
     0
100
AcDbVertex
100
AcDb2dVertex
 10
74.45402558902539
 20
-128.1434271598044
 30
0.0
  0
VERTEX
  5
119
330
114
100
AcDbEntity
  8
_U+30EC_U+30A4_U+30E4_U+30FC 1
370
     0
100
AcDbVertex
100
AcDb2dVertex
 10
74.45402558902539
 20
-128.4124891172024
 30
0.0
  0
SEQEND
  5
11A
330
114
100
AcDbEntity
  8
_U+30EC_U+30A4_U+30E4_U+30FC 1
370
     0
  0
HATCH
  5
11B
330
10B
100
AcDbEntity
  8
_U+30EC_U+30A4_U+30E4_U+30FC 1
 62
   179
420
  2234388
100
AcDbHatch
 10
0.0
 20
0.0
 30
0.0
210
0.0
220
0.0
230
1.0
  2
SOLID
 70
     1
 71
     0
 91
        1
 92
        1
 93
        4
 72
     1
 10
74.45402558902539
 20
-128.4124891172024
 11
74.20236136382789
 21
-128.4124891172024
 72
     1
 10
74.20236136382789
 20
-128.4124891172024
 11
74.20236136382789
 21
-128.1434271598044
 72
     1
 10
74.20236136382789
 20
-128.1434271598044
 11
74.45402558902539
 21
-128.1434271598044
 72
     1
 10
74.45402558902539
 20
-128.1434271598044
 11
74.45402558902539
 21
-128.4124891172024
 97
        0
 75
     2
 76
     1
 98
        0
  0
SPLINE
  5
11C
330
10B
100
AcDbEntity
  8
_U+30EC_U+30A4_U+30E4_U+30FC 1
370
     0
100
AcDbSpline
210
0.0
220
0.0
230
1.0
 70
    11
 71
     3
 72
    53
 73
    49
 74
     0
 42
0.0000000001
 43
0.0000000001
 12
1.0
 22
0.0
 32
0.0
 13
1.0
 23
0.0
 33
0.0
 40
0.0
 40
0.0
 40
0.0
 40
0.0
 40
1.0
 40
1.0
 40
1.0
 40
2.0
 40
2.0
 40
2.0
 40
3.0
 40
3.0
 40
3.0
 40
4.0
 40
4.0
 40
4.0
 40
5.0
 40
5.0
 40
5.0
 40
6.0
 40
6.0
 40
6.0
 40
7.0
 40
7.0
 40
7.0
 40
8.0
 40
8.0
 40
8.0
 40
9.0
 40
9.0
 40
9.0
 40
10.0
 40
10.0
 40
10.0
 40
11.0
 40
11.0
 40
11.0
 40
12.0
 40
12.0
 40
12.0
 40
13.0
 40
13.0
 40
13.0
 40
14.0
 40
14.0
 40
14.0
 40
15.0
 40
15.0
 40
15.0
 40
16.0
 40
16.0
 40
16.0
 40
16.0
 10
74.50484074743282
 20
-127.3765489047878
 30
0.0
 10
74.50484074743282
 20
-127.4602647250794
 30
0.0
 10
74.4879597795551
 20
-127.5687852328648
 30
0.0
 10
74.42439776785224
 20
-127.6773057406501
 30
0.0
 10
74.31432696709851
 20
-127.8626518777566
 30
0.0
 10
74.18324108388475
 20
-127.8853895079592
 30
0.0
 10
74.07540959519643
 20
-127.9057155713222
 30
0.0
 10
74.07540959519643
 20
-127.9057155713222
 30
0.0
 10
74.07540959519643
 20
-127.6683484923885
 30
0.0
 10
74.07540959519643
 20
-127.6683484923885
 30
0.0
 10
74.27419160469535
 20
-127.6094373595907
 30
0.0
 10
74.3038194258685
 20
-127.4738728522461
 30
0.0
 10
74.3038194258685
 20
-127.3743095927224
 30
0.0
 10
74.3038194258685
 20
-127.2251369582111
 30
0.0
 10
74.20442842111903
 20
-127.062356196533
 30
0.0
 10
73.97171222109041
 20
-127.062356196533
 30
0.0
 10
73.71574162653634
 20
-127.062356196533
 30
0.0
 10
73.64597844296004
 20
-127.25459252461
 30
0.0
 10
73.64597844296004
 20
-127.3834390957583
 30
0.0
 10
73.64597844296004
 20
-127.417373286288
 30
0.0
 10
73.64597844296004
 20
-127.5687852328648
 30
0.0
 10
73.77499726888264
 20
-127.6636976134834
 30
0.0
 10
73.77499726888264
 20
-127.6636976134834
 30
0.0
 10
73.7558769889395
 20
-127.8514553174295
 30
0.0
 10
73.7558769889395
 20
-127.8514553174295
 30
0.0
 10
73.7558769889395
 20
-127.8514553174295
 30
0.0
 10
72.90976153776215
 20
-127.7224364915069
 30
0.0
 10
72.90976153776215
 20
-127.7224364915069
 30
0.0
 10
72.90976153776215
 20
-127.7224364915069
 30
0.0
 10
72.90976153776215
 20
-126.8904459318191
 30
0.0
 10
72.90976153776215
 20
-126.8904459318191
 30
0.0
 10
72.90976153776215
 20
-126.8904459318191
 30
0.0
 10
73.10440943267876
 20
-126.8904459318191
 30
0.0
 10
73.10440943267876
 20
-126.8904459318191
 30
0.0
 10
73.10440943267876
 20
-126.8904459318191
 30
0.0
 10
73.10440943267876
 20
-127.5484591695018
 30
0.0
 10
73.10440943267876
 20
-127.5484591695018
 30
0.0
 10
73.10440943267876
 20
-127.5484591695018
 30
0.0
 10
73.52746715826744
 20
-127.6185668626266
 30
0.0
 10
73.52746715826744
 20
-127.6185668626266
 30
0.0
 10
73.49353296773774
 20
-127.5529377936326
 30
0.0
 10
73.45339760533457
 20
-127.4647433492102
 30
0.0
 10
73.45339760533457
 20
-127.3381360901273
 30
0.0
 10
73.45339760533457
 20
-127.0668348206639
 30
0.0
 10
73.63960501631233
 20
-126.813620302498
 30
0.0
 10
73.95259194114728
 20
-126.813620302498
 30
0.0
 10
74.27005749011305
 20
-126.813620302498
 30
0.0
 10
74.50484074743282
 20
-127.0533989482714
 30
0.0
 10
74.50484074743282
 20
-127.3765489047878
 30
0.0
  0
HATCH
  5
11D
330
10B
100
AcDbEntity
  8
_U+30EC_U+30A4_U+30E4_U+30FC 1
 62
   179
420
  2234388
100
AcDbHatch
 10
0.0
 20
0.0
 30
0.0
210
0.0
220
0.0
230
1.0
  2
SOLID
 70
     1
 71
     0
 91
        1
 92
        1
 93
        1
 72
     4
 94
        3
 73
     0
 74
     1
 95
       53
 96
       49
 40
0.0
 40
0.0
 40
0.0
 40
0.0
 40
1.0
 40
1.0
 40
1.0
 40
2.0
 40
2.0
 40
2.0
 40
3.0
 40
3.0
 40
3.0
 40
4.0
 40
4.0
 40
4.0
 40
5.0
 40
5.0
 40
5.0
 40
6.0
 40
6.0
 40
6.0
 40
7.0
 40
7.0
 40
7.0
 40
8.0
 40
8.0
 40
8.0
 40
9.0
 40
9.0
 40
9.0
 40
10.0
 40
10.0
 40
10.0
 40
11.0
 40
11.0
 40
11.0
 40
12.0
 40
12.0
 40
12.0
 40
13.0
 40
13.0
 40
13.0
 40
14.0
 40
14.0
 40
14.0
 40
15.0
 40
15.0
 40
15.0
 40
16.0
 40
16.0
 40
16.0
 40
16.0
 10
74.50484074743282
 20
-127.3765489047878
 10
74.50484074743282
 20
-127.4602647250794
 10
74.4879597795551
 20
-127.5687852328648
 10
74.42439776785224
 20
-127.6773057406501
 10
74.31432696709851
 20
-127.8626518777566
 10
74.18324108388475
 20
-127.8853895079592
 10
74.07540959519643
 20
-127.9057155713222
 10
74.07540959519643
 20
-127.9057155713222
 10
74.07540959519643
 20
-127.6683484923885
 10
74.07540959519643
 20
-127.6683484923885
 10
74.27419160469535
 20
-127.6094373595907
 10
74.3038194258685
 20
-127.4738728522461
 10
74.3038194258685
 20
-127.3743095927224
 10
74.3038194258685
 20
-127.2251369582111
 10
74.20442842111903
 20
-127.062356196533
 10
73.97171222109041
 20
-127.062356196533
 10
73.71574162653634
 20
-127.062356196533
 10
73.64597844296004
 20
-127.25459252461
 10
73.64597844296004
 20
-127.3834390957583
 10
73.64597844296004
 20
-127.417373286288
 10
73.64597844296004
 20
-127.5687852328648
 10
73.77499726888264
 20
-127.6636976134834
 10
73.77499726888264
 20
-127.6636976134834
 10
73.7558769889395
 20
-127.8514553174295
 10
73.7558769889395
 20
-127.8514553174295
 10
73.7558769889395
 20
-127.8514553174295
 10
72.90976153776215
 20
-127.7224364915069
 10
72.90976153776215
 20
-127.7224364915069
 10
72.90976153776215
 20
-127.7224364915069
 10
72.90976153776215
 20
-126.8904459318191
 10
72.90976153776215
 20
-126.8904459318191
 10
72.90976153776215
 20
-126.8904459318191
 10
73.10440943267876
 20
-126.8904459318191
 10
73.10440943267876
 20
-126.8904459318191
 10
73.10440943267876
 20
-126.8904459318191
 10
73.10440943267876
 20
-127.5484591695018
 10
73.10440943267876
 20
-127.5484591695018
 10
73.10440943267876
 20
-127.5484591695018
 10
73.52746715826744
 20
-127.6185668626266
 10
73.52746715826744
 20
-127.6185668626266
 10
73.49353296773774
 20
-127.5529377936326
 10
73.45339760533457
 20
-127.4647433492102
 10
73.45339760533457
 20
-127.3381360901273
 10
73.45339760533457
 20
-127.0668348206639
 10
73.63960501631233
 20
-126.813620302498
 10
73.95259194114728
 20
-126.813620302498
 10
74.27005749011305
 20
-126.813620302498
 10
74.50484074743282
 20
-127.0533989482714
 10
74.50484074743282
 20
-127.3765489047878
 97
        0
 97
        0
 75
     2
 76
     1
 98
        0
  0
ENDBLK
  5
10E
330
10B
100
AcDbEntity
  8
0
100
AcDbBlockEnd
  0
BLOCK
  5
131
330
12F
100
AcDbEntity
  8
0
100
AcDbBlockBegin
  2
block 7
 70
     0
 10
0.0
 20
0.0
 30
0.0
  3
block 7
  1

  0
SPLINE
  5
133
330
12F
100
AcDbEntity
  8
_U+30EC_U+30A4_U+30E4_U+30FC 1
370
     0
100
AcDbSpline
210
0.0
220
0.0
230
1.0
 70
    11
 71
     3
 72
    32
 73
    28
 74
     0
 42
0.0000000001
 43
0.0000000001
 12
1.0
 22
0.0
 32
0.0
 13
1.0
 23
0.0
 33
0.0
 40
0.0
 40
0.0
 40
0.0
 40
0.0
 40
1.0
 40
1.0
 40
1.0
 40
2.0
 40
2.0
 40
2.0
 40
3.0
 40
3.0
 40
3.0
 40
4.0
 40
4.0
 40
4.0
 40
5.0
 40
5.0
 40
5.0
 40
6.0
 40
6.0
 40
6.0
 40
7.0
 40
7.0
 40
7.0
 40
8.0
 40
8.0
 40
8.0
 40
9.0
 40
9.0
 40
9.0
 40
9.0
 10
108.004776991228
 20
-135.9348551092455
 30
0.0
 10
108.004776991228
 20
-136.4867594059825
 30
0.0
 10
107.4508056371998
 20
-136.4957166542441
 30
0.0
 10
107.2368652075658
 20
-136.4957166542441
 30
0.0
 10
107.0063883196026
 20
-136.4957166542441
 30
0.0
 10
106.3590548779241
 20
-136.4753905908811
 30
0.0
 10
106.3590548779241
 20
-135.8942029825195
 30
0.0
 10
106.3590548779241
 20
-135.7088568454131
 30
0.0
 10
106.4289903162747
 20
-135.4466850789856
 30
0.0
 10
106.7610975210528
 20
-135.4060329522596
 30
0.0
 10
106.7610975210528
 20
-135.4060329522596
 30
0.0
 10
106.7610975210528
 20
-135.6344427829317
 30
0.0
 10
106.7610975210528
 20
-135.6344427829317
 30
0.0
 10
106.7039089359976
 20
-135.6454670884845
 30
0.0
 10
106.5557698301319
 20
-135.6795735337884
 30
0.0
 10
106.5557698301319
 20
-135.8966145493592
 30
0.0
 10
106.5557698301319
 20
-136.2087402003228
 30
0.0
 10
106.8837429203277
 20
-136.2514593843399
 30
0.0
 10
107.0887261017
 20
-136.2652397662809
 30
0.0
 10
107.0105224341849
 20
-136.1656765067572
 30
0.0
 10
106.9512667918386
 20
-136.093329501567
 30
0.0
 10
106.9512667918386
 20
-135.8990261161989
 30
0.0
 10
106.9512667918386
 20
-135.7067897881219
 30
0.0
 10
107.0594427900754
 20
-135.383295322057
 30
0.0
 10
107.4656195477864
 20
-135.383295322057
 30
0.0
 10
107.784979899269
 20
-135.383295322057
 30
0.0
 10
108.004776991228
 20
-135.5958577134969
 30
0.0
 10
108.004776991228
 20
-135.9348551092455
 30
0.0
  0
SPLINE
  5
134
330
12F
100
AcDbEntity
  8
_U+30EC_U+30A4_U+30E4_U+30FC 1
370
     0
100
AcDbSpline
210
0.0
220
0.0
230
1.0
 70
    11
 71
     3
 72
    17
 73
    13
 74
     0
 42
0.0000000001
 43
0.0000000001
 12
1.0
 22
0.0
 32
0.0
 13
1.0
 23
0.0
 33
0.0
 40
0.0
 40
0.0
 40
0.0
 40
0.0
 40
1.0
 40
1.0
 40
1.0
 40
2.0
 40
2.0
 40
2.0
 40
3.0
 40
3.0
 40
3.0
 40
4.0
 40
4.0
 40
4.0
 40
4.0
 10
107.1459146867552
 20
-135.9169406127222
 30
0.0
 10
107.1459146867552
 20
-136.1973713852215
 30
0.0
 10
107.3574435495495
 20
-136.2380235119474
 30
0.0
 10
107.473887776951
 20
-136.2380235119474
 30
0.0
 10
107.6495876466987
 20
-136.2380235119474
 30
0.0
 10
107.812540663151
 20
-136.1363931951326
 30
0.0
 10
107.812540663151
 20
-135.9396782429248
 30
0.0
 10
107.812540663151
 20
-135.8108316717765
 30
0.0
 10
107.7532850208047
 20
-135.6230739678304
 30
0.0
 10
107.4676866050775
 20
-135.6230739678304
 30
0.0
 10
107.2434108889878
 20
-135.6230739678304
 30
0.0
 10
107.1459146867552
 20
-135.7722466023417
 30
0.0
 10
107.1459146867552
 20
-135.9169406127222
 30
0.0
  0
HATCH
  5
135
330
12F
100
AcDbEntity
  8
_U+30EC_U+30A4_U+30E4_U+30FC 1
 62
   179
420
  2234388
100
AcDbHatch
 10
0.0
 20
0.0
 30
0.0
210
0.0
220
0.0
230
1.0
  2
SOLID
 70
     1
 71
     0
 91
        2
 92
        1
 93
        1
 72
     4
 94
        3
 73
     0
 74
     1
 95
       32
 96
       28
 40
0.0
 40
0.0
 40
0.0
 40
0.0
 40
1.0
 40
1.0
 40
1.0
 40
2.0
 40
2.0
 40
2.0
 40
3.0
 40
3.0
 40
3.0
 40
4.0
 40
4.0
 40
4.0
 40
5.0
 40
5.0
 40
5.0
 40
6.0
 40
6.0
 40
6.0
 40
7.0
 40
7.0
 40
7.0
 40
8.0
 40
8.0
 40
8.0
 40
9.0
 40
9.0
 40
9.0
 40
9.0
 10
108.004776991228
 20
-135.9348551092455
 10
108.004776991228
 20
-136.4867594059825
 10
107.4508056371998
 20
-136.4957166542441
 10
107.2368652075658
 20
-136.4957166542441
 10
107.0063883196026
 20
-136.4957166542441
 10
106.3590548779241
 20
-136.4753905908811
 10
106.3590548779241
 20
-135.8942029825195
 10
106.3590548779241
 20
-135.7088568454131
 10
106.4289903162747
 20
-135.4466850789856
 10
106.7610975210528
 20
-135.4060329522596
 10
106.7610975210528
 20
-135.4060329522596
 10
106.7610975210528
 20
-135.6344427829317
 10
106.7610975210528
 20
-135.6344427829317
 10
106.7039089359976
 20
-135.6454670884845
 10
106.5557698301319
 20
-135.6795735337884
 10
106.5557698301319
 20
-135.8966145493592
 10
106.5557698301319
 20
-136.2087402003228
 10
106.8837429203277
 20
-136.2514593843399
 10
107.0887261017
 20
-136.2652397662809
 10
107.0105224341849
 20
-136.1656765067572
 10
106.9512667918386
 20
-136.093329501567
 10
106.9512667918386
 20
-135.8990261161989
 10
106.9512667918386
 20
-135.7067897881219
 10
107.0594427900754
 20
-135.383295322057
 10
107.4656195477864
 20
-135.383295322057
 10
107.784979899269
 20
-135.383295322057
 10
108.004776991228
 20
-135.5958577134969
 10
108.004776991228
 20
-135.9348551092455
 97
        0
 97
        0
 92
        1
 93
        1
 72
     4
 94
        3
 73
     0
 74
     1
 95
       17
 96
       13
 40
0.0
 40
0.0
 40
0.0
 40
0.0
 40
1.0
 40
1.0
 40
1.0
 40
2.0
 40
2.0
 40
2.0
 40
3.0
 40
3.0
 40
3.0
 40
4.0
 40
4.0
 40
4.0
 40
4.0
 10
107.1459146867552
 20
-135.9169406127222
 10
107.1459146867552
 20
-136.1973713852215
 10
107.3574435495495
 20
-136.2380235119474
 10
107.473887776951
 20
-136.2380235119474
 10
107.6495876466987
 20
-136.2380235119474
 10
107.812540663151
 20
-136.1363931951326
 10
107.812540663151
 20
-135.9396782429248
 10
107.812540663151
 20
-135.8108316717765
 10
107.7532850208047
 20
-135.6230739678304
 10
107.4676866050775
 20
-135.6230739678304
 10
107.2434108889878
 20
-135.6230739678304
 10
107.1459146867552
 20
-135.7722466023417
 10
107.1459146867552
 20
-135.9169406127222
 97
        0
 97
        0
 75
     2
 76
     1
 98
        0
  0
POLYLINE
  5
136
330
12F
100
AcDbEntity
  8
_U+30EC_U+30A4_U+30E4_U+30FC 1
370
     0
100
AcDb2dPolyline
 66
     1
 10
0.0
 20
0.0
 30
0.0
  0
VERTEX
  5
137
330
136
100
AcDbEntity
  8
_U+30EC_U+30A4_U+30E4_U+30FC 1
370
     0
100
AcDbVertex
100
AcDb2dVertex
 10
107.9541340875948
 20
-135.1521294149967
 30
0.0
  0
VERTEX
  5
138
330
136
100
AcDbEntity
  8
_U+30EC_U+30A4_U+30E4_U+30FC 1
370
     0
100
AcDbVertex
100
AcDb2dVertex
 10
107.702297607623
 20
-135.1521294149967
 30
0.0
  0
VERTEX
  5
139
330
136
100
AcDbEntity
  8
_U+30EC_U+30A4_U+30E4_U+30FC 1
370
     0
100
AcDbVertex
100
AcDb2dVertex
 10
107.702297607623
 20
-134.8830674575987
 30
0.0
  0
VERTEX
  5
13A
330
136
100
AcDbEntity
  8
_U+30EC_U+30A4_U+30E4_U+30FC 1
370
     0
100
AcDbVertex
100
AcDb2dVertex
 10
107.9541340875948
 20
-134.8830674575987
 30
0.0
  0
VERTEX
  5
13B
330
136
100
AcDbEntity
  8
_U+30EC_U+30A4_U+30E4_U+30FC 1
370
     0
100
AcDbVertex
100
AcDb2dVertex
 10
107.9541340875948
 20
-135.1521294149967
 30
0.0
  0
SEQEND
  5
13C
330
136
100
AcDbEntity
  8
_U+30EC_U+30A4_U+30E4_U+30FC 1
370
     0
  0
HATCH
  5
13D
330
12F
100
AcDbEntity
  8
_U+30EC_U+30A4_U+30E4_U+30FC 1
 62
   179
420
  2234388
100
AcDbHatch
 10
0.0
 20
0.0
 30
0.0
210
0.0
220
0.0
230
1.0
  2
SOLID
 70
     1
 71
     0
 91
        1
 92
        1
 93
        4
 72
     1
 10
107.9541340875948
 20
-135.1521294149967
 11
107.702297607623
 21
-135.1521294149967
 72
     1
 10
107.702297607623
 20
-135.1521294149967
 11
107.702297607623
 21
-134.8830674575987
 72
     1
 10
107.702297607623
 20
-134.8830674575987
 11
107.9541340875948
 21
-134.8830674575987
 72
     1
 10
107.9541340875948
 20
-134.8830674575987
 11
107.9541340875948
 21
-135.1521294149967
 97
        0
 75
     2
 76
     1
 98
        0
  0
SPLINE
  5
13E
330
12F
100
AcDbEntity
  8
_U+30EC_U+30A4_U+30E4_U+30FC 1
370
     0
100
AcDbSpline
210
0.0
220
0.0
230
1.0
 70
    11
 71
     3
 72
    53
 73
    49
 74
     0
 42
0.0000000001
 43
0.0000000001
 12
1.0
 22
0.0
 32
0.0
 13
1.0
 23
0.0
 33
0.0
 40
0.0
 40
0.0
 40
0.0
 40
0.0
 40
1.0
 40
1.0
 40
1.0
 40
2.0
 40
2.0
 40
2.0
 40
3.0
 40
3.0
 40
3.0
 40
4.0
 40
4.0
 40
4.0
 40
5.0
 40
5.0
 40
5.0
 40
6.0
 40
6.0
 40
6.0
 40
7.0
 40
7.0
 40
7.0
 40
8.0
 40
8.0
 40
8.0
 40
9.0
 40
9.0
 40
9.0
 40
10.0
 40
10.0
 40
10.0
 40
11.0
 40
11.0
 40
11.0
 40
12.0
 40
12.0
 40
12.0
 40
13.0
 40
13.0
 40
13.0
 40
14.0
 40
14.0
 40
14.0
 40
15.0
 40
15.0
 40
15.0
 40
16.0
 40
16.0
 40
16.0
 40
16.0
 10
108.004776991228
 20
-134.1161892025821
 30
0.0
 10
108.004776991228
 20
-134.1999050228737
 30
0.0
 10
107.9878960233503
 20
-134.3080810211105
 30
0.0
 10
107.9245062664217
 20
-134.4169460384444
 30
0.0
 10
107.8146077204422
 20
-134.6022921755508
 30
0.0
 10
107.6833495824542
 20
-134.6246852962049
 30
0.0
 10
107.5755180937659
 20
-134.6450113595679
 30
0.0
 10
107.5755180937659
 20
-134.6450113595679
 30
0.0
 10
107.5755180937659
 20
-134.4076442806342
 30
0.0
 10
107.5755180937659
 20
-134.4076442806342
 30
0.0
 10
107.7743001032648
 20
-134.349077657385
 30
0.0
 10
107.8039279244379
 20
-134.2133408952661
 30
0.0
 10
107.8039279244379
 20
-134.1137776357424
 30
0.0
 10
107.8039279244379
 20
-133.9646050012311
 30
0.0
 10
107.7043646649142
 20
-133.8016519847788
 30
0.0
 10
107.4718207196598
 20
-133.8016519847788
 30
0.0
 10
107.2158501251058
 20
-133.8016519847788
 30
0.0
 10
107.1459146867552
 20
-133.9938883128557
 30
0.0
 10
107.1459146867552
 20
-134.122734884004
 30
0.0
 10
107.1459146867552
 20
-134.156841329308
 30
0.0
 10
107.1459146867552
 20
-134.3080810211105
 30
0.0
 10
107.2751057674521
 20
-134.4031656565034
 30
0.0
 10
107.2751057674521
 20
-134.4031656565034
 30
0.0
 10
107.2561577422832
 20
-134.5909233604495
 30
0.0
 10
107.2561577422832
 20
-134.5909233604495
 30
0.0
 10
107.2561577422832
 20
-134.5909233604495
 30
0.0
 10
106.4096977815573
 20
-134.4620767893012
 30
0.0
 10
106.4096977815573
 20
-134.4620767893012
 30
0.0
 10
106.4096977815573
 20
-134.4620767893012
 30
0.0
 10
106.4096977815573
 20
-133.6300862296133
 30
0.0
 10
106.4096977815573
 20
-133.6300862296133
 30
0.0
 10
106.4096977815573
 20
-133.6300862296133
 30
0.0
 10
106.6043456764739
 20
-133.6300862296133
 30
0.0
 10
106.6043456764739
 20
-133.6300862296133
 30
0.0
 10
106.6043456764739
 20
-133.6300862296133
 30
0.0
 10
106.6043456764739
 20
-134.2877549577475
 30
0.0
 10
106.6043456764739
 20
-134.2877549577475
 30
0.0
 10
106.6043456764739
 20
-134.2877549577475
 30
0.0
 10
107.0274034020626
 20
-134.3580349056466
 30
0.0
 10
107.0274034020626
 20
-134.3580349056466
 30
0.0
 10
106.9936414663072
 20
-134.2925780914269
 30
0.0
 10
106.9533338491297
 20
-134.2043836470045
 30
0.0
 10
106.9533338491297
 20
-134.0776041331473
 30
0.0
 10
106.9533338491297
 20
-133.8064751184581
 30
0.0
 10
107.1397135148817
 20
-133.5532606002922
 30
0.0
 10
107.4528726944909
 20
-133.5532606002922
 30
0.0
 10
107.7701659886825
 20
-133.5532606002922
 30
0.0
 10
108.004776991228
 20
-133.7926947365171
 30
0.0
 10
108.004776991228
 20
-134.1161892025821
 30
0.0
  0
HATCH
  5
13F
330
12F
100
AcDbEntity
  8
_U+30EC_U+30A4_U+30E4_U+30FC 1
 62
   179
420
  2234388
100
AcDbHatch
 10
0.0
 20
0.0
 30
0.0
210
0.0
220
0.0
230
1.0
  2
SOLID
 70
     1
 71
     0
 91
        1
 92
        1
 93
        1
 72
     4
 94
        3
 73
     0
 74
     1
 95
       53
 96
       49
 40
0.0
 40
0.0
 40
0.0
 40
0.0
 40
1.0
 40
1.0
 40
1.0
 40
2.0
 40
2.0
 40
2.0
 40
3.0
 40
3.0
 40
3.0
 40
4.0
 40
4.0
 40
4.0
 40
5.0
 40
5.0
 40
5.0
 40
6.0
 40
6.0
 40
6.0
 40
7.0
 40
7.0
 40
7.0
 40
8.0
 40
8.0
 40
8.0
 40
9.0
 40
9.0
 40
9.0
 40
10.0
 40
10.0
 40
10.0
 40
11.0
 40
11.0
 40
11.0
 40
12.0
 40
12.0
 40
12.0
 40
13.0
 40
13.0
 40
13.0
 40
14.0
 40
14.0
 40
14.0
 40
15.0
 40
15.0
 40
15.0
 40
16.0
 40
16.0
 40
16.0
 40
16.0
 10
108.004776991228
 20
-134.1161892025821
 10
108.004776991228
 20
-134.1999050228737
 10
107.9878960233503
 20
-134.3080810211105
 10
107.9245062664217
 20
-134.4169460384444
 10
107.8146077204422
 20
-134.6022921755508
 10
107.6833495824542
 20
-134.6246852962049
 10
107.5755180937659
 20
-134.6450113595679
 10
107.5755180937659
 20
-134.6450113595679
 10
107.5755180937659
 20
-134.4076442806342
 10
107.5755180937659
 20
-134.4076442806342
 10
107.7743001032648
 20
-134.349077657385
 10
107.8039279244379
 20
-134.2133408952661
 10
107.8039279244379
 20
-134.1137776357424
 10
107.8039279244379
 20
-133.9646050012311
 10
107.7043646649142
 20
-133.8016519847788
 10
107.4718207196598
 20
-133.8016519847788
 10
107.2158501251058
 20
-133.8016519847788
 10
107.1459146867552
 20
-133.9938883128557
 10
107.1459146867552
 20
-134.122734884004
 10
107.1459146867552
 20
-134.156841329308
 10
107.1459146867552
 20
-134.3080810211105
 10
107.2751057674521
 20
-134.4031656565034
 10
107.2751057674521
 20
-134.4031656565034
 10
107.2561577422832
 20
-134.5909233604495
 10
107.2561577422832
 20
-134.5909233604495
 10
107.2561577422832
 20
-134.5909233604495
 10
106.4096977815573
 20
-134.4620767893012
 10
106.4096977815573
 20
-134.4620767893012
 10
106.4096977815573
 20
-134.4620767893012
 10
106.4096977815573
 20
-133.6300862296133
 10
106.4096977815573
 20
-133.6300862296133
 10
106.4096977815573
 20
-133.6300862296133
 10
106.6043456764739
 20
-133.6300862296133
 10
106.6043456764739
 20
-133.6300862296133
 10
106.6043456764739
 20
-133.6300862296133
 10
106.6043456764739
 20
-134.2877549577475
 10
106.6043456764739
 20
-134.2877549577475
 10
106.6043456764739
 20
-134.2877549577475
 10
107.0274034020626
 20
-134.3580349056466
 10
107.0274034020626
 20
-134.3580349056466
 10
106.9936414663072
 20
-134.2925780914269
 10
106.9533338491297
 20
-134.2043836470045
 10
106.9533338491297
 20
-134.0776041331473
 10
106.9533338491297
 20
-133.8064751184581
 10
107.1397135148817
 20
-133.5532606002922
 10
107.4528726944909
 20
-133.5532606002922
 10
107.7701659886825
 20
-133.5532606002922
 10
108.004776991228
 20
-133.7926947365171
 10
108.004776991228
 20
-134.1161892025821
 97
        0
 97
        0
 75
     2
 76
     1
 98
        0
  0
ENDBLK
  5
132
330
12F
100
AcDbEntity
  8
0
100
AcDbBlockEnd
  0
BLOCK
  5
152
330
150
100
AcDbEntity
  8
0
100
AcDbBlockBegin
  2
block 8
 70
     0
 10
0.0
 20
0.0
 30
0.0
  3
block 8
  1

  0
SPLINE
  5
154
330
150
100
AcDbEntity
  8
_U+30EC_U+30A4_U+30E4_U+30FC 1
370
     0
100
AcDbSpline
210
0.0
220
0.0
230
1.0
 70
    11
 71
     3
 72
    26
 73
    22
 74
     0
 42
0.0000000001
 43
0.0000000001
 12
1.0
 22
0.0
 32
0.0
 13
1.0
 23
0.0
 33
0.0
 40
0.0
 40
0.0
 40
0.0
 40
0.0
 40
1.0
 40
1.0
 40
1.0
 40
2.0
 40
2.0
 40
2.0
 40
3.0
 40
3.0
 40
3.0
 40
4.0
 40
4.0
 40
4.0
 40
5.0
 40
5.0
 40
5.0
 40
6.0
 40
6.0
 40
6.0
 40
7.0
 40
7.0
 40
7.0
 40
7.0
 10
77.98697100914909
 20
-114.3346231810518
 30
0.0
 10
77.98697100914909
 20
-114.3346231810518
 30
0.0
 10
77.98697100914909
 20
-113.2302978232549
 30
0.0
 10
77.98697100914909
 20
-113.2302978232549
 30
0.0
 10
77.98697100914909
 20
-113.2302978232549
 30
0.0
 10
77.6341932314595
 20
-113.2302978232549
 30
0.0
 10
77.6341932314595
 20
-113.2302978232549
 30
0.0
 10
77.6341932314595
 20
-113.2302978232549
 30
0.0
 10
77.6341932314595
 20
-113.0821587173892
 30
0.0
 10
77.6341932314595
 20
-113.0821587173892
 30
0.0
 10
77.9892103212145
 20
-113.0675170615769
 30
0.0
 10
78.03899195097637
 20
-112.9045640451246
 30
0.0
 10
78.0705145746664
 20
-112.7903591297885
 30
0.0
 10
78.0705145746664
 20
-112.7903591297885
 30
0.0
 10
78.22657740014822
 20
-112.7903591297885
 30
0.0
 10
78.22657740014822
 20
-112.7903591297885
 30
0.0
 10
78.22657740014822
 20
-112.7903591297885
 30
0.0
 10
78.22657740014822
 20
-114.3346231810518
 30
0.0
 10
78.22657740014822
 20
-114.3346231810518
 30
0.0
 10
78.22657740014822
 20
-114.3346231810518
 30
0.0
 10
77.98697100914909
 20
-114.3346231810518
 30
0.0
 10
77.98697100914909
 20
-114.3346231810518
 30
0.0
  0
HATCH
  5
155
330
150
100
AcDbEntity
  8
_U+30EC_U+30A4_U+30E4_U+30FC 1
 62
     7
420
 16777215
100
AcDbHatch
 10
0.0
 20
0.0
 30
0.0
210
0.0
220
0.0
230
1.0
  2
SOLID
 70
     1
 71
     0
 91
        1
 92
        1
 93
        1
 72
     4
 94
        3
 73
     0
 74
     1
 95
       26
 96
       22
 40
0.0
 40
0.0
 40
0.0
 40
0.0
 40
1.0
 40
1.0
 40
1.0
 40
2.0
 40
2.0
 40
2.0
 40
3.0
 40
3.0
 40
3.0
 40
4.0
 40
4.0
 40
4.0
 40
5.0
 40
5.0
 40
5.0
 40
6.0
 40
6.0
 40
6.0
 40
7.0
 40
7.0
 40
7.0
 40
7.0
 10
77.98697100914909
 20
-114.3346231810518
 10
77.98697100914909
 20
-114.3346231810518
 10
77.98697100914909
 20
-113.2302978232549
 10
77.98697100914909
 20
-113.2302978232549
 10
77.98697100914909
 20
-113.2302978232549
 10
77.6341932314595
 20
-113.2302978232549
 10
77.6341932314595
 20
-113.2302978232549
 10
77.6341932314595
 20
-113.2302978232549
 10
77.6341932314595
 20
-113.0821587173892
 10
77.6341932314595
 20
-113.0821587173892
 10
77.9892103212145
 20
-113.0675170615769
 10
78.03899195097637
 20
-112.9045640451246
 10
78.0705145746664
 20
-112.7903591297885
 10
78.0705145746664
 20
-112.7903591297885
 10
78.22657740014822
 20
-112.7903591297885
 10
78.22657740014822
 20
-112.7903591297885
 10
78.22657740014822
 20
-112.7903591297885
 10
78.22657740014822
 20
-114.3346231810518
 10
78.22657740014822
 20
-114.3346231810518
 10
78.22657740014822
 20
-114.3346231810518
 10
77.98697100914909
 20
-114.3346231810518
 10
77.98697100914909
 20
-114.3346231810518
 97
        0
 97
        0
 75
     2
 76
     1
 98
        0
  0
ENDBLK
  5
153
330
150
100
AcDbEntity
  8
0
100
AcDbBlockEnd
  0
ENDSEC
  0
SECTION
  2
ENTITIES
  0
SPLINE
  5
41
330
1F
100
AcDbEntity
  8
_U+30EC_U+30A4_U+30E4_U+30FC 1
370
     0
100
AcDbSpline
210
0.0
220
0.0
230
1.0
 70
    11
 71
     3
 72
    74
 73
    70
 74
     0
 42
0.0000000001
 43
0.0000000001
 12
1.0
 22
0.0
 32
0.0
 13
1.0
 23
0.0
 33
0.0
 40
0.0
 40
0.0
 40
0.0
 40
0.0
 40
1.0
 40
1.0
 40
1.0
 40
2.0
 40
2.0
 40
2.0
 40
3.0
 40
3.0
 40
3.0
 40
4.0
 40
4.0
 40
4.0
 40
5.0
 40
5.0
 40
5.0
 40
6.0
 40
6.0
 40
6.0
 40
7.0
 40
7.0
 40
7.0
 40
8.0
 40
8.0
 40
8.0
 40
9.0
 40
9.0
 40
9.0
 40
10.0
 40
10.0
 40
10.0
 40
11.0
 40
11.0
 40
11.0
 40
12.0
 40
12.0
 40
12.0
 40
13.0
 40
13.0
 40
13.0
 40
14.0
 40
14.0
 40
14.0
 40
15.0
 40
15.0
 40
15.0
 40
16.0
 40
16.0
 40
16.0
 40
17.0
 40
17.0
 40
17.0
 40
18.0
 40
18.0
 40
18.0
 40
19.0
 40
19.0
 40
19.0
 40
20.0
 40
20.0
 40
20.0
 40
21.0
 40
21.0
 40
21.0
 40
22.0
 40
22.0
 40
22.0
 40
23.0
 40
23.0
 40
23.0
 40
23.0
 10
104.0508504009972
 20
-138.9145049652714
 30
0.0
 10
104.0508504009972
 20
-138.9145049652714
 30
0.0
 10
94.55065092114526
 20
-138.9145049652714
 30
0.0
 10
94.55065092114526
 20
-138.9145049652714
 30
0.0
 10
94.55065092114526
 20
-138.9145049652714
 30
0.0
 10
93.17672497670569
 20
-138.4149716320632
 30
0.0
 10
93.17672497670569
 20
-138.4149716320632
 30
0.0
 10
93.17672497670569
 20
-138.4149716320632
 30
0.0
 10
83.46432731509206
 20
-138.4149716320632
 30
0.0
 10
83.46432731509206
 20
-138.4149716320632
 30
0.0
 10
83.46432731509206
 20
-138.4149716320632
 30
0.0
 10
82.18205275723238
 20
-137.1320246879392
 30
0.0
 10
82.18205275723238
 20
-137.1320246879392
 30
0.0
 10
82.18205275723238
 20
-137.1320246879392
 30
0.0
 10
87.39861082583123
 20
-131.9144413559106
 30
0.0
 10
87.39861082583123
 20
-131.9144413559106
 30
0.0
 10
87.39861082583123
 20
-131.9144413559106
 30
0.0
 10
94.55065092114526
 20
-131.9144413559106
 30
0.0
 10
94.55065092114526
 20
-131.9144413559106
 30
0.0
 10
94.55065092114526
 20
-131.9144413559106
 30
0.0
 10
94.55065092114526
 20
-131.4142024671462
 30
0.0
 10
94.55065092114526
 20
-131.4142024671462
 30
0.0
 10
94.55065092114526
 20
-131.4142024671462
 30
0.0
 10
92.55043624995277
 20
-130.914669133938
 30
0.0
 10
92.55043624995277
 20
-130.914669133938
 30
0.0
 10
92.55043624995277
 20
-130.914669133938
 30
0.0
 10
87.550199433075
 20
-130.914669133938
 30
0.0
 10
87.550199433075
 20
-130.914669133938
 30
0.0
 10
87.550199433075
 20
-130.914669133938
 30
0.0
 10
87.550199433075
 20
-125.9144674685212
 30
0.0
 10
87.550199433075
 20
-125.9144674685212
 30
0.0
 10
87.550199433075
 20
-125.9144674685212
 30
0.0
 10
87.05066611248581
 20
-123.9149230245768
 30
0.0
 10
87.05066611248581
 20
-123.9149230245768
 30
0.0
 10
87.05066611248581
 20
-123.9149230245768
 30
0.0
 10
86.55042723635908
 20
-123.9149230245768
 30
0.0
 10
86.55042723635908
 20
-123.9149230245768
 30
0.0
 10
86.55042723635908
 20
-123.9149230245768
 30
0.0
 10
86.55042723635908
 20
-131.0662577450115
 30
0.0
 10
86.55042723635908
 20
-131.0662577450115
 30
0.0
 10
86.55042723635908
 20
-131.0662577450115
 30
0.0
 10
81.33319681390617
 20
-136.2831707992627
 30
0.0
 10
81.33319681390617
 20
-136.2831707992627
 30
0.0
 10
81.33319681390617
 20
-136.2831707992627
 30
0.0
 10
80.05024990219243
 20
-135.0005413551389
 30
0.0
 10
80.05024990219243
 20
-135.0005413551389
 30
0.0
 10
80.05024990219243
 20
-135.0005413551389
 30
0.0
 10
80.05024990219243
 20
-125.2881458020113
 30
0.0
 10
80.05024990219243
 20
-125.2881458020113
 30
0.0
 10
80.05024990219243
 20
-125.2881458020113
 30
0.0
 10
79.55068331344552
 20
-123.9149230245768
 30
0.0
 10
79.55068331344552
 20
-123.9149230245768
 30
0.0
 10
79.55068331344552
 20
-123.9149230245768
 30
0.0
 10
79.55068331344552
 20
-119.4149249701462
 30
0.0
 10
79.55068331344552
 20
-119.4149249701462
 30
0.0
 10
79.55068331344552
 20
-119.1386294146598
 30
0.0
 10
79.32677325398319
 20
-118.9147213591603
 30
0.0
 10
79.05047770547652
 20
-118.9147213591603
 30
0.0
 10
79.05047770547652
 20
-118.9147213591603
 30
0.0
 10
79.05047770547652
 20
-135.4146319105911
 30
0.0
 10
79.05047770547652
 20
-135.4146319105911
 30
0.0
 10
79.05047770547652
 20
-135.4146319105911
 30
0.0
 10
83.05023886812621
 20
-139.4147438540351
 30
0.0
 10
83.05023886812621
 20
-139.4147438540351
 30
0.0
 10
83.05023886812621
 20
-139.4147438540351
 30
0.0
 10
104.5510539993471
 20
-139.4147438540351
 30
0.0
 10
104.5510539993471
 20
-139.4147438540351
 30
0.0
 10
104.5510539993471
 20
-139.1384482985487
 30
0.0
 10
104.3271459495039
 20
-138.9145049652714
 30
0.0
 10
104.0508504009972
 20
-138.9145049652714
 30
0.0
  0
HATCH
  5
42
330
1F
100
AcDbEntity
  8
_U+30EC_U+30A4_U+30E4_U+30FC 1
 62
   253
420
 11711154
100
AcDbHatch
 10
0.0
 20
0.0
 30
0.0
210
0.0
220
0.0
230
1.0
  2
SOLID
 70
     1
 71
     0
 91
        1
 92
        1
 93
        1
 72
     4
 94
        3
 73
     0
 74
     1
 95
       74
 96
       70
 40
0.0
 40
0.0
 40
0.0
 40
0.0
 40
1.0
 40
1.0
 40
1.0
 40
2.0
 40
2.0
 40
2.0
 40
3.0
 40
3.0
 40
3.0
 40
4.0
 40
4.0
 40
4.0
 40
5.0
 40
5.0
 40
5.0
 40
6.0
 40
6.0
 40
6.0
 40
7.0
 40
7.0
 40
7.0
 40
8.0
 40
8.0
 40
8.0
 40
9.0
 40
9.0
 40
9.0
 40
10.0
 40
10.0
 40
10.0
 40
11.0
 40
11.0
 40
11.0
 40
12.0
 40
12.0
 40
12.0
 40
13.0
 40
13.0
 40
13.0
 40
14.0
 40
14.0
 40
14.0
 40
15.0
 40
15.0
 40
15.0
 40
16.0
 40
16.0
 40
16.0
 40
17.0
 40
17.0
 40
17.0
 40
18.0
 40
18.0
 40
18.0
 40
19.0
 40
19.0
 40
19.0
 40
20.0
 40
20.0
 40
20.0
 40
21.0
 40
21.0
 40
21.0
 40
22.0
 40
22.0
 40
22.0
 40
23.0
 40
23.0
 40
23.0
 40
23.0
 10
104.0508504009972
 20
-138.9145049652714
 10
104.0508504009972
 20
-138.9145049652714
 10
94.55065092114526
 20
-138.9145049652714
 10
94.55065092114526
 20
-138.9145049652714
 10
94.55065092114526
 20
-138.9145049652714
 10
93.17672497670569
 20
-138.4149716320632
 10
93.17672497670569
 20
-138.4149716320632
 10
93.17672497670569
 20
-138.4149716320632
 10
83.46432731509206
 20
-138.4149716320632
 10
83.46432731509206
 20
-138.4149716320632
 10
83.46432731509206
 20
-138.4149716320632
 10
82.18205275723238
 20
-137.1320246879392
 10
82.18205275723238
 20
-137.1320246879392
 10
82.18205275723238
 20
-137.1320246879392
 10
87.39861082583123
 20
-131.9144413559106
 10
87.39861082583123
 20
-131.9144413559106
 10
87.39861082583123
 20
-131.9144413559106
 10
94.55065092114526
 20
-131.9144413559106
 10
94.55065092114526
 20
-131.9144413559106
 10
94.55065092114526
 20
-131.9144413559106
 10
94.55065092114526
 20
-131.4142024671462
 10
94.55065092114526
 20
-131.4142024671462
 10
94.55065092114526
 20
-131.4142024671462
 10
92.55043624995277
 20
-130.914669133938
 10
92.55043624995277
 20
-130.914669133938
 10
92.55043624995277
 20
-130.914669133938
 10
87.550199433075
 20
-130.914669133938
 10
87.550199433075
 20
-130.914669133938
 10
87.550199433075
 20
-130.914669133938
 10
87.550199433075
 20
-125.9144674685212
 10
87.550199433075
 20
-125.9144674685212
 10
87.550199433075
 20
-125.9144674685212
 10
87.05066611248581
 20
-123.9149230245768
 10
87.05066611248581
 20
-123.9149230245768
 10
87.05066611248581
 20
-123.9149230245768
 10
86.55042723635908
 20
-123.9149230245768
 10
86.55042723635908
 20
-123.9149230245768
 10
86.55042723635908
 20
-123.9149230245768
 10
86.55042723635908
 20
-131.0662577450115
 10
86.55042723635908
 20
-131.0662577450115
 10
86.55042723635908
 20
-131.0662577450115
 10
81.33319681390617
 20
-136.2831707992627
 10
81.33319681390617
 20
-136.2831707992627
 10
81.33319681390617
 20
-136.2831707992627
 10
80.05024990219243
 20
-135.0005413551389
 10
80.05024990219243
 20
-135.0005413551389
 10
80.05024990219243
 20
-135.0005413551389
 10
80.05024990219243
 20
-125.2881458020113
 10
80.05024990219243
 20
-125.2881458020113
 10
80.05024990219243
 20
-125.2881458020113
 10
79.55068331344552
 20
-123.9149230245768
 10
79.55068331344552
 20
-123.9149230245768
 10
79.55068331344552
 20
-123.9149230245768
 10
79.55068331344552
 20
-119.4149249701462
 10
79.55068331344552
 20
-119.4149249701462
 10
79.55068331344552
 20
-119.1386294146598
 10
79.32677325398319
 20
-118.9147213591603
 10
79.05047770547652
 20
-118.9147213591603
 10
79.05047770547652
 20
-118.9147213591603
 10
79.05047770547652
 20
-135.4146319105911
 10
79.05047770547652
 20
-135.4146319105911
 10
79.05047770547652
 20
-135.4146319105911
 10
83.05023886812621
 20
-139.4147438540351
 10
83.05023886812621
 20
-139.4147438540351
 10
83.05023886812621
 20
-139.4147438540351
 10
104.5510539993471
 20
-139.4147438540351
 10
104.5510539993471
 20
-139.4147438540351
 10
104.5510539993471
 20
-139.1384482985487
 10
104.3271459495039
 20
-138.9145049652714
 10
104.0508504009972
 20
-138.9145049652714
 97
        0
 97
        0
 75
     2
 76
     1
 98
        0
  0
POLYLINE
  5
43
330
1F
100
AcDbEntity
  8
_U+30EC_U+30A4_U+30E4_U+30FC 1
 62
   179
420
  2234388
370
    25
100
AcDb2dPolyline
 66
     1
 10
0.0
 20
0.0
 30
0.0
  0
VERTEX
  5
44
330
43
100
AcDbEntity
  8
_U+30EC_U+30A4_U+30E4_U+30FC 1
 62
   179
420
  2234388
370
    25
100
AcDbVertex
100
AcDb2dVertex
 10
79.05047770547652
 20
-118.9147213591603
 30
0.0
  0
VERTEX
  5
45
330
43
100
AcDbEntity
  8
_U+30EC_U+30A4_U+30E4_U+30FC 1
 62
   179
420
  2234388
370
    25
100
AcDbVertex
100
AcDb2dVertex
 10
79.05047770547652
 20
-135.4146319105911
 30
0.0
  0
SEQEND
  5
46
330
43
100
AcDbEntity
  8
_U+30EC_U+30A4_U+30E4_U+30FC 1
 62
   179
420
  2234388
370
    25
  0
POLYLINE
  5
47
330
1F
100
AcDbEntity
  8
_U+30EC_U+30A4_U+30E4_U+30FC 1
 62
   179
420
  2234388
370
    25
100
AcDb2dPolyline
 66
     1
 10
0.0
 20
0.0
 30
0.0
  0
VERTEX
  5
48
330
47
100
AcDbEntity
  8
_U+30EC_U+30A4_U+30E4_U+30FC 1
 62
   179
420
  2234388
370
    25
100
AcDbVertex
100
AcDb2dVertex
 10
83.05023886812621
 20
-139.4147438540351
 30
0.0
  0
VERTEX
  5
49
330
47
100
AcDbEntity
  8
_U+30EC_U+30A4_U+30E4_U+30FC 1
 62
   179
420
  2234388
370
    25
100
AcDbVertex
100
AcDb2dVertex
 10
79.05047770547652
 20
-135.4146319105911
 30
0.0
  0
SEQEND
  5
4A
330
47
100
AcDbEntity
  8
_U+30EC_U+30A4_U+30E4_U+30FC 1
 62
   179
420
  2234388
370
    25
  0
POLYLINE
  5
4B
330
1F
100
AcDbEntity
  8
_U+30EC_U+30A4_U+30E4_U+30FC 1
 62
   179
420
  2234388
370
    25
100
AcDb2dPolyline
 66
     1
 10
0.0
 20
0.0
 30
0.0
  0
VERTEX
  5
4C
330
4B
100
AcDbEntity
  8
_U+30EC_U+30A4_U+30E4_U+30FC 1
 62
   179
420
  2234388
370
    25
100
AcDbVertex
100
AcDb2dVertex
 10
80.05024990219243
 20
-125.2881458020113
 30
0.0
  0
VERTEX
  5
4D
330
4B
100
AcDbEntity
  8
_U+30EC_U+30A4_U+30E4_U+30FC 1
 62
   179
420
  2234388
370
    25
100
AcDbVertex
100
AcDb2dVertex
 10
80.05024990219243
 20
-135.0005413551389
 30
0.0
  0
SEQEND
  5
4E
330
4B
100
AcDbEntity
  8
_U+30EC_U+30A4_U+30E4_U+30FC 1
 62
   179
420
  2234388
370
    25
  0
POLYLINE
  5
4F
330
1F
100
AcDbEntity
  8
_U+30EC_U+30A4_U+30E4_U+30FC 1
 62
   179
420
  2234388
370
    25
100
AcDb2dPolyline
 66
     1
 10
0.0
 20
0.0
 30
0.0
  0
VERTEX
  5
50
330
4F
100
AcDbEntity
  8
_U+30EC_U+30A4_U+30E4_U+30FC 1
 62
   179
420
  2234388
370
    25
100
AcDbVertex
100
AcDb2dVertex
 10
83.46432731509206
 20
-138.4149716320632
 30
0.0
  0
VERTEX
  5
51
330
4F
100
AcDbEntity
  8
_U+30EC_U+30A4_U+30E4_U+30FC 1
 62
   179
420
  2234388
370
    25
100
AcDbVertex
100
AcDb2dVertex
 10
93.17672497670569
 20
-138.4149716320632
 30
0.0
  0
SEQEND
  5
52
330
4F
100
AcDbEntity
  8
_U+30EC_U+30A4_U+30E4_U+30FC 1
 62
   179
420
  2234388
370
    25
  0
POLYLINE
  5
53
330
1F
100
AcDbEntity
  8
_U+30EC_U+30A4_U+30E4_U+30FC 1
 62
   179
420
  2234388
370
    25
100
AcDb2dPolyline
 66
     1
 10
0.0
 20
0.0
 30
0.0
  0
VERTEX
  5
54
330
53
100
AcDbEntity
  8
_U+30EC_U+30A4_U+30E4_U+30FC 1
 62
   179
420
  2234388
370
    25
100
AcDbVertex
100
AcDb2dVertex
 10
86.55042723635908
 20
-123.9149230245768
 30
0.0
  0
VERTEX
  5
55
330
53
100
AcDbEntity
  8
_U+30EC_U+30A4_U+30E4_U+30FC 1
 62
   179
420
  2234388
370
    25
100
AcDbVertex
100
AcDb2dVertex
 10
86.55042723635908
 20
-131.0662577450115
 30
0.0
  0
SEQEND
  5
56
330
53
100
AcDbEntity
  8
_U+30EC_U+30A4_U+30E4_U+30FC 1
 62
   179
420
  2234388
370
    25
  0
POLYLINE
  5
57
330
1F
100
AcDbEntity
  8
_U+30EC_U+30A4_U+30E4_U+30FC 1
 62
   179
420
  2234388
370
    25
100
AcDb2dPolyline
 66
     1
 10
0.0
 20
0.0
 30
0.0
  0
VERTEX
  5
58
330
57
100
AcDbEntity
  8
_U+30EC_U+30A4_U+30E4_U+30FC 1
 62
   179
420
  2234388
370
    25
100
AcDbVertex
100
AcDb2dVertex
 10
87.39861082583123
 20
-131.9144413559106
 30
0.0
  0
VERTEX
  5
59
330
57
100
AcDbEntity
  8
_U+30EC_U+30A4_U+30E4_U+30FC 1
 62
   179
420
  2234388
370
    25
100
AcDbVertex
100
AcDb2dVertex
 10
94.55065092114526
 20
-131.9144413559106
 30
0.0
  0
SEQEND
  5
5A
330
57
100
AcDbEntity
  8
_U+30EC_U+30A4_U+30E4_U+30FC 1
 62
   179
420
  2234388
370
    25
  0
POLYLINE
  5
5B
330
1F
100
AcDbEntity
  8
_U+30EC_U+30A4_U+30E4_U+30FC 1
 62
   179
420
  2234388
370
    25
100
AcDb2dPolyline
 66
     1
 10
0.0
 20
0.0
 30
0.0
  0
VERTEX
  5
5C
330
5B
100
AcDbEntity
  8
_U+30EC_U+30A4_U+30E4_U+30FC 1
 62
   179
420
  2234388
370
    25
100
AcDbVertex
100
AcDb2dVertex
 10
79.55068331344552
 20
-119.4149249701462
 30
0.0
  0
VERTEX
  5
5D
330
5B
100
AcDbEntity
  8
_U+30EC_U+30A4_U+30E4_U+30FC 1
 62
   179
420
  2234388
370
    25
100
AcDbVertex
100
AcDb2dVertex
 10
79.55068331344552
 20
-123.9149230245768
 30
0.0
  0
SEQEND
  5
5E
330
5B
100
AcDbEntity
  8
_U+30EC_U+30A4_U+30E4_U+30FC 1
 62
   179
420
  2234388
370
    25
  0
POLYLINE
  5
5F
330
1F
100
AcDbEntity
  8
_U+30EC_U+30A4_U+30E4_U+30FC 1
 62
   179
420
  2234388
370
    25
100
AcDb2dPolyline
 66
     1
 10
0.0
 20
0.0
 30
0.0
  0
VERTEX
  5
60
330
5F
100
AcDbEntity
  8
_U+30EC_U+30A4_U+30E4_U+30FC 1
 62
   179
420
  2234388
370
    25
100
AcDbVertex
100
AcDb2dVertex
 10
80.05024990219243
 20
-125.2881458020113
 30
0.0
  0
VERTEX
  5
61
330
5F
100
AcDbEntity
  8
_U+30EC_U+30A4_U+30E4_U+30FC 1
 62
   179
420
  2234388
370
    25
100
AcDbVertex
100
AcDb2dVertex
 10
79.55068331344552
 20
-123.9149230245768
 30
0.0
  0
SEQEND
  5
62
330
5F
100
AcDbEntity
  8
_U+30EC_U+30A4_U+30E4_U+30FC 1
 62
   179
420
  2234388
370
    25
  0
POLYLINE
  5
63
330
1F
100
AcDbEntity
  8
_U+30EC_U+30A4_U+30E4_U+30FC 1
 62
   179
420
  2234388
370
    25
100
AcDb2dPolyline
 66
     1
 10
0.0
 20
0.0
 30
0.0
  0
VERTEX
  5
64
330
63
100
AcDbEntity
  8
_U+30EC_U+30A4_U+30E4_U+30FC 1
 62
   179
420
  2234388
370
    25
100
AcDbVertex
100
AcDb2dVertex
 10
94.55065092114526
 20
-138.9145049652714
 30
0.0
  0
VERTEX
  5
65
330
63
100
AcDbEntity
  8
_U+30EC_U+30A4_U+30E4_U+30FC 1
 62
   179
420
  2234388
370
    25
100
AcDbVertex
100
AcDb2dVertex
 10
104.0508504009972
 20
-138.9145049652714
 30
0.0
  0
SEQEND
  5
66
330
63
100
AcDbEntity
  8
_U+30EC_U+30A4_U+30E4_U+30FC 1
 62
   179
420
  2234388
370
    25
  0
POLYLINE
  5
67
330
1F
100
AcDbEntity
  8
_U+30EC_U+30A4_U+30E4_U+30FC 1
 62
   179
420
  2234388
370
    25
100
AcDb2dPolyline
 66
     1
 10
0.0
 20
0.0
 30
0.0
  0
VERTEX
  5
68
330
67
100
AcDbEntity
  8
_U+30EC_U+30A4_U+30E4_U+30FC 1
 62
   179
420
  2234388
370
    25
100
AcDbVertex
100
AcDb2dVertex
 10
93.17672497670569
 20
-138.4149716320632
 30
0.0
  0
VERTEX
  5
69
330
67
100
AcDbEntity
  8
_U+30EC_U+30A4_U+30E4_U+30FC 1
 62
   179
420
  2234388
370
    25
100
AcDbVertex
100
AcDb2dVertex
 10
94.55065092114526
 20
-138.9145049652714
 30
0.0
  0
SEQEND
  5
6A
330
67
100
AcDbEntity
  8
_U+30EC_U+30A4_U+30E4_U+30FC 1
 62
   179
420
  2234388
370
    25
  0
POLYLINE
  5
6B
330
1F
100
AcDbEntity
  8
_U+30EC_U+30A4_U+30E4_U+30FC 1
 62
   179
420
  2234388
370
    25
100
AcDb2dPolyline
 66
     1
 10
0.0
 20
0.0
 30
0.0
  0
VERTEX
  5
6C
330
6B
100
AcDbEntity
  8
_U+30EC_U+30A4_U+30E4_U+30FC 1
 62
   179
420
  2234388
370
    25
100
AcDbVertex
100
AcDb2dVertex
 10
83.05023886812621
 20
-139.4147438540351
 30
0.0
  0
VERTEX
  5
6D
330
6B
100
AcDbEntity
  8
_U+30EC_U+30A4_U+30E4_U+30FC 1
 62
   179
420
  2234388
370
    25
100
AcDbVertex
100
AcDb2dVertex
 10
104.5510539993471
 20
-139.4147438540351
 30
0.0
  0
SEQEND
  5
6E
330
6B
100
AcDbEntity
  8
_U+30EC_U+30A4_U+30E4_U+30FC 1
 62
   179
420
  2234388
370
    25
  0
POLYLINE
  5
6F
330
1F
100
AcDbEntity
  8
_U+30EC_U+30A4_U+30E4_U+30FC 1
 62
   179
420
  2234388
370
    25
100
AcDb2dPolyline
 66
     1
 10
0.0
 20
0.0
 30
0.0
  0
VERTEX
  5
70
330
6F
100
AcDbEntity
  8
_U+30EC_U+30A4_U+30E4_U+30FC 1
 62
   179
420
  2234388
370
    25
100
AcDbVertex
100
AcDb2dVertex
 10
83.46432731509206
 20
-138.4149716320632
 30
0.0
  0
VERTEX
  5
71
330
6F
100
AcDbEntity
  8
_U+30EC_U+30A4_U+30E4_U+30FC 1
 62
   179
420
  2234388
370
    25
100
AcDbVertex
100
AcDb2dVertex
 10
82.18205275723238
 20
-137.1320246879392
 30
0.0
  0
SEQEND
  5
72
330
6F
100
AcDbEntity
  8
_U+30EC_U+30A4_U+30E4_U+30FC 1
 62
   179
420
  2234388
370
    25
  0
POLYLINE
  5
73
330
1F
100
AcDbEntity
  8
_U+30EC_U+30A4_U+30E4_U+30FC 1
 62
   179
420
  2234388
370
    25
100
AcDb2dPolyline
 66
     1
 10
0.0
 20
0.0
 30
0.0
  0
VERTEX
  5
74
330
73
100
AcDbEntity
  8
_U+30EC_U+30A4_U+30E4_U+30FC 1
 62
   179
420
  2234388
370
    25
100
AcDbVertex
100
AcDb2dVertex
 10
81.33319681390617
 20
-136.2831707992627
 30
0.0
  0
VERTEX
  5
75
330
73
100
AcDbEntity
  8
_U+30EC_U+30A4_U+30E4_U+30FC 1
 62
   179
420
  2234388
370
    25
100
AcDbVertex
100
AcDb2dVertex
 10
80.05024990219243
 20
-135.0005413551389
 30
0.0
  0
SEQEND
  5
76
330
73
100
AcDbEntity
  8
_U+30EC_U+30A4_U+30E4_U+30FC 1
 62
   179
420
  2234388
370
    25
  0
POLYLINE
  5
77
330
1F
100
AcDbEntity
  8
_U+30EC_U+30A4_U+30E4_U+30FC 1
 62
   179
420
  2234388
370
    25
100
AcDb2dPolyline
 66
     1
 10
0.0
 20
0.0
 30
0.0
  0
VERTEX
  5
78
330
77
100
AcDbEntity
  8
_U+30EC_U+30A4_U+30E4_U+30FC 1
 62
   179
420
  2234388
370
    25
100
AcDbVertex
100
AcDb2dVertex
 10
82.18205275723238
 20
-137.1320246879392
 30
0.0
  0
VERTEX
  5
79
330
77
100
AcDbEntity
  8
_U+30EC_U+30A4_U+30E4_U+30FC 1
 62
   179
420
  2234388
370
    25
100
AcDbVertex
100
AcDb2dVertex
 10
87.39861082583123
 20
-131.9144413559106
 30
0.0
  0
SEQEND
  5
7A
330
77
100
AcDbEntity
  8
_U+30EC_U+30A4_U+30E4_U+30FC 1
 62
   179
420
  2234388
370
    25
  0
POLYLINE
  5
7B
330
1F
100
AcDbEntity
  8
_U+30EC_U+30A4_U+30E4_U+30FC 1
 62
   179
420
  2234388
370
    25
100
AcDb2dPolyline
 66
     1
 10
0.0
 20
0.0
 30
0.0
  0
VERTEX
  5
7C
330
7B
100
AcDbEntity
  8
_U+30EC_U+30A4_U+30E4_U+30FC 1
 62
   179
420
  2234388
370
    25
100
AcDbVertex
100
AcDb2dVertex
 10
81.33319681390617
 20
-136.2831707992627
 30
0.0
  0
VERTEX
  5
7D
330
7B
100
AcDbEntity
  8
_U+30EC_U+30A4_U+30E4_U+30FC 1
 62
   179
420
  2234388
370
    25
100
AcDbVertex
100
AcDb2dVertex
 10
86.55042723635908
 20
-131.0662577450115
 30
0.0
  0
SEQEND
  5
7E
330
7B
100
AcDbEntity
  8
_U+30EC_U+30A4_U+30E4_U+30FC 1
 62
   179
420
  2234388
370
    25
  0
POLYLINE
  5
7F
330
1F
100
AcDbEntity
  8
_U+30EC_U+30A4_U+30E4_U+30FC 1
 62
   179
420
  2234388
370
    25
100
AcDb2dPolyline
 66
     1
 10
0.0
 20
0.0
 30
0.0
  0
VERTEX
  5
80
330
7F
100
AcDbEntity
  8
_U+30EC_U+30A4_U+30E4_U+30FC 1
 62
   179
420
  2234388
370
    25
100
AcDbVertex
100
AcDb2dVertex
 10
94.55065092114526
 20
-131.4142024671462
 30
0.0
  0
VERTEX
  5
81
330
7F
100
AcDbEntity
  8
_U+30EC_U+30A4_U+30E4_U+30FC 1
 62
   179
420
  2234388
370
    25
100
AcDbVertex
100
AcDb2dVertex
 10
94.55065092114526
 20
-131.9144413559106
 30
0.0
  0
SEQEND
  5
82
330
7F
100
AcDbEntity
  8
_U+30EC_U+30A4_U+30E4_U+30FC 1
 62
   179
420
  2234388
370
    25
  0
POLYLINE
  5
83
330
1F
100
AcDbEntity
  8
_U+30EC_U+30A4_U+30E4_U+30FC 1
 62
   179
420
  2234388
370
    25
100
AcDb2dPolyline
 66
     1
 10
0.0
 20
0.0
 30
0.0
  0
VERTEX
  5
84
330
83
100
AcDbEntity
  8
_U+30EC_U+30A4_U+30E4_U+30FC 1
 62
   179
420
  2234388
370
    25
100
AcDbVertex
100
AcDb2dVertex
 10
86.55042723635908
 20
-123.9149230245768
 30
0.0
  0
VERTEX
  5
85
330
83
100
AcDbEntity
  8
_U+30EC_U+30A4_U+30E4_U+30FC 1
 62
   179
420
  2234388
370
    25
100
AcDbVertex
100
AcDb2dVertex
 10
87.05066611248581
 20
-123.9149230245768
 30
0.0
  0
SEQEND
  5
86
330
83
100
AcDbEntity
  8
_U+30EC_U+30A4_U+30E4_U+30FC 1
 62
   179
420
  2234388
370
    25
  0
POLYLINE
  5
87
330
1F
100
AcDbEntity
  8
_U+30EC_U+30A4_U+30E4_U+30FC 1
 62
   179
420
  2234388
370
    25
100
AcDb2dPolyline
 66
     1
 10
0.0
 20
0.0
 30
0.0
  0
VERTEX
  5
88
330
87
100
AcDbEntity
  8
_U+30EC_U+30A4_U+30E4_U+30FC 1
 62
   179
420
  2234388
370
    25
100
AcDbVertex
100
AcDb2dVertex
 10
87.550199433075
 20
-130.914669133938
 30
0.0
  0
VERTEX
  5
89
330
87
100
AcDbEntity
  8
_U+30EC_U+30A4_U+30E4_U+30FC 1
 62
   179
420
  2234388
370
    25
100
AcDbVertex
100
AcDb2dVertex
 10
92.55043624995277
 20
-130.914669133938
 30
0.0
  0
SEQEND
  5
8A
330
87
100
AcDbEntity
  8
_U+30EC_U+30A4_U+30E4_U+30FC 1
 62
   179
420
  2234388
370
    25
  0
POLYLINE
  5
8B
330
1F
100
AcDbEntity
  8
_U+30EC_U+30A4_U+30E4_U+30FC 1
 62
   179
420
  2234388
370
    25
100
AcDb2dPolyline
 66
     1
 10
0.0
 20
0.0
 30
0.0
  0
VERTEX
  5
8C
330
8B
100
AcDbEntity
  8
_U+30EC_U+30A4_U+30E4_U+30FC 1
 62
   179
420
  2234388
370
    25
100
AcDbVertex
100
AcDb2dVertex
 10
87.550199433075
 20
-125.9144674685212
 30
0.0
  0
VERTEX
  5
8D
330
8B
100
AcDbEntity
  8
_U+30EC_U+30A4_U+30E4_U+30FC 1
 62
   179
420
  2234388
370
    25
100
AcDbVertex
100
AcDb2dVertex
 10
87.550199433075
 20
-130.914669133938
 30
0.0
  0
SEQEND
  5
8E
330
8B
100
AcDbEntity
  8
_U+30EC_U+30A4_U+30E4_U+30FC 1
 62
   179
420
  2234388
370
    25
  0
POLYLINE
  5
8F
330
1F
100
AcDbEntity
  8
_U+30EC_U+30A4_U+30E4_U+30FC 1
 62
   179
420
  2234388
370
    25
100
AcDb2dPolyline
 66
     1
 10
0.0
 20
0.0
 30
0.0
  0
VERTEX
  5
90
330
8F
100
AcDbEntity
  8
_U+30EC_U+30A4_U+30E4_U+30FC 1
 62
   179
420
  2234388
370
    25
100
AcDbVertex
100
AcDb2dVertex
 10
87.550199433075
 20
-125.9144674685212
 30
0.0
  0
VERTEX
  5
91
330
8F
100
AcDbEntity
  8
_U+30EC_U+30A4_U+30E4_U+30FC 1
 62
   179
420
  2234388
370
    25
100
AcDbVertex
100
AcDb2dVertex
 10
87.05066611248581
 20
-123.9149230245768
 30
0.0
  0
SEQEND
  5
92
330
8F
100
AcDbEntity
  8
_U+30EC_U+30A4_U+30E4_U+30FC 1
 62
   179
420
  2234388
370
    25
  0
POLYLINE
  5
93
330
1F
100
AcDbEntity
  8
_U+30EC_U+30A4_U+30E4_U+30FC 1
 62
   179
420
  2234388
370
    25
100
AcDb2dPolyline
 66
     1
 10
0.0
 20
0.0
 30
0.0
  0
VERTEX
  5
94
330
93
100
AcDbEntity
  8
_U+30EC_U+30A4_U+30E4_U+30FC 1
 62
   179
420
  2234388
370
    25
100
AcDbVertex
100
AcDb2dVertex
 10
92.55043624995277
 20
-130.914669133938
 30
0.0
  0
VERTEX
  5
95
330
93
100
AcDbEntity
  8
_U+30EC_U+30A4_U+30E4_U+30FC 1
 62
   179
420
  2234388
370
    25
100
AcDbVertex
100
AcDb2dVertex
 10
94.55065092114526
 20
-131.4142024671462
 30
0.0
  0
SEQEND
  5
96
330
93
100
AcDbEntity
  8
_U+30EC_U+30A4_U+30E4_U+30FC 1
 62
   179
420
  2234388
370
    25
  0
SPLINE
  5
97
330
1F
100
AcDbEntity
  8
_U+30EC_U+30A4_U+30E4_U+30FC 1
 62
   179
420
  2234388
370
    25
100
AcDbSpline
210
0.0
220
0.0
230
1.0
 70
     8
 71
     3
 72
     8
 73
     4
 74
     0
 42
0.0000000001
 43
0.0000000001
 12
1.0
 22
0.0
 32
0.0
 13
1.0
 23
0.0
 33
0.0
 40
0.0
 40
0.0
 40
0.0
 40
0.0
 40
1.0
 40
1.0
 40
1.0
 40
1.0
 10
79.55068331344552
 20
-119.4149249701462
 30
0.0
 10
79.55068331344552
 20
-119.1386294146598
 30
0.0
 10
79.32677325398319
 20
-118.9147213591603
 30
0.0
 10
79.05047770547652
 20
-118.9147213591603
 30
0.0
  0
SPLINE
  5
98
330
1F
100
AcDbEntity
  8
_U+30EC_U+30A4_U+30E4_U+30FC 1
 62
   179
420
  2234388
370
    25
100
AcDbSpline
210
0.0
220
0.0
230
1.0
 70
     8
 71
     3
 72
     8
 73
     4
 74
     0
 42
0.0000000001
 43
0.0000000001
 12
1.0
 22
0.0
 32
0.0
 13
1.0
 23
0.0
 33
0.0
 40
0.0
 40
0.0
 40
0.0
 40
0.0
 40
1.0
 40
1.0
 40
1.0
 40
1.0
 10
104.5510539993471
 20
-139.4147438540351
 30
0.0
 10
104.5510539993471
 20
-139.1384482985487
 30
0.0
 10
104.3271459495039
 20
-138.9145049652714
 30
0.0
 10
104.0508504009972
 20
-138.9145049652714
 30
0.0
  0
SPLINE
  5
99
330
1F
100
AcDbEntity
  8
_U+30EC_U+30A4_U+30E4_U+30FC 1
 62
   179
420
  2234388
370
     9
100
AcDbSpline
210
0.0
220
0.0
230
1.0
 70
    11
 71
     3
 72
    17
 73
    13
 74
     0
 42
0.0000000001
 43
0.0000000001
 12
1.0
 22
0.0
 32
0.0
 13
1.0
 23
0.0
 33
0.0
 40
0.0
 40
0.0
 40
0.0
 40
0.0
 40
1.0
 40
1.0
 40
1.0
 40
2.0
 40
2.0
 40
2.0
 40
3.0
 40
3.0
 40
3.0
 40
4.0
 40
4.0
 40
4.0
 40
4.0
 10
75.15062530497005
 20
-118.9147213591603
 30
0.0
 10
75.15062530497005
 20
-118.8595821925072
 30
0.0
 10
75.10582252833528
 20
-118.8148146925184
 30
0.0
 10
75.05071864085221
 20
-118.8148146925184
 30
0.0
 10
74.99491109236233
 20
-118.8148146925184
 30
0.0
 10
74.95010831459592
 20
-118.8595821925072
 30
0.0
 10
74.95010831459592
 20
-118.9147213591603
 30
0.0
 10
74.95010831459592
 20
-118.9698252480352
 30
0.0
 10
74.99491109236233
 20
-119.014628025802
 30
0.0
 10
75.05071864085221
 20
-119.014628025802
 30
0.0
 10
75.10582252833528
 20
-119.014628025802
 30
0.0
 10
75.15062530497005
 20
-118.9698252480352
 30
0.0
 10
75.15062530497005
 20
-118.9147213591603
 30
0.0
  0
SPLINE
  5
9A
330
1F
100
AcDbEntity
  8
_U+30EC_U+30A4_U+30E4_U+30FC 1
 62
   179
420
  2234388
370
     9
100
AcDbSpline
210
0.0
220
0.0
230
1.0
 70
    11
 71
     3
 72
    17
 73
    13
 74
     0
 42
0.0000000001
 43
0.0000000001
 12
1.0
 22
0.0
 32
0.0
 13
1.0
 23
0.0
 33
0.0
 40
0.0
 40
0.0
 40
0.0
 40
0.0
 40
1.0
 40
1.0
 40
1.0
 40
2.0
 40
2.0
 40
2.0
 40
3.0
 40
3.0
 40
3.0
 40
4.0
 40
4.0
 40
4.0
 40
4.0
 10
80.15015656631026
 20
-114.9142566379383
 30
0.0
 10
80.15015656631026
 20
-114.859152749063
 30
0.0
 10
80.1053537896755
 20
-114.8143499712963
 30
0.0
 10
80.05024990219243
 20
-114.8143499712963
 30
0.0
 10
79.99511073693247
 20
-114.8143499712963
 30
0.0
 10
79.9503432380746
 20
-114.859152749063
 30
0.0
 10
79.9503432380746
 20
-114.9142566379383
 30
0.0
 10
79.9503432380746
 20
-114.9700660823687
 30
0.0
 10
79.99511073693247
 20
-115.0148688601351
 30
0.0
 10
80.05024990219243
 20
-115.0148688601351
 30
0.0
 10
80.1053537896755
 20
-115.0148688601351
 30
0.0
 10
80.15015656631026
 20
-114.9700660823687
 30
0.0
 10
80.15015656631026
 20
-114.9142566379383
 30
0.0
  0
SPLINE
  5
9B
330
1F
100
AcDbEntity
  8
_U+30EC_U+30A4_U+30E4_U+30FC 1
 62
   179
420
  2234388
370
     9
100
AcDbSpline
210
0.0
220
0.0
230
1.0
 70
    11
 71
     3
 72
    17
 73
    13
 74
     0
 42
0.0000000001
 43
0.0000000001
 12
1.0
 22
0.0
 32
0.0
 13
1.0
 23
0.0
 33
0.0
 40
0.0
 40
0.0
 40
0.0
 40
0.0
 40
1.0
 40
1.0
 40
1.0
 40
2.0
 40
2.0
 40
2.0
 40
3.0
 40
3.0
 40
3.0
 40
4.0
 40
4.0
 40
4.0
 40
4.0
 10
86.65033608944839
 20
-114.9142566379383
 30
0.0
 10
86.65033608944839
 20
-114.859152749063
 30
0.0
 10
86.60556640161904
 20
-114.8143499712963
 30
0.0
 10
86.55042723635908
 20
-114.8143499712963
 30
0.0
 10
86.49532334887601
 20
-114.8143499712963
 30
0.0
 10
86.45052057224126
 20
-114.859152749063
 30
0.0
 10
86.45052057224126
 20
-114.9142566379383
 30
0.0
 10
86.45052057224126
 20
-114.9700660823687
 30
0.0
 10
86.49532334887601
 20
-115.0148688601351
 30
0.0
 10
86.55042723635908
 20
-115.0148688601351
 30
0.0
 10
86.60556640161904
 20
-115.0148688601351
 30
0.0
 10
86.65033608944839
 20
-114.9700660823687
 30
0.0
 10
86.65033608944839
 20
-114.9142566379383
 30
0.0
  0
SPLINE
  5
9C
330
1F
100
AcDbEntity
  8
_U+30EC_U+30A4_U+30E4_U+30FC 1
 62
   179
420
  2234388
370
     9
100
AcDbSpline
210
0.0
220
0.0
230
1.0
 70
    11
 71
     3
 72
    17
 73
    13
 74
     0
 42
0.0000000001
 43
0.0000000001
 12
1.0
 22
0.0
 32
0.0
 13
1.0
 23
0.0
 33
0.0
 40
0.0
 40
0.0
 40
0.0
 40
0.0
 40
1.0
 40
1.0
 40
1.0
 40
2.0
 40
2.0
 40
2.0
 40
3.0
 40
3.0
 40
3.0
 40
4.0
 40
4.0
 40
4.0
 40
4.0
 10
94.6505575852631
 20
-114.9142566379383
 30
0.0
 10
94.6505575852631
 20
-114.859152749063
 30
0.0
 10
94.60575480862833
 20
-114.8143499712963
 30
0.0
 10
94.55065092114526
 20
-114.8143499712963
 30
0.0
 10
94.49551175588532
 20
-114.8143499712963
 30
0.0
 10
94.45074425702744
 20
-114.859152749063
 30
0.0
 10
94.45074425702744
 20
-114.9142566379383
 30
0.0
 10
94.45074425702744
 20
-114.9700660823687
 30
0.0
 10
94.49551175588532
 20
-115.0148688601351
 30
0.0
 10
94.55065092114526
 20
-115.0148688601351
 30
0.0
 10
94.60575480862833
 20
-115.0148688601351
 30
0.0
 10
94.6505575852631
 20
-114.9700660823687
 30
0.0
 10
94.6505575852631
 20
-114.9142566379383
 30
0.0
  0
SPLINE
  5
9D
330
1F
100
AcDbEntity
  8
_U+30EC_U+30A4_U+30E4_U+30FC 1
 62
   179
420
  2234388
370
     9
100
AcDbSpline
210
0.0
220
0.0
230
1.0
 70
    11
 71
     3
 72
    17
 73
    13
 74
     0
 42
0.0000000001
 43
0.0000000001
 12
1.0
 22
0.0
 32
0.0
 13
1.0
 23
0.0
 33
0.0
 40
0.0
 40
0.0
 40
0.0
 40
0.0
 40
1.0
 40
1.0
 40
1.0
 40
2.0
 40
2.0
 40
2.0
 40
3.0
 40
3.0
 40
3.0
 40
4.0
 40
4.0
 40
4.0
 40
4.0
 10
108.6507197280892
 20
-123.9149230245768
 30
0.0
 10
108.6507197280892
 20
-123.8591135801464
 30
0.0
 10
108.6059522292313
 20
-123.8143108023796
 30
0.0
 10
108.5508130639714
 20
-123.8143108023796
 30
0.0
 10
108.4957091764883
 20
-123.8143108023796
 30
0.0
 10
108.4509063998535
 20
-123.8591135801464
 30
0.0
 10
108.4509063998535
 20
-123.9149230245768
 30
0.0
 10
108.4509063998535
 20
-123.970026913452
 30
0.0
 10
108.4957091764883
 20
-124.0148296912184
 30
0.0
 10
108.5508130639714
 20
-124.0148296912184
 30
0.0
 10
108.6059522292313
 20
-124.0148296912184
 30
0.0
 10
108.6507197280892
 20
-123.970026913452
 30
0.0
 10
108.6507197280892
 20
-123.9149230245768
 30
0.0
  0
SPLINE
  5
9E
330
1F
100
AcDbEntity
  8
_U+30EC_U+30A4_U+30E4_U+30FC 1
 62
   179
420
  2234388
370
     9
100
AcDbSpline
210
0.0
220
0.0
230
1.0
 70
    11
 71
     3
 72
    17
 73
    13
 74
     0
 42
0.0000000001
 43
0.0000000001
 12
1.0
 22
0.0
 32
0.0
 13
1.0
 23
0.0
 33
0.0
 40
0.0
 40
0.0
 40
0.0
 40
0.0
 40
1.0
 40
1.0
 40
1.0
 40
2.0
 40
2.0
 40
2.0
 40
3.0
 40
3.0
 40
3.0
 40
4.0
 40
4.0
 40
4.0
 40
4.0
 10
108.6507197280892
 20
-131.9144413559106
 30
0.0
 10
108.6507197280892
 20
-131.8593021892575
 30
0.0
 10
108.6059522292313
 20
-131.8145346892683
 30
0.0
 10
108.5508130639714
 20
-131.8145346892683
 30
0.0
 10
108.4957091764883
 20
-131.8145346892683
 30
0.0
 10
108.4509063998535
 20
-131.8593021892575
 30
0.0
 10
108.4509063998535
 20
-131.9144413559106
 30
0.0
 10
108.4509063998535
 20
-131.9695452447855
 30
0.0
 10
108.4957091764883
 20
-132.0143480225522
 30
0.0
 10
108.5508130639714
 20
-132.0143480225522
 30
0.0
 10
108.6059522292313
 20
-132.0143480225522
 30
0.0
 10
108.6507197280892
 20
-131.9695452447855
 30
0.0
 10
108.6507197280892
 20
-131.9144413559106
 30
0.0
  0
SPLINE
  5
9F
330
1F
100
AcDbEntity
  8
_U+30EC_U+30A4_U+30E4_U+30FC 1
 62
   179
420
  2234388
370
     9
100
AcDbSpline
210
0.0
220
0.0
230
1.0
 70
    11
 71
     3
 72
    17
 73
    13
 74
     0
 42
0.0000000001
 43
0.0000000001
 12
1.0
 22
0.0
 32
0.0
 13
1.0
 23
0.0
 33
0.0
 40
0.0
 40
0.0
 40
0.0
 40
0.0
 40
1.0
 40
1.0
 40
1.0
 40
2.0
 40
2.0
 40
2.0
 40
3.0
 40
3.0
 40
3.0
 40
4.0
 40
4.0
 40
4.0
 40
4.0
 10
108.6507197280892
 20
-138.4149716320632
 30
0.0
 10
108.6507197280892
 20
-138.3598677431876
 30
0.0
 10
108.6059522292313
 20
-138.3150649654209
 30
0.0
 10
108.5508130639714
 20
-138.3150649654209
 30
0.0
 10
108.4957091764883
 20
-138.3150649654209
 30
0.0
 10
108.4509063998535
 20
-138.3598677431876
 30
0.0
 10
108.4509063998535
 20
-138.4149716320632
 30
0.0
 10
108.4509063998535
 20
-138.4701107987156
 30
0.0
 10
108.4957091764883
 20
-138.5148782987048
 30
0.0
 10
108.5508130639714
 20
-138.5148782987048
 30
0.0
 10
108.6059522292313
 20
-138.5148782987048
 30
0.0
 10
108.6507197280892
 20
-138.4701107987156
 30
0.0
 10
108.6507197280892
 20
-138.4149716320632
 30
0.0
  0
SPLINE
  5
A0
330
1F
100
AcDbEntity
  8
_U+30EC_U+30A4_U+30E4_U+30FC 1
 62
   179
420
  2234388
370
     9
100
AcDbSpline
210
0.0
220
0.0
230
1.0
 70
    11
 71
     3
 72
    17
 73
    13
 74
     0
 42
0.0000000001
 43
0.0000000001
 12
1.0
 22
0.0
 32
0.0
 13
1.0
 23
0.0
 33
0.0
 40
0.0
 40
0.0
 40
0.0
 40
0.0
 40
1.0
 40
1.0
 40
1.0
 40
2.0
 40
2.0
 40
2.0
 40
3.0
 40
3.0
 40
3.0
 40
4.0
 40
4.0
 40
4.0
 40
4.0
 10
104.6509606634649
 20
-143.4152085752575
 30
0.0
 10
104.6509606634649
 20
-143.3593638530489
 30
0.0
 10
104.606193164607
 20
-143.3145963530604
 30
0.0
 10
104.5510539993471
 20
-143.3145963530604
 30
0.0
 10
104.4959527516541
 20
-143.3145963530604
 30
0.0
 10
104.4511499738873
 20
-143.3593638530489
 30
0.0
 10
104.4511499738873
 20
-143.4152085752575
 30
0.0
 10
104.4511499738873
 20
-143.4703124641324
 30
0.0
 10
104.4959527516541
 20
-143.5151152418991
 30
0.0
 10
104.5510539993471
 20
-143.5151152418991
 30
0.0
 10
104.606193164607
 20
-143.5151152418991
 30
0.0
 10
104.6509606634649
 20
-143.4703124641324
 30
0.0
 10
104.6509606634649
 20
-143.4152085752575
 30
0.0
  0
SPLINE
  5
A1
330
1F
100
AcDbEntity
  8
_U+30EC_U+30A4_U+30E4_U+30FC 1
 62
   179
420
  2234388
370
     9
100
AcDbSpline
210
0.0
220
0.0
230
1.0
 70
    11
 71
     3
 72
    17
 73
    13
 74
     0
 42
0.0000000001
 43
0.0000000001
 12
1.0
 22
0.0
 32
0.0
 13
1.0
 23
0.0
 33
0.0
 40
0.0
 40
0.0
 40
0.0
 40
0.0
 40
1.0
 40
1.0
 40
1.0
 40
2.0
 40
2.0
 40
2.0
 40
3.0
 40
3.0
 40
3.0
 40
4.0
 40
4.0
 40
4.0
 40
4.0
 10
75.15062530497005
 20
-139.4147438540351
 30
0.0
 10
75.15062530497005
 20
-139.3596399651602
 30
0.0
 10
75.10582252833528
 20
-139.3148371873935
 30
0.0
 10
75.05071864085221
 20
-139.3148371873935
 30
0.0
 10
74.99491109236233
 20
-139.3148371873935
 30
0.0
 10
74.95010831459592
 20
-139.3596399651602
 30
0.0
 10
74.95010831459592
 20
-139.4147438540351
 30
0.0
 10
74.95010831459592
 20
-139.4698830206882
 30
0.0
 10
74.99491109236233
 20
-139.5146505206768
 30
0.0
 10
75.05071864085221
 20
-139.5146505206768
 30
0.0
 10
75.10582252833528
 20
-139.5146505206768
 30
0.0
 10
75.15062530497005
 20
-139.4698830206882
 30
0.0
 10
75.15062530497005
 20
-139.4147438540351
 30
0.0
  0
SPLINE
  5
A2
330
1F
100
AcDbEntity
  8
_U+30EC_U+30A4_U+30E4_U+30FC 1
 62
   179
420
  2234388
370
     9
100
AcDbSpline
210
0.0
220
0.0
230
1.0
 70
    11
 71
     3
 72
    17
 73
    13
 74
     0
 42
0.0000000001
 43
0.0000000001
 12
1.0
 22
0.0
 32
0.0
 13
1.0
 23
0.0
 33
0.0
 40
0.0
 40
0.0
 40
0.0
 40
0.0
 40
1.0
 40
1.0
 40
1.0
 40
2.0
 40
2.0
 40
2.0
 40
3.0
 40
3.0
 40
3.0
 40
4.0
 40
4.0
 40
4.0
 40
4.0
 10
79.15038436959435
 20
-143.4152085752575
 30
0.0
 10
79.15038436959435
 20
-143.3593638530489
 30
0.0
 10
79.1055815929596
 20
-143.3145963530604
 30
0.0
 10
79.05047770547652
 20
-143.3145963530604
 30
0.0
 10
78.99533854021657
 20
-143.3145963530604
 30
0.0
 10
78.95057104135869
 20
-143.3593638530489
 30
0.0
 10
78.95057104135869
 20
-143.4152085752575
 30
0.0
 10
78.95057104135869
 20
-143.4703124641324
 30
0.0
 10
78.99533854021657
 20
-143.5151152418991
 30
0.0
 10
79.05047770547652
 20
-143.5151152418991
 30
0.0
 10
79.1055815929596
 20
-143.5151152418991
 30
0.0
 10
79.15038436959435
 20
-143.4703124641324
 30
0.0
 10
79.15038436959435
 20
-143.4152085752575
 30
0.0
  0
POLYLINE
  5
A3
330
1F
100
AcDbEntity
  8
_U+30EC_U+30A4_U+30E4_U+30FC 1
 62
   179
420
  2234388
370
     9
100
AcDb2dPolyline
 66
     1
 10
0.0
 20
0.0
 30
0.0
  0
VERTEX
  5
A4
330
A3
100
AcDbEntity
  8
_U+30EC_U+30A4_U+30E4_U+30FC 1
 62
   179
420
  2234388
370
     9
100
AcDbVertex
100
AcDb2dVertex
 10
86.55042723635908
 20
-114.9142566379383
 30
0.0
  0
VERTEX
  5
A5
330
A3
100
AcDbEntity
  8
_U+30EC_U+30A4_U+30E4_U+30FC 1
 62
   179
420
  2234388
370
     9
100
AcDbVertex
100
AcDb2dVertex
 10
94.55065092114526
 20
-114.9142566379383
 30
0.0
  0
SEQEND
  5
A6
330
A3
100
AcDbEntity
  8
_U+30EC_U+30A4_U+30E4_U+30FC 1
 62
   179
420
  2234388
370
     9
  0
POLYLINE
  5
A7
330
1F
100
AcDbEntity
  8
_U+30EC_U+30A4_U+30E4_U+30FC 1
 62
   179
420
  2234388
370
     9
100
AcDb2dPolyline
 66
     1
 10
0.0
 20
0.0
 30
0.0
  0
VERTEX
  5
A8
330
A7
100
AcDbEntity
  8
_U+30EC_U+30A4_U+30E4_U+30FC 1
 62
   179
420
  2234388
370
     9
100
AcDbVertex
100
AcDb2dVertex
 10
94.55065092114526
 20
-128.829681912237
 30
0.0
  0
VERTEX
  5
A9
330
A7
100
AcDbEntity
  8
_U+30EC_U+30A4_U+30E4_U+30FC 1
 62
   179
420
  2234388
370
     9
100
AcDbVertex
100
AcDb2dVertex
 10
94.55065092114526
 20
-113.9144844159657
 30
0.0
  0
SEQEND
  5
AA
330
A7
100
AcDbEntity
  8
_U+30EC_U+30A4_U+30E4_U+30FC 1
 62
   179
420
  2234388
370
     9
  0
INSERT
  5
AC
330
1F
100
AcDbEntity
  8
_U+30EC_U+30A4_U+30E4_U+30FC 1
100
AcDbBlockReference
  2
block 2
 10
0.0
 20
0.0
 30
0.0
  0
POLYLINE
  5
B1
330
1F
100
AcDbEntity
  8
_U+30EC_U+30A4_U+30E4_U+30FC 1
 62
   179
420
  2234388
370
     9
100
AcDb2dPolyline
 66
     1
 10
0.0
 20
0.0
 30
0.0
  0
VERTEX
  5
B2
330
B1
100
AcDbEntity
  8
_U+30EC_U+30A4_U+30E4_U+30FC 1
 62
   179
420
  2234388
370
     9
100
AcDbVertex
100
AcDb2dVertex
 10
108.5508130639714
 20
-131.9144413559106
 30
0.0
  0
VERTEX
  5
B3
330
B1
100
AcDbEntity
  8
_U+30EC_U+30A4_U+30E4_U+30FC 1
 62
   179
420
  2234388
370
     9
100
AcDbVertex
100
AcDb2dVertex
 10
108.5508130639714
 20
-123.9149230245768
 30
0.0
  0
SEQEND
  5
B4
330
B1
100
AcDbEntity
  8
_U+30EC_U+30A4_U+30E4_U+30FC 1
 62
   179
420
  2234388
370
     9
  0
POLYLINE
  5
B5
330
1F
100
AcDbEntity
  8
_U+30EC_U+30A4_U+30E4_U+30FC 1
 62
   179
420
  2234388
370
     9
100
AcDb2dPolyline
 66
     1
 10
0.0
 20
0.0
 30
0.0
  0
VERTEX
  5
B6
330
B5
100
AcDbEntity
  8
_U+30EC_U+30A4_U+30E4_U+30FC 1
 62
   179
420
  2234388
370
     9
100
AcDbVertex
100
AcDb2dVertex
 10
89.63448331092484
 20
-123.9149230245768
 30
0.0
  0
VERTEX
  5
B7
330
B5
100
AcDbEntity
  8
_U+30EC_U+30A4_U+30E4_U+30FC 1
 62
   179
420
  2234388
370
     9
100
AcDbVertex
100
AcDb2dVertex
 10
109.5512908162248
 20
-123.9149230245768
 30
0.0
  0
SEQEND
  5
B8
330
B5
100
AcDbEntity
  8
_U+30EC_U+30A4_U+30E4_U+30FC 1
 62
   179
420
  2234388
370
     9
  0
INSERT
  5
BA
330
1F
100
AcDbEntity
  8
_U+30EC_U+30A4_U+30E4_U+30FC 1
100
AcDbBlockReference
  2
block 3
 10
0.0
 20
0.0
 30
0.0
  0
POLYLINE
  5
BF
330
1F
100
AcDbEntity
  8
_U+30EC_U+30A4_U+30E4_U+30FC 1
 62
   179
420
  2234388
370
     9
100
AcDb2dPolyline
 66
     1
 10
0.0
 20
0.0
 30
0.0
  0
VERTEX
  5
C0
330
BF
100
AcDbEntity
  8
_U+30EC_U+30A4_U+30E4_U+30FC 1
 62
   179
420
  2234388
370
     9
100
AcDbVertex
100
AcDb2dVertex
 10
79.05047770547652
 20
-143.4152085752575
 30
0.0
  0
VERTEX
  5
C1
330
BF
100
AcDbEntity
  8
_U+30EC_U+30A4_U+30E4_U+30FC 1
 62
   179
420
  2234388
370
     9
100
AcDbVertex
100
AcDb2dVertex
 10
104.5510539993471
 20
-143.4152085752575
 30
0.0
  0
SEQEND
  5
C2
330
BF
100
AcDbEntity
  8
_U+30EC_U+30A4_U+30E4_U+30FC 1
 62
   179
420
  2234388
370
     9
  0
POLYLINE
  5
C3
330
1F
100
AcDbEntity
  8
_U+30EC_U+30A4_U+30E4_U+30FC 1
 62
   179
420
  2234388
370
     9
100
AcDb2dPolyline
 66
     1
 10
0.0
 20
0.0
 30
0.0
  0
VERTEX
  5
C4
330
C3
100
AcDbEntity
  8
_U+30EC_U+30A4_U+30E4_U+30FC 1
 62
   179
420
  2234388
370
     9
100
AcDbVertex
100
AcDb2dVertex
 10
79.05047770547652
 20
-137.9547024655114
 30
0.0
  0
VERTEX
  5
C5
330
C3
100
AcDbEntity
  8
_U+30EC_U+30A4_U+30E4_U+30FC 1
 62
   179
420
  2234388
370
     9
100
AcDbVertex
100
AcDb2dVertex
 10
79.05047770547652
 20
-144.4149455194519
 30
0.0
  0
SEQEND
  5
C6
330
C3
100
AcDbEntity
  8
_U+30EC_U+30A4_U+30E4_U+30FC 1
 62
   179
420
  2234388
370
     9
  0
POLYLINE
  5
C7
330
1F
100
AcDbEntity
  8
_U+30EC_U+30A4_U+30E4_U+30FC 1
 62
   179
420
  2234388
370
     9
100
AcDb2dPolyline
 66
     1
 10
0.0
 20
0.0
 30
0.0
  0
VERTEX
  5
C8
330
C7
100
AcDbEntity
  8
_U+30EC_U+30A4_U+30E4_U+30FC 1
 62
   179
420
  2234388
370
     9
100
AcDbVertex
100
AcDb2dVertex
 10
104.5510539993471
 20
-141.9551671867331
 30
0.0
  0
VERTEX
  5
C9
330
C7
100
AcDbEntity
  8
_U+30EC_U+30A4_U+30E4_U+30FC 1
 62
   179
420
  2234388
370
     9
100
AcDbVertex
100
AcDb2dVertex
 10
104.5510539993471
 20
-144.4149455194519
 30
0.0
  0
SEQEND
  5
CA
330
C7
100
AcDbEntity
  8
_U+30EC_U+30A4_U+30E4_U+30FC 1
 62
   179
420
  2234388
370
     9
  0
INSERT
  5
CC
330
1F
100
AcDbEntity
  8
_U+30EC_U+30A4_U+30E4_U+30FC 1
100
AcDbBlockReference
  2
block 4
 10
0.0
 20
0.0
 30
0.0
  0
POLYLINE
  5
DD
330
1F
100
AcDbEntity
  8
_U+30EC_U+30A4_U+30E4_U+30FC 1
 62
   179
420
  2234388
370
     9
100
AcDb2dPolyline
 66
     1
 10
0.0
 20
0.0
 30
0.0
  0
VERTEX
  5
DE
330
DD
100
AcDbEntity
  8
_U+30EC_U+30A4_U+30E4_U+30FC 1
 62
   179
420
  2234388
370
     9
100
AcDbVertex
100
AcDb2dVertex
 10
86.55042723635908
 20
-114.9142566379383
 30
0.0
  0
VERTEX
  5
DF
330
DD
100
AcDbEntity
  8
_U+30EC_U+30A4_U+30E4_U+30FC 1
 62
   179
420
  2234388
370
     9
100
AcDbVertex
100
AcDb2dVertex
 10
80.05024990219243
 20
-114.9142566379383
 30
0.0
  0
SEQEND
  5
E0
330
DD
100
AcDbEntity
  8
_U+30EC_U+30A4_U+30E4_U+30FC 1
 62
   179
420
  2234388
370
     9
  0
POLYLINE
  5
E1
330
1F
100
AcDbEntity
  8
_U+30EC_U+30A4_U+30E4_U+30FC 1
 62
   179
420
  2234388
370
     9
100
AcDb2dPolyline
 66
     1
 10
0.0
 20
0.0
 30
0.0
  0
VERTEX
  5
E2
330
E1
100
AcDbEntity
  8
_U+30EC_U+30A4_U+30E4_U+30FC 1
 62
   179
420
  2234388
370
     9
100
AcDbVertex
100
AcDb2dVertex
 10
86.55042723635908
 20
-121.3744996918787
 30
0.0
  0
VERTEX
  5
E3
330
E1
100
AcDbEntity
  8
_U+30EC_U+30A4_U+30E4_U+30FC 1
 62
   179
420
  2234388
370
     9
100
AcDbVertex
100
AcDb2dVertex
 10
86.55042723635908
 20
-113.9144844159657
 30
0.0
  0
SEQEND
  5
E4
330
E1
100
AcDbEntity
  8
_U+30EC_U+30A4_U+30E4_U+30FC 1
 62
   179
420
  2234388
370
     9
  0
SPLINE
  5
E5
330
1F
100
AcDbEntity
  8
_U+30EC_U+30A4_U+30E4_U+30FC 1
 62
   179
420
  2234388
370
     9
100
AcDbSpline
210
0.0
220
0.0
230
1.0
 70
    11
 71
     3
 72
    17
 73
    13
 74
     0
 42
0.0000000001
 43
0.0000000001
 12
1.0
 22
0.0
 32
0.0
 13
1.0
 23
0.0
 33
0.0
 40
0.0
 40
0.0
 40
0.0
 40
0.0
 40
1.0
 40
1.0
 40
1.0
 40
2.0
 40
2.0
 40
2.0
 40
3.0
 40
3.0
 40
3.0
 40
4.0
 40
4.0
 40
4.0
 40
4.0
 10
87.75001276131067
 20
-114.9142566379383
 30
0.0
 10
87.75001276131067
 20
-114.859152749063
 30
0.0
 10
87.70591554021345
 20
-114.8143499712963
 30
0.0
 10
87.65010831142092
 20
-114.8143499712963
 30
0.0
 10
87.59500220970976
 20
-114.8143499712963
 30
0.0
 10
87.550199433075
 20
-114.859152749063
 30
0.0
 10
87.550199433075
 20
-114.9142566379383
 30
0.0
 10
87.550199433075
 20
-114.9700660823687
 30
0.0
 10
87.59500220970976
 20
-115.0148688601351
 30
0.0
 10
87.65010831142092
 20
-115.0148688601351
 30
0.0
 10
87.70591554021345
 20
-115.0148688601351
 30
0.0
 10
87.75001276131067
 20
-114.9700660823687
 30
0.0
 10
87.75001276131067
 20
-114.9142566379383
 30
0.0
  0
POLYLINE
  5
E6
330
1F
100
AcDbEntity
  8
_U+30EC_U+30A4_U+30E4_U+30FC 1
 62
   179
420
  2234388
370
     9
100
AcDb2dPolyline
 66
     1
 10
0.0
 20
0.0
 30
0.0
  0
VERTEX
  5
E7
330
E6
100
AcDbEntity
  8
_U+30EC_U+30A4_U+30E4_U+30FC 1
 62
   179
420
  2234388
370
     9
100
AcDbVertex
100
AcDb2dVertex
 10
87.65010831142092
 20
-121.3744996918787
 30
0.0
  0
VERTEX
  5
E8
330
E6
100
AcDbEntity
  8
_U+30EC_U+30A4_U+30E4_U+30FC 1
 62
   179
420
  2234388
370
     9
100
AcDbVertex
100
AcDb2dVertex
 10
87.65010831142092
 20
-113.9144844159657
 30
0.0
  0
SEQEND
  5
E9
330
E6
100
AcDbEntity
  8
_U+30EC_U+30A4_U+30E4_U+30FC 1
 62
   179
420
  2234388
370
     9
  0
POLYLINE
  5
EA
330
1F
100
AcDbEntity
  8
_U+30EC_U+30A4_U+30E4_U+30FC 1
 62
   179
420
  2234388
370
     9
100
AcDb2dPolyline
 66
     1
 10
0.0
 20
0.0
 30
0.0
  0
VERTEX
  5
EB
330
EA
100
AcDbEntity
  8
_U+30EC_U+30A4_U+30E4_U+30FC 1
 62
   179
420
  2234388
370
     9
100
AcDbVertex
100
AcDb2dVertex
 10
80.05024990219243
 20
-122.7483927470906
 30
0.0
  0
VERTEX
  5
EC
330
EA
100
AcDbEntity
  8
_U+30EC_U+30A4_U+30E4_U+30FC 1
 62
   179
420
  2234388
370
     9
100
AcDbVertex
100
AcDb2dVertex
 10
80.05024990219243
 20
-113.9144844159657
 30
0.0
  0
SEQEND
  5
ED
330
EA
100
AcDbEntity
  8
_U+30EC_U+30A4_U+30E4_U+30FC 1
 62
   179
420
  2234388
370
     9
  0
INSERT
  5
EF
330
1F
100
AcDbEntity
  8
_U+30EC_U+30A4_U+30E4_U+30FC 1
100
AcDbBlockReference
  2
block 5
 10
0.0
 20
0.0
 30
0.0
  0
POLYLINE
  5
FF
330
1F
100
AcDbEntity
  8
_U+30EC_U+30A4_U+30E4_U+30FC 1
 62
   179
420
  2234388
370
     9
100
AcDb2dPolyline
 66
     1
 10
0.0
 20
0.0
 30
0.0
  0
VERTEX
  5
100
330
FF
100
AcDbEntity
  8
_U+30EC_U+30A4_U+30E4_U+30FC 1
 62
   179
420
  2234388
370
     9
100
AcDbVertex
100
AcDb2dVertex
 10
75.05071864085221
 20
-118.9147213591603
 30
0.0
  0
VERTEX
  5
101
330
FF
100
AcDbEntity
  8
_U+30EC_U+30A4_U+30E4_U+30FC 1
 62
   179
420
  2234388
370
     9
100
AcDbVertex
100
AcDb2dVertex
 10
75.05071864085221
 20
-139.4147438540351
 30
0.0
  0
SEQEND
  5
102
330
FF
100
AcDbEntity
  8
_U+30EC_U+30A4_U+30E4_U+30FC 1
 62
   179
420
  2234388
370
     9
  0
POLYLINE
  5
103
330
1F
100
AcDbEntity
  8
_U+30EC_U+30A4_U+30E4_U+30FC 1
 62
   179
420
  2234388
370
     9
100
AcDb2dPolyline
 66
     1
 10
0.0
 20
0.0
 30
0.0
  0
VERTEX
  5
104
330
103
100
AcDbEntity
  8
_U+30EC_U+30A4_U+30E4_U+30FC 1
 62
   179
420
  2234388
370
     9
100
AcDbVertex
100
AcDb2dVertex
 10
76.51075999249234
 20
-118.9147213591603
 30
0.0
  0
VERTEX
  5
105
330
103
100
AcDbEntity
  8
_U+30EC_U+30A4_U+30E4_U+30FC 1
 62
   179
420
  2234388
370
     9
100
AcDbVertex
100
AcDb2dVertex
 10
74.05027616637562
 20
-118.9147213591603
 30
0.0
  0
SEQEND
  5
106
330
103
100
AcDbEntity
  8
_U+30EC_U+30A4_U+30E4_U+30FC 1
 62
   179
420
  2234388
370
     9
  0
POLYLINE
  5
107
330
1F
100
AcDbEntity
  8
_U+30EC_U+30A4_U+30E4_U+30FC 1
 62
   179
420
  2234388
370
     9
100
AcDb2dPolyline
 66
     1
 10
0.0
 20
0.0
 30
0.0
  0
VERTEX
  5
108
330
107
100
AcDbEntity
  8
_U+30EC_U+30A4_U+30E4_U+30FC 1
 62
   179
420
  2234388
370
     9
100
AcDbVertex
100
AcDb2dVertex
 10
80.51051905711665
 20
-139.4147438540351
 30
0.0
  0
VERTEX
  5
109
330
107
100
AcDbEntity
  8
_U+30EC_U+30A4_U+30E4_U+30FC 1
 62
   179
420
  2234388
370
     9
100
AcDbVertex
100
AcDb2dVertex
 10
74.05027616637562
 20
-139.4147438540351
 30
0.0
  0
SEQEND
  5
10A
330
107
100
AcDbEntity
  8
_U+30EC_U+30A4_U+30E4_U+30FC 1
 62
   179
420
  2234388
370
     9
  0
INSERT
  5
10C
330
1F
100
AcDbEntity
  8
_U+30EC_U+30A4_U+30E4_U+30FC 1
100
AcDbBlockReference
  2
block 6
 10
0.0
 20
0.0
 30
0.0
  0
POLYLINE
  5
11E
330
1F
100
AcDbEntity
  8
_U+30EC_U+30A4_U+30E4_U+30FC 1
 62
   179
420
  2234388
370
     9
100
AcDb2dPolyline
 66
     1
 10
0.0
 20
0.0
 30
0.0
  0
VERTEX
  5
11F
330
11E
100
AcDbEntity
  8
_U+30EC_U+30A4_U+30E4_U+30FC 1
 62
   179
420
  2234388
370
     9
100
AcDbVertex
100
AcDb2dVertex
 10
108.5508130639714
 20
-131.9144413559106
 30
0.0
  0
VERTEX
  5
120
330
11E
100
AcDbEntity
  8
_U+30EC_U+30A4_U+30E4_U+30FC 1
 62
   179
420
  2234388
370
     9
100
AcDbVertex
100
AcDb2dVertex
 10
108.5508130639714
 20
-138.4149716320632
 30
0.0
  0
SEQEND
  5
121
330
11E
100
AcDbEntity
  8
_U+30EC_U+30A4_U+30E4_U+30FC 1
 62
   179
420
  2234388
370
     9
  0
POLYLINE
  5
122
330
1F
100
AcDbEntity
  8
_U+30EC_U+30A4_U+30E4_U+30FC 1
 62
   179
420
  2234388
370
     9
100
AcDb2dPolyline
 66
     1
 10
0.0
 20
0.0
 30
0.0
  0
VERTEX
  5
123
330
122
100
AcDbEntity
  8
_U+30EC_U+30A4_U+30E4_U+30FC 1
 62
   179
420
  2234388
370
     9
100
AcDbVertex
100
AcDb2dVertex
 10
97.09036863412945
 20
-131.9144413559106
 30
0.0
  0
VERTEX
  5
124
330
122
100
AcDbEntity
  8
_U+30EC_U+30A4_U+30E4_U+30FC 1
 62
   179
420
  2234388
370
     9
100
AcDbVertex
100
AcDb2dVertex
 10
109.5512908162248
 20
-131.9144413559106
 30
0.0
  0
SEQEND
  5
125
330
122
100
AcDbEntity
  8
_U+30EC_U+30A4_U+30E4_U+30FC 1
 62
   179
420
  2234388
370
     9
  0
SPLINE
  5
126
330
1F
100
AcDbEntity
  8
_U+30EC_U+30A4_U+30E4_U+30FC 1
 62
   179
420
  2234388
370
     9
100
AcDbSpline
210
0.0
220
0.0
230
1.0
 70
    11
 71
     3
 72
    17
 73
    13
 74
     0
 42
0.0000000001
 43
0.0000000001
 12
1.0
 22
0.0
 32
0.0
 13
1.0
 23
0.0
 33
0.0
 40
0.0
 40
0.0
 40
0.0
 40
0.0
 40
1.0
 40
1.0
 40
1.0
 40
2.0
 40
2.0
 40
2.0
 40
3.0
 40
3.0
 40
3.0
 40
4.0
 40
4.0
 40
4.0
 40
4.0
 10
108.6507197280892
 20
-131.0149285783574
 30
0.0
 10
108.6507197280892
 20
-130.9597894117043
 30
0.0
 10
108.6059522292313
 20
-130.9150219117158
 30
0.0
 10
108.5508130639714
 20
-130.9150219117158
 30
0.0
 10
108.4957091764883
 20
-130.9150219117158
 30
0.0
 10
108.4509063998535
 20
-130.9597894117043
 30
0.0
 10
108.4509063998535
 20
-131.0149285783574
 30
0.0
 10
108.4509063998535
 20
-131.0700324672324
 30
0.0
 10
108.4957091764883
 20
-131.1148352449991
 30
0.0
 10
108.5508130639714
 20
-131.1148352449991
 30
0.0
 10
108.6059522292313
 20
-131.1148352449991
 30
0.0
 10
108.6507197280892
 20
-131.0700324672324
 30
0.0
 10
108.6507197280892
 20
-131.0149285783574
 30
0.0
  0
POLYLINE
  5
127
330
1F
100
AcDbEntity
  8
_U+30EC_U+30A4_U+30E4_U+30FC 1
 62
   179
420
  2234388
370
     9
100
AcDb2dPolyline
 66
     1
 10
0.0
 20
0.0
 30
0.0
  0
VERTEX
  5
128
330
127
100
AcDbEntity
  8
_U+30EC_U+30A4_U+30E4_U+30FC 1
 62
   179
420
  2234388
370
     9
100
AcDbVertex
100
AcDb2dVertex
 10
97.09036863412945
 20
-131.0149285783574
 30
0.0
  0
VERTEX
  5
129
330
127
100
AcDbEntity
  8
_U+30EC_U+30A4_U+30E4_U+30FC 1
 62
   179
420
  2234388
370
     9
100
AcDbVertex
100
AcDb2dVertex
 10
109.5512908162248
 20
-131.0149285783574
 30
0.0
  0
SEQEND
  5
12A
330
127
100
AcDbEntity
  8
_U+30EC_U+30A4_U+30E4_U+30FC 1
 62
   179
420
  2234388
370
     9
  0
POLYLINE
  5
12B
330
1F
100
AcDbEntity
  8
_U+30EC_U+30A4_U+30E4_U+30FC 1
 62
   179
420
  2234388
370
     9
100
AcDb2dPolyline
 66
     1
 10
0.0
 20
0.0
 30
0.0
  0
VERTEX
  5
12C
330
12B
100
AcDbEntity
  8
_U+30EC_U+30A4_U+30E4_U+30FC 1
 62
   179
420
  2234388
370
     9
100
AcDbVertex
100
AcDb2dVertex
 10
95.7171458913855
 20
-138.4149716320632
 30
0.0
  0
VERTEX
  5
12D
330
12B
100
AcDbEntity
  8
_U+30EC_U+30A4_U+30E4_U+30FC 1
 62
   179
420
  2234388
370
     9
100
AcDbVertex
100
AcDb2dVertex
 10
109.5512908162248
 20
-138.4149716320632
 30
0.0
  0
SEQEND
  5
12E
330
12B
100
AcDbEntity
  8
_U+30EC_U+30A4_U+30E4_U+30FC 1
 62
   179
420
  2234388
370
     9
  0
INSERT
  5
130
330
1F
100
AcDbEntity
  8
_U+30EC_U+30A4_U+30E4_U+30FC 1
100
AcDbBlockReference
  2
block 7
 10
0.0
 20
0.0
 30
0.0
  0
POLYLINE
  5
140
330
1F
100
AcDbEntity
  8
_U+30EC_U+30A4_U+30E4_U+30FC 1
  6
AI-Linetype-1
 62
   251
420
  5855577
370
    25
100
AcDb2dPolyline
 66
     1
 10
0.0
 20
0.0
 30
0.0
  0
VERTEX
  5
141
330
140
100
AcDbEntity
  8
_U+30EC_U+30A4_U+30E4_U+30FC 1
  6
AI-Linetype-1
 62
   251
420
  5855577
370
    25
100
AcDbVertex
100
AcDb2dVertex
 10
86.27208557679351
 20
-123.1886946914249
 30
0.0
  0
VERTEX
  5
142
330
140
100
AcDbEntity
  8
_U+30EC_U+30A4_U+30E4_U+30FC 1
  6
AI-Linetype-1
 62
   251
420
  5855577
370
    25
100
AcDbVertex
100
AcDb2dVertex
 10
88.21236330507068
 20
-123.1886946914249
 30
0.0
  0
VERTEX
  5
143
330
140
100
AcDbEntity
  8
_U+30EC_U+30A4_U+30E4_U+30FC 1
  6
AI-Linetype-1
 62
   251
420
  5855577
370
    25
100
AcDbVertex
100
AcDb2dVertex
 10
88.21236330507068
 20
-130.2883474674278
 30
0.0
  0
VERTEX
  5
144
330
140
100
AcDbEntity
  8
_U+30EC_U+30A4_U+30E4_U+30FC 1
  6
AI-Linetype-1
 62
   251
420
  5855577
370
    25
100
AcDbVertex
100
AcDb2dVertex
 10
95.13629729509307
 20
-130.2883474674278
 30
0.0
  0
VERTEX
  5
145
330
140
100
AcDbEntity
  8
_U+30EC_U+30A4_U+30E4_U+30FC 1
  6
AI-Linetype-1
 62
   251
420
  5855577
370
    25
100
AcDbVertex
100
AcDb2dVertex
 10
95.13629729509307
 20
-132.0081391336645
 30
0.0
  0
SEQEND
  5
147
330
140
100
AcDbEntity
  8
_U+30EC_U+30A4_U+30E4_U+30FC 1
  6
AI-Linetype-1
 62
   251
420
  5855577
370
    25
  0
POLYLINE
  5
148
330
1F
100
AcDbEntity
  8
_U+30EC_U+30A4_U+30E4_U+30FC 1
 62
     7
420
 16777215
370
     9
100
AcDb2dPolyline
 66
     1
 10
0.0
 20
0.0
 30
0.0
  0
VERTEX
  5
149
330
148
100
AcDbEntity
  8
_U+30EC_U+30A4_U+30E4_U+30FC 1
 62
     7
420
 16777215
370
     9
100
AcDbVertex
100
AcDb2dVertex
 10
77.31484636086728
 20
-114.9149621934935
 30
0.0
  0
VERTEX
  5
14A
330
148
100
AcDbEntity
  8
_U+30EC_U+30A4_U+30E4_U+30FC 1
 62
     7
420
 16777215
370
     9
100
AcDbVertex
100
AcDb2dVertex
 10
84.5543400650613
 20
-114.9149621934935
 30
0.0
  0
SEQEND
  5
14B
330
148
100
AcDbEntity
  8
_U+30EC_U+30A4_U+30E4_U+30FC 1
 62
     7
420
 16777215
370
     9
  0
POLYLINE
  5
14C
330
1F
100
AcDbEntity
  8
_U+30EC_U+30A4_U+30E4_U+30FC 1
 62
     7
420
 16777215
370
     9
100
AcDb2dPolyline
 66
     1
 10
0.0
 20
0.0
 30
0.0
  0
VERTEX
  5
14D
330
14C
100
AcDbEntity
  8
_U+30EC_U+30A4_U+30E4_U+30FC 1
 62
     7
420
 16777215
370
     9
100
AcDbVertex
100
AcDb2dVertex
 10
79.04564465004427
 20
-116.7608366374764
 30
0.0
  0
VERTEX
  5
14E
330
14C
100
AcDbEntity
  8
_U+30EC_U+30A4_U+30E4_U+30FC 1
 62
     7
420
 16777215
370
     9
100
AcDbVertex
100
AcDb2dVertex
 10
79.04564465004427
 20
-113.9513496937344
 30
0.0
  0
SEQEND
  5
14F
330
14C
100
AcDbEntity
  8
_U+30EC_U+30A4_U+30E4_U+30FC 1
 62
     7
420
 16777215
370
     9
  0
INSERT
  5
151
330
1F
100
AcDbEntity
  8
_U+30EC_U+30A4_U+30E4_U+30FC 1
100
AcDbBlockReference
  2
block 8
 10
0.0
 20
0.0
 30
0.0
  0
SPLINE
  5
156
330
1F
100
AcDbEntity
  8
_U+30EC_U+30A4_U+30E4_U+30FC 1
 62
     7
420
 16777215
370
     9
100
AcDbSpline
210
0.0
220
0.0
230
1.0
 70
    11
 71
     3
 72
    17
 73
    13
 74
     0
 42
0.0000000001
 43
0.0000000001
 12
1.0
 22
0.0
 32
0.0
 13
1.0
 23
0.0
 33
0.0
 40
0.0
 40
0.0
 40
0.0
 40
0.0
 40
1.0
 40
1.0
 40
1.0
 40
2.0
 40
2.0
 40
2.0
 40
3.0
 40
3.0
 40
3.0
 40
4.0
 40
4.0
 40
4.0
 40
4.0
 10
79.14625686969966
 20
-114.9308019157117
 30
0.0
 10
79.14625686969966
 20
-114.8756627490589
 30
0.0
 10
79.10145409306489
 20
-114.83089524907
 30
0.0
 10
79.04635020558182
 20
-114.83089524907
 30
0.0
 10
78.9905407625612
 20
-114.83089524907
 30
0.0
 10
78.94573798592643
 20
-114.8756627490589
 30
0.0
 10
78.94573798592643
 20
-114.9308019157117
 30
0.0
 10
78.94573798592643
 20
-114.9862585823647
 30
0.0
 10
78.9905407625612
 20
-115.0310613601311
 30
0.0
 10
79.04635020558182
 20
-115.0310613601311
 30
0.0
 10
79.10145409306489
 20
-115.0310613601311
 30
0.0
 10
79.14625686969966
 20
-114.9862585823647
 30
0.0
 10
79.14625686969966
 20
-114.9308019157117
 30
0.0
  0
ENDSEC
  0
SECTION
  2
OBJECTS
  0
DICTIONARY
  5
C
330
0
100
AcDbDictionary
281
     1
  3
ACAD_GROUP
350
D
  3
ACAD_LAYOUT
350
1A
  3
ACAD_MATERIAL
350
3B
  3
ACAD_MLEADERSTYLE
350
158
  3
ACAD_MLINESTYLE
350
17
  3
ACAD_PLOTSETTINGS
350
19
  3
ACAD_PLOTSTYLENAME
350
E
  3
ACAD_TABLESTYLE
350
157
  3
ACAD_VISUALSTYLE
350
2A
  0
SUN
  5
3F
330
29
100
AcDbSun
 90
        1
290
     0
 63
     7
421
 16777215
 40
1.0
291
     1
 91
  2455826
 92
 54000000
292
     0
 70
     2
 71
   256
280
     1
  0
DICTIONARY
  5
D
102
{ACAD_REACTORS
330
C
102
}
330
C
100
AcDbDictionary
281
     1
  0
DICTIONARY
  5
1A
102
{ACAD_REACTORS
330
C
102
}
330
C
100
AcDbDictionary
281
     1
  3
Layout1
350
1E
  3
Layout2
350
26
  3
Model
350
22
  0
DICTIONARY
  5
3B
102
{ACAD_REACTORS
330
C
102
}
330
C
100
AcDbDictionary
281
     1
  3
ByBlock
350
3D
  3
ByLayer
350
3C
  3
Global
350
3E
  0
DICTIONARY
  5
158
102
{ACAD_REACTORS
330
C
102
}
330
C
100
AcDbDictionary
281
     1
  0
DICTIONARY
  5
17
102
{ACAD_REACTORS
330
C
102
}
330
C
100
AcDbDictionary
281
     1
  3
Standard
350
18
  0
DICTIONARY
  5
19
102
{ACAD_REACTORS
330
C
102
}
330
C
100
AcDbDictionary
281
     1
  0
ACDBDICTIONARYWDFLT
  5
E
102
{ACAD_REACTORS
330
C
102
}
330
C
100
AcDbDictionary
281
     1
  3
Normal
350
F
100
AcDbDictionaryWithDefault
340
F
  0
DICTIONARY
  5
157
102
{ACAD_REACTORS
330
C
102
}
330
C
100
AcDbDictionary
281
     1
  0
DICTIONARY
  5
2A
102
{ACAD_REACTORS
330
C
102
}
330
C
100
AcDbDictionary
281
     1
  3
2dWireframe
350
2F
  3
3D Hidden
350
31
  3
3dWireframe
350
30
  3
Basic
350
32
  3
Brighten
350
36
  3
ColorChange
350
3A
  3
Conceptual
350
34
  3
Dim
350
35
  3
Facepattern
350
39
  3
Flat
350
2B
  3
FlatWithEdges
350
2C
  3
Gouraud
350
2D
  3
GouraudWithEdges
350
2E
  3
Linepattern
350
38
  3
Realistic
350
33
  3
Thicken
350
37
  0
LAYOUT
  5
1E
102
{ACAD_REACTORS
330
1A
102
}
330
1A
100
AcDbPlotSettings
  1

  2
none_device
  4

  6

 40
0.0
 41
0.0
 42
0.0
 43
0.0
 44
0.0
 45
0.0
 46
0.0
 47
0.0
 48
0.0
 49
0.0
140
0.0
141
0.0
142
1.0
143
1.0
 70
   688
 72
     0
 73
     0
 74
     5
  7

 75
    16
 76
     0
 77
     2
 78
   300
147
1.0
148
0.0
149
0.0
100
AcDbLayout
  1
Layout1
 70
     1
 71
     1
 10
0.0
 20
0.0
 11
12.0
 21
9.0
 12
0.0
 22
0.0
 32
0.0
 14
1.000000000000000E+20
 24
1.000000000000000E+20
 34
1.000000000000000E+20
 15
-1.000000000000000E+20
 25
-1.000000000000000E+20
 35
-1.000000000000000E+20
146
0.0
 13
0.0
 23
0.0
 33
0.0
 16
1.0
 26
0.0
 36
0.0
 17
0.0
 27
1.0
 37
0.0
 76
     0
330
1B
  0
LAYOUT
  5
26
102
{ACAD_REACTORS
330
1A
102
}
330
1A
100
AcDbPlotSettings
  1

  2
none_device
  4

  6

 40
0.0
 41
0.0
 42
0.0
 43
0.0
 44
0.0
 45
0.0
 46
0.0
 47
0.0
 48
0.0
 49
0.0
140
0.0
141
0.0
142
1.0
143
1.0
 70
   688
 72
     0
 73
     0
 74
     5
  7

 75
    16
 76
     0
 77
     2
 78
   300
147
1.0
148
0.0
149
0.0
100
AcDbLayout
  1
Layout2
 70
     1
 71
     2
 10
0.0
 20
0.0
 11
0.0
 21
0.0
 12
0.0
 22
0.0
 32
0.0
 14
0.0
 24
0.0
 34
0.0
 15
0.0
 25
0.0
 35
0.0
146
0.0
 13
0.0
 23
0.0
 33
0.0
 16
1.0
 26
0.0
 36
0.0
 17
0.0
 27
1.0
 37
0.0
 76
     0
330
23
  0
LAYOUT
  5
22
102
{ACAD_REACTORS
330
1A
102
}
330
1A
100
AcDbPlotSettings
  1

  2
none_device
  4

  6

 40
0.0
 41
0.0
 42
0.0
 43
0.0
 44
0.0
 45
0.0
 46
0.0
 47
0.0
 48
0.0
 49
0.0
140
0.0
141
0.0
142
1.0
143
1.0
 70
  1712
 72
     0
 73
     0
 74
     0
  7

 75
     0
 76
     0
 77
     2
 78
   300
147
1.0
148
0.0
149
0.0
100
AcDbLayout
  1
Model
 70
     1
 71
     0
 10
0.0
 20
0.0
 11
12.0
 21
9.0
 12
0.0
 22
0.0
 32
0.0
 14
1.000000000000000E+20
 24
1.000000000000000E+20
 34
1.000000000000000E+20
 15
-1.000000000000000E+20
 25
-1.000000000000000E+20
 35
-1.000000000000000E+20
146
0.0
 13
0.0
 23
0.0
 33
0.0
 16
1.0
 26
0.0
 36
0.0
 17
0.0
 27
1.0
 37
0.0
 76
     0
330
1F
331
29
  0
MATERIAL
  5
3D
102
{ACAD_REACTORS
330
3B
102
}
330
3B
100
AcDbMaterial
  1
ByBlock
 72
     1
 94
      127
  0
MATERIAL
  5
3C
102
{ACAD_REACTORS
330
3B
102
}
330
3B
100
AcDbMaterial
  1
ByLayer
 72
     1
 94
      127
  0
MATERIAL
  5
3E
102
{ACAD_REACTORS
330
3B
102
}
330
3B
100
AcDbMaterial
  1
Global
 72
     1
 94
      127
  0
MLINESTYLE
  5
18
102
{ACAD_REACTORS
330
17
102
}
330
17
100
AcDbMlineStyle
  2
Standard
 70
     0
  3

 62
   256
 51
90.0
 52
90.0
 71
     2
 49
0.5
 62
   256
  6
BYLAYER
 49
-0.5
 62
   256
  6
BYLAYER
  0
ACDBPLACEHOLDER
  5
F
102
{ACAD_REACTORS
330
E
102
}
330
E
  0
VISUALSTYLE
  5
2F
102
{ACAD_REACTORS
330
2A
102
}
330
2A
100
AcDbVisualStyle
  2
2dWireframe
 70
     4
177
     2
291
     0
 71
     0
176
     1
 72
     2
176
     1
 73
     0
176
     1
 90
        0
176
     1
 40
-0.6
176
     1
 41
-30.0
176
     1
 62
     5
 63
     7
421
 16777215
176
     1
 74
     1
176
     1
 91
        4
176
     1
 64
     7
176
     1
 65
   257
176
     1
 75
     1
176
     1
175
     1
176
     1
 42
1.0
176
     1
 92
        0
176
     1
 66
   257
176
     1
 43
1.0
176
     1
 76
     1
176
     1
 77
     6
176
     1
 78
     2
176
     1
 67
     7
176
     1
 79
     5
176
     1
170
     0
176
     1
171
     0
176
     1
290
     0
176
     1
 93
        1
176
     1
 44
0.0
176
     1
173
     0
176
     1
  0
VISUALSTYLE
  5
31
102
{ACAD_REACTORS
330
2A
102
}
330
2A
100
AcDbVisualStyle
  2
3D Hidden
 70
     6
177
     2
291
     0
 71
     1
176
     1
 72
     2
176
     1
 73
     2
176
     1
 90
        0
176
     1
 40
-0.6
176
     1
 41
-30.0
176
     1
 62
     5
 63
     7
421
 16777215
176
     1
 74
     2
176
     1
 91
        2
176
     1
 64
     7
176
     1
 65
   257
176
     1
 75
     2
176
     1
175
     1
176
     1
 42
40.0
176
     1
 92
        0
176
     1
 66
   257
176
     1
 43
1.0
176
     1
 76
     1
176
     1
 77
     6
176
     1
 78
     2
176
     1
 67
     7
176
     1
 79
     3
176
     1
170
     0
176
     1
171
     0
176
     1
290
     0
176
     1
 93
        1
176
     1
 44
0.0
176
     1
173
     0
176
     1
  0
VISUALSTYLE
  5
30
102
{ACAD_REACTORS
330
2A
102
}
330
2A
100
AcDbVisualStyle
  2
3dWireframe
 70
     5
177
     2
291
     0
 71
     0
176
     1
 72
     2
176
     1
 73
     0
176
     1
 90
        0
176
     1
 40
-0.6
176
     1
 41
-30.0
176
     1
 62
     5
 63
     7
421
 16777215
176
     1
 74
     1
176
     1
 91
        4
176
     1
 64
     7
176
     1
 65
   257
176
     1
 75
     1
176
     1
175
     1
176
     1
 42
1.0
176
     1
 92
        0
176
     1
 66
   257
176
     1
 43
1.0
176
     1
 76
     1
176
     1
 77
     6
176
     1
 78
     2
176
     1
 67
     7
176
     1
 79
     5
176
     1
170
     0
176
     1
171
     0
176
     1
290
     0
176
     1
 93
        1
176
     1
 44
0.0
176
     1
173
     0
176
     1
  0
VISUALSTYLE
  5
32
102
{ACAD_REACTORS
330
2A
102
}
330
2A
100
AcDbVisualStyle
  2
Basic
 70
     7
177
     2
291
     1
 71
     1
176
     1
 72
     0
176
     1
 73
     1
176
     1
 90
        0
176
     1
 40
-0.6
176
     1
 41
-30.0
176
     1
 62
     5
 63
     7
421
 16777215
176
     1
 74
     0
176
     1
 91
        4
176
     1
 64
     7
176
     1
 65
   257
176
     1
 75
     1
176
     1
175
     1
176
     1
 42
1.0
176
     1
 92
        8
176
     1
 66
     7
176
     1
 43
1.0
176
     1
 76
     1
176
     1
 77
     6
176
     1
 78
     2
176
     1
 67
     7
176
     1
 79
     5
176
     1
170
     0
176
     1
171
     0
176
     1
290
     0
176
     1
 93
        1
176
     1
 44
0.0
176
     1
173
     0
176
     1
  0
VISUALSTYLE
  5
36
102
{ACAD_REACTORS
330
2A
102
}
330
2A
100
AcDbVisualStyle
  2
Brighten
 70
    12
177
     2
291
     1
 71
     2
176
     1
 72
     2
176
     1
 73
     0
176
     1
 90
        0
176
     1
 40
-0.6
176
     1
 41
-30.0
176
     1
 62
     5
 63
     7
421
 16777215
176
     1
 74
     1
176
     1
 91
        4
176
     1
 64
     7
176
     1
 65
   257
176
     1
 75
     1
176
     1
175
     1
176
     1
 42
1.0
176
     1
 92
        8
176
     1
 66
     7
176
     1
 43
1.0
176
     1
 76
     1
176
     1
 77
     6
176
     1
 78
     2
176
     1
 67
     7
176
     1
 79
     5
176
     1
170
     0
176
     1
171
     0
176
     1
290
     0
176
     1
 93
        1
176
     1
 44
50.0
176
     1
173
     0
176
     1
  0
VISUALSTYLE
  5
3A
102
{ACAD_REACTORS
330
2A
102
}
330
2A
100
AcDbVisualStyle
  2
ColorChange
 70
    16
177
     2
291
     1
 71
     2
176
     1
 72
     2
176
     1
 73
     3
176
     1
 90
        0
176
     1
 40
-0.6
176
     1
 41
-30.0
176
     1
 62
     5
 63
     8
421
  8421504
176
     1
 74
     1
176
     1
 91
        4
176
     1
 64
     7
176
     1
 65
   257
176
     1
 75
     1
176
     1
175
     1
176
     1
 42
1.0
176
     1
 92
        8
176
     1
 66
     8
424
  8421504
176
     1
 43
1.0
176
     1
 76
     1
176
     1
 77
     6
176
     1
 78
     2
176
     1
 67
     7
176
     1
 79
     5
176
     1
170
     0
176
     1
171
     0
176
     1
290
     0
176
     1
 93
        1
176
     1
 44
0.0
176
     1
173
     0
176
     1
  0
VISUALSTYLE
  5
34
102
{ACAD_REACTORS
330
2A
102
}
330
2A
100
AcDbVisualStyle
  2
Conceptual
 70
     9
177
     2
291
     0
 71
     3
176
     1
 72
     2
176
     1
 73
     0
176
     1
 90
        0
176
     1
 40
-0.6
176
     1
 41
-30.0
176
     1
 62
     5
 63
     7
421
 16777215
176
     1
 74
     2
176
     1
 91
        2
176
     1
 64
     7
176
     1
 65
   257
176
     1
 75
     1
176
     1
175
     1
176
     1
 42
40.0
176
     1
 92
        8
176
     1
 66
     7
176
     1
 43
1.0
176
     1
 76
     1
176
     1
 77
     6
176
     1
 78
     2
176
     1
 67
     7
176
     1
 79
     3
176
     1
170
     0
176
     1
171
     0
176
     1
290
     0
176
     1
 93
        1
176
     1
 44
0.0
176
     1
173
     0
176
     1
  0
VISUALSTYLE
  5
35
102
{ACAD_REACTORS
330
2A
102
}
330
2A
100
AcDbVisualStyle
  2
Dim
 70
    11
177
     2
291
     1
 71
     2
176
     1
 72
     2
176
     1
 73
     0
176
     1
 90
        0
176
     1
 40
-0.6
176
     1
 41
-30.0
176
     1
 62
     5
 63
     7
421
 16777215
176
     1
 74
     1
176
     1
 91
        4
176
     1
 64
     7
176
     1
 65
   257
176
     1
 75
     1
176
     1
175
     1
176
     1
 42
1.0
176
     1
 92
        8
176
     1
 66
     7
176
     1
 43
1.0
176
     1
 76
     1
176
     1
 77
     6
176
     1
 78
     2
176
     1
 67
     7
176
     1
 79
     5
176
     1
170
     0
176
     1
171
     0
176
     1
290
     0
176
     1
 93
        1
176
     1
 44
-50.0
176
     1
173
     0
176
     1
  0
VISUALSTYLE
  5
39
102
{ACAD_REACTORS
330
2A
102
}
330
2A
100
AcDbVisualStyle
  2
Facepattern
 70
    15
177
     2
291
     1
 71
     2
176
     1
 72
     2
176
     1
 73
     0
176
     1
 90
        0
176
     1
 40
-0.6
176
     1
 41
-30.0
176
     1
 62
     5
 63
     7
421
 16777215
176
     1
 74
     1
176
     1
 91
        4
176
     1
 64
     7
176
     1
 65
   257
176
     1
 75
     1
176
     1
175
     1
176
     1
 42
1.0
176
     1
 92
        8
176
     1
 66
     7
176
     1
 43
1.0
176
     1
 76
     1
176
     1
 77
     6
176
     1
 78
     2
176
     1
 67
     7
176
     1
 79
     5
176
     1
170
     0
176
     1
171
     0
176
     1
290
     0
176
     1
 93
        1
176
     1
 44
0.0
176
     1
173
     0
176
     1
  0
VISUALSTYLE
  5
2B
102
{ACAD_REACTORS
330
2A
102
}
330
2A
100
AcDbVisualStyle
  2
Flat
 70
     0
177
     2
291
     1
 71
     2
176
     1
 72
     1
176
     1
 73
     1
176
     1
 90
        2
176
     1
 40
-0.6
176
     1
 41
30.0
176
     1
 62
     5
 63
     7
421
 16777215
176
     1
 74
     0
176
     1
 91
        4
176
     1
 64
     7
176
     1
 65
   257
176
     1
 75
     1
176
     1
175
     1
176
     1
 42
1.0
176
     1
 92
        8
176
     1
 66
     7
176
     1
 43
1.0
176
     1
 76
     1
176
     1
 77
     6
176
     1
 78
     2
176
     1
 67
     7
176
     1
 79
     5
176
     1
170
     0
176
     1
171
     0
176
     1
290
     0
176
     1
 93
       13
176
     1
 44
0.0
176
     1
173
     0
176
     1
  0
VISUALSTYLE
  5
2C
102
{ACAD_REACTORS
330
2A
102
}
330
2A
100
AcDbVisualStyle
  2
FlatWithEdges
 70
     1
177
     2
291
     1
 71
     2
176
     1
 72
     1
176
     1
 73
     1
176
     1
 90
        2
176
     1
 40
-0.6
176
     1
 41
30.0
176
     1
 62
     5
 63
     7
421
 16777215
176
     1
 74
     1
176
     1
 91
        4
176
     1
 64
     7
176
     1
 65
   257
176
     1
 75
     1
176
     1
175
     1
176
     1
 42
1.0
176
     1
 92
        0
176
     1
 66
   257
176
     1
 43
1.0
176
     1
 76
     1
176
     1
 77
     6
176
     1
 78
     2
176
     1
 67
     7
176
     1
 79
     5
176
     1
170
     0
176
     1
171
     0
176
     1
290
     0
176
     1
 93
       13
176
     1
 44
0.0
176
     1
173
     0
176
     1
  0
VISUALSTYLE
  5
2D
102
{ACAD_REACTORS
330
2A
102
}
330
2A
100
AcDbVisualStyle
  2
Gouraud
 70
     2
177
     2
291
     1
 71
     2
176
     1
 72
     2
176
     1
 73
     1
176
     1
 90
        2
176
     1
 40
-0.6
176
     1
 41
30.0
176
     1
 62
     5
 63
     7
421
 16777215
176
     1
 74
     0
176
     1
 91
        4
176
     1
 64
     7
176
     1
 65
   257
176
     1
 75
     1
176
     1
175
     1
176
     1
 42
1.0
176
     1
 92
        0
176
     1
 66
     7
176
     1
 43
1.0
176
     1
 76
     1
176
     1
 77
     6
176
     1
 78
     2
176
     1
 67
     7
176
     1
 79
     5
176
     1
170
     0
176
     1
171
     0
176
     1
290
     0
176
     1
 93
       13
176
     1
 44
0.0
176
     1
173
     0
176
     1
  0
VISUALSTYLE
  5
2E
102
{ACAD_REACTORS
330
2A
102
}
330
2A
100
AcDbVisualStyle
  2
GouraudWithEdges
 70
     3
177
     2
291
     1
 71
     2
176
     1
 72
     2
176
     1
 73
     1
176
     1
 90
        2
176
     1
 40
-0.6
176
     1
 41
30.0
176
     1
 62
     5
 63
     7
421
 16777215
176
     1
 74
     1
176
     1
 91
        4
176
     1
 64
     7
176
     1
 65
   257
176
     1
 75
     1
176
     1
175
     1
176
     1
 42
1.0
176
     1
 92
        0
176
     1
 66
   257
176
     1
 43
1.0
176
     1
 76
     1
176
     1
 77
     6
176
     1
 78
     2
176
     1
 67
     7
176
     1
 79
     5
176
     1
170
     0
176
     1
171
     0
176
     1
290
     0
176
     1
 93
       13
176
     1
 44
0.0
176
     1
173
     0
176
     1
  0
VISUALSTYLE
  5
38
102
{ACAD_REACTORS
330
2A
102
}
330
2A
100
AcDbVisualStyle
  2
Linepattern
 70
    14
177
     2
291
     1
 71
     2
176
     1
 72
     2
176
     1
 73
     0
176
     1
 90
        0
176
     1
 40
-0.6
176
     1
 41
-30.0
176
     1
 62
     5
 63
     7
421
 16777215
176
     1
 74
     1
176
     1
 91
        4
176
     1
 64
     7
176
     1
 65
   257
176
     1
 75
     7
176
     1
175
     7
176
     1
 42
1.0
176
     1
 92
        8
176
     1
 66
     7
176
     1
 43
1.0
176
     1
 76
     1
176
     1
 77
     6
176
     1
 78
     2
176
     1
 67
     7
176
     1
 79
     5
176
     1
170
     0
176
     1
171
     0
176
     1
290
     0
176
     1
 93
        1
176
     1
 44
0.0
176
     1
173
     0
176
     1
  0
VISUALSTYLE
  5
33
102
{ACAD_REACTORS
330
2A
102
}
330
2A
100
AcDbVisualStyle
  2
Realistic
 70
     8
177
     2
291
     0
 71
     2
176
     1
 72
     2
176
     1
 73
     0
176
     1
 90
        0
176
     1
 40
-0.6
176
     1
 41
-30.0
176
     1
 62
     5
 63
     7
421
 16777215
176
     1
 74
     1
176
     1
 91
        0
176
     1
 64
     7
176
     1
 65
   257
176
     1
 75
     1
176
     1
175
     1
176
     1
 42
1.0
176
     1
 92
        8
176
     1
 66
     8
424
  7895160
176
     1
 43
1.0
176
     1
 76
     1
176
     1
 77
     6
176
     1
 78
     2
176
     1
 67
     7
176
     1
 79
     5
176
     1
170
     0
176
     1
171
     0
176
     1
290
     0
176
     1
 93
       13
176
     1
 44
0.0
176
     1
173
     0
176
     1
  0
VISUALSTYLE
  5
37
102
{ACAD_REACTORS
330
2A
102
}
330
2A
100
AcDbVisualStyle
  2
Thicken
 70
    13
177
     2
291
     1
 71
     2
176
     1
 72
     2
176
     1
 73
     0
176
     1
 90
        0
176
     1
 40
-0.6
176
     1
 41
-30.0
176
     1
 62
     5
 63
     7
421
 16777215
176
     1
 74
     1
176
     1
 91
        4
176
     1
 64
     7
176
     1
 65
   257
176
     1
 75
     1
176
     1
175
     1
176
     1
 42
1.0
176
     1
 92
       12
176
     1
 66
     7
176
     1
 43
1.0
176
     1
 76
     1
176
     1
 77
     6
176
     1
 78
     2
176
     1
 67
     7
176
     1
 79
     5
176
     1
170
     0
176
     1
171
     0
176
     1
290
     0
176
     1
 93
        1
176
     1
 44
0.0
176
     1
173
     0
176
     1
  0
ENDSEC
  0
EOF
