  0
SECTION
  2
HEADER
  9
$ACADVER
  1
AC1024
  9
$ACADMAINTVER
 70
     6
  9
$DWGCODEPAGE
  3
UNDEFINED
  9
$INSBASE
 10
0.0
 20
0.0
 30
0.0
  9
$EXTMIN
 10
1.000000000000000E+20
 20
1.000000000000000E+20
 30
1.000000000000000E+20
  9
$EXTMAX
 10
-1.000000000000000E+20
 20
-1.000000000000000E+20
 30
-1.000000000000000E+20
  9
$LIMMIN
 10
0.0
 20
0.0
  9
$LIMMAX
 10
12.0
 20
9.0
  9
$ORTHOMODE
 70
     0
  9
$REGENMODE
 70
     1
  9
$FILLMODE
 70
     1
  9
$QTEXTMODE
 70
     0
  9
$MIRRTEXT
 70
     1
  9
$LTSCALE
 40
1.0
  9
$ATTMODE
 70
     1
  9
$TEXTSIZE
 40
0.2
  9
$TRACEWID
 40
0.05
  9
$TEXTSTYLE
  7
Standard
  9
$CLAYER
  8
0
  9
$CELTYPE
  6
ByLayer
  9
$CECOLOR
 62
   256
  9
$CELTSCALE
 40
1.0
  9
$DISPSILH
 70
     0
  9
$DIMSCALE
 40
1.0
  9
$DIMASZ
 40
0.18
  9
$DIMEXO
 40
0.0625
  9
$DIMDLI
 40
0.38
  9
$DIMRND
 40
0.0
  9
$DIMDLE
 40
0.0
  9
$DIMEXE
 40
0.18
  9
$DIMTP
 40
0.0
  9
$DIMTM
 40
0.0
  9
$DIMTXT
 40
0.18
  9
$DIMCEN
 40
0.09
  9
$DIMTSZ
 40
0.0
  9
$DIMTOL
 70
     0
  9
$DIMLIM
 70
     0
  9
$DIMTIH
 70
     1
  9
$DIMTOH
 70
     1
  9
$DIMSE1
 70
     0
  9
$DIMSE2
 70
     0
  9
$DIMTAD
 70
     0
  9
$DIMZIN
 70
     0
  9
$DIMBLK
  1

  9
$DIMASO
 70
     1
  9
$DIMSHO
 70
     1
  9
$DIMPOST
  1

  9
$DIMAPOST
  1

  9
$DIMALT
 70
     0
  9
$DIMALTD
 70
     2
  9
$DIMALTF
 40
25.4
  9
$DIMLFAC
 40
1.0
  9
$DIMTOFL
 70
     0
  9
$DIMTVP
 40
0.0
  9
$DIMTIX
 70
     0
  9
$DIMSOXD
 70
     0
  9
$DIMSAH
 70
     0
  9
$DIMBLK1
  1

  9
$DIMBLK2
  1

  9
$DIMSTYLE
  2
Standard
  9
$DIMCLRD
 70
     0
  9
$DIMCLRE
 70
     0
  9
$DIMCLRT
 70
     0
  9
$DIMTFAC
 40
1.0
  9
$DIMGAP
 40
0.09
  9
$DIMJUST
 70
     0
  9
$DIMSD1
 70
     0
  9
$DIMSD2
 70
     0
  9
$DIMTOLJ
 70
     1
  9
$DIMTZIN
 70
     0
  9
$DIMALTZ
 70
     0
  9
$DIMALTTZ
 70
     0
  9
$DIMUPT
 70
     0
  9
$DIMDEC
 70
     4
  9
$DIMTDEC
 70
     4
  9
$DIMALTU
 70
     2
  9
$DIMALTTD
 70
     2
  9
$DIMTXSTY
  7
Standard
  9
$DIMAUNIT
 70
     0
  9
$DIMADEC
 70
     0
  9
$DIMALTRND
 40
0.0
  9
$DIMAZIN
 70
     0
  9
$DIMDSEP
 70
    46
  9
$DIMATFIT
 70
     3
  9
$DIMFRAC
 70
     0
  9
$DIMLDRBLK
  1

  9
$DIMLUNIT
 70
     2
  9
$DIMLWD
 70
    -2
  9
$DIMLWE
 70
    -2
  9
$DIMTMOVE
 70
     0
  9
$DIMFXL
 40
1.0
  9
$DIMFXLON
 70
     0
  9
$DIMJOGANG
 40
0.7853981633974483
  9
$DIMTFILL
 70
     0
  9
$DIMTFILLCLR
 70
     0
  9
$DIMARCSYM
 70
     0
  9
$DIMLTYPE
  6

  9
$DIMLTEX1
  6

  9
$DIMLTEX2
  6

  9
$DIMTXTDIRECTION
 70
     0
  9
$LUNITS
 70
     2
  9
$LUPREC
 70
     4
  9
$SKETCHINC
 40
0.1
  9
$FILLETRAD
 40
0.5
  9
$AUNITS
 70
     0
  9
$AUPREC
 70
     0
  9
$MENU
  1
.
  9
$ELEVATION
 40
0.0
  9
$PELEVATION
 40
0.0
  9
$THICKNESS
 40
0.0
  9
$LIMCHECK
 70
     0
  9
$CHAMFERA
 40
0.5
  9
$CHAMFERB
 40
0.5
  9
$CHAMFERC
 40
1.0
  9
$CHAMFERD
 40
0.0
  9
$SKPOLY
 70
     0
  9
$TDCREATE
 40
2457917.619988426
  9
$TDUCREATE
 40
2457917.244988426
  9
$TDUPDATE
 40
2457917.619988426
  9
$TDUUPDATE
 40
2457917.244988426
  9
$TDINDWG
 40
0.0000000116
  9
$TDUSRTIMER
 40
0.0000000116
  9
$USRTIMER
 70
     1
  9
$ANGBASE
 50
0.0
  9
$ANGDIR
 70
     0
  9
$PDMODE
 70
     0
  9
$PDSIZE
 40
0.0
  9
$PLINEWID
 40
0.0
  9
$SPLFRAME
 70
     0
  9
$SPLINETYPE
 70
     6
  9
$SPLINESEGS
 70
     8
  9
$HANDSEED
  5
14D
  9
$SURFTAB1
 70
     6
  9
$SURFTAB2
 70
     6
  9
$SURFTYPE
 70
     6
  9
$SURFU
 70
     6
  9
$SURFV
 70
     6
  9
$UCSBASE
  2

  9
$UCSNAME
  2

  9
$UCSORG
 10
0.0
 20
0.0
 30
0.0
  9
$UCSXDIR
 10
1.0
 20
0.0
 30
0.0
  9
$UCSYDIR
 10
0.0
 20
1.0
 30
0.0
  9
$UCSORTHOREF
  2

  9
$UCSORTHOVIEW
 70
     0
  9
$UCSORGTOP
 10
0.0
 20
0.0
 30
0.0
  9
$UCSORGBOTTOM
 10
0.0
 20
0.0
 30
0.0
  9
$UCSORGLEFT
 10
0.0
 20
0.0
 30
0.0
  9
$UCSORGRIGHT
 10
0.0
 20
0.0
 30
0.0
  9
$UCSORGFRONT
 10
0.0
 20
0.0
 30
0.0
  9
$UCSORGBACK
 10
0.0
 20
0.0
 30
0.0
  9
$PUCSBASE
  2

  9
$PUCSNAME
  2

  9
$PUCSORG
 10
0.0
 20
0.0
 30
0.0
  9
$PUCSXDIR
 10
1.0
 20
0.0
 30
0.0
  9
$PUCSYDIR
 10
0.0
 20
1.0
 30
0.0
  9
$PUCSORTHOREF
  2

  9
$PUCSORTHOVIEW
 70
     0
  9
$PUCSORGTOP
 10
0.0
 20
0.0
 30
0.0
  9
$PUCSORGBOTTOM
 10
0.0
 20
0.0
 30
0.0
  9
$PUCSORGLEFT
 10
0.0
 20
0.0
 30
0.0
  9
$PUCSORGRIGHT
 10
0.0
 20
0.0
 30
0.0
  9
$PUCSORGFRONT
 10
0.0
 20
0.0
 30
0.0
  9
$PUCSORGBACK
 10
0.0
 20
0.0
 30
0.0
  9
$USERI1
 70
     0
  9
$USERI2
 70
     0
  9
$USERI3
 70
     0
  9
$USERI4
 70
     0
  9
$USERI5
 70
     0
  9
$USERR1
 40
0.0
  9
$USERR2
 40
0.0
  9
$USERR3
 40
0.0
  9
$USERR4
 40
0.0
  9
$USERR5
 40
0.0
  9
$WORLDVIEW
 70
     1
  9
$SHADEDGE
 70
     3
  9
$SHADEDIF
 70
    70
  9
$TILEMODE
 70
     1
  9
$MAXACTVP
 70
    64
  9
$PINSBASE
 10
0.0
 20
0.0
 30
0.0
  9
$PLIMCHECK
 70
     0
  9
$PEXTMIN
 10
1.000000000000000E+20
 20
1.000000000000000E+20
 30
1.000000000000000E+20
  9
$PEXTMAX
 10
-1.000000000000000E+20
 20
-1.000000000000000E+20
 30
-1.000000000000000E+20
  9
$PLIMMIN
 10
0.0
 20
0.0
  9
$PLIMMAX
 10
12.0
 20
9.0
  9
$UNITMODE
 70
     0
  9
$VISRETAIN
 70
     1
  9
$PLINEGEN
 70
     0
  9
$PSLTSCALE
 70
     1
  9
$TREEDEPTH
 70
  3020
  9
$CMLSTYLE
  2
Standard
  9
$CMLJUST
 70
     0
  9
$CMLSCALE
 40
1.0
  9
$PROXYGRAPHICS
 70
     1
  9
$MEASUREMENT
 70
     0
  9
$CELWEIGHT
370
    -1
  9
$ENDCAPS
280
     0
  9
$JOINSTYLE
280
     0
  9
$LWDISPLAY
290
     1
  9
$INSUNITS
 70
     1
  9
$HYPERLINKBASE
  1

  9
$STYLESHEET
  1

  9
$XEDIT
290
     1
  9
$CEPSNTYPE
380
     0
  9
$PSTYLEMODE
290
     1
  9
$FINGERPRINTGUID
  2
{2EE5E4E6-A71A-D113-FD48-6412FFAE423A}
  9
$VERSIONGUID
  2
{FAEB1C32-E019-11D5-929B-00C0DF256EC4}
  9
$EXTNAMES
290
     1
  9
$PSVPSCALE
 40
0.0
  9
$OLESTARTUP
290
     0
  9
$SORTENTS
280
   127
  9
$INDEXCTL
280
     0
  9
$HIDETEXT
280
     1
  9
$XCLIPFRAME
280
     2
  9
$HALOGAP
280
     0
  9
$OBSCOLOR
 70
   257
  9
$OBSLTYPE
280
     0
  9
$INTERSECTIONDISPLAY
280
     0
  9
$INTERSECTIONCOLOR
 70
   257
  9
$DIMASSOC
280
     2
  9
$PROJECTNAME
  1

  9
$CAMERADISPLAY
290
     0
  9
$LENSLENGTH
 40
50.0
  9
$CAMERAHEIGHT
 40
0.0
  9
$STEPSPERSEC
 40
2.0
  9
$STEPSIZE
 40
6.0
  9
$3DDWFPREC
 40
2.0
  9
$PSOLWIDTH
 40
0.25
  9
$PSOLHEIGHT
 40
4.0
  9
$LOFTANG1
 40
1.570796326794897
  9
$LOFTANG2
 40
1.570796326794897
  9
$LOFTMAG1
 40
0.0
  9
$LOFTMAG2
 40
0.0
  9
$LOFTPARAM
 70
     7
  9
$LOFTNORMALS
280
     1
  9
$LATITUDE
 40
37.795
  9
$LONGITUDE
 40
-122.394
  9
$NORTHDIRECTION
 40
0.0
  9
$TIMEZONE
 70
 -8000
  9
$LIGHTGLYPHDISPLAY
280
     1
  9
$TILEMODELIGHTSYNCH
280
     1
  9
$CMATERIAL
347
3C
  9
$SOLIDHIST
280
     1
  9
$SHOWHIST
280
     1
  9
$DWFFRAME
280
     2
  9
$DGNFRAME
280
     2
  9
$REALWORLDSCALE
290
     1
  9
$INTERFERECOLOR
 62
   256
  9
$CSHADOW
280
     0
  9
$SHADOWPLANELOCATION
 40
0.0
  0
ENDSEC
  0
SECTION
  2
CLASSES
  0
CLASS
  1
ACDBDICTIONARYWDFLT
  2
AcDbDictionaryWithDefault
  3
ObjectDBX Classes
 90
        0
 91
        4
280
     0
281
     0
  0
CLASS
  1
VISUALSTYLE
  2
AcDbVisualStyle
  3
ObjectDBX Classes
 90
     4095
 91
        4
280
     0
281
     0
  0
CLASS
  1
MATERIAL
  2
AcDbMaterial
  3
ObjectDBX Classes
 90
     1153
 91
        4
280
     0
281
     0
  0
CLASS
  1
SUN
  2
AcDbSun
  3
SCENEOE
 90
     1024
 91
        4
280
     0
281
     0
  0
ENDSEC
  0
SECTION
  2
TABLES
  0
TABLE
  2
VPORT
  5
8
330
0
100
AcDbSymbolTable
 70
     1
  0
VPORT
  5
29
330
8
100
AcDbSymbolTableRecord
100
AcDbViewportTableRecord
  2
*Active
 70
     0
 10
0.0
 20
0.0
 11
1.0
 21
1.0
 12
0.0
 22
0.0
 13
0.0
 23
0.0
 14
0.5
 24
0.5
 15
0.5
 25
0.5
 16
0.0
 26
0.0
 36
1.0
 17
91.00082462281999
 27
-128.4993055234307
 37
0.0
 40
256.9986110468615
 41
0.7081814508812795
 42
50.0
 43
0.0
 44
0.0
 50
0.0
 51
0.0
 71
     0
 72
   100
 73
     1
 74
     3
 75
     0
 76
     0
 77
     0
 78
     0
281
     0
 65
     1
110
0.0
120
0.0
130
0.0
111
1.0
121
0.0
131
0.0
112
0.0
122
1.0
132
0.0
 79
     0
146
0.0
 60
     3
 61
     5
292
     1
282
     1
141
0.0
142
0.0
 63
   250
361
3F
  0
ENDTAB
  0
TABLE
  2
LTYPE
  5
5
330
0
100
AcDbSymbolTable
 70
     1
  0
LTYPE
  5
14
330
5
100
AcDbSymbolTableRecord
100
AcDbLinetypeTableRecord
  2
ByBlock
 70
     0
  3

 72
    65
 73
     0
 40
0.0
  0
LTYPE
  5
15
330
5
100
AcDbSymbolTableRecord
100
AcDbLinetypeTableRecord
  2
ByLayer
 70
     0
  3

 72
    65
 73
     0
 40
0.0
  0
LTYPE
  5
16
330
5
100
AcDbSymbolTableRecord
100
AcDbLinetypeTableRecord
  2
Continuous
 70
     0
  3
Solid line
 72
    65
 73
     0
 40
0.0
  0
ENDTAB
  0
TABLE
  2
LAYER
  5
2
330
0
100
AcDbSymbolTable
 70
     2
  0
LAYER
  5
10
330
2
100
AcDbSymbolTableRecord
100
AcDbLayerTableRecord
  2
0
 70
     0
 62
     7
  6
Continuous
370
    -3
390
F
347
3E
  0
LAYER
  5
40
330
2
100
AcDbSymbolTableRecord
100
AcDbLayerTableRecord
  2
_U+30EC_U+30A4_U+30E4_U+30FC 1
 70
     0
 62
     7
  6
Continuous
370
    -3
390
F
347
3E
  0
ENDTAB
  0
TABLE
  2
STYLE
  5
3
330
0
100
AcDbSymbolTable
 70
     1
  0
STYLE
  5
11
330
3
100
AcDbSymbolTableRecord
100
AcDbTextStyleTableRecord
  2
Standard
 70
     0
 40
0.0
 41
1.0
 50
0.0
 71
     0
 42
0.2
  3
txt
  4

  0
ENDTAB
  0
TABLE
  2
VIEW
  5
6
330
0
100
AcDbSymbolTable
 70
     0
  0
ENDTAB
  0
TABLE
  2
UCS
  5
7
330
0
100
AcDbSymbolTable
 70
     0
  0
ENDTAB
  0
TABLE
  2
APPID
  5
9
330
0
100
AcDbSymbolTable
 70
     1
  0
APPID
  5
12
330
9
100
AcDbSymbolTableRecord
100
AcDbRegAppTableRecord
  2
ACAD
 70
     0
  0
ENDTAB
  0
TABLE
  2
DIMSTYLE
  5
A
330
0
100
AcDbSymbolTable
 70
     1
100
AcDbDimStyleTable
  0
DIMSTYLE
105
27
330
A
100
AcDbSymbolTableRecord
100
AcDbDimStyleTableRecord
  2
Standard
 70
     0
178
     0
340
11
  0
ENDTAB
  0
TABLE
  2
BLOCK_RECORD
  5
1
330
0
100
AcDbSymbolTable
 70
     8
  0
BLOCK_RECORD
  5
1F
330
1
100
AcDbSymbolTableRecord
100
AcDbBlockTableRecord
  2
*Model_Space
340
22
 70
     0
280
     1
281
     0
  0
BLOCK_RECORD
  5
1B
330
1
100
AcDbSymbolTableRecord
100
AcDbBlockTableRecord
  2
*Paper_Space
340
1E
 70
     0
280
     1
281
     0
  0
BLOCK_RECORD
  5
23
330
1
100
AcDbSymbolTableRecord
100
AcDbBlockTableRecord
  2
*Paper_Space0
340
26
 70
     0
280
     1
281
     0
  0
BLOCK_RECORD
  5
AB
330
1
100
AcDbSymbolTableRecord
100
AcDbBlockTableRecord
  2
block 2
340
0
102
{BLKREFS
331
AC
102
}
 70
     0
280
     1
281
     0
  0
BLOCK_RECORD
  5
B9
330
1
100
AcDbSymbolTableRecord
100
AcDbBlockTableRecord
  2
block 3
340
0
102
{BLKREFS
331
BA
102
}
 70
     0
280
     1
281
     0
  0
BLOCK_RECORD
  5
CB
330
1
100
AcDbSymbolTableRecord
100
AcDbBlockTableRecord
  2
block 4
340
0
102
{BLKREFS
331
CC
102
}
 70
     0
280
     1
281
     0
  0
BLOCK_RECORD
  5
EE
330
1
100
AcDbSymbolTableRecord
100
AcDbBlockTableRecord
  2
block 5
340
0
102
{BLKREFS
331
EF
102
}
 70
     0
280
     1
281
     0
  0
BLOCK_RECORD
  5
10B
330
1
100
AcDbSymbolTableRecord
100
AcDbBlockTableRecord
  2
block 6
340
0
102
{BLKREFS
331
10C
102
}
 70
     0
280
     1
281
     0
  0
BLOCK_RECORD
  5
12F
330
1
100
AcDbSymbolTableRecord
100
AcDbBlockTableRecord
  2
block 7
340
0
102
{BLKREFS
331
130
102
}
 70
     0
280
     1
281
     0
  0
BLOCK_RECORD
  5
144
330
1
100
AcDbSymbolTableRecord
100
AcDbBlockTableRecord
  2
block 8
340
0
102
{BLKREFS
331
145
102
}
 70
     0
280
     1
281
     0
  0
ENDTAB
  0
ENDSEC
  0
SECTION
  2
BLOCKS
  0
BLOCK
  5
20
330
1F
100
AcDbEntity
  8
0
100
AcDbBlockBegin
  2
*Model_Space
 70
     0
 10
0.0
 20
0.0
 30
0.0
  3
*Model_Space
  1

  0
ENDBLK
  5
21
330
1F
100
AcDbEntity
  8
0
100
AcDbBlockEnd
  0
BLOCK
  5
1C
330
1B
100
AcDbEntity
 67
     1
  8
0
100
AcDbBlockBegin
  2
*Paper_Space
 70
     0
 10
0.0
 20
0.0
 30
0.0
  3
*Paper_Space
  1

  0
ENDBLK
  5
1D
330
1B
100
AcDbEntity
 67
     1
  8
0
100
AcDbBlockEnd
  0
BLOCK
  5
24
330
23
100
AcDbEntity
  8
0
100
AcDbBlockBegin
  2
*Paper_Space0
 70
     0
 10
0.0
 20
0.0
 30
0.0
  3
*Paper_Space0
  1

  0
ENDBLK
  5
25
330
23
100
AcDbEntity
  8
0
100
AcDbBlockEnd
  0
BLOCK
  5
AD
330
AB
100
AcDbEntity
  8
0
100
AcDbBlockBegin
  2
block 2
 70
     0
 10
0.0
 20
0.0
 30
0.0
  3
block 2
  1

  0
SPLINE
  5
AF
330
AB
100
AcDbEntity
  8
_U+30EC_U+30A4_U+30E4_U+30FC 1
370
     0
100
AcDbSpline
210
0.0
220
0.0
230
1.0
 70
    11
 71
     3
 72
    26
 73
    22
 74
     0
 42
0.0000000001
 43
0.0000000001
 12
1.0
 22
0.0
 32
0.0
 13
1.0
 23
0.0
 33
0.0
 40
0.0
 40
0.0
 40
0.0
 40
0.0
 40
1.0
 40
1.0
 40
1.0
 40
2.0
 40
2.0
 40
2.0
 40
3.0
 40
3.0
 40
3.0
 40
4.0
 40
4.0
 40
4.0
 40
5.0
 40
5.0
 40
5.0
 40
6.0
 40
6.0
 40
6.0
 40
7.0
 40
7.0
 40
7.0
 40
7.0
 10
90.62392575859403
 20
-114.5745740815994
 30
0.0
 10
90.62392575859403
 20
-114.5745740815994
 30
0.0
 10
90.37071124042816
 20
-114.5745740815994
 30
0.0
 10
90.37071124042816
 20
-114.5745740815994
 30
0.0
 10
90.39775523998738
 20
-114.2657212713468
 30
0.0
 10
90.60342744045678
 20
-113.7474066555909
 30
0.0
 10
91.03750947159827
 20
-113.2418388931305
 30
0.0
 10
91.03750947159827
 20
-113.2418388931305
 30
0.0
 10
90.1423014097561
 20
-113.2418388931305
 30
0.0
 10
90.1423014097561
 20
-113.2418388931305
 30
0.0
 10
90.1423014097561
 20
-113.2418388931305
 30
0.0
 10
90.1423014097561
 20
-113.0303100303362
 30
0.0
 10
90.1423014097561
 20
-113.0303100303362
 30
0.0
 10
90.1423014097561
 20
-113.0303100303362
 30
0.0
 10
91.29072398976413
 20
-113.0303100303362
 30
0.0
 10
91.29072398976413
 20
-113.0303100303362
 30
0.0
 10
91.29072398976413
 20
-113.0303100303362
 30
0.0
 10
91.29072398976413
 20
-113.2418388931305
 30
0.0
 10
91.29072398976413
 20
-113.2418388931305
 30
0.0
 10
90.94483640304504
 20
-113.53157142344
 30
0.0
 10
90.66009926118915
 20
-114.1239555921287
 30
0.0
 10
90.62392575859403
 20
-114.5745740815994
 30
0.0
  0
HATCH
  5
B0
330
AB
100
AcDbEntity
  8
_U+30EC_U+30A4_U+30E4_U+30FC 1
 62
     7
420
 16777215
100
AcDbHatch
 10
0.0
 20
0.0
 30
0.0
210
0.0
220
0.0
230
1.0
  2
SOLID
 70
     1
 71
     0
 91
        1
 92
        1
 93
        1
 72
     4
 94
        3
 73
     0
 74
     1
 95
       26
 96
       22
 40
0.0
 40
0.0
 40
0.0
 40
0.0
 40
1.0
 40
1.0
 40
1.0
 40
2.0
 40
2.0
 40
2.0
 40
3.0
 40
3.0
 40
3.0
 40
4.0
 40
4.0
 40
4.0
 40
5.0
 40
5.0
 40
5.0
 40
6.0
 40
6.0
 40
6.0
 40
7.0
 40
7.0
 40
7.0
 40
7.0
 10
90.62392575859403
 20
-114.5745740815994
 10
90.62392575859403
 20
-114.5745740815994
 10
90.37071124042816
 20
-114.5745740815994
 10
90.37071124042816
 20
-114.5745740815994
 10
90.39775523998738
 20
-114.2657212713468
 10
90.60342744045678
 20
-113.7474066555909
 10
91.03750947159827
 20
-113.2418388931305
 10
91.03750947159827
 20
-113.2418388931305
 10
90.1423014097561
 20
-113.2418388931305
 10
90.1423014097561
 20
-113.2418388931305
 10
90.1423014097561
 20
-113.2418388931305
 10
90.1423014097561
 20
-113.0303100303362
 10
90.1423014097561
 20
-113.0303100303362
 10
90.1423014097561
 20
-113.0303100303362
 10
91.29072398976413
 20
-113.0303100303362
 10
91.29072398976413
 20
-113.0303100303362
 10
91.29072398976413
 20
-113.0303100303362
 10
91.29072398976413
 20
-113.2418388931305
 10
91.29072398976413
 20
-113.2418388931305
 10
90.94483640304504
 20
-113.53157142344
 10
90.66009926118915
 20
-114.1239555921287
 10
90.62392575859403
 20
-114.5745740815994
 97
        0
 97
        0
 75
     2
 76
     1
 98
        0
  0
ENDBLK
  5
AE
330
AB
100
AcDbEntity
  8
0
100
AcDbBlockEnd
  0
BLOCK
  5
BB
330
B9
100
AcDbEntity
  8
0
100
AcDbBlockBegin
  2
block 3
 70
     0
 10
0.0
 20
0.0
 30
0.0
  3
block 3
  1

  0
SPLINE
  5
BD
330
B9
100
AcDbEntity
  8
_U+30EC_U+30A4_U+30E4_U+30FC 1
370
     0
100
AcDbSpline
210
0.0
220
0.0
230
1.0
 70
    11
 71
     3
 72
    26
 73
    22
 74
     0
 42
0.0000000001
 43
0.0000000001
 12
1.0
 22
0.0
 32
0.0
 13
1.0
 23
0.0
 33
0.0
 40
0.0
 40
0.0
 40
0.0
 40
0.0
 40
1.0
 40
1.0
 40
1.0
 40
2.0
 40
2.0
 40
2.0
 40
3.0
 40
3.0
 40
3.0
 40
4.0
 40
4.0
 40
4.0
 40
5.0
 40
5.0
 40
5.0
 40
6.0
 40
6.0
 40
6.0
 40
7.0
 40
7.0
 40
7.0
 40
7.0
 10
107.6981634930407
 20
-127.8419813048451
 30
0.0
 10
107.6981634930407
 20
-127.8419813048451
 30
0.0
 10
107.6981634930407
 20
-128.0951958230109
 30
0.0
 10
107.6981634930407
 20
-128.0951958230109
 30
0.0
 10
107.3891384280138
 20
-128.0681518234517
 30
0.0
 10
106.8709960670323
 20
-127.8624796229823
 30
0.0
 10
106.3652560497976
 20
-127.4283975918408
 30
0.0
 10
106.3652560497976
 20
-127.4283975918408
 30
0.0
 10
106.3652560497976
 20
-128.323605653683
 30
0.0
 10
106.3652560497976
 20
-128.323605653683
 30
0.0
 10
106.3652560497976
 20
-128.323605653683
 30
0.0
 10
106.1537271870032
 20
-128.323605653683
 30
0.0
 10
106.1537271870032
 20
-128.323605653683
 30
0.0
 10
106.1537271870032
 20
-128.323605653683
 30
0.0
 10
106.1537271870032
 20
-127.175183073675
 30
0.0
 10
106.1537271870032
 20
-127.175183073675
 30
0.0
 10
106.1537271870032
 20
-127.175183073675
 30
0.0
 10
106.3652560497976
 20
-127.175183073675
 30
0.0
 10
106.3652560497976
 20
-127.175183073675
 30
0.0
 10
106.6553330896556
 20
-127.521070660394
 30
0.0
 10
107.2475450035701
 20
-127.8058078022499
 30
0.0
 10
107.6981634930407
 20
-127.8419813048451
 30
0.0
  0
HATCH
  5
BE
330
B9
100
AcDbEntity
  8
_U+30EC_U+30A4_U+30E4_U+30FC 1
 62
     7
420
 16777215
100
AcDbHatch
 10
0.0
 20
0.0
 30
0.0
210
0.0
220
0.0
230
1.0
  2
SOLID
 70
     1
 71
     0
 91
        1
 92
        1
 93
        1
 72
     4
 94
        3
 73
     0
 74
     1
 95
       26
 96
       22
 40
0.0
 40
0.0
 40
0.0
 40
0.0
 40
1.0
 40
1.0
 40
1.0
 40
2.0
 40
2.0
 40
2.0
 40
3.0
 40
3.0
 40
3.0
 40
4.0
 40
4.0
 40
4.0
 40
5.0
 40
5.0
 40
5.0
 40
6.0
 40
6.0
 40
6.0
 40
7.0
 40
7.0
 40
7.0
 40
7.0
 10
107.6981634930407
 20
-127.8419813048451
 10
107.6981634930407
 20
-127.8419813048451
 10
107.6981634930407
 20
-128.0951958230109
 10
107.6981634930407
 20
-128.0951958230109
 10
107.3891384280138
 20
-128.0681518234517
 10
106.8709960670323
 20
-127.8624796229823
 10
106.3652560497976
 20
-127.4283975918408
 10
106.3652560497976
 20
-127.4283975918408
 10
106.3652560497976
 20
-128.323605653683
 10
106.3652560497976
 20
-128.323605653683
 10
106.3652560497976
 20
-128.323605653683
 10
106.1537271870032
 20
-128.323605653683
 10
106.1537271870032
 20
-128.323605653683
 10
106.1537271870032
 20
-128.323605653683
 10
106.1537271870032
 20
-127.175183073675
 10
106.1537271870032
 20
-127.175183073675
 10
106.1537271870032
 20
-127.175183073675
 10
106.3652560497976
 20
-127.175183073675
 10
106.3652560497976
 20
-127.175183073675
 10
106.6553330896556
 20
-127.521070660394
 10
107.2475450035701
 20
-127.8058078022499
 10
107.6981634930407
 20
-127.8419813048451
 97
        0
 97
        0
 75
     2
 76
     1
 98
        0
  0
ENDBLK
  5
BC
330
B9
100
AcDbEntity
  8
0
100
AcDbBlockEnd
  0
BLOCK
  5
CD
330
CB
100
AcDbEntity
  8
0
100
AcDbBlockBegin
  2
block 4
 70
     0
 10
0.0
 20
0.0
 30
0.0
  3
block 4
  1

  0
SPLINE
  5
CF
330
CB
100
AcDbEntity
  8
_U+30EC_U+30A4_U+30E4_U+30FC 1
370
     0
100
AcDbSpline
210
0.0
220
0.0
230
1.0
 70
    11
 71
     3
 72
    44
 73
    40
 74
     0
 42
0.0000000001
 43
0.0000000001
 12
1.0
 22
0.0
 32
0.0
 13
1.0
 23
0.0
 33
0.0
 40
0.0
 40
0.0
 40
0.0
 40
0.0
 40
1.0
 40
1.0
 40
1.0
 40
2.0
 40
2.0
 40
2.0
 40
3.0
 40
3.0
 40
3.0
 40
4.0
 40
4.0
 40
4.0
 40
5.0
 40
5.0
 40
5.0
 40
6.0
 40
6.0
 40
6.0
 40
7.0
 40
7.0
 40
7.0
 40
8.0
 40
8.0
 40
8.0
 40
9.0
 40
9.0
 40
9.0
 40
10.0
 40
10.0
 40
10.0
 40
11.0
 40
11.0
 40
11.0
 40
12.0
 40
12.0
 40
12.0
 40
13.0
 40
13.0
 40
13.0
 40
13.0
 10
90.35141870571076
 20
-142.4925943654185
 30
0.0
 10
90.11853025090787
 20
-142.6514132672885
 30
0.0
 10
90.01913924615842
 20
-142.7254828202214
 30
0.0
 10
89.96711830433114
 20
-142.8691433019563
 30
0.0
 10
89.96711830433114
 20
-142.8691433019563
 30
0.0
 10
90.79893660924472
 20
-142.8691433019563
 30
0.0
 10
90.79893660924472
 20
-142.8691433019563
 30
0.0
 10
90.79893660924472
 20
-142.8691433019563
 30
0.0
 10
90.79893660924472
 20
-143.0744709928772
 30
0.0
 10
90.79893660924472
 20
-143.0744709928772
 30
0.0
 10
90.79893660924472
 20
-143.0744709928772
 30
0.0
 10
89.70029565899854
 20
-143.0744709928772
 30
0.0
 10
89.70029565899854
 20
-143.0744709928772
 30
0.0
 10
89.73422984952825
 20
-142.7168700815083
 30
0.0
 10
89.80433754265309
 20
-142.6386664139931
 30
0.0
 10
90.21585419836617
 20
-142.3403211449705
 30
0.0
 10
90.48922252512075
 20
-142.1415391354716
 30
0.0
 10
90.55950247301985
 20
-142.0736707544121
 30
0.0
 10
90.55950247301985
 20
-141.9362114445507
 30
0.0
 10
90.55950247301985
 20
-141.8177001598581
 30
0.0
 10
90.48267684369878
 20
-141.6867865314186
 30
0.0
 10
90.27218150955001
 20
-141.6867865314186
 30
0.0
 10
89.99416230389035
 20
-141.6867865314186
 30
0.0
 10
89.9852050556287
 20
-141.9172634193818
 30
0.0
 10
89.98072643149787
 20
-142.0337076467833
 30
0.0
 10
89.98072643149787
 20
-142.0337076467833
 30
0.0
 10
89.74094778572449
 20
-142.0337076467833
 30
0.0
 10
89.74094778572449
 20
-142.0337076467833
 30
0.0
 10
89.7500772887604
 20
-141.9065836233775
 30
0.0
 10
89.76144610386173
 20
-141.7946180201069
 30
0.0
 10
89.84722898144445
 20
-141.6761067354143
 30
0.0
 10
89.96487899226572
 20
-141.5152207762532
 30
0.0
 10
90.16383325653891
 20
-141.4814588404977
 30
0.0
 10
90.28802894878217
 20
-141.4814588404977
 30
0.0
 10
90.58430716051365
 20
-141.4814588404977
 30
0.0
 10
90.80582680021521
 20
-141.66542693941
 30
0.0
 10
90.80582680021521
 20
-141.9382785018418
 30
0.0
 10
90.80582680021521
 20
-142.1670328420624
 30
0.0
 10
90.6814588531977
 20
-142.2662515920376
 30
0.0
 10
90.35141870571076
 20
-142.4925943654185
 30
0.0
  0
HATCH
  5
D0
330
CB
100
AcDbEntity
  8
_U+30EC_U+30A4_U+30E4_U+30FC 1
 62
     7
420
 16777215
100
AcDbHatch
 10
0.0
 20
0.0
 30
0.0
210
0.0
220
0.0
230
1.0
  2
SOLID
 70
     1
 71
     0
 91
        1
 92
        1
 93
        1
 72
     4
 94
        3
 73
     0
 74
     1
 95
       44
 96
       40
 40
0.0
 40
0.0
 40
0.0
 40
0.0
 40
1.0
 40
1.0
 40
1.0
 40
2.0
 40
2.0
 40
2.0
 40
3.0
 40
3.0
 40
3.0
 40
4.0
 40
4.0
 40
4.0
 40
5.0
 40
5.0
 40
5.0
 40
6.0
 40
6.0
 40
6.0
 40
7.0
 40
7.0
 40
7.0
 40
8.0
 40
8.0
 40
8.0
 40
9.0
 40
9.0
 40
9.0
 40
10.0
 40
10.0
 40
10.0
 40
11.0
 40
11.0
 40
11.0
 40
12.0
 40
12.0
 40
12.0
 40
13.0
 40
13.0
 40
13.0
 40
13.0
 10
90.35141870571076
 20
-142.4925943654185
 10
90.11853025090787
 20
-142.6514132672885
 10
90.01913924615842
 20
-142.7254828202214
 10
89.96711830433114
 20
-142.8691433019563
 10
89.96711830433114
 20
-142.8691433019563
 10
90.79893660924472
 20
-142.8691433019563
 10
90.79893660924472
 20
-142.8691433019563
 10
90.79893660924472
 20
-142.8691433019563
 10
90.79893660924472
 20
-143.0744709928772
 10
90.79893660924472
 20
-143.0744709928772
 10
90.79893660924472
 20
-143.0744709928772
 10
89.70029565899854
 20
-143.0744709928772
 10
89.70029565899854
 20
-143.0744709928772
 10
89.73422984952825
 20
-142.7168700815083
 10
89.80433754265309
 20
-142.6386664139931
 10
90.21585419836617
 20
-142.3403211449705
 10
90.48922252512075
 20
-142.1415391354716
 10
90.55950247301985
 20
-142.0736707544121
 10
90.55950247301985
 20
-141.9362114445507
 10
90.55950247301985
 20
-141.8177001598581
 10
90.48267684369878
 20
-141.6867865314186
 10
90.27218150955001
 20
-141.6867865314186
 10
89.99416230389035
 20
-141.6867865314186
 10
89.9852050556287
 20
-141.9172634193818
 10
89.98072643149787
 20
-142.0337076467833
 10
89.98072643149787
 20
-142.0337076467833
 10
89.74094778572449
 20
-142.0337076467833
 10
89.74094778572449
 20
-142.0337076467833
 10
89.7500772887604
 20
-141.9065836233775
 10
89.76144610386173
 20
-141.7946180201069
 10
89.84722898144445
 20
-141.6761067354143
 10
89.96487899226572
 20
-141.5152207762532
 10
90.16383325653891
 20
-141.4814588404977
 10
90.28802894878217
 20
-141.4814588404977
 10
90.58430716051365
 20
-141.4814588404977
 10
90.80582680021521
 20
-141.66542693941
 10
90.80582680021521
 20
-141.9382785018418
 10
90.80582680021521
 20
-142.1670328420624
 10
90.6814588531977
 20
-142.2662515920376
 10
90.35141870571076
 20
-142.4925943654185
 97
        0
 97
        0
 75
     2
 76
     1
 98
        0
  0
SPLINE
  5
D1
330
CB
100
AcDbEntity
  8
_U+30EC_U+30A4_U+30E4_U+30FC 1
370
     0
100
AcDbSpline
210
0.0
220
0.0
230
1.0
 70
    11
 71
     3
 72
    53
 73
    49
 74
     0
 42
0.0000000001
 43
0.0000000001
 12
1.0
 22
0.0
 32
0.0
 13
1.0
 23
0.0
 33
0.0
 40
0.0
 40
0.0
 40
0.0
 40
0.0
 40
1.0
 40
1.0
 40
1.0
 40
2.0
 40
2.0
 40
2.0
 40
3.0
 40
3.0
 40
3.0
 40
4.0
 40
4.0
 40
4.0
 40
5.0
 40
5.0
 40
5.0
 40
6.0
 40
6.0
 40
6.0
 40
7.0
 40
7.0
 40
7.0
 40
8.0
 40
8.0
 40
8.0
 40
9.0
 40
9.0
 40
9.0
 40
10.0
 40
10.0
 40
10.0
 40
11.0
 40
11.0
 40
11.0
 40
12.0
 40
12.0
 40
12.0
 40
13.0
 40
13.0
 40
13.0
 40
14.0
 40
14.0
 40
14.0
 40
15.0
 40
15.0
 40
15.0
 40
16.0
 40
16.0
 40
16.0
 40
16.0
 10
91.48933374448877
 20
-143.1251138965104
 30
0.0
 10
91.40596243374574
 20
-143.1251138965104
 30
0.0
 10
91.29709741641184
 20
-143.1082329286327
 30
0.0
 10
91.188921418175
 20
-143.0448431717041
 30
0.0
 10
91.00323077152002
 20
-142.9349446257246
 30
0.0
 10
90.98083765086591
 20
-142.8036864877366
 30
0.0
 10
90.96051158750294
 20
-142.6958549990483
 30
0.0
 10
90.96051158750294
 20
-142.6958549990483
 30
0.0
 10
91.19787866643665
 20
-142.6958549990483
 30
0.0
 10
91.19787866643665
 20
-142.6958549990483
 30
0.0
 10
91.2564452896859
 20
-142.8946370085472
 30
0.0
 10
91.39218205180474
 20
-142.9242648297203
 30
0.0
 10
91.49174531132846
 20
-142.9242648297203
 30
0.0
 10
91.64091794583977
 20
-142.9242648297203
 30
0.0
 10
91.80352645274357
 20
-142.8247015701966
 30
0.0
 10
91.80352645274357
 20
-142.5921576249422
 30
0.0
 10
91.80352645274357
 20
-142.3361870303882
 30
0.0
 10
91.61163463421515
 20
-142.2662515920376
 30
0.0
 10
91.4827880630668
 20
-142.2662515920376
 30
0.0
 10
91.44868161776283
 20
-142.2662515920376
 30
0.0
 10
91.29709741641184
 20
-142.2662515920376
 30
0.0
 10
91.20235729056748
 20
-142.3954426727345
 30
0.0
 10
91.20235729056748
 20
-142.3954426727345
 30
0.0
 10
91.01459958662136
 20
-142.3764946475656
 30
0.0
 10
91.01459958662136
 20
-142.3764946475656
 30
0.0
 10
91.01459958662136
 20
-142.3764946475656
 30
0.0
 10
91.1434461577697
 20
-141.5300346868397
 30
0.0
 10
91.1434461577697
 20
-141.5300346868397
 30
0.0
 10
91.1434461577697
 20
-141.5300346868397
 30
0.0
 10
91.97543671745754
 20
-141.5300346868397
 30
0.0
 10
91.97543671745754
 20
-141.5300346868397
 30
0.0
 10
91.97543671745754
 20
-141.5300346868397
 30
0.0
 10
91.97543671745754
 20
-141.7246825817563
 30
0.0
 10
91.97543671745754
 20
-141.7246825817563
 30
0.0
 10
91.97543671745754
 20
-141.7246825817563
 30
0.0
 10
91.31776798932334
 20
-141.7246825817563
 30
0.0
 10
91.31776798932334
 20
-141.7246825817563
 30
0.0
 10
91.31776798932334
 20
-141.7246825817563
 30
0.0
 10
91.24748804142425
 20
-142.147740307345
 30
0.0
 10
91.24748804142425
 20
-142.147740307345
 30
0.0
 10
91.31294485564399
 20
-142.1139783715896
 30
0.0
 10
91.40113930006639
 20
-142.0736707544121
 30
0.0
 10
91.52791881392358
 20
-142.0736707544121
 30
0.0
 10
91.79904782861274
 20
-142.0736707544121
 30
0.0
 10
92.0522623467786
 20
-142.2600504201642
 30
0.0
 10
92.0522623467786
 20
-142.5732095997734
 30
0.0
 10
92.0522623467786
 20
-142.8905028939649
 30
0.0
 10
91.81282821055375
 20
-143.1251138965104
 30
0.0
 10
91.48933374448877
 20
-143.1251138965104
 30
0.0
  0
HATCH
  5
D2
330
CB
100
AcDbEntity
  8
_U+30EC_U+30A4_U+30E4_U+30FC 1
 62
     7
420
 16777215
100
AcDbHatch
 10
0.0
 20
0.0
 30
0.0
210
0.0
220
0.0
230
1.0
  2
SOLID
 70
     1
 71
     0
 91
        1
 92
        1
 93
        1
 72
     4
 94
        3
 73
     0
 74
     1
 95
       53
 96
       49
 40
0.0
 40
0.0
 40
0.0
 40
0.0
 40
1.0
 40
1.0
 40
1.0
 40
2.0
 40
2.0
 40
2.0
 40
3.0
 40
3.0
 40
3.0
 40
4.0
 40
4.0
 40
4.0
 40
5.0
 40
5.0
 40
5.0
 40
6.0
 40
6.0
 40
6.0
 40
7.0
 40
7.0
 40
7.0
 40
8.0
 40
8.0
 40
8.0
 40
9.0
 40
9.0
 40
9.0
 40
10.0
 40
10.0
 40
10.0
 40
11.0
 40
11.0
 40
11.0
 40
12.0
 40
12.0
 40
12.0
 40
13.0
 40
13.0
 40
13.0
 40
14.0
 40
14.0
 40
14.0
 40
15.0
 40
15.0
 40
15.0
 40
16.0
 40
16.0
 40
16.0
 40
16.0
 10
91.48933374448877
 20
-143.1251138965104
 10
91.40596243374574
 20
-143.1251138965104
 10
91.29709741641184
 20
-143.1082329286327
 10
91.188921418175
 20
-143.0448431717041
 10
91.00323077152002
 20
-142.9349446257246
 10
90.98083765086591
 20
-142.8036864877366
 10
90.96051158750294
 20
-142.6958549990483
 10
90.96051158750294
 20
-142.6958549990483
 10
91.19787866643665
 20
-142.6958549990483
 10
91.19787866643665
 20
-142.6958549990483
 10
91.2564452896859
 20
-142.8946370085472
 10
91.39218205180474
 20
-142.9242648297203
 10
91.49174531132846
 20
-142.9242648297203
 10
91.64091794583977
 20
-142.9242648297203
 10
91.80352645274357
 20
-142.8247015701966
 10
91.80352645274357
 20
-142.5921576249422
 10
91.80352645274357
 20
-142.3361870303882
 10
91.61163463421515
 20
-142.2662515920376
 10
91.4827880630668
 20
-142.2662515920376
 10
91.44868161776283
 20
-142.2662515920376
 10
91.29709741641184
 20
-142.2662515920376
 10
91.20235729056748
 20
-142.3954426727345
 10
91.20235729056748
 20
-142.3954426727345
 10
91.01459958662136
 20
-142.3764946475656
 10
91.01459958662136
 20
-142.3764946475656
 10
91.01459958662136
 20
-142.3764946475656
 10
91.1434461577697
 20
-141.5300346868397
 10
91.1434461577697
 20
-141.5300346868397
 10
91.1434461577697
 20
-141.5300346868397
 10
91.97543671745754
 20
-141.5300346868397
 10
91.97543671745754
 20
-141.5300346868397
 10
91.97543671745754
 20
-141.5300346868397
 10
91.97543671745754
 20
-141.7246825817563
 10
91.97543671745754
 20
-141.7246825817563
 10
91.97543671745754
 20
-141.7246825817563
 10
91.31776798932334
 20
-141.7246825817563
 10
91.31776798932334
 20
-141.7246825817563
 10
91.31776798932334
 20
-141.7246825817563
 10
91.24748804142425
 20
-142.147740307345
 10
91.24748804142425
 20
-142.147740307345
 10
91.31294485564399
 20
-142.1139783715896
 10
91.40113930006639
 20
-142.0736707544121
 10
91.52791881392358
 20
-142.0736707544121
 10
91.79904782861274
 20
-142.0736707544121
 10
92.0522623467786
 20
-142.2600504201642
 10
92.0522623467786
 20
-142.5732095997734
 10
92.0522623467786
 20
-142.8905028939649
 10
91.81282821055375
 20
-143.1251138965104
 10
91.48933374448877
 20
-143.1251138965104
 97
        0
 97
        0
 75
     2
 76
     1
 98
        0
  0
POLYLINE
  5
D3
330
CB
100
AcDbEntity
  8
_U+30EC_U+30A4_U+30E4_U+30FC 1
370
     0
100
AcDb2dPolyline
 66
     1
 10
0.0
 20
0.0
 30
0.0
  0
VERTEX
  5
D4
330
D3
100
AcDbEntity
  8
_U+30EC_U+30A4_U+30E4_U+30FC 1
370
     0
100
AcDbVertex
100
AcDb2dVertex
 10
92.29720863577987
 20
-143.0744709928772
 30
0.0
  0
VERTEX
  5
D5
330
D3
100
AcDbEntity
  8
_U+30EC_U+30A4_U+30E4_U+30FC 1
370
     0
100
AcDbVertex
100
AcDb2dVertex
 10
92.29720863577987
 20
-142.8226345129055
 30
0.0
  0
VERTEX
  5
D6
330
D3
100
AcDbEntity
  8
_U+30EC_U+30A4_U+30E4_U+30FC 1
370
     0
100
AcDbVertex
100
AcDb2dVertex
 10
92.56627059317788
 20
-142.8226345129055
 30
0.0
  0
VERTEX
  5
D7
330
D3
100
AcDbEntity
  8
_U+30EC_U+30A4_U+30E4_U+30FC 1
370
     0
100
AcDbVertex
100
AcDb2dVertex
 10
92.56627059317788
 20
-143.0744709928772
 30
0.0
  0
VERTEX
  5
D8
330
D3
100
AcDbEntity
  8
_U+30EC_U+30A4_U+30E4_U+30FC 1
370
     0
100
AcDbVertex
100
AcDb2dVertex
 10
92.29720863577987
 20
-143.0744709928772
 30
0.0
  0
SEQEND
  5
D9
330
D3
100
AcDbEntity
  8
_U+30EC_U+30A4_U+30E4_U+30FC 1
370
     0
  0
HATCH
  5
DA
330
CB
100
AcDbEntity
  8
_U+30EC_U+30A4_U+30E4_U+30FC 1
 62
     7
420
 16777215
100
AcDbHatch
 10
0.0
 20
0.0
 30
0.0
210
0.0
220
0.0
230
1.0
  2
SOLID
 70
     1
 71
     0
 91
        1
 92
        1
 93
        4
 72
     1
 10
92.29720863577987
 20
-143.0744709928772
 11
92.29720863577987
 21
-142.8226345129055
 72
     1
 10
92.29720863577987
 20
-142.8226345129055
 11
92.56627059317788
 21
-142.8226345129055
 72
     1
 10
92.56627059317788
 20
-142.8226345129055
 11
92.56627059317788
 21
-143.0744709928772
 72
     1
 10
92.56627059317788
 20
-143.0744709928772
 11
92.29720863577987
 21
-143.0744709928772
 97
        0
 75
     2
 76
     1
 98
        0
  0
SPLINE
  5
DB
330
CB
100
AcDbEntity
  8
_U+30EC_U+30A4_U+30E4_U+30FC 1
370
     0
100
AcDbSpline
210
0.0
220
0.0
230
1.0
 70
    11
 71
     3
 72
    53
 73
    49
 74
     0
 42
0.0000000001
 43
0.0000000001
 12
1.0
 22
0.0
 32
0.0
 13
1.0
 23
0.0
 33
0.0
 40
0.0
 40
0.0
 40
0.0
 40
0.0
 40
1.0
 40
1.0
 40
1.0
 40
2.0
 40
2.0
 40
2.0
 40
3.0
 40
3.0
 40
3.0
 40
4.0
 40
4.0
 40
4.0
 40
5.0
 40
5.0
 40
5.0
 40
6.0
 40
6.0
 40
6.0
 40
7.0
 40
7.0
 40
7.0
 40
8.0
 40
8.0
 40
8.0
 40
9.0
 40
9.0
 40
9.0
 40
10.0
 40
10.0
 40
10.0
 40
11.0
 40
11.0
 40
11.0
 40
12.0
 40
12.0
 40
12.0
 40
13.0
 40
13.0
 40
13.0
 40
14.0
 40
14.0
 40
14.0
 40
15.0
 40
15.0
 40
15.0
 40
16.0
 40
16.0
 40
16.0
 40
16.0
 10
93.33280433864597
 20
-143.1251138965104
 30
0.0
 10
93.2490885183544
 20
-143.1251138965104
 30
0.0
 10
93.14091252011755
 20
-143.1082329286327
 30
0.0
 10
93.03204750278366
 20
-143.0448431717041
 30
0.0
 10
92.84670136567722
 20
-142.9349446257246
 30
0.0
 10
92.82430824502309
 20
-142.8036864877366
 30
0.0
 10
92.80398218166012
 20
-142.6958549990483
 30
0.0
 10
92.80398218166012
 20
-142.6958549990483
 30
0.0
 10
93.04134926059383
 20
-142.6958549990483
 30
0.0
 10
93.04134926059383
 20
-142.6958549990483
 30
0.0
 10
93.09991588384308
 20
-142.8946370085472
 30
0.0
 10
93.23565264596192
 20
-142.9242648297203
 30
0.0
 10
93.33521590548564
 20
-142.9242648297203
 30
0.0
 10
93.48438853999696
 20
-142.9242648297203
 30
0.0
 10
93.64734155644928
 20
-142.8247015701966
 30
0.0
 10
93.64734155644928
 20
-142.5921576249422
 30
0.0
 10
93.64734155644928
 20
-142.3361870303882
 30
0.0
 10
93.45510522837233
 20
-142.2662515920376
 30
0.0
 10
93.32625865722399
 20
-142.2662515920376
 30
0.0
 10
93.29215221192003
 20
-142.2662515920376
 30
0.0
 10
93.14091252011755
 20
-142.2662515920376
 30
0.0
 10
93.04582788472466
 20
-142.3954426727345
 30
0.0
 10
93.04582788472466
 20
-142.3954426727345
 30
0.0
 10
92.85807018077854
 20
-142.3764946475656
 30
0.0
 10
92.85807018077854
 20
-142.3764946475656
 30
0.0
 10
92.85807018077854
 20
-142.3764946475656
 30
0.0
 10
92.98691675192688
 20
-141.5300346868397
 30
0.0
 10
92.98691675192688
 20
-141.5300346868397
 30
0.0
 10
92.98691675192688
 20
-141.5300346868397
 30
0.0
 10
93.81890731161472
 20
-141.5300346868397
 30
0.0
 10
93.81890731161472
 20
-141.5300346868397
 30
0.0
 10
93.81890731161472
 20
-141.5300346868397
 30
0.0
 10
93.81890731161472
 20
-141.7246825817563
 30
0.0
 10
93.81890731161472
 20
-141.7246825817563
 30
0.0
 10
93.81890731161472
 20
-141.7246825817563
 30
0.0
 10
93.16123858348053
 20
-141.7246825817563
 30
0.0
 10
93.16123858348053
 20
-141.7246825817563
 30
0.0
 10
93.16123858348053
 20
-141.7246825817563
 30
0.0
 10
93.09095863558143
 20
-142.147740307345
 30
0.0
 10
93.09095863558143
 20
-142.147740307345
 30
0.0
 10
93.15641544980117
 20
-142.1139783715896
 30
0.0
 10
93.24460989422357
 20
-142.0736707544121
 30
0.0
 10
93.37138940808077
 20
-142.0736707544121
 30
0.0
 10
93.64251842276992
 20
-142.0736707544121
 30
0.0
 10
93.89573294093579
 20
-142.2600504201642
 30
0.0
 10
93.89573294093579
 20
-142.5732095997734
 30
0.0
 10
93.89573294093579
 20
-142.8905028939649
 30
0.0
 10
93.65629880471093
 20
-143.1251138965104
 30
0.0
 10
93.33280433864597
 20
-143.1251138965104
 30
0.0
  0
HATCH
  5
DC
330
CB
100
AcDbEntity
  8
_U+30EC_U+30A4_U+30E4_U+30FC 1
 62
     7
420
 16777215
100
AcDbHatch
 10
0.0
 20
0.0
 30
0.0
210
0.0
220
0.0
230
1.0
  2
SOLID
 70
     1
 71
     0
 91
        1
 92
        1
 93
        1
 72
     4
 94
        3
 73
     0
 74
     1
 95
       53
 96
       49
 40
0.0
 40
0.0
 40
0.0
 40
0.0
 40
1.0
 40
1.0
 40
1.0
 40
2.0
 40
2.0
 40
2.0
 40
3.0
 40
3.0
 40
3.0
 40
4.0
 40
4.0
 40
4.0
 40
5.0
 40
5.0
 40
5.0
 40
6.0
 40
6.0
 40
6.0
 40
7.0
 40
7.0
 40
7.0
 40
8.0
 40
8.0
 40
8.0
 40
9.0
 40
9.0
 40
9.0
 40
10.0
 40
10.0
 40
10.0
 40
11.0
 40
11.0
 40
11.0
 40
12.0
 40
12.0
 40
12.0
 40
13.0
 40
13.0
 40
13.0
 40
14.0
 40
14.0
 40
14.0
 40
15.0
 40
15.0
 40
15.0
 40
16.0
 40
16.0
 40
16.0
 40
16.0
 10
93.33280433864597
 20
-143.1251138965104
 10
93.2490885183544
 20
-143.1251138965104
 10
93.14091252011755
 20
-143.1082329286327
 10
93.03204750278366
 20
-143.0448431717041
 10
92.84670136567722
 20
-142.9349446257246
 10
92.82430824502309
 20
-142.8036864877366
 10
92.80398218166012
 20
-142.6958549990483
 10
92.80398218166012
 20
-142.6958549990483
 10
93.04134926059383
 20
-142.6958549990483
 10
93.04134926059383
 20
-142.6958549990483
 10
93.09991588384308
 20
-142.8946370085472
 10
93.23565264596192
 20
-142.9242648297203
 10
93.33521590548564
 20
-142.9242648297203
 10
93.48438853999696
 20
-142.9242648297203
 10
93.64734155644928
 20
-142.8247015701966
 10
93.64734155644928
 20
-142.5921576249422
 10
93.64734155644928
 20
-142.3361870303882
 10
93.45510522837233
 20
-142.2662515920376
 10
93.32625865722399
 20
-142.2662515920376
 10
93.29215221192003
 20
-142.2662515920376
 10
93.14091252011755
 20
-142.2662515920376
 10
93.04582788472466
 20
-142.3954426727345
 10
93.04582788472466
 20
-142.3954426727345
 10
92.85807018077854
 20
-142.3764946475656
 10
92.85807018077854
 20
-142.3764946475656
 10
92.85807018077854
 20
-142.3764946475656
 10
92.98691675192688
 20
-141.5300346868397
 10
92.98691675192688
 20
-141.5300346868397
 10
92.98691675192688
 20
-141.5300346868397
 10
93.81890731161472
 20
-141.5300346868397
 10
93.81890731161472
 20
-141.5300346868397
 10
93.81890731161472
 20
-141.5300346868397
 10
93.81890731161472
 20
-141.7246825817563
 10
93.81890731161472
 20
-141.7246825817563
 10
93.81890731161472
 20
-141.7246825817563
 10
93.16123858348053
 20
-141.7246825817563
 10
93.16123858348053
 20
-141.7246825817563
 10
93.16123858348053
 20
-141.7246825817563
 10
93.09095863558143
 20
-142.147740307345
 10
93.09095863558143
 20
-142.147740307345
 10
93.15641544980117
 20
-142.1139783715896
 10
93.24460989422357
 20
-142.0736707544121
 10
93.37138940808077
 20
-142.0736707544121
 10
93.64251842276992
 20
-142.0736707544121
 10
93.89573294093579
 20
-142.2600504201642
 10
93.89573294093579
 20
-142.5732095997734
 10
93.89573294093579
 20
-142.8905028939649
 10
93.65629880471093
 20
-143.1251138965104
 10
93.33280433864597
 20
-143.1251138965104
 97
        0
 97
        0
 75
     2
 76
     1
 98
        0
  0
ENDBLK
  5
CE
330
CB
100
AcDbEntity
  8
0
100
AcDbBlockEnd
  0
BLOCK
  5
F0
330
EE
100
AcDbEntity
  8
0
100
AcDbBlockBegin
  2
block 5
 70
     0
 10
0.0
 20
0.0
 30
0.0
  3
block 5
  1

  0
SPLINE
  5
F2
330
EE
100
AcDbEntity
  8
_U+30EC_U+30A4_U+30E4_U+30FC 1
370
     0
100
AcDbSpline
210
0.0
220
0.0
230
1.0
 70
    11
 71
     3
 72
    32
 73
    28
 74
     0
 42
0.0000000001
 43
0.0000000001
 12
1.0
 22
0.0
 32
0.0
 13
1.0
 23
0.0
 33
0.0
 40
0.0
 40
0.0
 40
0.0
 40
0.0
 40
1.0
 40
1.0
 40
1.0
 40
2.0
 40
2.0
 40
2.0
 40
3.0
 40
3.0
 40
3.0
 40
4.0
 40
4.0
 40
4.0
 40
5.0
 40
5.0
 40
5.0
 40
6.0
 40
6.0
 40
6.0
 40
7.0
 40
7.0
 40
7.0
 40
8.0
 40
8.0
 40
8.0
 40
9.0
 40
9.0
 40
9.0
 40
9.0
 10
82.27473685009105
 20
-114.6255614947811
 30
0.0
 10
81.72317706290254
 20
-114.6255614947811
 30
0.0
 10
81.71404755986663
 20
-114.0712456312044
 30
0.0
 10
81.71404755986663
 20
-113.8576497111189
 30
0.0
 10
81.71404755986663
 20
-113.6270005683814
 30
0.0
 10
81.7343736232296
 20
-112.979667126703
 30
0.0
 10
82.31538897681699
 20
-112.979667126703
 30
0.0
 10
82.50073511392343
 20
-112.979667126703
 30
0.0
 10
82.76307913512521
 20
-113.0494303102793
 30
0.0
 10
82.80373126185115
 20
-113.3815375150574
 30
0.0
 10
82.80373126185115
 20
-113.3815375150574
 30
0.0
 10
82.57549368595335
 20
-113.3815375150574
 30
0.0
 10
82.57549368595335
 20
-113.3815375150574
 30
0.0
 10
82.56412487085203
 20
-113.3245211847765
 30
0.0
 10
82.53019068032232
 20
-113.1763820789108
 30
0.0
 10
82.31314966475158
 20
-113.1763820789108
 30
0.0
 10
82.00119626856221
 20
-113.1763820789108
 30
0.0
 10
81.95813257499658
 20
-113.5043551691066
 30
0.0
 10
81.9446967026041
 20
-113.7095106052532
 30
0.0
 10
82.04408770735357
 20
-113.631306937738
 30
0.0
 10
82.1164347125438
 20
-113.5720512953917
 30
0.0
 10
82.31091035268616
 20
-113.5720512953917
 30
0.0
 10
82.50314668076311
 20
-113.5720512953917
 30
0.0
 10
82.82629663727954
 20
-113.67988278408
 30
0.0
 10
82.82629663727954
 20
-114.086059541791
 30
0.0
 10
82.82629663727954
 20
-114.4054198932736
 30
0.0
 10
82.6139065006139
 20
-114.6255614947811
 30
0.0
 10
82.27473685009105
 20
-114.6255614947811
 30
0.0
  0
SPLINE
  5
F3
330
EE
100
AcDbEntity
  8
_U+30EC_U+30A4_U+30E4_U+30FC 1
370
     0
100
AcDbSpline
210
0.0
220
0.0
230
1.0
 70
    11
 71
     3
 72
    17
 73
    13
 74
     0
 42
0.0000000001
 43
0.0000000001
 12
1.0
 22
0.0
 32
0.0
 13
1.0
 23
0.0
 33
0.0
 40
0.0
 40
0.0
 40
0.0
 40
0.0
 40
1.0
 40
1.0
 40
1.0
 40
2.0
 40
2.0
 40
2.0
 40
3.0
 40
3.0
 40
3.0
 40
4.0
 40
4.0
 40
4.0
 40
4.0
 10
82.2928236013886
 20
-113.7666991903083
 30
0.0
 10
82.01256508366353
 20
-113.7666991903083
 30
0.0
 10
81.97174070216332
 20
-113.9782280531027
 30
0.0
 10
81.97174070216332
 20
-114.0945000257299
 30
0.0
 10
81.97174070216332
 20
-114.2700276407033
 30
0.0
 10
82.07354327375245
 20
-114.4329806571557
 30
0.0
 10
82.27025822596022
 20
-114.4329806571557
 30
0.0
 10
82.39910479710856
 20
-114.4329806571557
 30
0.0
 10
82.58669024628041
 20
-114.3737250148094
 30
0.0
 10
82.58669024628041
 20
-114.0881265990821
 30
0.0
 10
82.58669024628041
 20
-113.8638508829924
 30
0.0
 10
82.4375176117691
 20
-113.7666991903083
 30
0.0
 10
82.2928236013886
 20
-113.7666991903083
 30
0.0
  0
HATCH
  5
F4
330
EE
100
AcDbEntity
  8
_U+30EC_U+30A4_U+30E4_U+30FC 1
 62
     7
420
 16777215
100
AcDbHatch
 10
0.0
 20
0.0
 30
0.0
210
0.0
220
0.0
230
1.0
  2
SOLID
 70
     1
 71
     0
 91
        2
 92
        1
 93
        1
 72
     4
 94
        3
 73
     0
 74
     1
 95
       32
 96
       28
 40
0.0
 40
0.0
 40
0.0
 40
0.0
 40
1.0
 40
1.0
 40
1.0
 40
2.0
 40
2.0
 40
2.0
 40
3.0
 40
3.0
 40
3.0
 40
4.0
 40
4.0
 40
4.0
 40
5.0
 40
5.0
 40
5.0
 40
6.0
 40
6.0
 40
6.0
 40
7.0
 40
7.0
 40
7.0
 40
8.0
 40
8.0
 40
8.0
 40
9.0
 40
9.0
 40
9.0
 40
9.0
 10
82.27473685009105
 20
-114.6255614947811
 10
81.72317706290254
 20
-114.6255614947811
 10
81.71404755986663
 20
-114.0712456312044
 10
81.71404755986663
 20
-113.8576497111189
 10
81.71404755986663
 20
-113.6270005683814
 10
81.7343736232296
 20
-112.979667126703
 10
82.31538897681699
 20
-112.979667126703
 10
82.50073511392343
 20
-112.979667126703
 10
82.76307913512521
 20
-113.0494303102793
 10
82.80373126185115
 20
-113.3815375150574
 10
82.80373126185115
 20
-113.3815375150574
 10
82.57549368595335
 20
-113.3815375150574
 10
82.57549368595335
 20
-113.3815375150574
 10
82.56412487085203
 20
-113.3245211847765
 10
82.53019068032232
 20
-113.1763820789108
 10
82.31314966475158
 20
-113.1763820789108
 10
82.00119626856221
 20
-113.1763820789108
 10
81.95813257499658
 20
-113.5043551691066
 10
81.9446967026041
 20
-113.7095106052532
 10
82.04408770735357
 20
-113.631306937738
 10
82.1164347125438
 20
-113.5720512953917
 10
82.31091035268616
 20
-113.5720512953917
 10
82.50314668076311
 20
-113.5720512953917
 10
82.82629663727954
 20
-113.67988278408
 10
82.82629663727954
 20
-114.086059541791
 10
82.82629663727954
 20
-114.4054198932736
 10
82.6139065006139
 20
-114.6255614947811
 10
82.27473685009105
 20
-114.6255614947811
 97
        0
 97
        0
 92
        1
 93
        1
 72
     4
 94
        3
 73
     0
 74
     1
 95
       17
 96
       13
 40
0.0
 40
0.0
 40
0.0
 40
0.0
 40
1.0
 40
1.0
 40
1.0
 40
2.0
 40
2.0
 40
2.0
 40
3.0
 40
3.0
 40
3.0
 40
4.0
 40
4.0
 40
4.0
 40
4.0
 10
82.2928236013886
 20
-113.7666991903083
 10
82.01256508366353
 20
-113.7666991903083
 10
81.97174070216332
 20
-113.9782280531027
 10
81.97174070216332
 20
-114.0945000257299
 10
81.97174070216332
 20
-114.2700276407033
 10
82.07354327375245
 20
-114.4329806571557
 10
82.27025822596022
 20
-114.4329806571557
 10
82.39910479710856
 20
-114.4329806571557
 10
82.58669024628041
 20
-114.3737250148094
 10
82.58669024628041
 20
-114.0881265990821
 10
82.58669024628041
 20
-113.8638508829924
 10
82.4375176117691
 20
-113.7666991903083
 10
82.2928236013886
 20
-113.7666991903083
 97
        0
 97
        0
 75
     2
 76
     1
 98
        0
  0
POLYLINE
  5
F5
330
EE
100
AcDbEntity
  8
_U+30EC_U+30A4_U+30E4_U+30FC 1
370
     0
100
AcDb2dPolyline
 66
     1
 10
0.0
 20
0.0
 30
0.0
  0
VERTEX
  5
F6
330
F5
100
AcDbEntity
  8
_U+30EC_U+30A4_U+30E4_U+30FC 1
370
     0
100
AcDbVertex
100
AcDb2dVertex
 10
83.05780705388833
 20
-114.5747463363737
 30
0.0
  0
VERTEX
  5
F7
330
F5
100
AcDbEntity
  8
_U+30EC_U+30A4_U+30E4_U+30FC 1
370
     0
100
AcDbVertex
100
AcDb2dVertex
 10
83.05780705388833
 20
-114.3230821111762
 30
0.0
  0
VERTEX
  5
F8
330
F5
100
AcDbEntity
  8
_U+30EC_U+30A4_U+30E4_U+30FC 1
370
     0
100
AcDbVertex
100
AcDb2dVertex
 10
83.32686901128635
 20
-114.3230821111762
 30
0.0
  0
VERTEX
  5
F9
330
F5
100
AcDbEntity
  8
_U+30EC_U+30A4_U+30E4_U+30FC 1
370
     0
100
AcDbVertex
100
AcDb2dVertex
 10
83.32686901128635
 20
-114.5747463363737
 30
0.0
  0
VERTEX
  5
FA
330
F5
100
AcDbEntity
  8
_U+30EC_U+30A4_U+30E4_U+30FC 1
370
     0
100
AcDbVertex
100
AcDb2dVertex
 10
83.05780705388833
 20
-114.5747463363737
 30
0.0
  0
SEQEND
  5
FB
330
F5
100
AcDbEntity
  8
_U+30EC_U+30A4_U+30E4_U+30FC 1
370
     0
  0
HATCH
  5
FC
330
EE
100
AcDbEntity
  8
_U+30EC_U+30A4_U+30E4_U+30FC 1
 62
     7
420
 16777215
100
AcDbHatch
 10
0.0
 20
0.0
 30
0.0
210
0.0
220
0.0
230
1.0
  2
SOLID
 70
     1
 71
     0
 91
        1
 92
        1
 93
        4
 72
     1
 10
83.05780705388833
 20
-114.5747463363737
 11
83.05780705388833
 21
-114.3230821111762
 72
     1
 10
83.05780705388833
 20
-114.3230821111762
 11
83.32686901128635
 21
-114.3230821111762
 72
     1
 10
83.32686901128635
 20
-114.3230821111762
 11
83.32686901128635
 21
-114.5747463363737
 72
     1
 10
83.32686901128635
 20
-114.5747463363737
 11
83.05780705388833
 21
-114.5747463363737
 97
        0
 75
     2
 76
     1
 98
        0
  0
SPLINE
  5
FD
330
EE
100
AcDbEntity
  8
_U+30EC_U+30A4_U+30E4_U+30FC 1
370
     0
100
AcDbSpline
210
0.0
220
0.0
230
1.0
 70
    11
 71
     3
 72
    53
 73
    49
 74
     0
 42
0.0000000001
 43
0.0000000001
 12
1.0
 22
0.0
 32
0.0
 13
1.0
 23
0.0
 33
0.0
 40
0.0
 40
0.0
 40
0.0
 40
0.0
 40
1.0
 40
1.0
 40
1.0
 40
2.0
 40
2.0
 40
2.0
 40
3.0
 40
3.0
 40
3.0
 40
4.0
 40
4.0
 40
4.0
 40
5.0
 40
5.0
 40
5.0
 40
6.0
 40
6.0
 40
6.0
 40
7.0
 40
7.0
 40
7.0
 40
8.0
 40
8.0
 40
8.0
 40
9.0
 40
9.0
 40
9.0
 40
10.0
 40
10.0
 40
10.0
 40
11.0
 40
11.0
 40
11.0
 40
12.0
 40
12.0
 40
12.0
 40
13.0
 40
13.0
 40
13.0
 40
14.0
 40
14.0
 40
14.0
 40
15.0
 40
15.0
 40
15.0
 40
16.0
 40
16.0
 40
16.0
 40
16.0
 10
84.0935750115287
 20
-114.6255614947811
 30
0.0
 10
84.00985919123713
 20
-114.6255614947811
 30
0.0
 10
83.90133868345175
 20
-114.6086805269034
 30
0.0
 10
83.79281817566638
 20
-114.5451185152005
 30
0.0
 10
83.60747203855995
 20
-114.4350477144468
 30
0.0
 10
83.58490666313155
 20
-114.303961831233
 30
0.0
 10
83.56440834499432
 20
-114.1961303425447
 30
0.0
 10
83.56440834499432
 20
-114.1961303425447
 30
0.0
 10
83.80194767870229
 20
-114.1961303425447
 30
0.0
 10
83.80194767870229
 20
-114.1961303425447
 30
0.0
 10
83.86068655672581
 20
-114.3949123520436
 30
0.0
 10
83.99625106407039
 20
-114.4245401732168
 30
0.0
 10
84.09581432359411
 20
-114.4245401732168
 30
0.0
 10
84.24498695810543
 20
-114.4245401732168
 30
0.0
 10
84.40776771978348
 20
-114.3251491684673
 30
0.0
 10
84.40776771978348
 20
-114.0924329684387
 30
0.0
 10
84.40776771978348
 20
-113.8364623738846
 30
0.0
 10
84.21553139170653
 20
-113.7666991903083
 30
0.0
 10
84.08668482055819
 20
-113.7666991903083
 30
0.0
 10
84.05275063002848
 20
-113.7666991903083
 30
0.0
 10
83.90133868345175
 20
-113.7666991903083
 30
0.0
 10
83.80642630283312
 20
-113.8957180162309
 30
0.0
 10
83.80642630283312
 20
-113.8957180162309
 30
0.0
 10
83.618668598887
 20
-113.8765977362878
 30
0.0
 10
83.618668598887
 20
-113.8765977362878
 30
0.0
 10
83.618668598887
 20
-113.8765977362878
 30
0.0
 10
83.74751517003534
 20
-113.0304822851104
 30
0.0
 10
83.74751517003534
 20
-113.0304822851104
 30
0.0
 10
83.74751517003534
 20
-113.0304822851104
 30
0.0
 10
84.57950572972318
 20
-113.0304822851104
 30
0.0
 10
84.57950572972318
 20
-113.0304822851104
 30
0.0
 10
84.57950572972318
 20
-113.0304822851104
 30
0.0
 10
84.57950572972318
 20
-113.2251301800271
 30
0.0
 10
84.57950572972318
 20
-113.2251301800271
 30
0.0
 10
84.57950572972318
 20
-113.2251301800271
 30
0.0
 10
83.92166474681473
 20
-113.2251301800271
 30
0.0
 10
83.92166474681473
 20
-113.2251301800271
 30
0.0
 10
83.92166474681473
 20
-113.2251301800271
 30
0.0
 10
83.85155705368989
 20
-113.6481879056157
 30
0.0
 10
83.85155705368989
 20
-113.6481879056157
 30
0.0
 10
83.9171861226839
 20
-113.614253715086
 30
0.0
 10
84.0053805671063
 20
-113.5741183526829
 30
0.0
 10
84.13198782618923
 20
-113.5741183526829
 30
0.0
 10
84.40328909565265
 20
-113.5741183526829
 30
0.0
 10
84.65650361381851
 20
-113.7603257636606
 30
0.0
 10
84.65650361381851
 20
-114.0733126884956
 30
0.0
 10
84.65650361381851
 20
-114.3907782374613
 30
0.0
 10
84.41689722281939
 20
-114.6255614947811
 30
0.0
 10
84.0935750115287
 20
-114.6255614947811
 30
0.0
  0
HATCH
  5
FE
330
EE
100
AcDbEntity
  8
_U+30EC_U+30A4_U+30E4_U+30FC 1
 62
     7
420
 16777215
100
AcDbHatch
 10
0.0
 20
0.0
 30
0.0
210
0.0
220
0.0
230
1.0
  2
SOLID
 70
     1
 71
     0
 91
        1
 92
        1
 93
        1
 72
     4
 94
        3
 73
     0
 74
     1
 95
       53
 96
       49
 40
0.0
 40
0.0
 40
0.0
 40
0.0
 40
1.0
 40
1.0
 40
1.0
 40
2.0
 40
2.0
 40
2.0
 40
3.0
 40
3.0
 40
3.0
 40
4.0
 40
4.0
 40
4.0
 40
5.0
 40
5.0
 40
5.0
 40
6.0
 40
6.0
 40
6.0
 40
7.0
 40
7.0
 40
7.0
 40
8.0
 40
8.0
 40
8.0
 40
9.0
 40
9.0
 40
9.0
 40
10.0
 40
10.0
 40
10.0
 40
11.0
 40
11.0
 40
11.0
 40
12.0
 40
12.0
 40
12.0
 40
13.0
 40
13.0
 40
13.0
 40
14.0
 40
14.0
 40
14.0
 40
15.0
 40
15.0
 40
15.0
 40
16.0
 40
16.0
 40
16.0
 40
16.0
 10
84.0935750115287
 20
-114.6255614947811
 10
84.00985919123713
 20
-114.6255614947811
 10
83.90133868345175
 20
-114.6086805269034
 10
83.79281817566638
 20
-114.5451185152005
 10
83.60747203855995
 20
-114.4350477144468
 10
83.58490666313155
 20
-114.303961831233
 10
83.56440834499432
 20
-114.1961303425447
 10
83.56440834499432
 20
-114.1961303425447
 10
83.80194767870229
 20
-114.1961303425447
 10
83.80194767870229
 20
-114.1961303425447
 10
83.86068655672581
 20
-114.3949123520436
 10
83.99625106407039
 20
-114.4245401732168
 10
84.09581432359411
 20
-114.4245401732168
 10
84.24498695810543
 20
-114.4245401732168
 10
84.40776771978348
 20
-114.3251491684673
 10
84.40776771978348
 20
-114.0924329684387
 10
84.40776771978348
 20
-113.8364623738846
 10
84.21553139170653
 20
-113.7666991903083
 10
84.08668482055819
 20
-113.7666991903083
 10
84.05275063002848
 20
-113.7666991903083
 10
83.90133868345175
 20
-113.7666991903083
 10
83.80642630283312
 20
-113.8957180162309
 10
83.80642630283312
 20
-113.8957180162309
 10
83.618668598887
 20
-113.8765977362878
 10
83.618668598887
 20
-113.8765977362878
 10
83.618668598887
 20
-113.8765977362878
 10
83.74751517003534
 20
-113.0304822851104
 10
83.74751517003534
 20
-113.0304822851104
 10
83.74751517003534
 20
-113.0304822851104
 10
84.57950572972318
 20
-113.0304822851104
 10
84.57950572972318
 20
-113.0304822851104
 10
84.57950572972318
 20
-113.0304822851104
 10
84.57950572972318
 20
-113.2251301800271
 10
84.57950572972318
 20
-113.2251301800271
 10
84.57950572972318
 20
-113.2251301800271
 10
83.92166474681473
 20
-113.2251301800271
 10
83.92166474681473
 20
-113.2251301800271
 10
83.92166474681473
 20
-113.2251301800271
 10
83.85155705368989
 20
-113.6481879056157
 10
83.85155705368989
 20
-113.6481879056157
 10
83.9171861226839
 20
-113.614253715086
 10
84.0053805671063
 20
-113.5741183526829
 10
84.13198782618923
 20
-113.5741183526829
 10
84.40328909565265
 20
-113.5741183526829
 10
84.65650361381851
 20
-113.7603257636606
 10
84.65650361381851
 20
-114.0733126884956
 10
84.65650361381851
 20
-114.3907782374613
 10
84.41689722281939
 20
-114.6255614947811
 10
84.0935750115287
 20
-114.6255614947811
 97
        0
 97
        0
 75
     2
 76
     1
 98
        0
  0
ENDBLK
  5
F1
330
EE
100
AcDbEntity
  8
0
100
AcDbBlockEnd
  0
BLOCK
  5
10D
330
10B
100
AcDbEntity
  8
0
100
AcDbBlockBegin
  2
block 6
 70
     0
 10
0.0
 20
0.0
 30
0.0
  3
block 6
  1

  0
SPLINE
  5
10F
330
10B
100
AcDbEntity
  8
_U+30EC_U+30A4_U+30E4_U+30FC 1
370
     0
100
AcDbSpline
210
0.0
220
0.0
230
1.0
 70
    11
 71
     3
 72
    44
 73
    40
 74
     0
 42
0.0000000001
 43
0.0000000001
 12
1.0
 22
0.0
 32
0.0
 13
1.0
 23
0.0
 33
0.0
 40
0.0
 40
0.0
 40
0.0
 40
0.0
 40
1.0
 40
1.0
 40
1.0
 40
2.0
 40
2.0
 40
2.0
 40
3.0
 40
3.0
 40
3.0
 40
4.0
 40
4.0
 40
4.0
 40
5.0
 40
5.0
 40
5.0
 40
6.0
 40
6.0
 40
6.0
 40
7.0
 40
7.0
 40
7.0
 40
8.0
 40
8.0
 40
8.0
 40
9.0
 40
9.0
 40
9.0
 40
10.0
 40
10.0
 40
10.0
 40
11.0
 40
11.0
 40
11.0
 40
12.0
 40
12.0
 40
12.0
 40
13.0
 40
13.0
 40
13.0
 40
13.0
 10
73.61635062178689
 20
-130.6142496418256
 30
0.0
 10
73.77499726888264
 20
-130.8471380966285
 30
0.0
 10
73.84906682181551
 20
-130.9467013561522
 30
0.0
 10
73.9928995583247
 20
-130.998377788431
 30
0.0
 10
73.9928995583247
 20
-130.998377788431
 30
0.0
 10
73.9928995583247
 20
-130.1667317382916
 30
0.0
 10
73.9928995583247
 20
-130.1667317382916
 30
0.0
 10
73.9928995583247
 20
-130.1667317382916
 30
0.0
 10
74.19805499447132
 20
-130.1667317382916
 30
0.0
 10
74.19805499447132
 20
-130.1667317382916
 30
0.0
 10
74.19805499447132
 20
-130.1667317382916
 30
0.0
 10
74.19805499447132
 20
-131.2653726885378
 30
0.0
 10
74.19805499447132
 20
-131.2653726885378
 30
0.0
 10
73.84045408310239
 20
-131.2312662432338
 30
0.0
 10
73.76225041558722
 20
-131.1613308048833
 30
0.0
 10
73.46390514656458
 20
-130.7499864039445
 30
0.0
 10
73.26512313706567
 20
-130.4764458224156
 30
0.0
 10
73.1974270107805
 20
-130.4061658745165
 30
0.0
 10
73.05996770091905
 20
-130.4061658745165
 30
0.0
 10
72.94145641622644
 20
-130.4061658745165
 30
0.0
 10
72.81019827823843
 20
-130.4829915038376
 30
0.0
 10
72.81019827823843
 20
-130.6934868379864
 30
0.0
 10
72.81019827823843
 20
-130.971506043646
 30
0.0
 10
73.04084742097591
 20
-130.9804632919077
 30
0.0
 10
73.15729164837735
 20
-130.9849419160385
 30
0.0
 10
73.15729164837735
 20
-130.9849419160385
 30
0.0
 10
73.15729164837735
 20
-131.2247205618119
 30
0.0
 10
73.15729164837735
 20
-131.2247205618119
 30
0.0
 10
73.0303398797459
 20
-131.2154188040017
 30
0.0
 10
72.918202021701
 20
-131.2043944984489
 30
0.0
 10
72.79969073700842
 20
-131.1182671113177
 30
0.0
 10
72.63897703262151
 20
-131.0007893552707
 30
0.0
 10
72.6050428420918
 20
-130.8020073457717
 30
0.0
 10
72.6050428420918
 20
-130.6776393987542
 30
0.0
 10
72.6050428420918
 20
-130.3813611870227
 30
0.0
 10
72.7891831957784
 20
-130.1598415473212
 30
0.0
 10
73.06203475821019
 20
-130.1598415473212
 30
0.0
 10
73.29044458888225
 20
-130.1598415473212
 30
0.0
 10
73.39000784840597
 20
-130.2842094943387
 30
0.0
 10
73.61635062178689
 20
-130.6142496418256
 30
0.0
  0
HATCH
  5
110
330
10B
100
AcDbEntity
  8
_U+30EC_U+30A4_U+30E4_U+30FC 1
 62
     7
420
 16777215
100
AcDbHatch
 10
0.0
 20
0.0
 30
0.0
210
0.0
220
0.0
230
1.0
  2
SOLID
 70
     1
 71
     0
 91
        1
 92
        1
 93
        1
 72
     4
 94
        3
 73
     0
 74
     1
 95
       44
 96
       40
 40
0.0
 40
0.0
 40
0.0
 40
0.0
 40
1.0
 40
1.0
 40
1.0
 40
2.0
 40
2.0
 40
2.0
 40
3.0
 40
3.0
 40
3.0
 40
4.0
 40
4.0
 40
4.0
 40
5.0
 40
5.0
 40
5.0
 40
6.0
 40
6.0
 40
6.0
 40
7.0
 40
7.0
 40
7.0
 40
8.0
 40
8.0
 40
8.0
 40
9.0
 40
9.0
 40
9.0
 40
10.0
 40
10.0
 40
10.0
 40
11.0
 40
11.0
 40
11.0
 40
12.0
 40
12.0
 40
12.0
 40
13.0
 40
13.0
 40
13.0
 40
13.0
 10
73.61635062178689
 20
-130.6142496418256
 10
73.77499726888264
 20
-130.8471380966285
 10
73.84906682181551
 20
-130.9467013561522
 10
73.9928995583247
 20
-130.998377788431
 10
73.9928995583247
 20
-130.998377788431
 10
73.9928995583247
 20
-130.1667317382916
 10
73.9928995583247
 20
-130.1667317382916
 10
73.9928995583247
 20
-130.1667317382916
 10
74.19805499447132
 20
-130.1667317382916
 10
74.19805499447132
 20
-130.1667317382916
 10
74.19805499447132
 20
-130.1667317382916
 10
74.19805499447132
 20
-131.2653726885378
 10
74.19805499447132
 20
-131.2653726885378
 10
73.84045408310239
 20
-131.2312662432338
 10
73.76225041558722
 20
-131.1613308048833
 10
73.46390514656458
 20
-130.7499864039445
 10
73.26512313706567
 20
-130.4764458224156
 10
73.1974270107805
 20
-130.4061658745165
 10
73.05996770091905
 20
-130.4061658745165
 10
72.94145641622644
 20
-130.4061658745165
 10
72.81019827823843
 20
-130.4829915038376
 10
72.81019827823843
 20
-130.6934868379864
 10
72.81019827823843
 20
-130.971506043646
 10
73.04084742097591
 20
-130.9804632919077
 10
73.15729164837735
 20
-130.9849419160385
 10
73.15729164837735
 20
-130.9849419160385
 10
73.15729164837735
 20
-131.2247205618119
 10
73.15729164837735
 20
-131.2247205618119
 10
73.0303398797459
 20
-131.2154188040017
 10
72.918202021701
 20
-131.2043944984489
 10
72.79969073700842
 20
-131.1182671113177
 10
72.63897703262151
 20
-131.0007893552707
 10
72.6050428420918
 20
-130.8020073457717
 10
72.6050428420918
 20
-130.6776393987542
 10
72.6050428420918
 20
-130.3813611870227
 10
72.7891831957784
 20
-130.1598415473212
 10
73.06203475821019
 20
-130.1598415473212
 10
73.29044458888225
 20
-130.1598415473212
 10
73.39000784840597
 20
-130.2842094943387
 10
73.61635062178689
 20
-130.6142496418256
 97
        0
 97
        0
 75
     2
 76
     1
 98
        0
  0
SPLINE
  5
111
330
10B
100
AcDbEntity
  8
_U+30EC_U+30A4_U+30E4_U+30FC 1
370
     0
100
AcDbSpline
210
0.0
220
0.0
230
1.0
 70
    11
 71
     3
 72
    29
 73
    25
 74
     0
 42
0.0000000001
 43
0.0000000001
 12
1.0
 22
0.0
 32
0.0
 13
1.0
 23
0.0
 33
0.0
 40
0.0
 40
0.0
 40
0.0
 40
0.0
 40
1.0
 40
1.0
 40
1.0
 40
2.0
 40
2.0
 40
2.0
 40
3.0
 40
3.0
 40
3.0
 40
4.0
 40
4.0
 40
4.0
 40
5.0
 40
5.0
 40
5.0
 40
6.0
 40
6.0
 40
6.0
 40
7.0
 40
7.0
 40
7.0
 40
8.0
 40
8.0
 40
8.0
 40
8.0
 10
74.02028806743243
 20
-129.0308837568048
 30
0.0
 10
74.22974987293563
 20
-129.1462944555606
 30
0.0
 10
74.24887015287875
 20
-129.3316405926671
 30
0.0
 10
74.24887015287875
 20
-129.4560085396846
 30
0.0
 10
74.24887015287875
 20
-129.6275742948501
 30
0.0
 10
74.20236136382789
 20
-129.7791584962011
 30
0.0
 10
74.02028806743243
 20
-129.8807888130159
 30
0.0
 10
73.82581242729007
 20
-129.991720887641
 30
0.0
 10
73.58878985790489
 20
-130.012046951004
 30
0.0
 10
73.42583684145256
 20
-130.012046951004
 30
0.0
 10
73.2820041049434
 20
-130.012046951004
 30
0.0
 10
73.0303398797459
 20
-129.9937879449321
 30
0.0
 10
72.83138561547271
 20
-129.8807888130159
 30
0.0
 10
72.62829723661723
 20
-129.7657226238086
 30
0.0
 10
72.6050428420918
 20
-129.5938123590946
 30
0.0
 10
72.6050428420918
 20
-129.4560085396846
 30
0.0
 10
72.6050428420918
 20
-129.2861653322618
 30
0.0
 10
72.64948457385152
 20
-129.1325140736197
 30
0.0
 10
72.83138561547271
 20
-129.0308837568048
 30
0.0
 10
73.02396645309818
 20
-128.9244303063106
 30
0.0
 10
73.25237628377025
 20
-128.8996256188168
 30
0.0
 10
73.42583684145256
 20
-128.8996256188168
 30
0.0
 10
73.59723034184375
 20
-128.8996256188168
 30
0.0
 10
73.82787948458123
 20
-128.9223632490194
 30
0.0
 10
74.02028806743243
 20
-129.0308837568048
 30
0.0
  0
SPLINE
  5
112
330
10B
100
AcDbEntity
  8
_U+30EC_U+30A4_U+30E4_U+30FC 1
370
     0
100
AcDbSpline
210
0.0
220
0.0
230
1.0
 70
    11
 71
     3
 72
    17
 73
    13
 74
     0
 42
0.0000000001
 43
0.0000000001
 12
1.0
 22
0.0
 32
0.0
 13
1.0
 23
0.0
 33
0.0
 40
0.0
 40
0.0
 40
0.0
 40
0.0
 40
1.0
 40
1.0
 40
1.0
 40
2.0
 40
2.0
 40
2.0
 40
3.0
 40
3.0
 40
3.0
 40
4.0
 40
4.0
 40
4.0
 40
4.0
 10
72.79762367971726
 20
-129.4560085396846
 30
0.0
 10
72.79762367971726
 20
-129.7226589302429
 30
0.0
 10
73.08098278337906
 20
-129.7722683052305
 30
0.0
 10
73.42583684145256
 20
-129.7722683052305
 30
0.0
 10
73.74536944770949
 20
-129.7722683052305
 30
0.0
 10
74.05422225796214
 20
-129.7340277453443
 30
0.0
 10
74.05422225796214
 20
-129.4560085396846
 30
0.0
 10
74.05422225796214
 20
-129.1914252064174
 30
0.0
 10
73.77275795681723
 20
-129.1394042645902
 30
0.0
 10
73.42583684145256
 20
-129.1394042645902
 30
0.0
 10
73.10647648996991
 20
-129.1394042645902
 30
0.0
 10
72.79762367971726
 20
-129.1800563913161
 30
0.0
 10
72.79762367971726
 20
-129.4560085396846
 30
0.0
  0
HATCH
  5
113
330
10B
100
AcDbEntity
  8
_U+30EC_U+30A4_U+30E4_U+30FC 1
 62
     7
420
 16777215
100
AcDbHatch
 10
0.0
 20
0.0
 30
0.0
210
0.0
220
0.0
230
1.0
  2
SOLID
 70
     1
 71
     0
 91
        2
 92
        1
 93
        1
 72
     4
 94
        3
 73
     0
 74
     1
 95
       29
 96
       25
 40
0.0
 40
0.0
 40
0.0
 40
0.0
 40
1.0
 40
1.0
 40
1.0
 40
2.0
 40
2.0
 40
2.0
 40
3.0
 40
3.0
 40
3.0
 40
4.0
 40
4.0
 40
4.0
 40
5.0
 40
5.0
 40
5.0
 40
6.0
 40
6.0
 40
6.0
 40
7.0
 40
7.0
 40
7.0
 40
8.0
 40
8.0
 40
8.0
 40
8.0
 10
74.02028806743243
 20
-129.0308837568048
 10
74.22974987293563
 20
-129.1462944555606
 10
74.24887015287875
 20
-129.3316405926671
 10
74.24887015287875
 20
-129.4560085396846
 10
74.24887015287875
 20
-129.6275742948501
 10
74.20236136382789
 20
-129.7791584962011
 10
74.02028806743243
 20
-129.8807888130159
 10
73.82581242729007
 20
-129.991720887641
 10
73.58878985790489
 20
-130.012046951004
 10
73.42583684145256
 20
-130.012046951004
 10
73.2820041049434
 20
-130.012046951004
 10
73.0303398797459
 20
-129.9937879449321
 10
72.83138561547271
 20
-129.8807888130159
 10
72.62829723661723
 20
-129.7657226238086
 10
72.6050428420918
 20
-129.5938123590946
 10
72.6050428420918
 20
-129.4560085396846
 10
72.6050428420918
 20
-129.2861653322618
 10
72.64948457385152
 20
-129.1325140736197
 10
72.83138561547271
 20
-129.0308837568048
 10
73.02396645309818
 20
-128.9244303063106
 10
73.25237628377025
 20
-128.8996256188168
 10
73.42583684145256
 20
-128.8996256188168
 10
73.59723034184375
 20
-128.8996256188168
 10
73.82787948458123
 20
-128.9223632490194
 10
74.02028806743243
 20
-129.0308837568048
 97
        0
 97
        0
 92
        1
 93
        1
 72
     4
 94
        3
 73
     0
 74
     1
 95
       17
 96
       13
 40
0.0
 40
0.0
 40
0.0
 40
0.0
 40
1.0
 40
1.0
 40
1.0
 40
2.0
 40
2.0
 40
2.0
 40
3.0
 40
3.0
 40
3.0
 40
4.0
 40
4.0
 40
4.0
 40
4.0
 10
72.79762367971726
 20
-129.4560085396846
 10
72.79762367971726
 20
-129.7226589302429
 10
73.08098278337906
 20
-129.7722683052305
 10
73.42583684145256
 20
-129.7722683052305
 10
73.74536944770949
 20
-129.7722683052305
 10
74.05422225796214
 20
-129.7340277453443
 10
74.05422225796214
 20
-129.4560085396846
 10
74.05422225796214
 20
-129.1914252064174
 10
73.77275795681723
 20
-129.1394042645902
 10
73.42583684145256
 20
-129.1394042645902
 10
73.10647648996991
 20
-129.1394042645902
 10
72.79762367971726
 20
-129.1800563913161
 10
72.79762367971726
 20
-129.4560085396846
 97
        0
 97
        0
 75
     2
 76
     1
 98
        0
  0
POLYLINE
  5
114
330
10B
100
AcDbEntity
  8
_U+30EC_U+30A4_U+30E4_U+30FC 1
370
     0
100
AcDb2dPolyline
 66
     1
 10
0.0
 20
0.0
 30
0.0
  0
VERTEX
  5
115
330
114
100
AcDbEntity
  8
_U+30EC_U+30A4_U+30E4_U+30FC 1
370
     0
100
AcDbVertex
100
AcDb2dVertex
 10
74.19805499447132
 20
-128.6684597117565
 30
0.0
  0
VERTEX
  5
116
330
114
100
AcDbEntity
  8
_U+30EC_U+30A4_U+30E4_U+30FC 1
370
     0
100
AcDbVertex
100
AcDb2dVertex
 10
73.94639076927382
 20
-128.6684597117565
 30
0.0
  0
VERTEX
  5
117
330
114
100
AcDbEntity
  8
_U+30EC_U+30A4_U+30E4_U+30FC 1
370
     0
100
AcDbVertex
100
AcDb2dVertex
 10
73.94639076927382
 20
-128.3993977543585
 30
0.0
  0
VERTEX
  5
118
330
114
100
AcDbEntity
  8
_U+30EC_U+30A4_U+30E4_U+30FC 1
370
     0
100
AcDbVertex
100
AcDb2dVertex
 10
74.19805499447132
 20
-128.3993977543585
 30
0.0
  0
VERTEX
  5
119
330
114
100
AcDbEntity
  8
_U+30EC_U+30A4_U+30E4_U+30FC 1
370
     0
100
AcDbVertex
100
AcDb2dVertex
 10
74.19805499447132
 20
-128.6684597117565
 30
0.0
  0
SEQEND
  5
11A
330
114
100
AcDbEntity
  8
_U+30EC_U+30A4_U+30E4_U+30FC 1
370
     0
  0
HATCH
  5
11B
330
10B
100
AcDbEntity
  8
_U+30EC_U+30A4_U+30E4_U+30FC 1
 62
     7
420
 16777215
100
AcDbHatch
 10
0.0
 20
0.0
 30
0.0
210
0.0
220
0.0
230
1.0
  2
SOLID
 70
     1
 71
     0
 91
        1
 92
        1
 93
        4
 72
     1
 10
74.19805499447132
 20
-128.6684597117565
 11
73.94639076927382
 21
-128.6684597117565
 72
     1
 10
73.94639076927382
 20
-128.6684597117565
 11
73.94639076927382
 21
-128.3993977543585
 72
     1
 10
73.94639076927382
 20
-128.3993977543585
 11
74.19805499447132
 21
-128.3993977543585
 72
     1
 10
74.19805499447132
 20
-128.3993977543585
 11
74.19805499447132
 21
-128.6684597117565
 97
        0
 75
     2
 76
     1
 98
        0
  0
SPLINE
  5
11C
330
10B
100
AcDbEntity
  8
_U+30EC_U+30A4_U+30E4_U+30FC 1
370
     0
100
AcDbSpline
210
0.0
220
0.0
230
1.0
 70
    11
 71
     3
 72
    53
 73
    49
 74
     0
 42
0.0000000001
 43
0.0000000001
 12
1.0
 22
0.0
 32
0.0
 13
1.0
 23
0.0
 33
0.0
 40
0.0
 40
0.0
 40
0.0
 40
0.0
 40
1.0
 40
1.0
 40
1.0
 40
2.0
 40
2.0
 40
2.0
 40
3.0
 40
3.0
 40
3.0
 40
4.0
 40
4.0
 40
4.0
 40
5.0
 40
5.0
 40
5.0
 40
6.0
 40
6.0
 40
6.0
 40
7.0
 40
7.0
 40
7.0
 40
8.0
 40
8.0
 40
8.0
 40
9.0
 40
9.0
 40
9.0
 40
10.0
 40
10.0
 40
10.0
 40
11.0
 40
11.0
 40
11.0
 40
12.0
 40
12.0
 40
12.0
 40
13.0
 40
13.0
 40
13.0
 40
14.0
 40
14.0
 40
14.0
 40
15.0
 40
15.0
 40
15.0
 40
16.0
 40
16.0
 40
16.0
 40
16.0
 10
74.24887015287875
 20
-127.6325194993419
 30
0.0
 10
74.24887015287875
 20
-127.7162353196334
 30
0.0
 10
74.23198918500104
 20
-127.8247558274188
 30
0.0
 10
74.16842717329817
 20
-127.9332763352042
 30
0.0
 10
74.05835637254444
 20
-128.1186224723106
 30
0.0
 10
73.92727048933068
 20
-128.1413601025133
 30
0.0
 10
73.81943900064236
 20
-128.1616861658763
 30
0.0
 10
73.81943900064236
 20
-128.1616861658763
 30
0.0
 10
73.81943900064236
 20
-127.9243190869425
 30
0.0
 10
73.81943900064236
 20
-127.9243190869425
 30
0.0
 10
74.01822101014127
 20
-127.8654079541448
 30
0.0
 10
74.04784883131443
 20
-127.7298434468002
 30
0.0
 10
74.04784883131443
 20
-127.6302801872765
 30
0.0
 10
74.04784883131443
 20
-127.4811075527652
 30
0.0
 10
73.94845782656498
 20
-127.3183267910871
 30
0.0
 10
73.71574162653634
 20
-127.3183267910871
 30
0.0
 10
73.45977103198229
 20
-127.3183267910871
 30
0.0
 10
73.39000784840597
 20
-127.510563119164
 30
0.0
 10
73.39000784840597
 20
-127.6394096903124
 30
0.0
 10
73.39000784840597
 20
-127.6733438808421
 30
0.0
 10
73.39000784840597
 20
-127.8247558274188
 30
0.0
 10
73.51902667432859
 20
-127.9196682080375
 30
0.0
 10
73.51902667432859
 20
-127.9196682080375
 30
0.0
 10
73.49990639438545
 20
-128.1074259119836
 30
0.0
 10
73.49990639438545
 20
-128.1074259119836
 30
0.0
 10
73.49990639438545
 20
-128.1074259119836
 30
0.0
 10
72.65379094320808
 20
-127.978407086061
 30
0.0
 10
72.65379094320808
 20
-127.978407086061
 30
0.0
 10
72.65379094320808
 20
-127.978407086061
 30
0.0
 10
72.65379094320808
 20
-127.1464165263731
 30
0.0
 10
72.65379094320808
 20
-127.1464165263731
 30
0.0
 10
72.65379094320808
 20
-127.1464165263731
 30
0.0
 10
72.8484388381247
 20
-127.1464165263731
 30
0.0
 10
72.8484388381247
 20
-127.1464165263731
 30
0.0
 10
72.8484388381247
 20
-127.1464165263731
 30
0.0
 10
72.8484388381247
 20
-127.8044297640558
 30
0.0
 10
72.8484388381247
 20
-127.8044297640558
 30
0.0
 10
72.8484388381247
 20
-127.8044297640558
 30
0.0
 10
73.27149656371338
 20
-127.8745374571807
 30
0.0
 10
73.27149656371338
 20
-127.8745374571807
 30
0.0
 10
73.23756237318366
 20
-127.8089083881867
 30
0.0
 10
73.1974270107805
 20
-127.7207139437643
 30
0.0
 10
73.1974270107805
 20
-127.5941066846813
 30
0.0
 10
73.1974270107805
 20
-127.3228054152179
 30
0.0
 10
73.38363442175826
 20
-127.0695908970521
 30
0.0
 10
73.6966213465932
 20
-127.0695908970521
 30
0.0
 10
74.01408689555898
 20
-127.0695908970521
 30
0.0
 10
74.24887015287875
 20
-127.3093695428254
 30
0.0
 10
74.24887015287875
 20
-127.6325194993419
 30
0.0
  0
HATCH
  5
11D
330
10B
100
AcDbEntity
  8
_U+30EC_U+30A4_U+30E4_U+30FC 1
 62
     7
420
 16777215
100
AcDbHatch
 10
0.0
 20
0.0
 30
0.0
210
0.0
220
0.0
230
1.0
  2
SOLID
 70
     1
 71
     0
 91
        1
 92
        1
 93
        1
 72
     4
 94
        3
 73
     0
 74
     1
 95
       53
 96
       49
 40
0.0
 40
0.0
 40
0.0
 40
0.0
 40
1.0
 40
1.0
 40
1.0
 40
2.0
 40
2.0
 40
2.0
 40
3.0
 40
3.0
 40
3.0
 40
4.0
 40
4.0
 40
4.0
 40
5.0
 40
5.0
 40
5.0
 40
6.0
 40
6.0
 40
6.0
 40
7.0
 40
7.0
 40
7.0
 40
8.0
 40
8.0
 40
8.0
 40
9.0
 40
9.0
 40
9.0
 40
10.0
 40
10.0
 40
10.0
 40
11.0
 40
11.0
 40
11.0
 40
12.0
 40
12.0
 40
12.0
 40
13.0
 40
13.0
 40
13.0
 40
14.0
 40
14.0
 40
14.0
 40
15.0
 40
15.0
 40
15.0
 40
16.0
 40
16.0
 40
16.0
 40
16.0
 10
74.24887015287875
 20
-127.6325194993419
 10
74.24887015287875
 20
-127.7162353196334
 10
74.23198918500104
 20
-127.8247558274188
 10
74.16842717329817
 20
-127.9332763352042
 10
74.05835637254444
 20
-128.1186224723106
 10
73.92727048933068
 20
-128.1413601025133
 10
73.81943900064236
 20
-128.1616861658763
 10
73.81943900064236
 20
-128.1616861658763
 10
73.81943900064236
 20
-127.9243190869425
 10
73.81943900064236
 20
-127.9243190869425
 10
74.01822101014127
 20
-127.8654079541448
 10
74.04784883131443
 20
-127.7298434468002
 10
74.04784883131443
 20
-127.6302801872765
 10
74.04784883131443
 20
-127.4811075527652
 10
73.94845782656498
 20
-127.3183267910871
 10
73.71574162653634
 20
-127.3183267910871
 10
73.45977103198229
 20
-127.3183267910871
 10
73.39000784840597
 20
-127.510563119164
 10
73.39000784840597
 20
-127.6394096903124
 10
73.39000784840597
 20
-127.6733438808421
 10
73.39000784840597
 20
-127.8247558274188
 10
73.51902667432859
 20
-127.9196682080375
 10
73.51902667432859
 20
-127.9196682080375
 10
73.49990639438545
 20
-128.1074259119836
 10
73.49990639438545
 20
-128.1074259119836
 10
73.49990639438545
 20
-128.1074259119836
 10
72.65379094320808
 20
-127.978407086061
 10
72.65379094320808
 20
-127.978407086061
 10
72.65379094320808
 20
-127.978407086061
 10
72.65379094320808
 20
-127.1464165263731
 10
72.65379094320808
 20
-127.1464165263731
 10
72.65379094320808
 20
-127.1464165263731
 10
72.8484388381247
 20
-127.1464165263731
 10
72.8484388381247
 20
-127.1464165263731
 10
72.8484388381247
 20
-127.1464165263731
 10
72.8484388381247
 20
-127.8044297640558
 10
72.8484388381247
 20
-127.8044297640558
 10
72.8484388381247
 20
-127.8044297640558
 10
73.27149656371338
 20
-127.8745374571807
 10
73.27149656371338
 20
-127.8745374571807
 10
73.23756237318366
 20
-127.8089083881867
 10
73.1974270107805
 20
-127.7207139437643
 10
73.1974270107805
 20
-127.5941066846813
 10
73.1974270107805
 20
-127.3228054152179
 10
73.38363442175826
 20
-127.0695908970521
 10
73.6966213465932
 20
-127.0695908970521
 10
74.01408689555898
 20
-127.0695908970521
 10
74.24887015287875
 20
-127.3093695428254
 10
74.24887015287875
 20
-127.6325194993419
 97
        0
 97
        0
 75
     2
 76
     1
 98
        0
  0
ENDBLK
  5
10E
330
10B
100
AcDbEntity
  8
0
100
AcDbBlockEnd
  0
BLOCK
  5
131
330
12F
100
AcDbEntity
  8
0
100
AcDbBlockBegin
  2
block 7
 70
     0
 10
0.0
 20
0.0
 30
0.0
  3
block 7
  1

  0
SPLINE
  5
133
330
12F
100
AcDbEntity
  8
_U+30EC_U+30A4_U+30E4_U+30FC 1
370
     0
100
AcDbSpline
210
0.0
220
0.0
230
1.0
 70
    11
 71
     3
 72
    32
 73
    28
 74
     0
 42
0.0000000001
 43
0.0000000001
 12
1.0
 22
0.0
 32
0.0
 13
1.0
 23
0.0
 33
0.0
 40
0.0
 40
0.0
 40
0.0
 40
0.0
 40
1.0
 40
1.0
 40
1.0
 40
2.0
 40
2.0
 40
2.0
 40
3.0
 40
3.0
 40
3.0
 40
4.0
 40
4.0
 40
4.0
 40
5.0
 40
5.0
 40
5.0
 40
6.0
 40
6.0
 40
6.0
 40
7.0
 40
7.0
 40
7.0
 40
8.0
 40
8.0
 40
8.0
 40
9.0
 40
9.0
 40
9.0
 40
9.0
 10
107.7491509062224
 20
-136.1908257037995
 30
0.0
 10
107.7491509062224
 20
-136.7427300005365
 30
0.0
 10
107.1951795521943
 20
-136.7516872487982
 30
0.0
 10
106.9812391225603
 20
-136.7516872487982
 30
0.0
 10
106.750762234597
 20
-136.7516872487982
 30
0.0
 10
106.1034287929186
 20
-136.7313611854352
 30
0.0
 10
106.1034287929186
 20
-136.1501735770736
 30
0.0
 10
106.1034287929186
 20
-135.9648274399671
 30
0.0
 10
106.1733642312692
 20
-135.7026556735396
 30
0.0
 10
106.5054714360472
 20
-135.6620035468137
 30
0.0
 10
106.5054714360472
 20
-135.6620035468137
 30
0.0
 10
106.5054714360472
 20
-135.8904133774857
 30
0.0
 10
106.5054714360472
 20
-135.8904133774857
 30
0.0
 10
106.4482828509921
 20
-135.9014376830385
 30
0.0
 10
106.3001437451264
 20
-135.9355441283425
 30
0.0
 10
106.3001437451264
 20
-136.1525851439133
 30
0.0
 10
106.3001437451264
 20
-136.4647107948769
 30
0.0
 10
106.6281168353221
 20
-136.507429978894
 30
0.0
 10
106.8331000166945
 20
-136.521210360835
 30
0.0
 10
106.7548963491793
 20
-136.4216471013113
 30
0.0
 10
106.695640706833
 20
-136.349300096121
 30
0.0
 10
106.695640706833
 20
-136.1549967107529
 30
0.0
 10
106.695640706833
 20
-135.962760382676
 30
0.0
 10
106.8038167050699
 20
-135.639265916611
 30
0.0
 10
107.2099934627808
 20
-135.639265916611
 30
0.0
 10
107.5293538142635
 20
-135.639265916611
 30
0.0
 10
107.7491509062224
 20
-135.8518283080509
 30
0.0
 10
107.7491509062224
 20
-136.1908257037995
 30
0.0
  0
SPLINE
  5
134
330
12F
100
AcDbEntity
  8
_U+30EC_U+30A4_U+30E4_U+30FC 1
370
     0
100
AcDbSpline
210
0.0
220
0.0
230
1.0
 70
    11
 71
     3
 72
    17
 73
    13
 74
     0
 42
0.0000000001
 43
0.0000000001
 12
1.0
 22
0.0
 32
0.0
 13
1.0
 23
0.0
 33
0.0
 40
0.0
 40
0.0
 40
0.0
 40
0.0
 40
1.0
 40
1.0
 40
1.0
 40
2.0
 40
2.0
 40
2.0
 40
3.0
 40
3.0
 40
3.0
 40
4.0
 40
4.0
 40
4.0
 40
4.0
 10
106.8902886017497
 20
-136.1729112072762
 30
0.0
 10
106.8902886017497
 20
-136.4533419797756
 30
0.0
 10
107.101817464544
 20
-136.4939941065015
 30
0.0
 10
107.2182616919454
 20
-136.4939941065015
 30
0.0
 10
107.3939615616932
 20
-136.4939941065015
 30
0.0
 10
107.5569145781455
 20
-136.3923637896866
 30
0.0
 10
107.5569145781455
 20
-136.1956488374789
 30
0.0
 10
107.5569145781455
 20
-136.0668022663305
 30
0.0
 10
107.4976589357992
 20
-135.8790445623844
 30
0.0
 10
107.212060520072
 20
-135.8790445623844
 30
0.0
 10
106.9877848039822
 20
-135.8790445623844
 30
0.0
 10
106.8902886017497
 20
-136.0282171968957
 30
0.0
 10
106.8902886017497
 20
-136.1729112072762
 30
0.0
  0
HATCH
  5
135
330
12F
100
AcDbEntity
  8
_U+30EC_U+30A4_U+30E4_U+30FC 1
 62
     7
420
 16777215
100
AcDbHatch
 10
0.0
 20
0.0
 30
0.0
210
0.0
220
0.0
230
1.0
  2
SOLID
 70
     1
 71
     0
 91
        2
 92
        1
 93
        1
 72
     4
 94
        3
 73
     0
 74
     1
 95
       32
 96
       28
 40
0.0
 40
0.0
 40
0.0
 40
0.0
 40
1.0
 40
1.0
 40
1.0
 40
2.0
 40
2.0
 40
2.0
 40
3.0
 40
3.0
 40
3.0
 40
4.0
 40
4.0
 40
4.0
 40
5.0
 40
5.0
 40
5.0
 40
6.0
 40
6.0
 40
6.0
 40
7.0
 40
7.0
 40
7.0
 40
8.0
 40
8.0
 40
8.0
 40
9.0
 40
9.0
 40
9.0
 40
9.0
 10
107.7491509062224
 20
-136.1908257037995
 10
107.7491509062224
 20
-136.7427300005365
 10
107.1951795521943
 20
-136.7516872487982
 10
106.9812391225603
 20
-136.7516872487982
 10
106.750762234597
 20
-136.7516872487982
 10
106.1034287929186
 20
-136.7313611854352
 10
106.1034287929186
 20
-136.1501735770736
 10
106.1034287929186
 20
-135.9648274399671
 10
106.1733642312692
 20
-135.7026556735396
 10
106.5054714360472
 20
-135.6620035468137
 10
106.5054714360472
 20
-135.6620035468137
 10
106.5054714360472
 20
-135.8904133774857
 10
106.5054714360472
 20
-135.8904133774857
 10
106.4482828509921
 20
-135.9014376830385
 10
106.3001437451264
 20
-135.9355441283425
 10
106.3001437451264
 20
-136.1525851439133
 10
106.3001437451264
 20
-136.4647107948769
 10
106.6281168353221
 20
-136.507429978894
 10
106.8331000166945
 20
-136.521210360835
 10
106.7548963491793
 20
-136.4216471013113
 10
106.695640706833
 20
-136.349300096121
 10
106.695640706833
 20
-136.1549967107529
 10
106.695640706833
 20
-135.962760382676
 10
106.8038167050699
 20
-135.639265916611
 10
107.2099934627808
 20
-135.639265916611
 10
107.5293538142635
 20
-135.639265916611
 10
107.7491509062224
 20
-135.8518283080509
 10
107.7491509062224
 20
-136.1908257037995
 97
        0
 97
        0
 92
        1
 93
        1
 72
     4
 94
        3
 73
     0
 74
     1
 95
       17
 96
       13
 40
0.0
 40
0.0
 40
0.0
 40
0.0
 40
1.0
 40
1.0
 40
1.0
 40
2.0
 40
2.0
 40
2.0
 40
3.0
 40
3.0
 40
3.0
 40
4.0
 40
4.0
 40
4.0
 40
4.0
 10
106.8902886017497
 20
-136.1729112072762
 10
106.8902886017497
 20
-136.4533419797756
 10
107.101817464544
 20
-136.4939941065015
 10
107.2182616919454
 20
-136.4939941065015
 10
107.3939615616932
 20
-136.4939941065015
 10
107.5569145781455
 20
-136.3923637896866
 10
107.5569145781455
 20
-136.1956488374789
 10
107.5569145781455
 20
-136.0668022663305
 10
107.4976589357992
 20
-135.8790445623844
 10
107.212060520072
 20
-135.8790445623844
 10
106.9877848039822
 20
-135.8790445623844
 10
106.8902886017497
 20
-136.0282171968957
 10
106.8902886017497
 20
-136.1729112072762
 97
        0
 97
        0
 75
     2
 76
     1
 98
        0
  0
POLYLINE
  5
136
330
12F
100
AcDbEntity
  8
_U+30EC_U+30A4_U+30E4_U+30FC 1
370
     0
100
AcDb2dPolyline
 66
     1
 10
0.0
 20
0.0
 30
0.0
  0
VERTEX
  5
137
330
136
100
AcDbEntity
  8
_U+30EC_U+30A4_U+30E4_U+30FC 1
370
     0
100
AcDbVertex
100
AcDb2dVertex
 10
107.6985080025893
 20
-135.4081000095508
 30
0.0
  0
VERTEX
  5
138
330
136
100
AcDbEntity
  8
_U+30EC_U+30A4_U+30E4_U+30FC 1
370
     0
100
AcDbVertex
100
AcDb2dVertex
 10
107.4466715226175
 20
-135.4081000095508
 30
0.0
  0
VERTEX
  5
139
330
136
100
AcDbEntity
  8
_U+30EC_U+30A4_U+30E4_U+30FC 1
370
     0
100
AcDbVertex
100
AcDb2dVertex
 10
107.4466715226175
 20
-135.1390380521528
 30
0.0
  0
VERTEX
  5
13A
330
136
100
AcDbEntity
  8
_U+30EC_U+30A4_U+30E4_U+30FC 1
370
     0
100
AcDbVertex
100
AcDb2dVertex
 10
107.6985080025893
 20
-135.1390380521528
 30
0.0
  0
VERTEX
  5
13B
330
136
100
AcDbEntity
  8
_U+30EC_U+30A4_U+30E4_U+30FC 1
370
     0
100
AcDbVertex
100
AcDb2dVertex
 10
107.6985080025893
 20
-135.4081000095508
 30
0.0
  0
SEQEND
  5
13C
330
136
100
AcDbEntity
  8
_U+30EC_U+30A4_U+30E4_U+30FC 1
370
     0
  0
HATCH
  5
13D
330
12F
100
AcDbEntity
  8
_U+30EC_U+30A4_U+30E4_U+30FC 1
 62
     7
420
 16777215
100
AcDbHatch
 10
0.0
 20
0.0
 30
0.0
210
0.0
220
0.0
230
1.0
  2
SOLID
 70
     1
 71
     0
 91
        1
 92
        1
 93
        4
 72
     1
 10
107.6985080025893
 20
-135.4081000095508
 11
107.4466715226175
 21
-135.4081000095508
 72
     1
 10
107.4466715226175
 20
-135.4081000095508
 11
107.4466715226175
 21
-135.1390380521528
 72
     1
 10
107.4466715226175
 20
-135.1390380521528
 11
107.6985080025893
 21
-135.1390380521528
 72
     1
 10
107.6985080025893
 20
-135.1390380521528
 11
107.6985080025893
 21
-135.4081000095508
 97
        0
 75
     2
 76
     1
 98
        0
  0
SPLINE
  5
13E
330
12F
100
AcDbEntity
  8
_U+30EC_U+30A4_U+30E4_U+30FC 1
370
     0
100
AcDbSpline
210
0.0
220
0.0
230
1.0
 70
    11
 71
     3
 72
    53
 73
    49
 74
     0
 42
0.0000000001
 43
0.0000000001
 12
1.0
 22
0.0
 32
0.0
 13
1.0
 23
0.0
 33
0.0
 40
0.0
 40
0.0
 40
0.0
 40
0.0
 40
1.0
 40
1.0
 40
1.0
 40
2.0
 40
2.0
 40
2.0
 40
3.0
 40
3.0
 40
3.0
 40
4.0
 40
4.0
 40
4.0
 40
5.0
 40
5.0
 40
5.0
 40
6.0
 40
6.0
 40
6.0
 40
7.0
 40
7.0
 40
7.0
 40
8.0
 40
8.0
 40
8.0
 40
9.0
 40
9.0
 40
9.0
 40
10.0
 40
10.0
 40
10.0
 40
11.0
 40
11.0
 40
11.0
 40
12.0
 40
12.0
 40
12.0
 40
13.0
 40
13.0
 40
13.0
 40
14.0
 40
14.0
 40
14.0
 40
15.0
 40
15.0
 40
15.0
 40
16.0
 40
16.0
 40
16.0
 40
16.0
 10
107.7491509062224
 20
-134.3721597971361
 30
0.0
 10
107.7491509062224
 20
-134.4558756174277
 30
0.0
 10
107.7322699383447
 20
-134.5640516156645
 30
0.0
 10
107.6688801814161
 20
-134.6729166329984
 30
0.0
 10
107.5589816354367
 20
-134.8582627701049
 30
0.0
 10
107.4277234974486
 20
-134.880655890759
 30
0.0
 10
107.3198920087603
 20
-134.900981954122
 30
0.0
 10
107.3198920087603
 20
-134.900981954122
 30
0.0
 10
107.3198920087603
 20
-134.6636148751883
 30
0.0
 10
107.3198920087603
 20
-134.6636148751883
 30
0.0
 10
107.5186740182592
 20
-134.605048251939
 30
0.0
 10
107.5483018394324
 20
-134.4693114898202
 30
0.0
 10
107.5483018394324
 20
-134.3697482302965
 30
0.0
 10
107.5483018394324
 20
-134.2205755957851
 30
0.0
 10
107.4487385799086
 20
-134.0576225793328
 30
0.0
 10
107.2161946346543
 20
-134.0576225793328
 30
0.0
 10
106.9602240401002
 20
-134.0576225793328
 30
0.0
 10
106.8902886017497
 20
-134.2498589074098
 30
0.0
 10
106.8902886017497
 20
-134.3787054785581
 30
0.0
 10
106.8902886017497
 20
-134.4128119238621
 30
0.0
 10
106.8902886017497
 20
-134.5640516156645
 30
0.0
 10
107.0194796824465
 20
-134.6591362510574
 30
0.0
 10
107.0194796824465
 20
-134.6591362510574
 30
0.0
 10
107.0005316572776
 20
-134.8468939550036
 30
0.0
 10
107.0005316572776
 20
-134.8468939550036
 30
0.0
 10
107.0005316572776
 20
-134.8468939550036
 30
0.0
 10
106.1540716965518
 20
-134.7180473838552
 30
0.0
 10
106.1540716965518
 20
-134.7180473838552
 30
0.0
 10
106.1540716965518
 20
-134.7180473838552
 30
0.0
 10
106.1540716965518
 20
-133.8860568241674
 30
0.0
 10
106.1540716965518
 20
-133.8860568241674
 30
0.0
 10
106.1540716965518
 20
-133.8860568241674
 30
0.0
 10
106.3487195914684
 20
-133.8860568241674
 30
0.0
 10
106.3487195914684
 20
-133.8860568241674
 30
0.0
 10
106.3487195914684
 20
-133.8860568241674
 30
0.0
 10
106.3487195914684
 20
-134.5437255523016
 30
0.0
 10
106.3487195914684
 20
-134.5437255523016
 30
0.0
 10
106.3487195914684
 20
-134.5437255523016
 30
0.0
 10
106.7717773170571
 20
-134.6140055002007
 30
0.0
 10
106.7717773170571
 20
-134.6140055002007
 30
0.0
 10
106.7380153813016
 20
-134.5485486859809
 30
0.0
 10
106.6977077641242
 20
-134.4603542415585
 30
0.0
 10
106.6977077641242
 20
-134.3335747277013
 30
0.0
 10
106.6977077641242
 20
-134.0624457130122
 30
0.0
 10
106.8840874298762
 20
-133.8092311948463
 30
0.0
 10
107.1972466094854
 20
-133.8092311948463
 30
0.0
 10
107.5145399036769
 20
-133.8092311948463
 30
0.0
 10
107.7491509062224
 20
-134.0486653310712
 30
0.0
 10
107.7491509062224
 20
-134.3721597971361
 30
0.0
  0
HATCH
  5
13F
330
12F
100
AcDbEntity
  8
_U+30EC_U+30A4_U+30E4_U+30FC 1
 62
     7
420
 16777215
100
AcDbHatch
 10
0.0
 20
0.0
 30
0.0
210
0.0
220
0.0
230
1.0
  2
SOLID
 70
     1
 71
     0
 91
        1
 92
        1
 93
        1
 72
     4
 94
        3
 73
     0
 74
     1
 95
       53
 96
       49
 40
0.0
 40
0.0
 40
0.0
 40
0.0
 40
1.0
 40
1.0
 40
1.0
 40
2.0
 40
2.0
 40
2.0
 40
3.0
 40
3.0
 40
3.0
 40
4.0
 40
4.0
 40
4.0
 40
5.0
 40
5.0
 40
5.0
 40
6.0
 40
6.0
 40
6.0
 40
7.0
 40
7.0
 40
7.0
 40
8.0
 40
8.0
 40
8.0
 40
9.0
 40
9.0
 40
9.0
 40
10.0
 40
10.0
 40
10.0
 40
11.0
 40
11.0
 40
11.0
 40
12.0
 40
12.0
 40
12.0
 40
13.0
 40
13.0
 40
13.0
 40
14.0
 40
14.0
 40
14.0
 40
15.0
 40
15.0
 40
15.0
 40
16.0
 40
16.0
 40
16.0
 40
16.0
 10
107.7491509062224
 20
-134.3721597971361
 10
107.7491509062224
 20
-134.4558756174277
 10
107.7322699383447
 20
-134.5640516156645
 10
107.6688801814161
 20
-134.6729166329984
 10
107.5589816354367
 20
-134.8582627701049
 10
107.4277234974486
 20
-134.880655890759
 10
107.3198920087603
 20
-134.900981954122
 10
107.3198920087603
 20
-134.900981954122
 10
107.3198920087603
 20
-134.6636148751883
 10
107.3198920087603
 20
-134.6636148751883
 10
107.5186740182592
 20
-134.605048251939
 10
107.5483018394324
 20
-134.4693114898202
 10
107.5483018394324
 20
-134.3697482302965
 10
107.5483018394324
 20
-134.2205755957851
 10
107.4487385799086
 20
-134.0576225793328
 10
107.2161946346543
 20
-134.0576225793328
 10
106.9602240401002
 20
-134.0576225793328
 10
106.8902886017497
 20
-134.2498589074098
 10
106.8902886017497
 20
-134.3787054785581
 10
106.8902886017497
 20
-134.4128119238621
 10
106.8902886017497
 20
-134.5640516156645
 10
107.0194796824465
 20
-134.6591362510574
 10
107.0194796824465
 20
-134.6591362510574
 10
107.0005316572776
 20
-134.8468939550036
 10
107.0005316572776
 20
-134.8468939550036
 10
107.0005316572776
 20
-134.8468939550036
 10
106.1540716965518
 20
-134.7180473838552
 10
106.1540716965518
 20
-134.7180473838552
 10
106.1540716965518
 20
-134.7180473838552
 10
106.1540716965518
 20
-133.8860568241674
 10
106.1540716965518
 20
-133.8860568241674
 10
106.1540716965518
 20
-133.8860568241674
 10
106.3487195914684
 20
-133.8860568241674
 10
106.3487195914684
 20
-133.8860568241674
 10
106.3487195914684
 20
-133.8860568241674
 10
106.3487195914684
 20
-134.5437255523016
 10
106.3487195914684
 20
-134.5437255523016
 10
106.3487195914684
 20
-134.5437255523016
 10
106.7717773170571
 20
-134.6140055002007
 10
106.7717773170571
 20
-134.6140055002007
 10
106.7380153813016
 20
-134.5485486859809
 10
106.6977077641242
 20
-134.4603542415585
 10
106.6977077641242
 20
-134.3335747277013
 10
106.6977077641242
 20
-134.0624457130122
 10
106.8840874298762
 20
-133.8092311948463
 10
107.1972466094854
 20
-133.8092311948463
 10
107.5145399036769
 20
-133.8092311948463
 10
107.7491509062224
 20
-134.0486653310712
 10
107.7491509062224
 20
-134.3721597971361
 97
        0
 97
        0
 75
     2
 76
     1
 98
        0
  0
ENDBLK
  5
132
330
12F
100
AcDbEntity
  8
0
100
AcDbBlockEnd
  0
BLOCK
  5
146
330
144
100
AcDbEntity
  8
0
100
AcDbBlockBegin
  2
block 8
 70
     0
 10
0.0
 20
0.0
 30
0.0
  3
block 8
  1

  0
SPLINE
  5
148
330
144
100
AcDbEntity
  8
_U+30EC_U+30A4_U+30E4_U+30FC 1
370
     0
100
AcDbSpline
210
0.0
220
0.0
230
1.0
 70
    11
 71
     3
 72
    26
 73
    22
 74
     0
 42
0.0000000001
 43
0.0000000001
 12
1.0
 22
0.0
 32
0.0
 13
1.0
 23
0.0
 33
0.0
 40
0.0
 40
0.0
 40
0.0
 40
0.0
 40
1.0
 40
1.0
 40
1.0
 40
2.0
 40
2.0
 40
2.0
 40
3.0
 40
3.0
 40
3.0
 40
4.0
 40
4.0
 40
4.0
 40
5.0
 40
5.0
 40
5.0
 40
6.0
 40
6.0
 40
6.0
 40
7.0
 40
7.0
 40
7.0
 40
7.0
 10
77.73100041459503
 20
-114.5675116358547
 30
0.0
 10
77.73100041459503
 20
-114.5675116358547
 30
0.0
 10
77.73100041459503
 20
-113.4631862780578
 30
0.0
 10
77.73100041459503
 20
-113.4631862780578
 30
0.0
 10
77.73100041459503
 20
-113.4631862780578
 30
0.0
 10
77.37822263690545
 20
-113.4631862780578
 30
0.0
 10
77.37822263690545
 20
-113.4631862780578
 30
0.0
 10
77.37822263690545
 20
-113.4631862780578
 30
0.0
 10
77.37822263690545
 20
-113.3150471721921
 30
0.0
 10
77.37822263690545
 20
-113.3150471721921
 30
0.0
 10
77.73323972666044
 20
-113.3004055163798
 30
0.0
 10
77.78302135642231
 20
-113.1374524999274
 30
0.0
 10
77.81454398011233
 20
-113.0232475845914
 30
0.0
 10
77.81454398011233
 20
-113.0232475845914
 30
0.0
 10
77.97060680559416
 20
-113.0232475845914
 30
0.0
 10
77.97060680559416
 20
-113.0232475845914
 30
0.0
 10
77.97060680559416
 20
-113.0232475845914
 30
0.0
 10
77.97060680559416
 20
-114.5675116358547
 30
0.0
 10
77.97060680559416
 20
-114.5675116358547
 30
0.0
 10
77.97060680559416
 20
-114.5675116358547
 30
0.0
 10
77.73100041459503
 20
-114.5675116358547
 30
0.0
 10
77.73100041459503
 20
-114.5675116358547
 30
0.0
  0
HATCH
  5
149
330
144
100
AcDbEntity
  8
_U+30EC_U+30A4_U+30E4_U+30FC 1
 62
     7
420
 16777215
100
AcDbHatch
 10
0.0
 20
0.0
 30
0.0
210
0.0
220
0.0
230
1.0
  2
SOLID
 70
     1
 71
     0
 91
        1
 92
        1
 93
        1
 72
     4
 94
        3
 73
     0
 74
     1
 95
       26
 96
       22
 40
0.0
 40
0.0
 40
0.0
 40
0.0
 40
1.0
 40
1.0
 40
1.0
 40
2.0
 40
2.0
 40
2.0
 40
3.0
 40
3.0
 40
3.0
 40
4.0
 40
4.0
 40
4.0
 40
5.0
 40
5.0
 40
5.0
 40
6.0
 40
6.0
 40
6.0
 40
7.0
 40
7.0
 40
7.0
 40
7.0
 10
77.73100041459503
 20
-114.5675116358547
 10
77.73100041459503
 20
-114.5675116358547
 10
77.73100041459503
 20
-113.4631862780578
 10
77.73100041459503
 20
-113.4631862780578
 10
77.73100041459503
 20
-113.4631862780578
 10
77.37822263690545
 20
-113.4631862780578
 10
77.37822263690545
 20
-113.4631862780578
 10
77.37822263690545
 20
-113.4631862780578
 10
77.37822263690545
 20
-113.3150471721921
 10
77.37822263690545
 20
-113.3150471721921
 10
77.73323972666044
 20
-113.3004055163798
 10
77.78302135642231
 20
-113.1374524999274
 10
77.81454398011233
 20
-113.0232475845914
 10
77.81454398011233
 20
-113.0232475845914
 10
77.97060680559416
 20
-113.0232475845914
 10
77.97060680559416
 20
-113.0232475845914
 10
77.97060680559416
 20
-113.0232475845914
 10
77.97060680559416
 20
-114.5675116358547
 10
77.97060680559416
 20
-114.5675116358547
 10
77.97060680559416
 20
-114.5675116358547
 10
77.73100041459503
 20
-114.5675116358547
 10
77.73100041459503
 20
-114.5675116358547
 97
        0
 97
        0
 75
     2
 76
     1
 98
        0
  0
ENDBLK
  5
147
330
144
100
AcDbEntity
  8
0
100
AcDbBlockEnd
  0
ENDSEC
  0
SECTION
  2
ENTITIES
  0
SPLINE
  5
41
330
1F
100
AcDbEntity
  8
_U+30EC_U+30A4_U+30E4_U+30FC 1
370
     0
100
AcDbSpline
210
0.0
220
0.0
230
1.0
 70
    11
 71
     3
 72
    74
 73
    70
 74
     0
 42
0.0000000001
 43
0.0000000001
 12
1.0
 22
0.0
 32
0.0
 13
1.0
 23
0.0
 33
0.0
 40
0.0
 40
0.0
 40
0.0
 40
0.0
 40
1.0
 40
1.0
 40
1.0
 40
2.0
 40
2.0
 40
2.0
 40
3.0
 40
3.0
 40
3.0
 40
4.0
 40
4.0
 40
4.0
 40
5.0
 40
5.0
 40
5.0
 40
6.0
 40
6.0
 40
6.0
 40
7.0
 40
7.0
 40
7.0
 40
8.0
 40
8.0
 40
8.0
 40
9.0
 40
9.0
 40
9.0
 40
10.0
 40
10.0
 40
10.0
 40
11.0
 40
11.0
 40
11.0
 40
12.0
 40
12.0
 40
12.0
 40
13.0
 40
13.0
 40
13.0
 40
14.0
 40
14.0
 40
14.0
 40
15.0
 40
15.0
 40
15.0
 40
16.0
 40
16.0
 40
16.0
 40
17.0
 40
17.0
 40
17.0
 40
18.0
 40
18.0
 40
18.0
 40
19.0
 40
19.0
 40
19.0
 40
20.0
 40
20.0
 40
20.0
 40
21.0
 40
21.0
 40
21.0
 40
22.0
 40
22.0
 40
22.0
 40
23.0
 40
23.0
 40
23.0
 40
23.0
 10
103.7948748519721
 20
-139.1704805207629
 30
0.0
 10
103.7948748519721
 20
-139.1704805207629
 30
0.0
 10
94.29467775420392
 20
-139.1704805207629
 30
0.0
 10
94.29467775420392
 20
-139.1704805207629
 30
0.0
 10
94.29467775420392
 20
-139.1704805207629
 30
0.0
 10
92.92078235161557
 20
-138.6709471875547
 30
0.0
 10
92.92078235161557
 20
-138.6709471875547
 30
0.0
 10
92.92078235161557
 20
-138.6709471875547
 30
0.0
 10
83.20905732160453
 20
-138.6709471875547
 30
0.0
 10
83.20905732160453
 20
-138.6709471875547
 30
0.0
 10
83.20905732160453
 20
-138.6709471875547
 30
0.0
 10
81.92607513211392
 20
-137.3880002434306
 30
0.0
 10
81.92607513211392
 20
-137.3880002434306
 30
0.0
 10
81.92607513211392
 20
-137.3880002434306
 30
0.0
 10
87.14334083234371
 20
-132.1707344114016
 30
0.0
 10
87.14334083234371
 20
-132.1707344114016
 30
0.0
 10
87.14334083234371
 20
-132.1707344114016
 30
0.0
 10
94.29467775420392
 20
-132.1707344114016
 30
0.0
 10
94.29467775420392
 20
-132.1707344114016
 30
0.0
 10
94.29467775420392
 20
-132.1707344114016
 30
0.0
 10
94.29467775420392
 20
-131.6705308004155
 30
0.0
 10
94.29467775420392
 20
-131.6705308004155
 30
0.0
 10
94.29467775420392
 20
-131.6705308004155
 30
0.0
 10
92.2944607009277
 20
-131.1709621894297
 30
0.0
 10
92.2944607009277
 20
-131.1709621894297
 30
0.0
 10
92.2944607009277
 20
-131.1709621894297
 30
0.0
 10
87.29492943958748
 20
-131.1709621894297
 30
0.0
 10
87.29492943958748
 20
-131.1709621894297
 30
0.0
 10
87.29492943958748
 20
-131.1709621894297
 30
0.0
 10
87.29492943958748
 20
-126.170760524013
 30
0.0
 10
87.29492943958748
 20
-126.170760524013
 30
0.0
 10
87.29492943958748
 20
-126.170760524013
 30
0.0
 10
86.79469056346075
 20
-124.1708985800683
 30
0.0
 10
86.79469056346075
 20
-124.1708985800683
 30
0.0
 10
86.79469056346075
 20
-124.1708985800683
 30
0.0
 10
86.29448696511089
 20
-124.1708985800683
 30
0.0
 10
86.29448696511089
 20
-124.1708985800683
 30
0.0
 10
86.29448696511089
 20
-124.1708985800683
 30
0.0
 10
86.29448696511089
 20
-131.3225508005025
 30
0.0
 10
86.29448696511089
 20
-131.3225508005025
 30
0.0
 10
86.29448696511089
 20
-131.3225508005025
 30
0.0
 10
81.07722126488109
 20
-136.5391110769766
 30
0.0
 10
81.07722126488109
 20
-136.5391110769766
 30
0.0
 10
81.07722126488109
 20
-136.5391110769766
 30
0.0
 10
79.79494463092803
 20
-135.2568696884081
 30
0.0
 10
79.79494463092803
 20
-135.2568696884081
 30
0.0
 10
79.79494463092803
 20
-135.2568696884081
 30
0.0
 10
79.79494463092803
 20
-125.5444388575027
 30
0.0
 10
79.79494463092803
 20
-125.5444388575027
 30
0.0
 10
79.79494463092803
 20
-125.5444388575027
 30
0.0
 10
79.29474103257817
 20
-124.1708985800683
 30
0.0
 10
79.29474103257817
 20
-124.1708985800683
 30
0.0
 10
79.29474103257817
 20
-124.1708985800683
 30
0.0
 10
79.29474103257817
 20
-119.6709005256377
 30
0.0
 10
79.29474103257817
 20
-119.6709005256377
 30
0.0
 10
79.29474103257817
 20
-119.3946049701512
 30
0.0
 10
79.07079770495811
 20
-119.1710144146517
 30
0.0
 10
78.79450215645144
 20
-119.1710144146517
 30
0.0
 10
78.79450215645144
 20
-119.1710144146517
 30
0.0
 10
78.79450215645144
 20
-135.6709602438603
 30
0.0
 10
78.79450215645144
 20
-135.6709602438603
 30
0.0
 10
78.79450215645144
 20
-135.6709602438603
 30
0.0
 10
82.79493149883643
 20
-139.6707194095266
 30
0.0
 10
82.79493149883643
 20
-139.6707194095266
 30
0.0
 10
82.79493149883643
 20
-139.6707194095266
 30
0.0
 10
104.2944081725613
 20
-139.6707194095266
 30
0.0
 10
104.2944081725613
 20
-139.6707194095266
 30
0.0
 10
104.2944081725613
 20
-139.3944238540402
 30
0.0
 10
104.0711704004788
 20
-139.1704805207629
 30
0.0
 10
103.7948748519721
 20
-139.1704805207629
 30
0.0
  0
HATCH
  5
42
330
1F
100
AcDbEntity
  8
_U+30EC_U+30A4_U+30E4_U+30FC 1
 62
   253
420
 11711154
100
AcDbHatch
 10
0.0
 20
0.0
 30
0.0
210
0.0
220
0.0
230
1.0
  2
SOLID
 70
     1
 71
     0
 91
        1
 92
        1
 93
        1
 72
     4
 94
        3
 73
     0
 74
     1
 95
       74
 96
       70
 40
0.0
 40
0.0
 40
0.0
 40
0.0
 40
1.0
 40
1.0
 40
1.0
 40
2.0
 40
2.0
 40
2.0
 40
3.0
 40
3.0
 40
3.0
 40
4.0
 40
4.0
 40
4.0
 40
5.0
 40
5.0
 40
5.0
 40
6.0
 40
6.0
 40
6.0
 40
7.0
 40
7.0
 40
7.0
 40
8.0
 40
8.0
 40
8.0
 40
9.0
 40
9.0
 40
9.0
 40
10.0
 40
10.0
 40
10.0
 40
11.0
 40
11.0
 40
11.0
 40
12.0
 40
12.0
 40
12.0
 40
13.0
 40
13.0
 40
13.0
 40
14.0
 40
14.0
 40
14.0
 40
15.0
 40
15.0
 40
15.0
 40
16.0
 40
16.0
 40
16.0
 40
17.0
 40
17.0
 40
17.0
 40
18.0
 40
18.0
 40
18.0
 40
19.0
 40
19.0
 40
19.0
 40
20.0
 40
20.0
 40
20.0
 40
21.0
 40
21.0
 40
21.0
 40
22.0
 40
22.0
 40
22.0
 40
23.0
 40
23.0
 40
23.0
 40
23.0
 10
103.7948748519721
 20
-139.1704805207629
 10
103.7948748519721
 20
-139.1704805207629
 10
94.29467775420392
 20
-139.1704805207629
 10
94.29467775420392
 20
-139.1704805207629
 10
94.29467775420392
 20
-139.1704805207629
 10
92.92078235161557
 20
-138.6709471875547
 10
92.92078235161557
 20
-138.6709471875547
 10
92.92078235161557
 20
-138.6709471875547
 10
83.20905732160453
 20
-138.6709471875547
 10
83.20905732160453
 20
-138.6709471875547
 10
83.20905732160453
 20
-138.6709471875547
 10
81.92607513211392
 20
-137.3880002434306
 10
81.92607513211392
 20
-137.3880002434306
 10
81.92607513211392
 20
-137.3880002434306
 10
87.14334083234371
 20
-132.1707344114016
 10
87.14334083234371
 20
-132.1707344114016
 10
87.14334083234371
 20
-132.1707344114016
 10
94.29467775420392
 20
-132.1707344114016
 10
94.29467775420392
 20
-132.1707344114016
 10
94.29467775420392
 20
-132.1707344114016
 10
94.29467775420392
 20
-131.6705308004155
 10
94.29467775420392
 20
-131.6705308004155
 10
94.29467775420392
 20
-131.6705308004155
 10
92.2944607009277
 20
-131.1709621894297
 10
92.2944607009277
 20
-131.1709621894297
 10
92.2944607009277
 20
-131.1709621894297
 10
87.29492943958748
 20
-131.1709621894297
 10
87.29492943958748
 20
-131.1709621894297
 10
87.29492943958748
 20
-131.1709621894297
 10
87.29492943958748
 20
-126.170760524013
 10
87.29492943958748
 20
-126.170760524013
 10
87.29492943958748
 20
-126.170760524013
 10
86.79469056346075
 20
-124.1708985800683
 10
86.79469056346075
 20
-124.1708985800683
 10
86.79469056346075
 20
-124.1708985800683
 10
86.29448696511089
 20
-124.1708985800683
 10
86.29448696511089
 20
-124.1708985800683
 10
86.29448696511089
 20
-124.1708985800683
 10
86.29448696511089
 20
-131.3225508005025
 10
86.29448696511089
 20
-131.3225508005025
 10
86.29448696511089
 20
-131.3225508005025
 10
81.07722126488109
 20
-136.5391110769766
 10
81.07722126488109
 20
-136.5391110769766
 10
81.07722126488109
 20
-136.5391110769766
 10
79.79494463092803
 20
-135.2568696884081
 10
79.79494463092803
 20
-135.2568696884081
 10
79.79494463092803
 20
-135.2568696884081
 10
79.79494463092803
 20
-125.5444388575027
 10
79.79494463092803
 20
-125.5444388575027
 10
79.79494463092803
 20
-125.5444388575027
 10
79.29474103257817
 20
-124.1708985800683
 10
79.29474103257817
 20
-124.1708985800683
 10
79.29474103257817
 20
-124.1708985800683
 10
79.29474103257817
 20
-119.6709005256377
 10
79.29474103257817
 20
-119.6709005256377
 10
79.29474103257817
 20
-119.3946049701512
 10
79.07079770495811
 20
-119.1710144146517
 10
78.79450215645144
 20
-119.1710144146517
 10
78.79450215645144
 20
-119.1710144146517
 10
78.79450215645144
 20
-135.6709602438603
 10
78.79450215645144
 20
-135.6709602438603
 10
78.79450215645144
 20
-135.6709602438603
 10
82.79493149883643
 20
-139.6707194095266
 10
82.79493149883643
 20
-139.6707194095266
 10
82.79493149883643
 20
-139.6707194095266
 10
104.2944081725613
 20
-139.6707194095266
 10
104.2944081725613
 20
-139.6707194095266
 10
104.2944081725613
 20
-139.3944238540402
 10
104.0711704004788
 20
-139.1704805207629
 10
103.7948748519721
 20
-139.1704805207629
 97
        0
 97
        0
 75
     2
 76
     1
 98
        0
  0
POLYLINE
  5
43
330
1F
100
AcDbEntity
  8
_U+30EC_U+30A4_U+30E4_U+30FC 1
 62
     7
420
 16777215
370
    25
100
AcDb2dPolyline
 66
     1
 10
0.0
 20
0.0
 30
0.0
  0
VERTEX
  5
44
330
43
100
AcDbEntity
  8
_U+30EC_U+30A4_U+30E4_U+30FC 1
 62
     7
420
 16777215
370
    25
100
AcDbVertex
100
AcDb2dVertex
 10
78.79450215645144
 20
-119.1710144146517
 30
0.0
  0
VERTEX
  5
45
330
43
100
AcDbEntity
  8
_U+30EC_U+30A4_U+30E4_U+30FC 1
 62
     7
420
 16777215
370
    25
100
AcDbVertex
100
AcDb2dVertex
 10
78.79450215645144
 20
-135.6709602438603
 30
0.0
  0
SEQEND
  5
46
330
43
100
AcDbEntity
  8
_U+30EC_U+30A4_U+30E4_U+30FC 1
 62
     7
420
 16777215
370
    25
  0
POLYLINE
  5
47
330
1F
100
AcDbEntity
  8
_U+30EC_U+30A4_U+30E4_U+30FC 1
 62
     7
420
 16777215
370
    25
100
AcDb2dPolyline
 66
     1
 10
0.0
 20
0.0
 30
0.0
  0
VERTEX
  5
48
330
47
100
AcDbEntity
  8
_U+30EC_U+30A4_U+30E4_U+30FC 1
 62
     7
420
 16777215
370
    25
100
AcDbVertex
100
AcDb2dVertex
 10
82.79493149883643
 20
-139.6707194095266
 30
0.0
  0
VERTEX
  5
49
330
47
100
AcDbEntity
  8
_U+30EC_U+30A4_U+30E4_U+30FC 1
 62
     7
420
 16777215
370
    25
100
AcDbVertex
100
AcDb2dVertex
 10
78.79450215645144
 20
-135.6709602438603
 30
0.0
  0
SEQEND
  5
4A
330
47
100
AcDbEntity
  8
_U+30EC_U+30A4_U+30E4_U+30FC 1
 62
     7
420
 16777215
370
    25
  0
POLYLINE
  5
4B
330
1F
100
AcDbEntity
  8
_U+30EC_U+30A4_U+30E4_U+30FC 1
 62
     7
420
 16777215
370
    25
100
AcDb2dPolyline
 66
     1
 10
0.0
 20
0.0
 30
0.0
  0
VERTEX
  5
4C
330
4B
100
AcDbEntity
  8
_U+30EC_U+30A4_U+30E4_U+30FC 1
 62
     7
420
 16777215
370
    25
100
AcDbVertex
100
AcDb2dVertex
 10
79.79494463092803
 20
-125.5444388575027
 30
0.0
  0
VERTEX
  5
4D
330
4B
100
AcDbEntity
  8
_U+30EC_U+30A4_U+30E4_U+30FC 1
 62
     7
420
 16777215
370
    25
100
AcDbVertex
100
AcDb2dVertex
 10
79.79494463092803
 20
-135.2568696884081
 30
0.0
  0
SEQEND
  5
4E
330
4B
100
AcDbEntity
  8
_U+30EC_U+30A4_U+30E4_U+30FC 1
 62
     7
420
 16777215
370
    25
  0
POLYLINE
  5
4F
330
1F
100
AcDbEntity
  8
_U+30EC_U+30A4_U+30E4_U+30FC 1
 62
     7
420
 16777215
370
    25
100
AcDb2dPolyline
 66
     1
 10
0.0
 20
0.0
 30
0.0
  0
VERTEX
  5
50
330
4F
100
AcDbEntity
  8
_U+30EC_U+30A4_U+30E4_U+30FC 1
 62
     7
420
 16777215
370
    25
100
AcDbVertex
100
AcDb2dVertex
 10
83.20905732160453
 20
-138.6709471875547
 30
0.0
  0
VERTEX
  5
51
330
4F
100
AcDbEntity
  8
_U+30EC_U+30A4_U+30E4_U+30FC 1
 62
     7
420
 16777215
370
    25
100
AcDbVertex
100
AcDb2dVertex
 10
92.92078235161557
 20
-138.6709471875547
 30
0.0
  0
SEQEND
  5
52
330
4F
100
AcDbEntity
  8
_U+30EC_U+30A4_U+30E4_U+30FC 1
 62
     7
420
 16777215
370
    25
  0
POLYLINE
  5
53
330
1F
100
AcDbEntity
  8
_U+30EC_U+30A4_U+30E4_U+30FC 1
 62
     7
420
 16777215
370
    25
100
AcDb2dPolyline
 66
     1
 10
0.0
 20
0.0
 30
0.0
  0
VERTEX
  5
54
330
53
100
AcDbEntity
  8
_U+30EC_U+30A4_U+30E4_U+30FC 1
 62
     7
420
 16777215
370
    25
100
AcDbVertex
100
AcDb2dVertex
 10
86.29448696511089
 20
-124.1708985800683
 30
0.0
  0
VERTEX
  5
55
330
53
100
AcDbEntity
  8
_U+30EC_U+30A4_U+30E4_U+30FC 1
 62
     7
420
 16777215
370
    25
100
AcDbVertex
100
AcDb2dVertex
 10
86.29448696511089
 20
-131.3225508005025
 30
0.0
  0
SEQEND
  5
56
330
53
100
AcDbEntity
  8
_U+30EC_U+30A4_U+30E4_U+30FC 1
 62
     7
420
 16777215
370
    25
  0
POLYLINE
  5
57
330
1F
100
AcDbEntity
  8
_U+30EC_U+30A4_U+30E4_U+30FC 1
 62
     7
420
 16777215
370
    25
100
AcDb2dPolyline
 66
     1
 10
0.0
 20
0.0
 30
0.0
  0
VERTEX
  5
58
330
57
100
AcDbEntity
  8
_U+30EC_U+30A4_U+30E4_U+30FC 1
 62
     7
420
 16777215
370
    25
100
AcDbVertex
100
AcDb2dVertex
 10
87.14334083234371
 20
-132.1707344114016
 30
0.0
  0
VERTEX
  5
59
330
57
100
AcDbEntity
  8
_U+30EC_U+30A4_U+30E4_U+30FC 1
 62
     7
420
 16777215
370
    25
100
AcDbVertex
100
AcDb2dVertex
 10
94.29467775420392
 20
-132.1707344114016
 30
0.0
  0
SEQEND
  5
5A
330
57
100
AcDbEntity
  8
_U+30EC_U+30A4_U+30E4_U+30FC 1
 62
     7
420
 16777215
370
    25
  0
POLYLINE
  5
5B
330
1F
100
AcDbEntity
  8
_U+30EC_U+30A4_U+30E4_U+30FC 1
 62
     7
420
 16777215
370
    25
100
AcDb2dPolyline
 66
     1
 10
0.0
 20
0.0
 30
0.0
  0
VERTEX
  5
5C
330
5B
100
AcDbEntity
  8
_U+30EC_U+30A4_U+30E4_U+30FC 1
 62
     7
420
 16777215
370
    25
100
AcDbVertex
100
AcDb2dVertex
 10
79.29474103257817
 20
-119.6709005256377
 30
0.0
  0
VERTEX
  5
5D
330
5B
100
AcDbEntity
  8
_U+30EC_U+30A4_U+30E4_U+30FC 1
 62
     7
420
 16777215
370
    25
100
AcDbVertex
100
AcDb2dVertex
 10
79.29474103257817
 20
-124.1708985800683
 30
0.0
  0
SEQEND
  5
5E
330
5B
100
AcDbEntity
  8
_U+30EC_U+30A4_U+30E4_U+30FC 1
 62
     7
420
 16777215
370
    25
  0
POLYLINE
  5
5F
330
1F
100
AcDbEntity
  8
_U+30EC_U+30A4_U+30E4_U+30FC 1
 62
     7
420
 16777215
370
    25
100
AcDb2dPolyline
 66
     1
 10
0.0
 20
0.0
 30
0.0
  0
VERTEX
  5
60
330
5F
100
AcDbEntity
  8
_U+30EC_U+30A4_U+30E4_U+30FC 1
 62
     7
420
 16777215
370
    25
100
AcDbVertex
100
AcDb2dVertex
 10
79.79494463092803
 20
-125.5444388575027
 30
0.0
  0
VERTEX
  5
61
330
5F
100
AcDbEntity
  8
_U+30EC_U+30A4_U+30E4_U+30FC 1
 62
     7
420
 16777215
370
    25
100
AcDbVertex
100
AcDb2dVertex
 10
79.29474103257817
 20
-124.1708985800683
 30
0.0
  0
SEQEND
  5
62
330
5F
100
AcDbEntity
  8
_U+30EC_U+30A4_U+30E4_U+30FC 1
 62
     7
420
 16777215
370
    25
  0
POLYLINE
  5
63
330
1F
100
AcDbEntity
  8
_U+30EC_U+30A4_U+30E4_U+30FC 1
 62
     7
420
 16777215
370
    25
100
AcDb2dPolyline
 66
     1
 10
0.0
 20
0.0
 30
0.0
  0
VERTEX
  5
64
330
63
100
AcDbEntity
  8
_U+30EC_U+30A4_U+30E4_U+30FC 1
 62
     7
420
 16777215
370
    25
100
AcDbVertex
100
AcDb2dVertex
 10
94.29467775420392
 20
-139.1704805207629
 30
0.0
  0
VERTEX
  5
65
330
63
100
AcDbEntity
  8
_U+30EC_U+30A4_U+30E4_U+30FC 1
 62
     7
420
 16777215
370
    25
100
AcDbVertex
100
AcDb2dVertex
 10
103.7948748519721
 20
-139.1704805207629
 30
0.0
  0
SEQEND
  5
66
330
63
100
AcDbEntity
  8
_U+30EC_U+30A4_U+30E4_U+30FC 1
 62
     7
420
 16777215
370
    25
  0
POLYLINE
  5
67
330
1F
100
AcDbEntity
  8
_U+30EC_U+30A4_U+30E4_U+30FC 1
 62
     7
420
 16777215
370
    25
100
AcDb2dPolyline
 66
     1
 10
0.0
 20
0.0
 30
0.0
  0
VERTEX
  5
68
330
67
100
AcDbEntity
  8
_U+30EC_U+30A4_U+30E4_U+30FC 1
 62
     7
420
 16777215
370
    25
100
AcDbVertex
100
AcDb2dVertex
 10
92.92078235161557
 20
-138.6709471875547
 30
0.0
  0
VERTEX
  5
69
330
67
100
AcDbEntity
  8
_U+30EC_U+30A4_U+30E4_U+30FC 1
 62
     7
420
 16777215
370
    25
100
AcDbVertex
100
AcDb2dVertex
 10
94.29467775420392
 20
-139.1704805207629
 30
0.0
  0
SEQEND
  5
6A
330
67
100
AcDbEntity
  8
_U+30EC_U+30A4_U+30E4_U+30FC 1
 62
     7
420
 16777215
370
    25
  0
POLYLINE
  5
6B
330
1F
100
AcDbEntity
  8
_U+30EC_U+30A4_U+30E4_U+30FC 1
 62
     7
420
 16777215
370
    25
100
AcDb2dPolyline
 66
     1
 10
0.0
 20
0.0
 30
0.0
  0
VERTEX
  5
6C
330
6B
100
AcDbEntity
  8
_U+30EC_U+30A4_U+30E4_U+30FC 1
 62
     7
420
 16777215
370
    25
100
AcDbVertex
100
AcDb2dVertex
 10
82.79493149883643
 20
-139.6707194095266
 30
0.0
  0
VERTEX
  5
6D
330
6B
100
AcDbEntity
  8
_U+30EC_U+30A4_U+30E4_U+30FC 1
 62
     7
420
 16777215
370
    25
100
AcDbVertex
100
AcDb2dVertex
 10
104.2944081725613
 20
-139.6707194095266
 30
0.0
  0
SEQEND
  5
6E
330
6B
100
AcDbEntity
  8
_U+30EC_U+30A4_U+30E4_U+30FC 1
 62
     7
420
 16777215
370
    25
  0
POLYLINE
  5
6F
330
1F
100
AcDbEntity
  8
_U+30EC_U+30A4_U+30E4_U+30FC 1
 62
     7
420
 16777215
370
    25
100
AcDb2dPolyline
 66
     1
 10
0.0
 20
0.0
 30
0.0
  0
VERTEX
  5
70
330
6F
100
AcDbEntity
  8
_U+30EC_U+30A4_U+30E4_U+30FC 1
 62
     7
420
 16777215
370
    25
100
AcDbVertex
100
AcDb2dVertex
 10
83.20905732160453
 20
-138.6709471875547
 30
0.0
  0
VERTEX
  5
71
330
6F
100
AcDbEntity
  8
_U+30EC_U+30A4_U+30E4_U+30FC 1
 62
     7
420
 16777215
370
    25
100
AcDbVertex
100
AcDb2dVertex
 10
81.92607513211392
 20
-137.3880002434306
 30
0.0
  0
SEQEND
  5
72
330
6F
100
AcDbEntity
  8
_U+30EC_U+30A4_U+30E4_U+30FC 1
 62
     7
420
 16777215
370
    25
  0
POLYLINE
  5
73
330
1F
100
AcDbEntity
  8
_U+30EC_U+30A4_U+30E4_U+30FC 1
 62
     7
420
 16777215
370
    25
100
AcDb2dPolyline
 66
     1
 10
0.0
 20
0.0
 30
0.0
  0
VERTEX
  5
74
330
73
100
AcDbEntity
  8
_U+30EC_U+30A4_U+30E4_U+30FC 1
 62
     7
420
 16777215
370
    25
100
AcDbVertex
100
AcDb2dVertex
 10
81.07722126488109
 20
-136.5391110769766
 30
0.0
  0
VERTEX
  5
75
330
73
100
AcDbEntity
  8
_U+30EC_U+30A4_U+30E4_U+30FC 1
 62
     7
420
 16777215
370
    25
100
AcDbVertex
100
AcDb2dVertex
 10
79.79494463092803
 20
-135.2568696884081
 30
0.0
  0
SEQEND
  5
76
330
73
100
AcDbEntity
  8
_U+30EC_U+30A4_U+30E4_U+30FC 1
 62
     7
420
 16777215
370
    25
  0
POLYLINE
  5
77
330
1F
100
AcDbEntity
  8
_U+30EC_U+30A4_U+30E4_U+30FC 1
 62
     7
420
 16777215
370
    25
100
AcDb2dPolyline
 66
     1
 10
0.0
 20
0.0
 30
0.0
  0
VERTEX
  5
78
330
77
100
AcDbEntity
  8
_U+30EC_U+30A4_U+30E4_U+30FC 1
 62
     7
420
 16777215
370
    25
100
AcDbVertex
100
AcDb2dVertex
 10
81.92607513211392
 20
-137.3880002434306
 30
0.0
  0
VERTEX
  5
79
330
77
100
AcDbEntity
  8
_U+30EC_U+30A4_U+30E4_U+30FC 1
 62
     7
420
 16777215
370
    25
100
AcDbVertex
100
AcDb2dVertex
 10
87.14334083234371
 20
-132.1707344114016
 30
0.0
  0
SEQEND
  5
7A
330
77
100
AcDbEntity
  8
_U+30EC_U+30A4_U+30E4_U+30FC 1
 62
     7
420
 16777215
370
    25
  0
POLYLINE
  5
7B
330
1F
100
AcDbEntity
  8
_U+30EC_U+30A4_U+30E4_U+30FC 1
 62
     7
420
 16777215
370
    25
100
AcDb2dPolyline
 66
     1
 10
0.0
 20
0.0
 30
0.0
  0
VERTEX
  5
7C
330
7B
100
AcDbEntity
  8
_U+30EC_U+30A4_U+30E4_U+30FC 1
 62
     7
420
 16777215
370
    25
100
AcDbVertex
100
AcDb2dVertex
 10
81.07722126488109
 20
-136.5391110769766
 30
0.0
  0
VERTEX
  5
7D
330
7B
100
AcDbEntity
  8
_U+30EC_U+30A4_U+30E4_U+30FC 1
 62
     7
420
 16777215
370
    25
100
AcDbVertex
100
AcDb2dVertex
 10
86.29448696511089
 20
-131.3225508005025
 30
0.0
  0
SEQEND
  5
7E
330
7B
100
AcDbEntity
  8
_U+30EC_U+30A4_U+30E4_U+30FC 1
 62
     7
420
 16777215
370
    25
  0
POLYLINE
  5
7F
330
1F
100
AcDbEntity
  8
_U+30EC_U+30A4_U+30E4_U+30FC 1
 62
     7
420
 16777215
370
    25
100
AcDb2dPolyline
 66
     1
 10
0.0
 20
0.0
 30
0.0
  0
VERTEX
  5
80
330
7F
100
AcDbEntity
  8
_U+30EC_U+30A4_U+30E4_U+30FC 1
 62
     7
420
 16777215
370
    25
100
AcDbVertex
100
AcDb2dVertex
 10
94.29467775420392
 20
-131.6705308004155
 30
0.0
  0
VERTEX
  5
81
330
7F
100
AcDbEntity
  8
_U+30EC_U+30A4_U+30E4_U+30FC 1
 62
     7
420
 16777215
370
    25
100
AcDbVertex
100
AcDb2dVertex
 10
94.29467775420392
 20
-132.1707344114016
 30
0.0
  0
SEQEND
  5
82
330
7F
100
AcDbEntity
  8
_U+30EC_U+30A4_U+30E4_U+30FC 1
 62
     7
420
 16777215
370
    25
  0
POLYLINE
  5
83
330
1F
100
AcDbEntity
  8
_U+30EC_U+30A4_U+30E4_U+30FC 1
 62
     7
420
 16777215
370
    25
100
AcDb2dPolyline
 66
     1
 10
0.0
 20
0.0
 30
0.0
  0
VERTEX
  5
84
330
83
100
AcDbEntity
  8
_U+30EC_U+30A4_U+30E4_U+30FC 1
 62
     7
420
 16777215
370
    25
100
AcDbVertex
100
AcDb2dVertex
 10
86.29448696511089
 20
-124.1708985800683
 30
0.0
  0
VERTEX
  5
85
330
83
100
AcDbEntity
  8
_U+30EC_U+30A4_U+30E4_U+30FC 1
 62
     7
420
 16777215
370
    25
100
AcDbVertex
100
AcDb2dVertex
 10
86.79469056346075
 20
-124.1708985800683
 30
0.0
  0
SEQEND
  5
86
330
83
100
AcDbEntity
  8
_U+30EC_U+30A4_U+30E4_U+30FC 1
 62
     7
420
 16777215
370
    25
  0
POLYLINE
  5
87
330
1F
100
AcDbEntity
  8
_U+30EC_U+30A4_U+30E4_U+30FC 1
 62
     7
420
 16777215
370
    25
100
AcDb2dPolyline
 66
     1
 10
0.0
 20
0.0
 30
0.0
  0
VERTEX
  5
88
330
87
100
AcDbEntity
  8
_U+30EC_U+30A4_U+30E4_U+30FC 1
 62
     7
420
 16777215
370
    25
100
AcDbVertex
100
AcDb2dVertex
 10
87.29492943958748
 20
-131.1709621894297
 30
0.0
  0
VERTEX
  5
89
330
87
100
AcDbEntity
  8
_U+30EC_U+30A4_U+30E4_U+30FC 1
 62
     7
420
 16777215
370
    25
100
AcDbVertex
100
AcDb2dVertex
 10
92.2944607009277
 20
-131.1709621894297
 30
0.0
  0
SEQEND
  5
8A
330
87
100
AcDbEntity
  8
_U+30EC_U+30A4_U+30E4_U+30FC 1
 62
     7
420
 16777215
370
    25
  0
POLYLINE
  5
8B
330
1F
100
AcDbEntity
  8
_U+30EC_U+30A4_U+30E4_U+30FC 1
 62
     7
420
 16777215
370
    25
100
AcDb2dPolyline
 66
     1
 10
0.0
 20
0.0
 30
0.0
  0
VERTEX
  5
8C
330
8B
100
AcDbEntity
  8
_U+30EC_U+30A4_U+30E4_U+30FC 1
 62
     7
420
 16777215
370
    25
100
AcDbVertex
100
AcDb2dVertex
 10
87.29492943958748
 20
-126.170760524013
 30
0.0
  0
VERTEX
  5
8D
330
8B
100
AcDbEntity
  8
_U+30EC_U+30A4_U+30E4_U+30FC 1
 62
     7
420
 16777215
370
    25
100
AcDbVertex
100
AcDb2dVertex
 10
87.29492943958748
 20
-131.1709621894297
 30
0.0
  0
SEQEND
  5
8E
330
8B
100
AcDbEntity
  8
_U+30EC_U+30A4_U+30E4_U+30FC 1
 62
     7
420
 16777215
370
    25
  0
POLYLINE
  5
8F
330
1F
100
AcDbEntity
  8
_U+30EC_U+30A4_U+30E4_U+30FC 1
 62
     7
420
 16777215
370
    25
100
AcDb2dPolyline
 66
     1
 10
0.0
 20
0.0
 30
0.0
  0
VERTEX
  5
90
330
8F
100
AcDbEntity
  8
_U+30EC_U+30A4_U+30E4_U+30FC 1
 62
     7
420
 16777215
370
    25
100
AcDbVertex
100
AcDb2dVertex
 10
87.29492943958748
 20
-126.170760524013
 30
0.0
  0
VERTEX
  5
91
330
8F
100
AcDbEntity
  8
_U+30EC_U+30A4_U+30E4_U+30FC 1
 62
     7
420
 16777215
370
    25
100
AcDbVertex
100
AcDb2dVertex
 10
86.79469056346075
 20
-124.1708985800683
 30
0.0
  0
SEQEND
  5
92
330
8F
100
AcDbEntity
  8
_U+30EC_U+30A4_U+30E4_U+30FC 1
 62
     7
420
 16777215
370
    25
  0
POLYLINE
  5
93
330
1F
100
AcDbEntity
  8
_U+30EC_U+30A4_U+30E4_U+30FC 1
 62
     7
420
 16777215
370
    25
100
AcDb2dPolyline
 66
     1
 10
0.0
 20
0.0
 30
0.0
  0
VERTEX
  5
94
330
93
100
AcDbEntity
  8
_U+30EC_U+30A4_U+30E4_U+30FC 1
 62
     7
420
 16777215
370
    25
100
AcDbVertex
100
AcDb2dVertex
 10
92.2944607009277
 20
-131.1709621894297
 30
0.0
  0
VERTEX
  5
95
330
93
100
AcDbEntity
  8
_U+30EC_U+30A4_U+30E4_U+30FC 1
 62
     7
420
 16777215
370
    25
100
AcDbVertex
100
AcDb2dVertex
 10
94.29467775420392
 20
-131.6705308004155
 30
0.0
  0
SEQEND
  5
96
330
93
100
AcDbEntity
  8
_U+30EC_U+30A4_U+30E4_U+30FC 1
 62
     7
420
 16777215
370
    25
  0
SPLINE
  5
97
330
1F
100
AcDbEntity
  8
_U+30EC_U+30A4_U+30E4_U+30FC 1
 62
     7
420
 16777215
370
    25
100
AcDbSpline
210
0.0
220
0.0
230
1.0
 70
     8
 71
     3
 72
     8
 73
     4
 74
     0
 42
0.0000000001
 43
0.0000000001
 12
1.0
 22
0.0
 32
0.0
 13
1.0
 23
0.0
 33
0.0
 40
0.0
 40
0.0
 40
0.0
 40
0.0
 40
1.0
 40
1.0
 40
1.0
 40
1.0
 10
79.29474103257817
 20
-119.6709005256377
 30
0.0
 10
79.29474103257817
 20
-119.3946049701512
 30
0.0
 10
79.07079770495811
 20
-119.1710144146517
 30
0.0
 10
78.79450215645144
 20
-119.1710144146517
 30
0.0
  0
SPLINE
  5
98
330
1F
100
AcDbEntity
  8
_U+30EC_U+30A4_U+30E4_U+30FC 1
 62
     7
420
 16777215
370
    25
100
AcDbSpline
210
0.0
220
0.0
230
1.0
 70
     8
 71
     3
 72
     8
 73
     4
 74
     0
 42
0.0000000001
 43
0.0000000001
 12
1.0
 22
0.0
 32
0.0
 13
1.0
 23
0.0
 33
0.0
 40
0.0
 40
0.0
 40
0.0
 40
0.0
 40
1.0
 40
1.0
 40
1.0
 40
1.0
 10
104.2944081725613
 20
-139.6707194095266
 30
0.0
 10
104.2944081725613
 20
-139.3944238540402
 30
0.0
 10
104.0711704004788
 20
-139.1704805207629
 30
0.0
 10
103.7948748519721
 20
-139.1704805207629
 30
0.0
  0
SPLINE
  5
99
330
1F
100
AcDbEntity
  8
_U+30EC_U+30A4_U+30E4_U+30FC 1
 62
     7
420
 16777215
370
     9
100
AcDbSpline
210
0.0
220
0.0
230
1.0
 70
    11
 71
     3
 72
    17
 73
    13
 74
     0
 42
0.0000000001
 43
0.0000000001
 12
1.0
 22
0.0
 32
0.0
 13
1.0
 23
0.0
 33
0.0
 40
0.0
 40
0.0
 40
0.0
 40
0.0
 40
1.0
 40
1.0
 40
1.0
 40
2.0
 40
2.0
 40
2.0
 40
3.0
 40
3.0
 40
3.0
 40
4.0
 40
4.0
 40
4.0
 40
4.0
 10
74.89464975594497
 20
-119.1710144146517
 30
0.0
 10
74.89464975594497
 20
-119.115557747999
 30
0.0
 10
74.84988225708709
 20
-119.0707549702323
 30
0.0
 10
74.79474309182713
 20
-119.0707549702323
 30
0.0
 10
74.73963920434406
 20
-119.0707549702323
 30
0.0
 10
74.69483642770929
 20
-119.115557747999
 30
0.0
 10
74.69483642770929
 20
-119.1710144146517
 30
0.0
 10
74.69483642770929
 20
-119.2261535813045
 30
0.0
 10
74.73963920434406
 20
-119.2709210812934
 30
0.0
 10
74.79474309182713
 20
-119.2709210812934
 30
0.0
 10
74.84988225708709
 20
-119.2709210812934
 30
0.0
 10
74.89464975594497
 20
-119.2261535813045
 30
0.0
 10
74.89464975594497
 20
-119.1710144146517
 30
0.0
  0
SPLINE
  5
9A
330
1F
100
AcDbEntity
  8
_U+30EC_U+30A4_U+30E4_U+30FC 1
 62
     7
420
 16777215
370
     9
100
AcDbSpline
210
0.0
220
0.0
230
1.0
 70
    11
 71
     3
 72
    17
 73
    13
 74
     0
 42
0.0000000001
 43
0.0000000001
 12
1.0
 22
0.0
 32
0.0
 13
1.0
 23
0.0
 33
0.0
 40
0.0
 40
0.0
 40
0.0
 40
0.0
 40
1.0
 40
1.0
 40
1.0
 40
2.0
 40
2.0
 40
2.0
 40
3.0
 40
3.0
 40
3.0
 40
4.0
 40
4.0
 40
4.0
 40
4.0
 10
79.89485129504587
 20
-115.1705849712075
 30
0.0
 10
79.89485129504587
 20
-115.1154458045544
 30
0.0
 10
79.85008379618797
 20
-115.0706783045655
 30
0.0
 10
79.79494463092803
 20
-115.0706783045655
 30
0.0
 10
79.73913518790741
 20
-115.0706783045655
 30
0.0
 10
79.69436768904951
 20
-115.1154458045544
 30
0.0
 10
79.69436768904951
 20
-115.1705849712075
 30
0.0
 10
79.69436768904951
 20
-115.2260416378602
 30
0.0
 10
79.73913518790741
 20
-115.2708444156269
 30
0.0
 10
79.79494463092803
 20
-115.2708444156269
 30
0.0
 10
79.85008379618797
 20
-115.2708444156269
 30
0.0
 10
79.89485129504587
 20
-115.2260416378602
 30
0.0
 10
79.89485129504587
 20
-115.1705849712075
 30
0.0
  0
SPLINE
  5
9B
330
1F
100
AcDbEntity
  8
_U+30EC_U+30A4_U+30E4_U+30FC 1
 62
     7
420
 16777215
370
     9
100
AcDbSpline
210
0.0
220
0.0
230
1.0
 70
    11
 71
     3
 72
    17
 73
    13
 74
     0
 42
0.0000000001
 43
0.0000000001
 12
1.0
 22
0.0
 32
0.0
 13
1.0
 23
0.0
 33
0.0
 40
0.0
 40
0.0
 40
0.0
 40
0.0
 40
1.0
 40
1.0
 40
1.0
 40
2.0
 40
2.0
 40
2.0
 40
3.0
 40
3.0
 40
3.0
 40
4.0
 40
4.0
 40
4.0
 40
4.0
 10
86.39439362922873
 20
-115.1705849712075
 30
0.0
 10
86.39439362922873
 20
-115.1154458045544
 30
0.0
 10
86.35029640813151
 20
-115.0706783045655
 30
0.0
 10
86.29448696511089
 20
-115.0706783045655
 30
0.0
 10
86.23934997844003
 20
-115.0706783045655
 30
0.0
 10
86.19458030099305
 20
-115.1154458045544
 30
0.0
 10
86.19458030099305
 20
-115.1705849712075
 30
0.0
 10
86.19458030099305
 20
-115.2260416378602
 30
0.0
 10
86.23934997844003
 20
-115.2708444156269
 30
0.0
 10
86.29448696511089
 20
-115.2708444156269
 30
0.0
 10
86.35029640813151
 20
-115.2708444156269
 30
0.0
 10
86.39439362922873
 20
-115.2260416378602
 30
0.0
 10
86.39439362922873
 20
-115.1705849712075
 30
0.0
  0
SPLINE
  5
9C
330
1F
100
AcDbEntity
  8
_U+30EC_U+30A4_U+30E4_U+30FC 1
 62
     7
420
 16777215
370
     9
100
AcDbSpline
210
0.0
220
0.0
230
1.0
 70
    11
 71
     3
 72
    17
 73
    13
 74
     0
 42
0.0000000001
 43
0.0000000001
 12
1.0
 22
0.0
 32
0.0
 13
1.0
 23
0.0
 33
0.0
 40
0.0
 40
0.0
 40
0.0
 40
0.0
 40
1.0
 40
1.0
 40
1.0
 40
2.0
 40
2.0
 40
2.0
 40
3.0
 40
3.0
 40
3.0
 40
4.0
 40
4.0
 40
4.0
 40
4.0
 10
94.39458203623802
 20
-115.1705849712075
 30
0.0
 10
94.39458203623802
 20
-115.1154458045544
 30
0.0
 10
94.34977925960327
 20
-115.0706783045655
 30
0.0
 10
94.29467775420392
 20
-115.0706783045655
 30
0.0
 10
94.23953620686024
 20
-115.0706783045655
 30
0.0
 10
94.19476870800236
 20
-115.1154458045544
 30
0.0
 10
94.19476870800236
 20
-115.1705849712075
 30
0.0
 10
94.19476870800236
 20
-115.2260416378602
 30
0.0
 10
94.23953620686024
 20
-115.2708444156269
 30
0.0
 10
94.29467775420392
 20
-115.2708444156269
 30
0.0
 10
94.34977925960327
 20
-115.2708444156269
 30
0.0
 10
94.39458203623802
 20
-115.2260416378602
 30
0.0
 10
94.39458203623802
 20
-115.1705849712075
 30
0.0
  0
SPLINE
  5
9D
330
1F
100
AcDbEntity
  8
_U+30EC_U+30A4_U+30E4_U+30FC 1
 62
     7
420
 16777215
370
     9
100
AcDbSpline
210
0.0
220
0.0
230
1.0
 70
    11
 71
     3
 72
    17
 73
    13
 74
     0
 42
0.0000000001
 43
0.0000000001
 12
1.0
 22
0.0
 32
0.0
 13
1.0
 23
0.0
 33
0.0
 40
0.0
 40
0.0
 40
0.0
 40
0.0
 40
1.0
 40
1.0
 40
1.0
 40
2.0
 40
2.0
 40
2.0
 40
3.0
 40
3.0
 40
3.0
 40
4.0
 40
4.0
 40
4.0
 40
4.0
 10
108.3947441790641
 20
-124.1708985800683
 30
0.0
 10
108.3947441790641
 20
-124.1154066356378
 30
0.0
 10
108.3499766802063
 20
-124.0706391356489
 30
0.0
 10
108.2948375149463
 20
-124.0706391356489
 30
0.0
 10
108.2397336274632
 20
-124.0706391356489
 30
0.0
 10
108.1949308508285
 20
-124.1154066356378
 30
0.0
 10
108.1949308508285
 20
-124.1708985800683
 30
0.0
 10
108.1949308508285
 20
-124.2260024689435
 30
0.0
 10
108.2397336274632
 20
-124.2708052467102
 30
0.0
 10
108.2948375149463
 20
-124.2708052467102
 30
0.0
 10
108.3499766802063
 20
-124.2708052467102
 30
0.0
 10
108.3947441790641
 20
-124.2260024689435
 30
0.0
 10
108.3947441790641
 20
-124.1708985800683
 30
0.0
  0
SPLINE
  5
9E
330
1F
100
AcDbEntity
  8
_U+30EC_U+30A4_U+30E4_U+30FC 1
 62
     7
420
 16777215
370
     9
100
AcDbSpline
210
0.0
220
0.0
230
1.0
 70
    11
 71
     3
 72
    17
 73
    13
 74
     0
 42
0.0000000001
 43
0.0000000001
 12
1.0
 22
0.0
 32
0.0
 13
1.0
 23
0.0
 33
0.0
 40
0.0
 40
0.0
 40
0.0
 40
0.0
 40
1.0
 40
1.0
 40
1.0
 40
2.0
 40
2.0
 40
2.0
 40
3.0
 40
3.0
 40
3.0
 40
4.0
 40
4.0
 40
4.0
 40
4.0
 10
108.3947441790641
 20
-132.1707344114016
 30
0.0
 10
108.3947441790641
 20
-132.1156305225267
 30
0.0
 10
108.3499766802063
 20
-132.07082774476
 30
0.0
 10
108.2948375149463
 20
-132.07082774476
 30
0.0
 10
108.2397336274632
 20
-132.07082774476
 30
0.0
 10
108.1949308508285
 20
-132.1156305225267
 30
0.0
 10
108.1949308508285
 20
-132.1707344114016
 30
0.0
 10
108.1949308508285
 20
-132.2258735780547
 30
0.0
 10
108.2397336274632
 20
-132.2706410780433
 30
0.0
 10
108.2948375149463
 20
-132.2706410780433
 30
0.0
 10
108.3499766802063
 20
-132.2706410780433
 30
0.0
 10
108.3947441790641
 20
-132.2258735780547
 30
0.0
 10
108.3947441790641
 20
-132.1707344114016
 30
0.0
  0
SPLINE
  5
9F
330
1F
100
AcDbEntity
  8
_U+30EC_U+30A4_U+30E4_U+30FC 1
 62
     7
420
 16777215
370
     9
100
AcDbSpline
210
0.0
220
0.0
230
1.0
 70
    11
 71
     3
 72
    17
 73
    13
 74
     0
 42
0.0000000001
 43
0.0000000001
 12
1.0
 22
0.0
 32
0.0
 13
1.0
 23
0.0
 33
0.0
 40
0.0
 40
0.0
 40
0.0
 40
0.0
 40
1.0
 40
1.0
 40
1.0
 40
2.0
 40
2.0
 40
2.0
 40
3.0
 40
3.0
 40
3.0
 40
4.0
 40
4.0
 40
4.0
 40
4.0
 10
108.3947441790641
 20
-138.6709471875547
 30
0.0
 10
108.3947441790641
 20
-138.6158432986791
 30
0.0
 10
108.3499766802063
 20
-138.571040520913
 30
0.0
 10
108.2948375149463
 20
-138.571040520913
 30
0.0
 10
108.2397336274632
 20
-138.571040520913
 30
0.0
 10
108.1949308508285
 20
-138.6158432986791
 30
0.0
 10
108.1949308508285
 20
-138.6709471875547
 30
0.0
 10
108.1949308508285
 20
-138.7260863542071
 30
0.0
 10
108.2397336274632
 20
-138.7708538541963
 30
0.0
 10
108.2948375149463
 20
-138.7708538541963
 30
0.0
 10
108.3499766802063
 20
-138.7708538541963
 30
0.0
 10
108.3947441790641
 20
-138.7260863542071
 30
0.0
 10
108.3947441790641
 20
-138.6709471875547
 30
0.0
  0
SPLINE
  5
A0
330
1F
100
AcDbEntity
  8
_U+30EC_U+30A4_U+30E4_U+30FC 1
 62
     7
420
 16777215
370
     9
100
AcDbSpline
210
0.0
220
0.0
230
1.0
 70
    11
 71
     3
 72
    17
 73
    13
 74
     0
 42
0.0000000001
 43
0.0000000001
 12
1.0
 22
0.0
 32
0.0
 13
1.0
 23
0.0
 33
0.0
 40
0.0
 40
0.0
 40
0.0
 40
0.0
 40
1.0
 40
1.0
 40
1.0
 40
2.0
 40
2.0
 40
2.0
 40
3.0
 40
3.0
 40
3.0
 40
4.0
 40
4.0
 40
4.0
 40
4.0
 10
104.3950203922167
 20
-143.6711488529708
 30
0.0
 10
104.3950203922167
 20
-143.6153394085404
 30
0.0
 10
104.3502176155819
 20
-143.5705719085518
 30
0.0
 10
104.2944081725613
 20
-143.5705719085518
 30
0.0
 10
104.2392690073014
 20
-143.5705719085518
 30
0.0
 10
104.1945015084435
 20
-143.6153394085404
 30
0.0
 10
104.1945015084435
 20
-143.6711488529708
 30
0.0
 10
104.1945015084435
 20
-143.7262880196239
 30
0.0
 10
104.2392690073014
 20
-143.7710555196131
 30
0.0
 10
104.2944081725613
 20
-143.7710555196131
 30
0.0
 10
104.3502176155819
 20
-143.7710555196131
 30
0.0
 10
104.3950203922167
 20
-143.7262880196239
 30
0.0
 10
104.3950203922167
 20
-143.6711488529708
 30
0.0
  0
SPLINE
  5
A1
330
1F
100
AcDbEntity
  8
_U+30EC_U+30A4_U+30E4_U+30FC 1
 62
     7
420
 16777215
370
     9
100
AcDbSpline
210
0.0
220
0.0
230
1.0
 70
    11
 71
     3
 72
    17
 73
    13
 74
     0
 42
0.0000000001
 43
0.0000000001
 12
1.0
 22
0.0
 32
0.0
 13
1.0
 23
0.0
 33
0.0
 40
0.0
 40
0.0
 40
0.0
 40
0.0
 40
1.0
 40
1.0
 40
1.0
 40
2.0
 40
2.0
 40
2.0
 40
3.0
 40
3.0
 40
3.0
 40
4.0
 40
4.0
 40
4.0
 40
4.0
 10
74.89464975594497
 20
-139.6707194095266
 30
0.0
 10
74.89464975594497
 20
-139.6155802428741
 30
0.0
 10
74.84988225708709
 20
-139.570812742885
 30
0.0
 10
74.79474309182713
 20
-139.570812742885
 30
0.0
 10
74.73963920434406
 20
-139.570812742885
 30
0.0
 10
74.69483642770929
 20
-139.6155802428741
 30
0.0
 10
74.69483642770929
 20
-139.6707194095266
 30
0.0
 10
74.69483642770929
 20
-139.7258232984021
 30
0.0
 10
74.73963920434406
 20
-139.7706260761682
 30
0.0
 10
74.79474309182713
 20
-139.7706260761682
 30
0.0
 10
74.84988225708709
 20
-139.7706260761682
 30
0.0
 10
74.89464975594497
 20
-139.7258232984021
 30
0.0
 10
74.89464975594497
 20
-139.6707194095266
 30
0.0
  0
SPLINE
  5
A2
330
1F
100
AcDbEntity
  8
_U+30EC_U+30A4_U+30E4_U+30FC 1
 62
     7
420
 16777215
370
     9
100
AcDbSpline
210
0.0
220
0.0
230
1.0
 70
    11
 71
     3
 72
    17
 73
    13
 74
     0
 42
0.0000000001
 43
0.0000000001
 12
1.0
 22
0.0
 32
0.0
 13
1.0
 23
0.0
 33
0.0
 40
0.0
 40
0.0
 40
0.0
 40
0.0
 40
1.0
 40
1.0
 40
1.0
 40
2.0
 40
2.0
 40
2.0
 40
3.0
 40
3.0
 40
3.0
 40
4.0
 40
4.0
 40
4.0
 40
4.0
 10
78.89440882056928
 20
-143.6711488529708
 30
0.0
 10
78.89440882056928
 20
-143.6153394085404
 30
0.0
 10
78.84960604393451
 20
-143.5705719085518
 30
0.0
 10
78.79450215645144
 20
-143.5705719085518
 30
0.0
 10
78.7393629911915
 20
-143.5705719085518
 30
0.0
 10
78.6945954923336
 20
-143.6153394085404
 30
0.0
 10
78.6945954923336
 20
-143.6711488529708
 30
0.0
 10
78.6945954923336
 20
-143.7262880196239
 30
0.0
 10
78.7393629911915
 20
-143.7710555196131
 30
0.0
 10
78.79450215645144
 20
-143.7710555196131
 30
0.0
 10
78.84960604393451
 20
-143.7710555196131
 30
0.0
 10
78.89440882056928
 20
-143.7262880196239
 30
0.0
 10
78.89440882056928
 20
-143.6711488529708
 30
0.0
  0
POLYLINE
  5
A3
330
1F
100
AcDbEntity
  8
_U+30EC_U+30A4_U+30E4_U+30FC 1
 62
     7
420
 16777215
370
     9
100
AcDb2dPolyline
 66
     1
 10
0.0
 20
0.0
 30
0.0
  0
VERTEX
  5
A4
330
A3
100
AcDbEntity
  8
_U+30EC_U+30A4_U+30E4_U+30FC 1
 62
     7
420
 16777215
370
     9
100
AcDbVertex
100
AcDb2dVertex
 10
86.29448696511089
 20
-115.1705849712075
 30
0.0
  0
VERTEX
  5
A5
330
A3
100
AcDbEntity
  8
_U+30EC_U+30A4_U+30E4_U+30FC 1
 62
     7
420
 16777215
370
     9
100
AcDbVertex
100
AcDb2dVertex
 10
94.29467775420392
 20
-115.1705849712075
 30
0.0
  0
SEQEND
  5
A6
330
A3
100
AcDbEntity
  8
_U+30EC_U+30A4_U+30E4_U+30FC 1
 62
     7
420
 16777215
370
     9
  0
POLYLINE
  5
A7
330
1F
100
AcDbEntity
  8
_U+30EC_U+30A4_U+30E4_U+30FC 1
 62
     7
420
 16777215
370
     9
100
AcDb2dPolyline
 66
     1
 10
0.0
 20
0.0
 30
0.0
  0
VERTEX
  5
A8
330
A7
100
AcDbEntity
  8
_U+30EC_U+30A4_U+30E4_U+30FC 1
 62
     7
420
 16777215
370
     9
100
AcDbVertex
100
AcDb2dVertex
 10
94.29467775420392
 20
-129.0860102455062
 30
0.0
  0
VERTEX
  5
A9
330
A7
100
AcDbEntity
  8
_U+30EC_U+30A4_U+30E4_U+30FC 1
 62
     7
420
 16777215
370
     9
100
AcDbVertex
100
AcDb2dVertex
 10
94.29467775420392
 20
-114.1708127492349
 30
0.0
  0
SEQEND
  5
AA
330
A7
100
AcDbEntity
  8
_U+30EC_U+30A4_U+30E4_U+30FC 1
 62
     7
420
 16777215
370
     9
  0
INSERT
  5
AC
330
1F
100
AcDbEntity
  8
_U+30EC_U+30A4_U+30E4_U+30FC 1
100
AcDbBlockReference
  2
block 2
 10
0.0
 20
0.0
 30
0.0
  0
POLYLINE
  5
B1
330
1F
100
AcDbEntity
  8
_U+30EC_U+30A4_U+30E4_U+30FC 1
 62
     7
420
 16777215
370
     9
100
AcDb2dPolyline
 66
     1
 10
0.0
 20
0.0
 30
0.0
  0
VERTEX
  5
B2
330
B1
100
AcDbEntity
  8
_U+30EC_U+30A4_U+30E4_U+30FC 1
 62
     7
420
 16777215
370
     9
100
AcDbVertex
100
AcDb2dVertex
 10
108.2948375149463
 20
-132.1707344114016
 30
0.0
  0
VERTEX
  5
B3
330
B1
100
AcDbEntity
  8
_U+30EC_U+30A4_U+30E4_U+30FC 1
 62
     7
420
 16777215
370
     9
100
AcDbVertex
100
AcDb2dVertex
 10
108.2948375149463
 20
-124.1708985800683
 30
0.0
  0
SEQEND
  5
B4
330
B1
100
AcDbEntity
  8
_U+30EC_U+30A4_U+30E4_U+30FC 1
 62
     7
420
 16777215
370
     9
  0
POLYLINE
  5
B5
330
1F
100
AcDbEntity
  8
_U+30EC_U+30A4_U+30E4_U+30FC 1
 62
     7
420
 16777215
370
     9
100
AcDb2dPolyline
 66
     1
 10
0.0
 20
0.0
 30
0.0
  0
VERTEX
  5
B6
330
B5
100
AcDbEntity
  8
_U+30EC_U+30A4_U+30E4_U+30FC 1
 62
     7
420
 16777215
370
     9
100
AcDbVertex
100
AcDb2dVertex
 10
89.37921105307969
 20
-124.1708985800683
 30
0.0
  0
VERTEX
  5
B7
330
B5
100
AcDbEntity
  8
_U+30EC_U+30A4_U+30E4_U+30FC 1
 62
     7
420
 16777215
370
     9
100
AcDbVertex
100
AcDb2dVertex
 10
109.2946097116622
 20
-124.1708985800683
 30
0.0
  0
SEQEND
  5
B8
330
B5
100
AcDbEntity
  8
_U+30EC_U+30A4_U+30E4_U+30FC 1
 62
     7
420
 16777215
370
     9
  0
INSERT
  5
BA
330
1F
100
AcDbEntity
  8
_U+30EC_U+30A4_U+30E4_U+30FC 1
100
AcDbBlockReference
  2
block 3
 10
0.0
 20
0.0
 30
0.0
  0
POLYLINE
  5
BF
330
1F
100
AcDbEntity
  8
_U+30EC_U+30A4_U+30E4_U+30FC 1
 62
     7
420
 16777215
370
     9
100
AcDb2dPolyline
 66
     1
 10
0.0
 20
0.0
 30
0.0
  0
VERTEX
  5
C0
330
BF
100
AcDbEntity
  8
_U+30EC_U+30A4_U+30E4_U+30FC 1
 62
     7
420
 16777215
370
     9
100
AcDbVertex
100
AcDb2dVertex
 10
78.79450215645144
 20
-143.6711488529708
 30
0.0
  0
VERTEX
  5
C1
330
BF
100
AcDbEntity
  8
_U+30EC_U+30A4_U+30E4_U+30FC 1
 62
     7
420
 16777215
370
     9
100
AcDbVertex
100
AcDb2dVertex
 10
104.2944081725613
 20
-143.6711488529708
 30
0.0
  0
SEQEND
  5
C2
330
BF
100
AcDbEntity
  8
_U+30EC_U+30A4_U+30E4_U+30FC 1
 62
     7
420
 16777215
370
     9
  0
POLYLINE
  5
C3
330
1F
100
AcDbEntity
  8
_U+30EC_U+30A4_U+30E4_U+30FC 1
 62
     7
420
 16777215
370
     9
100
AcDb2dPolyline
 66
     1
 10
0.0
 20
0.0
 30
0.0
  0
VERTEX
  5
C4
330
C3
100
AcDbEntity
  8
_U+30EC_U+30A4_U+30E4_U+30FC 1
 62
     7
420
 16777215
370
     9
100
AcDbVertex
100
AcDb2dVertex
 10
78.79450215645144
 20
-138.2106780210029
 30
0.0
  0
VERTEX
  5
C5
330
C3
100
AcDbEntity
  8
_U+30EC_U+30A4_U+30E4_U+30FC 1
 62
     7
420
 16777215
370
     9
100
AcDbVertex
100
AcDb2dVertex
 10
78.79450215645144
 20
-144.6709210749434
 30
0.0
  0
SEQEND
  5
C6
330
C3
100
AcDbEntity
  8
_U+30EC_U+30A4_U+30E4_U+30FC 1
 62
     7
420
 16777215
370
     9
  0
POLYLINE
  5
C7
330
1F
100
AcDbEntity
  8
_U+30EC_U+30A4_U+30E4_U+30FC 1
 62
     7
420
 16777215
370
     9
100
AcDb2dPolyline
 66
     1
 10
0.0
 20
0.0
 30
0.0
  0
VERTEX
  5
C8
330
C7
100
AcDbEntity
  8
_U+30EC_U+30A4_U+30E4_U+30FC 1
 62
     7
420
 16777215
370
     9
100
AcDbVertex
100
AcDb2dVertex
 10
104.2944081725613
 20
-142.2111427422253
 30
0.0
  0
VERTEX
  5
C9
330
C7
100
AcDbEntity
  8
_U+30EC_U+30A4_U+30E4_U+30FC 1
 62
     7
420
 16777215
370
     9
100
AcDbVertex
100
AcDb2dVertex
 10
104.2944081725613
 20
-144.6709210749434
 30
0.0
  0
SEQEND
  5
CA
330
C7
100
AcDbEntity
  8
_U+30EC_U+30A4_U+30E4_U+30FC 1
 62
     7
420
 16777215
370
     9
  0
INSERT
  5
CC
330
1F
100
AcDbEntity
  8
_U+30EC_U+30A4_U+30E4_U+30FC 1
100
AcDbBlockReference
  2
block 4
 10
0.0
 20
0.0
 30
0.0
  0
POLYLINE
  5
DD
330
1F
100
AcDbEntity
  8
_U+30EC_U+30A4_U+30E4_U+30FC 1
 62
     7
420
 16777215
370
     9
100
AcDb2dPolyline
 66
     1
 10
0.0
 20
0.0
 30
0.0
  0
VERTEX
  5
DE
330
DD
100
AcDbEntity
  8
_U+30EC_U+30A4_U+30E4_U+30FC 1
 62
     7
420
 16777215
370
     9
100
AcDbVertex
100
AcDb2dVertex
 10
86.29448696511089
 20
-115.1705849712075
 30
0.0
  0
VERTEX
  5
DF
330
DD
100
AcDbEntity
  8
_U+30EC_U+30A4_U+30E4_U+30FC 1
 62
     7
420
 16777215
370
     9
100
AcDbVertex
100
AcDb2dVertex
 10
76.77809498567206
 20
-115.1705849712075
 30
0.0
  0
SEQEND
  5
E0
330
DD
100
AcDbEntity
  8
_U+30EC_U+30A4_U+30E4_U+30FC 1
 62
     7
420
 16777215
370
     9
  0
POLYLINE
  5
E1
330
1F
100
AcDbEntity
  8
_U+30EC_U+30A4_U+30E4_U+30FC 1
 62
     7
420
 16777215
370
     9
100
AcDb2dPolyline
 66
     1
 10
0.0
 20
0.0
 30
0.0
  0
VERTEX
  5
E2
330
E1
100
AcDbEntity
  8
_U+30EC_U+30A4_U+30E4_U+30FC 1
 62
     7
420
 16777215
370
     9
100
AcDbVertex
100
AcDb2dVertex
 10
86.29448696511089
 20
-121.630828025148
 30
0.0
  0
VERTEX
  5
E3
330
E1
100
AcDbEntity
  8
_U+30EC_U+30A4_U+30E4_U+30FC 1
 62
     7
420
 16777215
370
     9
100
AcDbVertex
100
AcDb2dVertex
 10
86.29448696511089
 20
-114.1708127492349
 30
0.0
  0
SEQEND
  5
E4
330
E1
100
AcDbEntity
  8
_U+30EC_U+30A4_U+30E4_U+30FC 1
 62
     7
420
 16777215
370
     9
  0
SPLINE
  5
E5
330
1F
100
AcDbEntity
  8
_U+30EC_U+30A4_U+30E4_U+30FC 1
 62
     7
420
 16777215
370
     9
100
AcDbSpline
210
0.0
220
0.0
230
1.0
 70
    11
 71
     3
 72
    17
 73
    13
 74
     0
 42
0.0000000001
 43
0.0000000001
 12
1.0
 22
0.0
 32
0.0
 13
1.0
 23
0.0
 33
0.0
 40
0.0
 40
0.0
 40
0.0
 40
0.0
 40
1.0
 40
1.0
 40
1.0
 40
2.0
 40
2.0
 40
2.0
 40
3.0
 40
3.0
 40
3.0
 40
4.0
 40
4.0
 40
4.0
 40
4.0
 10
87.39483610370532
 20
-115.1705849712075
 30
0.0
 10
87.39483610370532
 20
-115.1154458045544
 30
0.0
 10
87.35003332707055
 20
-115.0706783045655
 30
0.0
 10
87.29492943958748
 20
-115.0706783045655
 30
0.0
 10
87.23979027432753
 20
-115.0706783045655
 30
0.0
 10
87.19502497820137
 20
-115.1154458045544
 30
0.0
 10
87.19502497820137
 20
-115.1705849712075
 30
0.0
 10
87.19502497820137
 20
-115.2260416378602
 30
0.0
 10
87.23979027432753
 20
-115.2708444156269
 30
0.0
 10
87.29492943958748
 20
-115.2708444156269
 30
0.0
 10
87.35003332707055
 20
-115.2708444156269
 30
0.0
 10
87.39483610370532
 20
-115.2260416378602
 30
0.0
 10
87.39483610370532
 20
-115.1705849712075
 30
0.0
  0
POLYLINE
  5
E6
330
1F
100
AcDbEntity
  8
_U+30EC_U+30A4_U+30E4_U+30FC 1
 62
     7
420
 16777215
370
     9
100
AcDb2dPolyline
 66
     1
 10
0.0
 20
0.0
 30
0.0
  0
VERTEX
  5
E7
330
E6
100
AcDbEntity
  8
_U+30EC_U+30A4_U+30E4_U+30FC 1
 62
     7
420
 16777215
370
     9
100
AcDbVertex
100
AcDb2dVertex
 10
87.29492943958748
 20
-121.630828025148
 30
0.0
  0
VERTEX
  5
E8
330
E6
100
AcDbEntity
  8
_U+30EC_U+30A4_U+30E4_U+30FC 1
 62
     7
420
 16777215
370
     9
100
AcDbVertex
100
AcDb2dVertex
 10
87.29492943958748
 20
-114.1708127492349
 30
0.0
  0
SEQEND
  5
E9
330
E6
100
AcDbEntity
  8
_U+30EC_U+30A4_U+30E4_U+30FC 1
 62
     7
420
 16777215
370
     9
  0
POLYLINE
  5
EA
330
1F
100
AcDbEntity
  8
_U+30EC_U+30A4_U+30E4_U+30FC 1
 62
     7
420
 16777215
370
     9
100
AcDb2dPolyline
 66
     1
 10
0.0
 20
0.0
 30
0.0
  0
VERTEX
  5
EB
330
EA
100
AcDbEntity
  8
_U+30EC_U+30A4_U+30E4_U+30FC 1
 62
     7
420
 16777215
370
     9
100
AcDbVertex
100
AcDb2dVertex
 10
79.79494463092803
 20
-123.0047210803599
 30
0.0
  0
VERTEX
  5
EC
330
EA
100
AcDbEntity
  8
_U+30EC_U+30A4_U+30E4_U+30FC 1
 62
     7
420
 16777215
370
     9
100
AcDbVertex
100
AcDb2dVertex
 10
79.79494463092803
 20
-114.1708127492349
 30
0.0
  0
SEQEND
  5
ED
330
EA
100
AcDbEntity
  8
_U+30EC_U+30A4_U+30E4_U+30FC 1
 62
     7
420
 16777215
370
     9
  0
INSERT
  5
EF
330
1F
100
AcDbEntity
  8
_U+30EC_U+30A4_U+30E4_U+30FC 1
100
AcDbBlockReference
  2
block 5
 10
0.0
 20
0.0
 30
0.0
  0
POLYLINE
  5
FF
330
1F
100
AcDbEntity
  8
_U+30EC_U+30A4_U+30E4_U+30FC 1
 62
     7
420
 16777215
370
     9
100
AcDb2dPolyline
 66
     1
 10
0.0
 20
0.0
 30
0.0
  0
VERTEX
  5
100
330
FF
100
AcDbEntity
  8
_U+30EC_U+30A4_U+30E4_U+30FC 1
 62
     7
420
 16777215
370
     9
100
AcDbVertex
100
AcDb2dVertex
 10
74.79474309182713
 20
-119.1710144146517
 30
0.0
  0
VERTEX
  5
101
330
FF
100
AcDbEntity
  8
_U+30EC_U+30A4_U+30E4_U+30FC 1
 62
     7
420
 16777215
370
     9
100
AcDbVertex
100
AcDb2dVertex
 10
74.79474309182713
 20
-139.6707194095266
 30
0.0
  0
SEQEND
  5
102
330
FF
100
AcDbEntity
  8
_U+30EC_U+30A4_U+30E4_U+30FC 1
 62
     7
420
 16777215
370
     9
  0
POLYLINE
  5
103
330
1F
100
AcDbEntity
  8
_U+30EC_U+30A4_U+30E4_U+30FC 1
 62
     7
420
 16777215
370
     9
100
AcDb2dPolyline
 66
     1
 10
0.0
 20
0.0
 30
0.0
  0
VERTEX
  5
104
330
103
100
AcDbEntity
  8
_U+30EC_U+30A4_U+30E4_U+30FC 1
 62
     7
420
 16777215
370
     9
100
AcDbVertex
100
AcDb2dVertex
 10
76.25478444346726
 20
-119.1710144146517
 30
0.0
  0
VERTEX
  5
105
330
103
100
AcDbEntity
  8
_U+30EC_U+30A4_U+30E4_U+30FC 1
 62
     7
420
 16777215
370
     9
100
AcDbVertex
100
AcDb2dVertex
 10
73.79497089511122
 20
-119.1710144146517
 30
0.0
  0
SEQEND
  5
106
330
103
100
AcDbEntity
  8
_U+30EC_U+30A4_U+30E4_U+30FC 1
 62
     7
420
 16777215
370
     9
  0
POLYLINE
  5
107
330
1F
100
AcDbEntity
  8
_U+30EC_U+30A4_U+30E4_U+30FC 1
 62
     7
420
 16777215
370
     9
100
AcDb2dPolyline
 66
     1
 10
0.0
 20
0.0
 30
0.0
  0
VERTEX
  5
108
330
107
100
AcDbEntity
  8
_U+30EC_U+30A4_U+30E4_U+30FC 1
 62
     7
420
 16777215
370
     9
100
AcDbVertex
100
AcDb2dVertex
 10
80.25454350809157
 20
-139.6707194095266
 30
0.0
  0
VERTEX
  5
109
330
107
100
AcDbEntity
  8
_U+30EC_U+30A4_U+30E4_U+30FC 1
 62
     7
420
 16777215
370
     9
100
AcDbVertex
100
AcDb2dVertex
 10
73.79497089511122
 20
-139.6707194095266
 30
0.0
  0
SEQEND
  5
10A
330
107
100
AcDbEntity
  8
_U+30EC_U+30A4_U+30E4_U+30FC 1
 62
     7
420
 16777215
370
     9
  0
INSERT
  5
10C
330
1F
100
AcDbEntity
  8
_U+30EC_U+30A4_U+30E4_U+30FC 1
100
AcDbBlockReference
  2
block 6
 10
0.0
 20
0.0
 30
0.0
  0
POLYLINE
  5
11E
330
1F
100
AcDbEntity
  8
_U+30EC_U+30A4_U+30E4_U+30FC 1
 62
     7
420
 16777215
370
     9
100
AcDb2dPolyline
 66
     1
 10
0.0
 20
0.0
 30
0.0
  0
VERTEX
  5
11F
330
11E
100
AcDbEntity
  8
_U+30EC_U+30A4_U+30E4_U+30FC 1
 62
     7
420
 16777215
370
     9
100
AcDbVertex
100
AcDb2dVertex
 10
108.2948375149463
 20
-132.1707344114016
 30
0.0
  0
VERTEX
  5
120
330
11E
100
AcDbEntity
  8
_U+30EC_U+30A4_U+30E4_U+30FC 1
 62
     7
420
 16777215
370
     9
100
AcDbVertex
100
AcDb2dVertex
 10
108.2948375149463
 20
-138.6709471875547
 30
0.0
  0
SEQEND
  5
121
330
11E
100
AcDbEntity
  8
_U+30EC_U+30A4_U+30E4_U+30FC 1
 62
     7
420
 16777215
370
     9
  0
POLYLINE
  5
122
330
1F
100
AcDbEntity
  8
_U+30EC_U+30A4_U+30E4_U+30FC 1
 62
     7
420
 16777215
370
     9
100
AcDb2dPolyline
 66
     1
 10
0.0
 20
0.0
 30
0.0
  0
VERTEX
  5
123
330
122
100
AcDbEntity
  8
_U+30EC_U+30A4_U+30E4_U+30FC 1
 62
     7
420
 16777215
370
     9
100
AcDbVertex
100
AcDb2dVertex
 10
96.83439308510437
 20
-132.1707344114016
 30
0.0
  0
VERTEX
  5
124
330
122
100
AcDbEntity
  8
_U+30EC_U+30A4_U+30E4_U+30FC 1
 62
     7
420
 16777215
370
     9
100
AcDbVertex
100
AcDb2dVertex
 10
109.2946097116622
 20
-132.1707344114016
 30
0.0
  0
SEQEND
  5
125
330
122
100
AcDbEntity
  8
_U+30EC_U+30A4_U+30E4_U+30FC 1
 62
     7
420
 16777215
370
     9
  0
SPLINE
  5
126
330
1F
100
AcDbEntity
  8
_U+30EC_U+30A4_U+30E4_U+30FC 1
 62
     7
420
 16777215
370
     9
100
AcDbSpline
210
0.0
220
0.0
230
1.0
 70
    11
 71
     3
 72
    17
 73
    13
 74
     0
 42
0.0000000001
 43
0.0000000001
 12
1.0
 22
0.0
 32
0.0
 13
1.0
 23
0.0
 33
0.0
 40
0.0
 40
0.0
 40
0.0
 40
0.0
 40
1.0
 40
1.0
 40
1.0
 40
2.0
 40
2.0
 40
2.0
 40
3.0
 40
3.0
 40
3.0
 40
4.0
 40
4.0
 40
4.0
 40
4.0
 10
108.3947441790641
 20
-131.1709621894297
 30
0.0
 10
108.3947441790641
 20
-131.1158583005542
 30
0.0
 10
108.3499766802063
 20
-131.0710555227881
 30
0.0
 10
108.2948375149463
 20
-131.0710555227881
 30
0.0
 10
108.2397336274632
 20
-131.0710555227881
 30
0.0
 10
108.1949308508285
 20
-131.1158583005542
 30
0.0
 10
108.1949308508285
 20
-131.1709621894297
 30
0.0
 10
108.1949308508285
 20
-131.2261013560822
 30
0.0
 10
108.2397336274632
 20
-131.2708688560714
 30
0.0
 10
108.2948375149463
 20
-131.2708688560714
 30
0.0
 10
108.3499766802063
 20
-131.2708688560714
 30
0.0
 10
108.3947441790641
 20
-131.2261013560822
 30
0.0
 10
108.3947441790641
 20
-131.1709621894297
 30
0.0
  0
POLYLINE
  5
127
330
1F
100
AcDbEntity
  8
_U+30EC_U+30A4_U+30E4_U+30FC 1
 62
     7
420
 16777215
370
     9
100
AcDb2dPolyline
 66
     1
 10
0.0
 20
0.0
 30
0.0
  0
VERTEX
  5
128
330
127
100
AcDbEntity
  8
_U+30EC_U+30A4_U+30E4_U+30FC 1
 62
     7
420
 16777215
370
     9
100
AcDbVertex
100
AcDb2dVertex
 10
96.83439308510437
 20
-131.1709621894297
 30
0.0
  0
VERTEX
  5
129
330
127
100
AcDbEntity
  8
_U+30EC_U+30A4_U+30E4_U+30FC 1
 62
     7
420
 16777215
370
     9
100
AcDbVertex
100
AcDb2dVertex
 10
109.2946097116622
 20
-131.1709621894297
 30
0.0
  0
SEQEND
  5
12A
330
127
100
AcDbEntity
  8
_U+30EC_U+30A4_U+30E4_U+30FC 1
 62
     7
420
 16777215
370
     9
  0
POLYLINE
  5
12B
330
1F
100
AcDbEntity
  8
_U+30EC_U+30A4_U+30E4_U+30FC 1
 62
     7
420
 16777215
370
     9
100
AcDb2dPolyline
 66
     1
 10
0.0
 20
0.0
 30
0.0
  0
VERTEX
  5
12C
330
12B
100
AcDbEntity
  8
_U+30EC_U+30A4_U+30E4_U+30FC 1
 62
     7
420
 16777215
370
     9
100
AcDbVertex
100
AcDb2dVertex
 10
95.46117034236043
 20
-138.6709471875547
 30
0.0
  0
VERTEX
  5
12D
330
12B
100
AcDbEntity
  8
_U+30EC_U+30A4_U+30E4_U+30FC 1
 62
     7
420
 16777215
370
     9
100
AcDbVertex
100
AcDb2dVertex
 10
109.2946097116622
 20
-138.6709471875547
 30
0.0
  0
SEQEND
  5
12E
330
12B
100
AcDbEntity
  8
_U+30EC_U+30A4_U+30E4_U+30FC 1
 62
     7
420
 16777215
370
     9
  0
INSERT
  5
130
330
1F
100
AcDbEntity
  8
_U+30EC_U+30A4_U+30E4_U+30FC 1
100
AcDbBlockReference
  2
block 7
 10
0.0
 20
0.0
 30
0.0
  0
POLYLINE
  5
140
330
1F
100
AcDbEntity
  8
_U+30EC_U+30A4_U+30E4_U+30FC 1
 62
     7
420
 16777215
370
     9
100
AcDb2dPolyline
 66
     1
 10
0.0
 20
0.0
 30
0.0
  0
VERTEX
  5
141
330
140
100
AcDbEntity
  8
_U+30EC_U+30A4_U+30E4_U+30FC 1
 62
     7
420
 16777215
370
     9
100
AcDbVertex
100
AcDb2dVertex
 10
78.79002187878797
 20
-116.9938816374182
 30
0.0
  0
VERTEX
  5
142
330
140
100
AcDbEntity
  8
_U+30EC_U+30A4_U+30E4_U+30FC 1
 62
     7
420
 16777215
370
     9
100
AcDbVertex
100
AcDb2dVertex
 10
78.79002187878797
 20
-114.1842535825651
 30
0.0
  0
SEQEND
  5
143
330
140
100
AcDbEntity
  8
_U+30EC_U+30A4_U+30E4_U+30FC 1
 62
     7
420
 16777215
370
     9
  0
INSERT
  5
145
330
1F
100
AcDbEntity
  8
_U+30EC_U+30A4_U+30E4_U+30FC 1
100
AcDbBlockReference
  2
block 8
 10
0.0
 20
0.0
 30
0.0
  0
SPLINE
  5
14A
330
1F
100
AcDbEntity
  8
_U+30EC_U+30A4_U+30E4_U+30FC 1
 62
     7
420
 16777215
370
     9
100
AcDbSpline
210
0.0
220
0.0
230
1.0
 70
    11
 71
     3
 72
    17
 73
    13
 74
     0
 42
0.0000000001
 43
0.0000000001
 12
1.0
 22
0.0
 32
0.0
 13
1.0
 23
0.0
 33
0.0
 40
0.0
 40
0.0
 40
0.0
 40
0.0
 40
1.0
 40
1.0
 40
1.0
 40
2.0
 40
2.0
 40
2.0
 40
3.0
 40
3.0
 40
3.0
 40
4.0
 40
4.0
 40
4.0
 40
4.0
 10
78.89028331361084
 20
-115.1636705267646
 30
0.0
 10
78.89028331361084
 20
-115.1085666378897
 30
0.0
 10
78.84548053584412
 20
-115.0637638601229
 30
0.0
 10
78.79037465655675
 20
-115.0637638601229
 30
0.0
 10
78.73456521353611
 20
-115.0637638601229
 30
0.0
 10
78.68976243690136
 20
-115.1085666378897
 30
0.0
 10
78.68976243690136
 20
-115.1636705267646
 30
0.0
 10
78.68976243690136
 20
-115.2191624711951
 30
0.0
 10
78.73456521353611
 20
-115.263929971184
 30
0.0
 10
78.79037465655675
 20
-115.263929971184
 30
0.0
 10
78.84548053584412
 20
-115.263929971184
 30
0.0
 10
78.89028331361084
 20
-115.2191624711951
 30
0.0
 10
78.89028331361084
 20
-115.1636705267646
 30
0.0
  0
ENDSEC
  0
SECTION
  2
OBJECTS
  0
DICTIONARY
  5
C
330
0
100
AcDbDictionary
281
     1
  3
ACAD_GROUP
350
D
  3
ACAD_LAYOUT
350
1A
  3
ACAD_MATERIAL
350
3B
  3
ACAD_MLEADERSTYLE
350
14C
  3
ACAD_MLINESTYLE
350
17
  3
ACAD_PLOTSETTINGS
350
19
  3
ACAD_PLOTSTYLENAME
350
E
  3
ACAD_TABLESTYLE
350
14B
  3
ACAD_VISUALSTYLE
350
2A
  0
SUN
  5
3F
330
29
100
AcDbSun
 90
        1
290
     0
 63
     7
421
 16777215
 40
1.0
291
     1
 91
  2455826
 92
 54000000
292
     0
 70
     2
 71
   256
280
     1
  0
DICTIONARY
  5
D
102
{ACAD_REACTORS
330
C
102
}
330
C
100
AcDbDictionary
281
     1
  0
DICTIONARY
  5
1A
102
{ACAD_REACTORS
330
C
102
}
330
C
100
AcDbDictionary
281
     1
  3
Layout1
350
1E
  3
Layout2
350
26
  3
Model
350
22
  0
DICTIONARY
  5
3B
102
{ACAD_REACTORS
330
C
102
}
330
C
100
AcDbDictionary
281
     1
  3
ByBlock
350
3D
  3
ByLayer
350
3C
  3
Global
350
3E
  0
DICTIONARY
  5
14C
102
{ACAD_REACTORS
330
C
102
}
330
C
100
AcDbDictionary
281
     1
  0
DICTIONARY
  5
17
102
{ACAD_REACTORS
330
C
102
}
330
C
100
AcDbDictionary
281
     1
  3
Standard
350
18
  0
DICTIONARY
  5
19
102
{ACAD_REACTORS
330
C
102
}
330
C
100
AcDbDictionary
281
     1
  0
ACDBDICTIONARYWDFLT
  5
E
102
{ACAD_REACTORS
330
C
102
}
330
C
100
AcDbDictionary
281
     1
  3
Normal
350
F
100
AcDbDictionaryWithDefault
340
F
  0
DICTIONARY
  5
14B
102
{ACAD_REACTORS
330
C
102
}
330
C
100
AcDbDictionary
281
     1
  0
DICTIONARY
  5
2A
102
{ACAD_REACTORS
330
C
102
}
330
C
100
AcDbDictionary
281
     1
  3
2dWireframe
350
2F
  3
3D Hidden
350
31
  3
3dWireframe
350
30
  3
Basic
350
32
  3
Brighten
350
36
  3
ColorChange
350
3A
  3
Conceptual
350
34
  3
Dim
350
35
  3
Facepattern
350
39
  3
Flat
350
2B
  3
FlatWithEdges
350
2C
  3
Gouraud
350
2D
  3
GouraudWithEdges
350
2E
  3
Linepattern
350
38
  3
Realistic
350
33
  3
Thicken
350
37
  0
LAYOUT
  5
1E
102
{ACAD_REACTORS
330
1A
102
}
330
1A
100
AcDbPlotSettings
  1

  2
none_device
  4

  6

 40
0.0
 41
0.0
 42
0.0
 43
0.0
 44
0.0
 45
0.0
 46
0.0
 47
0.0
 48
0.0
 49
0.0
140
0.0
141
0.0
142
1.0
143
1.0
 70
   688
 72
     0
 73
     0
 74
     5
  7

 75
    16
 76
     0
 77
     2
 78
   300
147
1.0
148
0.0
149
0.0
100
AcDbLayout
  1
Layout1
 70
     1
 71
     1
 10
0.0
 20
0.0
 11
12.0
 21
9.0
 12
0.0
 22
0.0
 32
0.0
 14
1.000000000000000E+20
 24
1.000000000000000E+20
 34
1.000000000000000E+20
 15
-1.000000000000000E+20
 25
-1.000000000000000E+20
 35
-1.000000000000000E+20
146
0.0
 13
0.0
 23
0.0
 33
0.0
 16
1.0
 26
0.0
 36
0.0
 17
0.0
 27
1.0
 37
0.0
 76
     0
330
1B
  0
LAYOUT
  5
26
102
{ACAD_REACTORS
330
1A
102
}
330
1A
100
AcDbPlotSettings
  1

  2
none_device
  4

  6

 40
0.0
 41
0.0
 42
0.0
 43
0.0
 44
0.0
 45
0.0
 46
0.0
 47
0.0
 48
0.0
 49
0.0
140
0.0
141
0.0
142
1.0
143
1.0
 70
   688
 72
     0
 73
     0
 74
     5
  7

 75
    16
 76
     0
 77
     2
 78
   300
147
1.0
148
0.0
149
0.0
100
AcDbLayout
  1
Layout2
 70
     1
 71
     2
 10
0.0
 20
0.0
 11
0.0
 21
0.0
 12
0.0
 22
0.0
 32
0.0
 14
0.0
 24
0.0
 34
0.0
 15
0.0
 25
0.0
 35
0.0
146
0.0
 13
0.0
 23
0.0
 33
0.0
 16
1.0
 26
0.0
 36
0.0
 17
0.0
 27
1.0
 37
0.0
 76
     0
330
23
  0
LAYOUT
  5
22
102
{ACAD_REACTORS
330
1A
102
}
330
1A
100
AcDbPlotSettings
  1

  2
none_device
  4

  6

 40
0.0
 41
0.0
 42
0.0
 43
0.0
 44
0.0
 45
0.0
 46
0.0
 47
0.0
 48
0.0
 49
0.0
140
0.0
141
0.0
142
1.0
143
1.0
 70
  1712
 72
     0
 73
     0
 74
     0
  7

 75
     0
 76
     0
 77
     2
 78
   300
147
1.0
148
0.0
149
0.0
100
AcDbLayout
  1
Model
 70
     1
 71
     0
 10
0.0
 20
0.0
 11
12.0
 21
9.0
 12
0.0
 22
0.0
 32
0.0
 14
1.000000000000000E+20
 24
1.000000000000000E+20
 34
1.000000000000000E+20
 15
-1.000000000000000E+20
 25
-1.000000000000000E+20
 35
-1.000000000000000E+20
146
0.0
 13
0.0
 23
0.0
 33
0.0
 16
1.0
 26
0.0
 36
0.0
 17
0.0
 27
1.0
 37
0.0
 76
     0
330
1F
331
29
  0
MATERIAL
  5
3D
102
{ACAD_REACTORS
330
3B
102
}
330
3B
100
AcDbMaterial
  1
ByBlock
 72
     1
 94
      127
  0
MATERIAL
  5
3C
102
{ACAD_REACTORS
330
3B
102
}
330
3B
100
AcDbMaterial
  1
ByLayer
 72
     1
 94
      127
  0
MATERIAL
  5
3E
102
{ACAD_REACTORS
330
3B
102
}
330
3B
100
AcDbMaterial
  1
Global
 72
     1
 94
      127
  0
MLINESTYLE
  5
18
102
{ACAD_REACTORS
330
17
102
}
330
17
100
AcDbMlineStyle
  2
Standard
 70
     0
  3

 62
   256
 51
90.0
 52
90.0
 71
     2
 49
0.5
 62
   256
  6
BYLAYER
 49
-0.5
 62
   256
  6
BYLAYER
  0
ACDBPLACEHOLDER
  5
F
102
{ACAD_REACTORS
330
E
102
}
330
E
  0
VISUALSTYLE
  5
2F
102
{ACAD_REACTORS
330
2A
102
}
330
2A
100
AcDbVisualStyle
  2
2dWireframe
 70
     4
177
     2
291
     0
 71
     0
176
     1
 72
     2
176
     1
 73
     0
176
     1
 90
        0
176
     1
 40
-0.6
176
     1
 41
-30.0
176
     1
 62
     5
 63
     7
421
 16777215
176
     1
 74
     1
176
     1
 91
        4
176
     1
 64
     7
176
     1
 65
   257
176
     1
 75
     1
176
     1
175
     1
176
     1
 42
1.0
176
     1
 92
        0
176
     1
 66
   257
176
     1
 43
1.0
176
     1
 76
     1
176
     1
 77
     6
176
     1
 78
     2
176
     1
 67
     7
176
     1
 79
     5
176
     1
170
     0
176
     1
171
     0
176
     1
290
     0
176
     1
 93
        1
176
     1
 44
0.0
176
     1
173
     0
176
     1
  0
VISUALSTYLE
  5
31
102
{ACAD_REACTORS
330
2A
102
}
330
2A
100
AcDbVisualStyle
  2
3D Hidden
 70
     6
177
     2
291
     0
 71
     1
176
     1
 72
     2
176
     1
 73
     2
176
     1
 90
        0
176
     1
 40
-0.6
176
     1
 41
-30.0
176
     1
 62
     5
 63
     7
421
 16777215
176
     1
 74
     2
176
     1
 91
        2
176
     1
 64
     7
176
     1
 65
   257
176
     1
 75
     2
176
     1
175
     1
176
     1
 42
40.0
176
     1
 92
        0
176
     1
 66
   257
176
     1
 43
1.0
176
     1
 76
     1
176
     1
 77
     6
176
     1
 78
     2
176
     1
 67
     7
176
     1
 79
     3
176
     1
170
     0
176
     1
171
     0
176
     1
290
     0
176
     1
 93
        1
176
     1
 44
0.0
176
     1
173
     0
176
     1
  0
VISUALSTYLE
  5
30
102
{ACAD_REACTORS
330
2A
102
}
330
2A
100
AcDbVisualStyle
  2
3dWireframe
 70
     5
177
     2
291
     0
 71
     0
176
     1
 72
     2
176
     1
 73
     0
176
     1
 90
        0
176
     1
 40
-0.6
176
     1
 41
-30.0
176
     1
 62
     5
 63
     7
421
 16777215
176
     1
 74
     1
176
     1
 91
        4
176
     1
 64
     7
176
     1
 65
   257
176
     1
 75
     1
176
     1
175
     1
176
     1
 42
1.0
176
     1
 92
        0
176
     1
 66
   257
176
     1
 43
1.0
176
     1
 76
     1
176
     1
 77
     6
176
     1
 78
     2
176
     1
 67
     7
176
     1
 79
     5
176
     1
170
     0
176
     1
171
     0
176
     1
290
     0
176
     1
 93
        1
176
     1
 44
0.0
176
     1
173
     0
176
     1
  0
VISUALSTYLE
  5
32
102
{ACAD_REACTORS
330
2A
102
}
330
2A
100
AcDbVisualStyle
  2
Basic
 70
     7
177
     2
291
     1
 71
     1
176
     1
 72
     0
176
     1
 73
     1
176
     1
 90
        0
176
     1
 40
-0.6
176
     1
 41
-30.0
176
     1
 62
     5
 63
     7
421
 16777215
176
     1
 74
     0
176
     1
 91
        4
176
     1
 64
     7
176
     1
 65
   257
176
     1
 75
     1
176
     1
175
     1
176
     1
 42
1.0
176
     1
 92
        8
176
     1
 66
     7
176
     1
 43
1.0
176
     1
 76
     1
176
     1
 77
     6
176
     1
 78
     2
176
     1
 67
     7
176
     1
 79
     5
176
     1
170
     0
176
     1
171
     0
176
     1
290
     0
176
     1
 93
        1
176
     1
 44
0.0
176
     1
173
     0
176
     1
  0
VISUALSTYLE
  5
36
102
{ACAD_REACTORS
330
2A
102
}
330
2A
100
AcDbVisualStyle
  2
Brighten
 70
    12
177
     2
291
     1
 71
     2
176
     1
 72
     2
176
     1
 73
     0
176
     1
 90
        0
176
     1
 40
-0.6
176
     1
 41
-30.0
176
     1
 62
     5
 63
     7
421
 16777215
176
     1
 74
     1
176
     1
 91
        4
176
     1
 64
     7
176
     1
 65
   257
176
     1
 75
     1
176
     1
175
     1
176
     1
 42
1.0
176
     1
 92
        8
176
     1
 66
     7
176
     1
 43
1.0
176
     1
 76
     1
176
     1
 77
     6
176
     1
 78
     2
176
     1
 67
     7
176
     1
 79
     5
176
     1
170
     0
176
     1
171
     0
176
     1
290
     0
176
     1
 93
        1
176
     1
 44
50.0
176
     1
173
     0
176
     1
  0
VISUALSTYLE
  5
3A
102
{ACAD_REACTORS
330
2A
102
}
330
2A
100
AcDbVisualStyle
  2
ColorChange
 70
    16
177
     2
291
     1
 71
     2
176
     1
 72
     2
176
     1
 73
     3
176
     1
 90
        0
176
     1
 40
-0.6
176
     1
 41
-30.0
176
     1
 62
     5
 63
     8
421
  8421504
176
     1
 74
     1
176
     1
 91
        4
176
     1
 64
     7
176
     1
 65
   257
176
     1
 75
     1
176
     1
175
     1
176
     1
 42
1.0
176
     1
 92
        8
176
     1
 66
     8
424
  8421504
176
     1
 43
1.0
176
     1
 76
     1
176
     1
 77
     6
176
     1
 78
     2
176
     1
 67
     7
176
     1
 79
     5
176
     1
170
     0
176
     1
171
     0
176
     1
290
     0
176
     1
 93
        1
176
     1
 44
0.0
176
     1
173
     0
176
     1
  0
VISUALSTYLE
  5
34
102
{ACAD_REACTORS
330
2A
102
}
330
2A
100
AcDbVisualStyle
  2
Conceptual
 70
     9
177
     2
291
     0
 71
     3
176
     1
 72
     2
176
     1
 73
     0
176
     1
 90
        0
176
     1
 40
-0.6
176
     1
 41
-30.0
176
     1
 62
     5
 63
     7
421
 16777215
176
     1
 74
     2
176
     1
 91
        2
176
     1
 64
     7
176
     1
 65
   257
176
     1
 75
     1
176
     1
175
     1
176
     1
 42
40.0
176
     1
 92
        8
176
     1
 66
     7
176
     1
 43
1.0
176
     1
 76
     1
176
     1
 77
     6
176
     1
 78
     2
176
     1
 67
     7
176
     1
 79
     3
176
     1
170
     0
176
     1
171
     0
176
     1
290
     0
176
     1
 93
        1
176
     1
 44
0.0
176
     1
173
     0
176
     1
  0
VISUALSTYLE
  5
35
102
{ACAD_REACTORS
330
2A
102
}
330
2A
100
AcDbVisualStyle
  2
Dim
 70
    11
177
     2
291
     1
 71
     2
176
     1
 72
     2
176
     1
 73
     0
176
     1
 90
        0
176
     1
 40
-0.6
176
     1
 41
-30.0
176
     1
 62
     5
 63
     7
421
 16777215
176
     1
 74
     1
176
     1
 91
        4
176
     1
 64
     7
176
     1
 65
   257
176
     1
 75
     1
176
     1
175
     1
176
     1
 42
1.0
176
     1
 92
        8
176
     1
 66
     7
176
     1
 43
1.0
176
     1
 76
     1
176
     1
 77
     6
176
     1
 78
     2
176
     1
 67
     7
176
     1
 79
     5
176
     1
170
     0
176
     1
171
     0
176
     1
290
     0
176
     1
 93
        1
176
     1
 44
-50.0
176
     1
173
     0
176
     1
  0
VISUALSTYLE
  5
39
102
{ACAD_REACTORS
330
2A
102
}
330
2A
100
AcDbVisualStyle
  2
Facepattern
 70
    15
177
     2
291
     1
 71
     2
176
     1
 72
     2
176
     1
 73
     0
176
     1
 90
        0
176
     1
 40
-0.6
176
     1
 41
-30.0
176
     1
 62
     5
 63
     7
421
 16777215
176
     1
 74
     1
176
     1
 91
        4
176
     1
 64
     7
176
     1
 65
   257
176
     1
 75
     1
176
     1
175
     1
176
     1
 42
1.0
176
     1
 92
        8
176
     1
 66
     7
176
     1
 43
1.0
176
     1
 76
     1
176
     1
 77
     6
176
     1
 78
     2
176
     1
 67
     7
176
     1
 79
     5
176
     1
170
     0
176
     1
171
     0
176
     1
290
     0
176
     1
 93
        1
176
     1
 44
0.0
176
     1
173
     0
176
     1
  0
VISUALSTYLE
  5
2B
102
{ACAD_REACTORS
330
2A
102
}
330
2A
100
AcDbVisualStyle
  2
Flat
 70
     0
177
     2
291
     1
 71
     2
176
     1
 72
     1
176
     1
 73
     1
176
     1
 90
        2
176
     1
 40
-0.6
176
     1
 41
30.0
176
     1
 62
     5
 63
     7
421
 16777215
176
     1
 74
     0
176
     1
 91
        4
176
     1
 64
     7
176
     1
 65
   257
176
     1
 75
     1
176
     1
175
     1
176
     1
 42
1.0
176
     1
 92
        8
176
     1
 66
     7
176
     1
 43
1.0
176
     1
 76
     1
176
     1
 77
     6
176
     1
 78
     2
176
     1
 67
     7
176
     1
 79
     5
176
     1
170
     0
176
     1
171
     0
176
     1
290
     0
176
     1
 93
       13
176
     1
 44
0.0
176
     1
173
     0
176
     1
  0
VISUALSTYLE
  5
2C
102
{ACAD_REACTORS
330
2A
102
}
330
2A
100
AcDbVisualStyle
  2
FlatWithEdges
 70
     1
177
     2
291
     1
 71
     2
176
     1
 72
     1
176
     1
 73
     1
176
     1
 90
        2
176
     1
 40
-0.6
176
     1
 41
30.0
176
     1
 62
     5
 63
     7
421
 16777215
176
     1
 74
     1
176
     1
 91
        4
176
     1
 64
     7
176
     1
 65
   257
176
     1
 75
     1
176
     1
175
     1
176
     1
 42
1.0
176
     1
 92
        0
176
     1
 66
   257
176
     1
 43
1.0
176
     1
 76
     1
176
     1
 77
     6
176
     1
 78
     2
176
     1
 67
     7
176
     1
 79
     5
176
     1
170
     0
176
     1
171
     0
176
     1
290
     0
176
     1
 93
       13
176
     1
 44
0.0
176
     1
173
     0
176
     1
  0
VISUALSTYLE
  5
2D
102
{ACAD_REACTORS
330
2A
102
}
330
2A
100
AcDbVisualStyle
  2
Gouraud
 70
     2
177
     2
291
     1
 71
     2
176
     1
 72
     2
176
     1
 73
     1
176
     1
 90
        2
176
     1
 40
-0.6
176
     1
 41
30.0
176
     1
 62
     5
 63
     7
421
 16777215
176
     1
 74
     0
176
     1
 91
        4
176
     1
 64
     7
176
     1
 65
   257
176
     1
 75
     1
176
     1
175
     1
176
     1
 42
1.0
176
     1
 92
        0
176
     1
 66
     7
176
     1
 43
1.0
176
     1
 76
     1
176
     1
 77
     6
176
     1
 78
     2
176
     1
 67
     7
176
     1
 79
     5
176
     1
170
     0
176
     1
171
     0
176
     1
290
     0
176
     1
 93
       13
176
     1
 44
0.0
176
     1
173
     0
176
     1
  0
VISUALSTYLE
  5
2E
102
{ACAD_REACTORS
330
2A
102
}
330
2A
100
AcDbVisualStyle
  2
GouraudWithEdges
 70
     3
177
     2
291
     1
 71
     2
176
     1
 72
     2
176
     1
 73
     1
176
     1
 90
        2
176
     1
 40
-0.6
176
     1
 41
30.0
176
     1
 62
     5
 63
     7
421
 16777215
176
     1
 74
     1
176
     1
 91
        4
176
     1
 64
     7
176
     1
 65
   257
176
     1
 75
     1
176
     1
175
     1
176
     1
 42
1.0
176
     1
 92
        0
176
     1
 66
   257
176
     1
 43
1.0
176
     1
 76
     1
176
     1
 77
     6
176
     1
 78
     2
176
     1
 67
     7
176
     1
 79
     5
176
     1
170
     0
176
     1
171
     0
176
     1
290
     0
176
     1
 93
       13
176
     1
 44
0.0
176
     1
173
     0
176
     1
  0
VISUALSTYLE
  5
38
102
{ACAD_REACTORS
330
2A
102
}
330
2A
100
AcDbVisualStyle
  2
Linepattern
 70
    14
177
     2
291
     1
 71
     2
176
     1
 72
     2
176
     1
 73
     0
176
     1
 90
        0
176
     1
 40
-0.6
176
     1
 41
-30.0
176
     1
 62
     5
 63
     7
421
 16777215
176
     1
 74
     1
176
     1
 91
        4
176
     1
 64
     7
176
     1
 65
   257
176
     1
 75
     7
176
     1
175
     7
176
     1
 42
1.0
176
     1
 92
        8
176
     1
 66
     7
176
     1
 43
1.0
176
     1
 76
     1
176
     1
 77
     6
176
     1
 78
     2
176
     1
 67
     7
176
     1
 79
     5
176
     1
170
     0
176
     1
171
     0
176
     1
290
     0
176
     1
 93
        1
176
     1
 44
0.0
176
     1
173
     0
176
     1
  0
VISUALSTYLE
  5
33
102
{ACAD_REACTORS
330
2A
102
}
330
2A
100
AcDbVisualStyle
  2
Realistic
 70
     8
177
     2
291
     0
 71
     2
176
     1
 72
     2
176
     1
 73
     0
176
     1
 90
        0
176
     1
 40
-0.6
176
     1
 41
-30.0
176
     1
 62
     5
 63
     7
421
 16777215
176
     1
 74
     1
176
     1
 91
        0
176
     1
 64
     7
176
     1
 65
   257
176
     1
 75
     1
176
     1
175
     1
176
     1
 42
1.0
176
     1
 92
        8
176
     1
 66
     8
424
  7895160
176
     1
 43
1.0
176
     1
 76
     1
176
     1
 77
     6
176
     1
 78
     2
176
     1
 67
     7
176
     1
 79
     5
176
     1
170
     0
176
     1
171
     0
176
     1
290
     0
176
     1
 93
       13
176
     1
 44
0.0
176
     1
173
     0
176
     1
  0
VISUALSTYLE
  5
37
102
{ACAD_REACTORS
330
2A
102
}
330
2A
100
AcDbVisualStyle
  2
Thicken
 70
    13
177
     2
291
     1
 71
     2
176
     1
 72
     2
176
     1
 73
     0
176
     1
 90
        0
176
     1
 40
-0.6
176
     1
 41
-30.0
176
     1
 62
     5
 63
     7
421
 16777215
176
     1
 74
     1
176
     1
 91
        4
176
     1
 64
     7
176
     1
 65
   257
176
     1
 75
     1
176
     1
175
     1
176
     1
 42
1.0
176
     1
 92
       12
176
     1
 66
     7
176
     1
 43
1.0
176
     1
 76
     1
176
     1
 77
     6
176
     1
 78
     2
176
     1
 67
     7
176
     1
 79
     5
176
     1
170
     0
176
     1
171
     0
176
     1
290
     0
176
     1
 93
        1
176
     1
 44
0.0
176
     1
173
     0
176
     1
  0
ENDSEC
  0
EOF
