  0
SECTION
  2
HEADER
  9
$ACADVER
  1
AC1024
  9
$ACADMAINTVER
 70
     6
  9
$DWGCODEPAGE
  3
UNDEFINED
  9
$INSBASE
 10
0.0
 20
0.0
 30
0.0
  9
$EXTMIN
 10
1.000000000000000E+20
 20
1.000000000000000E+20
 30
1.000000000000000E+20
  9
$EXTMAX
 10
-1.000000000000000E+20
 20
-1.000000000000000E+20
 30
-1.000000000000000E+20
  9
$LIMMIN
 10
0.0
 20
0.0
  9
$LIMMAX
 10
12.0
 20
9.0
  9
$ORTHOMODE
 70
     0
  9
$REGENMODE
 70
     1
  9
$FILLMODE
 70
     1
  9
$QTEXTMODE
 70
     0
  9
$MIRRTEXT
 70
     1
  9
$LTSCALE
 40
1.0
  9
$ATTMODE
 70
     1
  9
$TEXTSIZE
 40
0.2
  9
$TRACEWID
 40
0.05
  9
$TEXTSTYLE
  7
Standard
  9
$CLAYER
  8
0
  9
$CELTYPE
  6
ByLayer
  9
$CECOLOR
 62
   256
  9
$CELTSCALE
 40
1.0
  9
$DISPSILH
 70
     0
  9
$DIMSCALE
 40
1.0
  9
$DIMASZ
 40
0.18
  9
$DIMEXO
 40
0.0625
  9
$DIMDLI
 40
0.38
  9
$DIMRND
 40
0.0
  9
$DIMDLE
 40
0.0
  9
$DIMEXE
 40
0.18
  9
$DIMTP
 40
0.0
  9
$DIMTM
 40
0.0
  9
$DIMTXT
 40
0.18
  9
$DIMCEN
 40
0.09
  9
$DIMTSZ
 40
0.0
  9
$DIMTOL
 70
     0
  9
$DIMLIM
 70
     0
  9
$DIMTIH
 70
     1
  9
$DIMTOH
 70
     1
  9
$DIMSE1
 70
     0
  9
$DIMSE2
 70
     0
  9
$DIMTAD
 70
     0
  9
$DIMZIN
 70
     0
  9
$DIMBLK
  1

  9
$DIMASO
 70
     1
  9
$DIMSHO
 70
     1
  9
$DIMPOST
  1

  9
$DIMAPOST
  1

  9
$DIMALT
 70
     0
  9
$DIMALTD
 70
     2
  9
$DIMALTF
 40
25.4
  9
$DIMLFAC
 40
1.0
  9
$DIMTOFL
 70
     0
  9
$DIMTVP
 40
0.0
  9
$DIMTIX
 70
     0
  9
$DIMSOXD
 70
     0
  9
$DIMSAH
 70
     0
  9
$DIMBLK1
  1

  9
$DIMBLK2
  1

  9
$DIMSTYLE
  2
Standard
  9
$DIMCLRD
 70
     0
  9
$DIMCLRE
 70
     0
  9
$DIMCLRT
 70
     0
  9
$DIMTFAC
 40
1.0
  9
$DIMGAP
 40
0.09
  9
$DIMJUST
 70
     0
  9
$DIMSD1
 70
     0
  9
$DIMSD2
 70
     0
  9
$DIMTOLJ
 70
     1
  9
$DIMTZIN
 70
     0
  9
$DIMALTZ
 70
     0
  9
$DIMALTTZ
 70
     0
  9
$DIMUPT
 70
     0
  9
$DIMDEC
 70
     4
  9
$DIMTDEC
 70
     4
  9
$DIMALTU
 70
     2
  9
$DIMALTTD
 70
     2
  9
$DIMTXSTY
  7
Standard
  9
$DIMAUNIT
 70
     0
  9
$DIMADEC
 70
     0
  9
$DIMALTRND
 40
0.0
  9
$DIMAZIN
 70
     0
  9
$DIMDSEP
 70
    46
  9
$DIMATFIT
 70
     3
  9
$DIMFRAC
 70
     0
  9
$DIMLDRBLK
  1

  9
$DIMLUNIT
 70
     2
  9
$DIMLWD
 70
    -2
  9
$DIMLWE
 70
    -2
  9
$DIMTMOVE
 70
     0
  9
$DIMFXL
 40
1.0
  9
$DIMFXLON
 70
     0
  9
$DIMJOGANG
 40
0.7853981633974483
  9
$DIMTFILL
 70
     0
  9
$DIMTFILLCLR
 70
     0
  9
$DIMARCSYM
 70
     0
  9
$DIMLTYPE
  6

  9
$DIMLTEX1
  6

  9
$DIMLTEX2
  6

  9
$DIMTXTDIRECTION
 70
     0
  9
$LUNITS
 70
     2
  9
$LUPREC
 70
     4
  9
$SKETCHINC
 40
0.1
  9
$FILLETRAD
 40
0.5
  9
$AUNITS
 70
     0
  9
$AUPREC
 70
     0
  9
$MENU
  1
.
  9
$ELEVATION
 40
0.0
  9
$PELEVATION
 40
0.0
  9
$THICKNESS
 40
0.0
  9
$LIMCHECK
 70
     0
  9
$CHAMFERA
 40
0.5
  9
$CHAMFERB
 40
0.5
  9
$CHAMFERC
 40
1.0
  9
$CHAMFERD
 40
0.0
  9
$SKPOLY
 70
     0
  9
$TDCREATE
 40
2457917.619965266
  9
$TDUCREATE
 40
2457917.244965278
  9
$TDUPDATE
 40
2457917.619965266
  9
$TDUUPDATE
 40
2457917.244965278
  9
$TDINDWG
 40
0.0000000116
  9
$TDUSRTIMER
 40
0.0000000116
  9
$USRTIMER
 70
     1
  9
$ANGBASE
 50
0.0
  9
$ANGDIR
 70
     0
  9
$PDMODE
 70
     0
  9
$PDSIZE
 40
0.0
  9
$PLINEWID
 40
0.0
  9
$SPLFRAME
 70
     0
  9
$SPLINETYPE
 70
     6
  9
$SPLINESEGS
 70
     8
  9
$HANDSEED
  5
162
  9
$SURFTAB1
 70
     6
  9
$SURFTAB2
 70
     6
  9
$SURFTYPE
 70
     6
  9
$SURFU
 70
     6
  9
$SURFV
 70
     6
  9
$UCSBASE
  2

  9
$UCSNAME
  2

  9
$UCSORG
 10
0.0
 20
0.0
 30
0.0
  9
$UCSXDIR
 10
1.0
 20
0.0
 30
0.0
  9
$UCSYDIR
 10
0.0
 20
1.0
 30
0.0
  9
$UCSORTHOREF
  2

  9
$UCSORTHOVIEW
 70
     0
  9
$UCSORGTOP
 10
0.0
 20
0.0
 30
0.0
  9
$UCSORGBOTTOM
 10
0.0
 20
0.0
 30
0.0
  9
$UCSORGLEFT
 10
0.0
 20
0.0
 30
0.0
  9
$UCSORGRIGHT
 10
0.0
 20
0.0
 30
0.0
  9
$UCSORGFRONT
 10
0.0
 20
0.0
 30
0.0
  9
$UCSORGBACK
 10
0.0
 20
0.0
 30
0.0
  9
$PUCSBASE
  2

  9
$PUCSNAME
  2

  9
$PUCSORG
 10
0.0
 20
0.0
 30
0.0
  9
$PUCSXDIR
 10
1.0
 20
0.0
 30
0.0
  9
$PUCSYDIR
 10
0.0
 20
1.0
 30
0.0
  9
$PUCSORTHOREF
  2

  9
$PUCSORTHOVIEW
 70
     0
  9
$PUCSORGTOP
 10
0.0
 20
0.0
 30
0.0
  9
$PUCSORGBOTTOM
 10
0.0
 20
0.0
 30
0.0
  9
$PUCSORGLEFT
 10
0.0
 20
0.0
 30
0.0
  9
$PUCSORGRIGHT
 10
0.0
 20
0.0
 30
0.0
  9
$PUCSORGFRONT
 10
0.0
 20
0.0
 30
0.0
  9
$PUCSORGBACK
 10
0.0
 20
0.0
 30
0.0
  9
$USERI1
 70
     0
  9
$USERI2
 70
     0
  9
$USERI3
 70
     0
  9
$USERI4
 70
     0
  9
$USERI5
 70
     0
  9
$USERR1
 40
0.0
  9
$USERR2
 40
0.0
  9
$USERR3
 40
0.0
  9
$USERR4
 40
0.0
  9
$USERR5
 40
0.0
  9
$WORLDVIEW
 70
     1
  9
$SHADEDGE
 70
     3
  9
$SHADEDIF
 70
    70
  9
$TILEMODE
 70
     1
  9
$MAXACTVP
 70
    64
  9
$PINSBASE
 10
0.0
 20
0.0
 30
0.0
  9
$PLIMCHECK
 70
     0
  9
$PEXTMIN
 10
1.000000000000000E+20
 20
1.000000000000000E+20
 30
1.000000000000000E+20
  9
$PEXTMAX
 10
-1.000000000000000E+20
 20
-1.000000000000000E+20
 30
-1.000000000000000E+20
  9
$PLIMMIN
 10
0.0
 20
0.0
  9
$PLIMMAX
 10
12.0
 20
9.0
  9
$UNITMODE
 70
     0
  9
$VISRETAIN
 70
     1
  9
$PLINEGEN
 70
     0
  9
$PSLTSCALE
 70
     1
  9
$TREEDEPTH
 70
  3020
  9
$CMLSTYLE
  2
Standard
  9
$CMLJUST
 70
     0
  9
$CMLSCALE
 40
1.0
  9
$PROXYGRAPHICS
 70
     1
  9
$MEASUREMENT
 70
     0
  9
$CELWEIGHT
370
    -1
  9
$ENDCAPS
280
     0
  9
$JOINSTYLE
280
     0
  9
$LWDISPLAY
290
     1
  9
$INSUNITS
 70
     1
  9
$HYPERLINKBASE
  1

  9
$STYLESHEET
  1

  9
$XEDIT
290
     1
  9
$CEPSNTYPE
380
     0
  9
$PSTYLEMODE
290
     1
  9
$FINGERPRINTGUID
  2
{6DF0870C-33D3-DDF1-ABCF-F8CDB3F9212F}
  9
$VERSIONGUID
  2
{FAEB1C32-E019-11D5-929B-00C0DF256EC4}
  9
$EXTNAMES
290
     1
  9
$PSVPSCALE
 40
0.0
  9
$OLESTARTUP
290
     0
  9
$SORTENTS
280
   127
  9
$INDEXCTL
280
     0
  9
$HIDETEXT
280
     1
  9
$XCLIPFRAME
280
     2
  9
$HALOGAP
280
     0
  9
$OBSCOLOR
 70
   257
  9
$OBSLTYPE
280
     0
  9
$INTERSECTIONDISPLAY
280
     0
  9
$INTERSECTIONCOLOR
 70
   257
  9
$DIMASSOC
280
     2
  9
$PROJECTNAME
  1

  9
$CAMERADISPLAY
290
     0
  9
$LENSLENGTH
 40
50.0
  9
$CAMERAHEIGHT
 40
0.0
  9
$STEPSPERSEC
 40
2.0
  9
$STEPSIZE
 40
6.0
  9
$3DDWFPREC
 40
2.0
  9
$PSOLWIDTH
 40
0.25
  9
$PSOLHEIGHT
 40
4.0
  9
$LOFTANG1
 40
1.570796326794897
  9
$LOFTANG2
 40
1.570796326794897
  9
$LOFTMAG1
 40
0.0
  9
$LOFTMAG2
 40
0.0
  9
$LOFTPARAM
 70
     7
  9
$LOFTNORMALS
280
     1
  9
$LATITUDE
 40
37.795
  9
$LONGITUDE
 40
-122.394
  9
$NORTHDIRECTION
 40
0.0
  9
$TIMEZONE
 70
 -8000
  9
$LIGHTGLYPHDISPLAY
280
     1
  9
$TILEMODELIGHTSYNCH
280
     1
  9
$CMATERIAL
347
3C
  9
$SOLIDHIST
280
     1
  9
$SHOWHIST
280
     1
  9
$DWFFRAME
280
     2
  9
$DGNFRAME
280
     2
  9
$REALWORLDSCALE
290
     1
  9
$INTERFERECOLOR
 62
   256
  9
$CSHADOW
280
     0
  9
$SHADOWPLANELOCATION
 40
0.0
  0
ENDSEC
  0
SECTION
  2
CLASSES
  0
CLASS
  1
ACDBDICTIONARYWDFLT
  2
AcDbDictionaryWithDefault
  3
ObjectDBX Classes
 90
        0
 91
        4
280
     0
281
     0
  0
CLASS
  1
VISUALSTYLE
  2
AcDbVisualStyle
  3
ObjectDBX Classes
 90
     4095
 91
        4
280
     0
281
     0
  0
CLASS
  1
MATERIAL
  2
AcDbMaterial
  3
ObjectDBX Classes
 90
     1153
 91
        4
280
     0
281
     0
  0
CLASS
  1
SUN
  2
AcDbSun
  3
SCENEOE
 90
     1024
 91
        4
280
     0
281
     0
  0
ENDSEC
  0
SECTION
  2
TABLES
  0
TABLE
  2
VPORT
  5
8
330
0
100
AcDbSymbolTable
 70
     1
  0
VPORT
  5
29
330
8
100
AcDbSymbolTableRecord
100
AcDbViewportTableRecord
  2
*Active
 70
     0
 10
0.0
 20
0.0
 11
1.0
 21
1.0
 12
0.0
 22
0.0
 13
0.0
 23
0.0
 14
0.5
 24
0.5
 15
0.5
 25
0.5
 16
0.0
 26
0.0
 36
1.0
 17
91.00082462281999
 27
-128.4993055234307
 37
0.0
 40
256.9986110468615
 41
0.7081814508812795
 42
50.0
 43
0.0
 44
0.0
 50
0.0
 51
0.0
 71
     0
 72
   100
 73
     1
 74
     3
 75
     0
 76
     0
 77
     0
 78
     0
281
     0
 65
     1
110
0.0
120
0.0
130
0.0
111
1.0
121
0.0
131
0.0
112
0.0
122
1.0
132
0.0
 79
     0
146
0.0
 60
     3
 61
     5
292
     1
282
     1
141
0.0
142
0.0
 63
   250
361
3F
  0
ENDTAB
  0
TABLE
  2
LTYPE
  5
5
330
0
100
AcDbSymbolTable
 70
     1
  0
LTYPE
  5
14
330
5
100
AcDbSymbolTableRecord
100
AcDbLinetypeTableRecord
  2
ByBlock
 70
     0
  3

 72
    65
 73
     0
 40
0.0
  0
LTYPE
  5
15
330
5
100
AcDbSymbolTableRecord
100
AcDbLinetypeTableRecord
  2
ByLayer
 70
     0
  3

 72
    65
 73
     0
 40
0.0
  0
LTYPE
  5
16
330
5
100
AcDbSymbolTableRecord
100
AcDbLinetypeTableRecord
  2
Continuous
 70
     0
  3
Solid line
 72
    65
 73
     0
 40
0.0
  0
ENDTAB
  0
TABLE
  2
LAYER
  5
2
330
0
100
AcDbSymbolTable
 70
     2
  0
LAYER
  5
10
330
2
100
AcDbSymbolTableRecord
100
AcDbLayerTableRecord
  2
0
 70
     0
 62
     7
  6
Continuous
370
    -3
390
F
347
3E
  0
LAYER
  5
40
330
2
100
AcDbSymbolTableRecord
100
AcDbLayerTableRecord
  2
_U+30EC_U+30A4_U+30E4_U+30FC 1
 70
     0
 62
     7
  6
Continuous
370
    -3
390
F
347
3E
  0
ENDTAB
  0
TABLE
  2
STYLE
  5
3
330
0
100
AcDbSymbolTable
 70
     1
  0
STYLE
  5
11
330
3
100
AcDbSymbolTableRecord
100
AcDbTextStyleTableRecord
  2
Standard
 70
     0
 40
0.0
 41
1.0
 50
0.0
 71
     0
 42
0.2
  3
txt
  4

  0
ENDTAB
  0
TABLE
  2
VIEW
  5
6
330
0
100
AcDbSymbolTable
 70
     0
  0
ENDTAB
  0
TABLE
  2
UCS
  5
7
330
0
100
AcDbSymbolTable
 70
     0
  0
ENDTAB
  0
TABLE
  2
APPID
  5
9
330
0
100
AcDbSymbolTable
 70
     1
  0
APPID
  5
12
330
9
100
AcDbSymbolTableRecord
100
AcDbRegAppTableRecord
  2
ACAD
 70
     0
  0
ENDTAB
  0
TABLE
  2
DIMSTYLE
  5
A
330
0
100
AcDbSymbolTable
 70
     1
100
AcDbDimStyleTable
  0
DIMSTYLE
105
27
330
A
100
AcDbSymbolTableRecord
100
AcDbDimStyleTableRecord
  2
Standard
 70
     0
178
     0
340
11
  0
ENDTAB
  0
TABLE
  2
BLOCK_RECORD
  5
1
330
0
100
AcDbSymbolTable
 70
     8
  0
BLOCK_RECORD
  5
1F
330
1
100
AcDbSymbolTableRecord
100
AcDbBlockTableRecord
  2
*Model_Space
340
22
 70
     0
280
     1
281
     0
  0
BLOCK_RECORD
  5
1B
330
1
100
AcDbSymbolTableRecord
100
AcDbBlockTableRecord
  2
*Paper_Space
340
1E
 70
     0
280
     1
281
     0
  0
BLOCK_RECORD
  5
23
330
1
100
AcDbSymbolTableRecord
100
AcDbBlockTableRecord
  2
*Paper_Space0
340
26
 70
     0
280
     1
281
     0
  0
BLOCK_RECORD
  5
AB
330
1
100
AcDbSymbolTableRecord
100
AcDbBlockTableRecord
  2
block 2
340
0
102
{BLKREFS
331
AC
102
}
 70
     0
280
     1
281
     0
  0
BLOCK_RECORD
  5
B9
330
1
100
AcDbSymbolTableRecord
100
AcDbBlockTableRecord
  2
block 3
340
0
102
{BLKREFS
331
BA
102
}
 70
     0
280
     1
281
     0
  0
BLOCK_RECORD
  5
CB
330
1
100
AcDbSymbolTableRecord
100
AcDbBlockTableRecord
  2
block 4
340
0
102
{BLKREFS
331
CC
102
}
 70
     0
280
     1
281
     0
  0
BLOCK_RECORD
  5
EF
330
1
100
AcDbSymbolTableRecord
100
AcDbBlockTableRecord
  2
block 5
340
0
102
{BLKREFS
331
F0
102
}
 70
     0
280
     1
281
     0
  0
BLOCK_RECORD
  5
110
330
1
100
AcDbSymbolTableRecord
100
AcDbBlockTableRecord
  2
block 6
340
0
102
{BLKREFS
331
111
102
}
 70
     0
280
     1
281
     0
  0
BLOCK_RECORD
  5
12C
330
1
100
AcDbSymbolTableRecord
100
AcDbBlockTableRecord
  2
block 7
340
0
102
{BLKREFS
331
12D
102
}
 70
     0
280
     1
281
     0
  0
BLOCK_RECORD
  5
159
330
1
100
AcDbSymbolTableRecord
100
AcDbBlockTableRecord
  2
block 8
340
0
102
{BLKREFS
331
15A
102
}
 70
     0
280
     1
281
     0
  0
ENDTAB
  0
ENDSEC
  0
SECTION
  2
BLOCKS
  0
BLOCK
  5
20
330
1F
100
AcDbEntity
  8
0
100
AcDbBlockBegin
  2
*Model_Space
 70
     0
 10
0.0
 20
0.0
 30
0.0
  3
*Model_Space
  1

  0
ENDBLK
  5
21
330
1F
100
AcDbEntity
  8
0
100
AcDbBlockEnd
  0
BLOCK
  5
1C
330
1B
100
AcDbEntity
 67
     1
  8
0
100
AcDbBlockBegin
  2
*Paper_Space
 70
     0
 10
0.0
 20
0.0
 30
0.0
  3
*Paper_Space
  1

  0
ENDBLK
  5
1D
330
1B
100
AcDbEntity
 67
     1
  8
0
100
AcDbBlockEnd
  0
BLOCK
  5
24
330
23
100
AcDbEntity
  8
0
100
AcDbBlockBegin
  2
*Paper_Space0
 70
     0
 10
0.0
 20
0.0
 30
0.0
  3
*Paper_Space0
  1

  0
ENDBLK
  5
25
330
23
100
AcDbEntity
  8
0
100
AcDbBlockEnd
  0
BLOCK
  5
AD
330
AB
100
AcDbEntity
  8
0
100
AcDbBlockBegin
  2
block 2
 70
     0
 10
0.0
 20
0.0
 30
0.0
  3
block 2
  1

  0
SPLINE
  5
AF
330
AB
100
AcDbEntity
  8
_U+30EC_U+30A4_U+30E4_U+30FC 1
370
     0
100
AcDbSpline
210
0.0
220
0.0
230
1.0
 70
    11
 71
     3
 72
    26
 73
    22
 74
     0
 42
0.0000000001
 43
0.0000000001
 12
1.0
 22
0.0
 32
0.0
 13
1.0
 23
0.0
 33
0.0
 40
0.0
 40
0.0
 40
0.0
 40
0.0
 40
1.0
 40
1.0
 40
1.0
 40
2.0
 40
2.0
 40
2.0
 40
3.0
 40
3.0
 40
3.0
 40
4.0
 40
4.0
 40
4.0
 40
5.0
 40
5.0
 40
5.0
 40
6.0
 40
6.0
 40
6.0
 40
7.0
 40
7.0
 40
7.0
 40
7.0
 10
90.42273218225543
 20
-114.8693020003625
 30
0.0
 10
90.42273218225543
 20
-114.8693020003625
 30
0.0
 10
90.16951766408957
 20
-114.8693020003625
 30
0.0
 10
90.16951766408957
 20
-114.8693020003625
 30
0.0
 10
90.19673391842305
 20
-114.5604491901099
 30
0.0
 10
90.40240611889246
 20
-114.0421345743541
 30
0.0
 10
90.83648815003394
 20
-113.5365668118936
 30
0.0
 10
90.83648815003394
 20
-113.5365668118936
 30
0.0
 10
89.94128008819176
 20
-113.5365668118936
 30
0.0
 10
89.94128008819176
 20
-113.5365668118936
 30
0.0
 10
89.94128008819176
 20
-113.5365668118936
 30
0.0
 10
89.94128008819176
 20
-113.3250379490993
 30
0.0
 10
89.94128008819176
 20
-113.3250379490993
 30
0.0
 10
89.94128008819176
 20
-113.3250379490993
 30
0.0
 10
91.0897026681998
 20
-113.3250379490993
 30
0.0
 10
91.0897026681998
 20
-113.3250379490993
 30
0.0
 10
91.0897026681998
 20
-113.3250379490993
 30
0.0
 10
91.0897026681998
 20
-113.5365668118936
 30
0.0
 10
91.0897026681998
 20
-113.5365668118936
 30
0.0
 10
90.74381508148072
 20
-113.8262993422032
 30
0.0
 10
90.45890568485055
 20
-114.4186835108919
 30
0.0
 10
90.42273218225543
 20
-114.8693020003625
 30
0.0
  0
HATCH
  5
B0
330
AB
100
AcDbEntity
  8
_U+30EC_U+30A4_U+30E4_U+30FC 1
 62
     7
420
 16777215
100
AcDbHatch
 10
0.0
 20
0.0
 30
0.0
210
0.0
220
0.0
230
1.0
  2
SOLID
 70
     1
 71
     0
 91
        1
 92
        1
 93
        1
 72
     4
 94
        3
 73
     0
 74
     1
 95
       26
 96
       22
 40
0.0
 40
0.0
 40
0.0
 40
0.0
 40
1.0
 40
1.0
 40
1.0
 40
2.0
 40
2.0
 40
2.0
 40
3.0
 40
3.0
 40
3.0
 40
4.0
 40
4.0
 40
4.0
 40
5.0
 40
5.0
 40
5.0
 40
6.0
 40
6.0
 40
6.0
 40
7.0
 40
7.0
 40
7.0
 40
7.0
 10
90.42273218225543
 20
-114.8693020003625
 10
90.42273218225543
 20
-114.8693020003625
 10
90.16951766408957
 20
-114.8693020003625
 10
90.16951766408957
 20
-114.8693020003625
 10
90.19673391842305
 20
-114.5604491901099
 10
90.40240611889246
 20
-114.0421345743541
 10
90.83648815003394
 20
-113.5365668118936
 10
90.83648815003394
 20
-113.5365668118936
 10
89.94128008819176
 20
-113.5365668118936
 10
89.94128008819176
 20
-113.5365668118936
 10
89.94128008819176
 20
-113.5365668118936
 10
89.94128008819176
 20
-113.3250379490993
 10
89.94128008819176
 20
-113.3250379490993
 10
89.94128008819176
 20
-113.3250379490993
 10
91.0897026681998
 20
-113.3250379490993
 10
91.0897026681998
 20
-113.3250379490993
 10
91.0897026681998
 20
-113.3250379490993
 10
91.0897026681998
 20
-113.5365668118936
 10
91.0897026681998
 20
-113.5365668118936
 10
90.74381508148072
 20
-113.8262993422032
 10
90.45890568485055
 20
-114.4186835108919
 10
90.42273218225543
 20
-114.8693020003625
 97
        0
 97
        0
 75
     2
 76
     1
 98
        0
  0
ENDBLK
  5
AE
330
AB
100
AcDbEntity
  8
0
100
AcDbBlockEnd
  0
BLOCK
  5
BB
330
B9
100
AcDbEntity
  8
0
100
AcDbBlockBegin
  2
block 3
 70
     0
 10
0.0
 20
0.0
 30
0.0
  3
block 3
  1

  0
SPLINE
  5
BD
330
B9
100
AcDbEntity
  8
_U+30EC_U+30A4_U+30E4_U+30FC 1
370
     0
100
AcDbSpline
210
0.0
220
0.0
230
1.0
 70
    11
 71
     3
 72
    26
 73
    22
 74
     0
 42
0.0000000001
 43
0.0000000001
 12
1.0
 22
0.0
 32
0.0
 13
1.0
 23
0.0
 33
0.0
 40
0.0
 40
0.0
 40
0.0
 40
0.0
 40
1.0
 40
1.0
 40
1.0
 40
2.0
 40
2.0
 40
2.0
 40
3.0
 40
3.0
 40
3.0
 40
4.0
 40
4.0
 40
4.0
 40
5.0
 40
5.0
 40
5.0
 40
6.0
 40
6.0
 40
6.0
 40
7.0
 40
7.0
 40
7.0
 40
7.0
 10
107.4973144262507
 20
-128.1368814783825
 30
0.0
 10
107.4973144262507
 20
-128.1368814783825
 30
0.0
 10
107.4973144262507
 20
-128.3900959965483
 30
0.0
 10
107.4973144262507
 20
-128.3900959965483
 30
0.0
 10
107.1882893612238
 20
-128.3628797422148
 30
0.0
 10
106.6701470002422
 20
-128.1572075417454
 30
0.0
 10
106.1644069830075
 20
-127.7231255106039
 30
0.0
 10
106.1644069830075
 20
-127.7231255106039
 30
0.0
 10
106.1644069830075
 20
-128.6183335724461
 30
0.0
 10
106.1644069830075
 20
-128.6183335724461
 30
0.0
 10
106.1644069830075
 20
-128.6183335724461
 30
0.0
 10
105.9528781202132
 20
-128.6183335724461
 30
0.0
 10
105.9528781202132
 20
-128.6183335724461
 30
0.0
 10
105.9528781202132
 20
-128.6183335724461
 30
0.0
 10
105.9528781202132
 20
-127.4699109924381
 30
0.0
 10
105.9528781202132
 20
-127.4699109924381
 30
0.0
 10
105.9528781202132
 20
-127.4699109924381
 30
0.0
 10
106.1644069830075
 20
-127.4699109924381
 30
0.0
 10
106.1644069830075
 20
-127.4699109924381
 30
0.0
 10
106.4544840228656
 20
-127.8157985791572
 30
0.0
 10
107.04669593678
 20
-128.1007079757873
 30
0.0
 10
107.4973144262507
 20
-128.1368814783825
 30
0.0
  0
HATCH
  5
BE
330
B9
100
AcDbEntity
  8
_U+30EC_U+30A4_U+30E4_U+30FC 1
 62
     7
420
 16777215
100
AcDbHatch
 10
0.0
 20
0.0
 30
0.0
210
0.0
220
0.0
230
1.0
  2
SOLID
 70
     1
 71
     0
 91
        1
 92
        1
 93
        1
 72
     4
 94
        3
 73
     0
 74
     1
 95
       26
 96
       22
 40
0.0
 40
0.0
 40
0.0
 40
0.0
 40
1.0
 40
1.0
 40
1.0
 40
2.0
 40
2.0
 40
2.0
 40
3.0
 40
3.0
 40
3.0
 40
4.0
 40
4.0
 40
4.0
 40
5.0
 40
5.0
 40
5.0
 40
6.0
 40
6.0
 40
6.0
 40
7.0
 40
7.0
 40
7.0
 40
7.0
 10
107.4973144262507
 20
-128.1368814783825
 10
107.4973144262507
 20
-128.1368814783825
 10
107.4973144262507
 20
-128.3900959965483
 10
107.4973144262507
 20
-128.3900959965483
 10
107.1882893612238
 20
-128.3628797422148
 10
106.6701470002422
 20
-128.1572075417454
 10
106.1644069830075
 20
-127.7231255106039
 10
106.1644069830075
 20
-127.7231255106039
 10
106.1644069830075
 20
-128.6183335724461
 10
106.1644069830075
 20
-128.6183335724461
 10
106.1644069830075
 20
-128.6183335724461
 10
105.9528781202132
 20
-128.6183335724461
 10
105.9528781202132
 20
-128.6183335724461
 10
105.9528781202132
 20
-128.6183335724461
 10
105.9528781202132
 20
-127.4699109924381
 10
105.9528781202132
 20
-127.4699109924381
 10
105.9528781202132
 20
-127.4699109924381
 10
106.1644069830075
 20
-127.4699109924381
 10
106.1644069830075
 20
-127.4699109924381
 10
106.4544840228656
 20
-127.8157985791572
 10
107.04669593678
 20
-128.1007079757873
 10
107.4973144262507
 20
-128.1368814783825
 97
        0
 97
        0
 75
     2
 76
     1
 98
        0
  0
ENDBLK
  5
BC
330
B9
100
AcDbEntity
  8
0
100
AcDbBlockEnd
  0
BLOCK
  5
CD
330
CB
100
AcDbEntity
  8
0
100
AcDbBlockBegin
  2
block 4
 70
     0
 10
0.0
 20
0.0
 30
0.0
  3
block 4
  1

  0
SPLINE
  5
CF
330
CB
100
AcDbEntity
  8
_U+30EC_U+30A4_U+30E4_U+30FC 1
370
     0
100
AcDbSpline
210
0.0
220
0.0
230
1.0
 70
    11
 71
     3
 72
    26
 73
    22
 74
     0
 42
0.0000000001
 43
0.0000000001
 12
1.0
 22
0.0
 32
0.0
 13
1.0
 23
0.0
 33
0.0
 40
0.0
 40
0.0
 40
0.0
 40
0.0
 40
1.0
 40
1.0
 40
1.0
 40
2.0
 40
2.0
 40
2.0
 40
3.0
 40
3.0
 40
3.0
 40
4.0
 40
4.0
 40
4.0
 40
5.0
 40
5.0
 40
5.0
 40
6.0
 40
6.0
 40
6.0
 40
7.0
 40
7.0
 40
7.0
 40
7.0
 10
74.99714489227502
 20
-130.5601616427072
 30
0.0
 10
74.99714489227502
 20
-130.5601616427072
 30
0.0
 10
73.89281953447819
 20
-130.5601616427072
 30
0.0
 10
73.89281953447819
 20
-130.5601616427072
 30
0.0
 10
73.89281953447819
 20
-130.5601616427072
 30
0.0
 10
73.89281953447819
 20
-130.9125949108482
 30
0.0
 10
73.89281953447819
 20
-130.9125949108482
 30
0.0
 10
73.89281953447819
 20
-130.9125949108482
 30
0.0
 10
73.74468042861244
 20
-130.9125949108482
 30
0.0
 10
73.74468042861244
 20
-130.9125949108482
 30
0.0
 10
73.73003877280013
 20
-130.5577500758675
 30
0.0
 10
73.56708575634782
 20
-130.5081407008799
 30
0.0
 10
73.45288084101178
 20
-130.4764458224156
 30
0.0
 10
73.45288084101178
 20
-130.4764458224156
 30
0.0
 10
73.45288084101178
 20
-130.3203829969338
 30
0.0
 10
73.45288084101178
 20
-130.3203829969338
 30
0.0
 10
73.45288084101178
 20
-130.3203829969338
 30
0.0
 10
74.99714489227502
 20
-130.3203829969338
 30
0.0
 10
74.99714489227502
 20
-130.3203829969338
 30
0.0
 10
74.99714489227502
 20
-130.3203829969338
 30
0.0
 10
74.99714489227502
 20
-130.5601616427072
 30
0.0
 10
74.99714489227502
 20
-130.5601616427072
 30
0.0
  0
HATCH
  5
D0
330
CB
100
AcDbEntity
  8
_U+30EC_U+30A4_U+30E4_U+30FC 1
 62
     7
420
 16777215
100
AcDbHatch
 10
0.0
 20
0.0
 30
0.0
210
0.0
220
0.0
230
1.0
  2
SOLID
 70
     1
 71
     0
 91
        1
 92
        1
 93
        1
 72
     4
 94
        3
 73
     0
 74
     1
 95
       26
 96
       22
 40
0.0
 40
0.0
 40
0.0
 40
0.0
 40
1.0
 40
1.0
 40
1.0
 40
2.0
 40
2.0
 40
2.0
 40
3.0
 40
3.0
 40
3.0
 40
4.0
 40
4.0
 40
4.0
 40
5.0
 40
5.0
 40
5.0
 40
6.0
 40
6.0
 40
6.0
 40
7.0
 40
7.0
 40
7.0
 40
7.0
 10
74.99714489227502
 20
-130.5601616427072
 10
74.99714489227502
 20
-130.5601616427072
 10
73.89281953447819
 20
-130.5601616427072
 10
73.89281953447819
 20
-130.5601616427072
 10
73.89281953447819
 20
-130.5601616427072
 10
73.89281953447819
 20
-130.9125949108482
 10
73.89281953447819
 20
-130.9125949108482
 10
73.89281953447819
 20
-130.9125949108482
 10
73.74468042861244
 20
-130.9125949108482
 10
73.74468042861244
 20
-130.9125949108482
 10
73.73003877280013
 20
-130.5577500758675
 10
73.56708575634782
 20
-130.5081407008799
 10
73.45288084101178
 20
-130.4764458224156
 10
73.45288084101178
 20
-130.4764458224156
 10
73.45288084101178
 20
-130.3203829969338
 10
73.45288084101178
 20
-130.3203829969338
 10
73.45288084101178
 20
-130.3203829969338
 10
74.99714489227502
 20
-130.3203829969338
 10
74.99714489227502
 20
-130.3203829969338
 10
74.99714489227502
 20
-130.3203829969338
 10
74.99714489227502
 20
-130.5601616427072
 10
74.99714489227502
 20
-130.5601616427072
 97
        0
 97
        0
 75
     2
 76
     1
 98
        0
  0
SPLINE
  5
D1
330
CB
100
AcDbEntity
  8
_U+30EC_U+30A4_U+30E4_U+30FC 1
370
     0
100
AcDbSpline
210
0.0
220
0.0
230
1.0
 70
    11
 71
     3
 72
    32
 73
    28
 74
     0
 42
0.0000000001
 43
0.0000000001
 12
1.0
 22
0.0
 32
0.0
 13
1.0
 23
0.0
 33
0.0
 40
0.0
 40
0.0
 40
0.0
 40
0.0
 40
1.0
 40
1.0
 40
1.0
 40
2.0
 40
2.0
 40
2.0
 40
3.0
 40
3.0
 40
3.0
 40
4.0
 40
4.0
 40
4.0
 40
5.0
 40
5.0
 40
5.0
 40
6.0
 40
6.0
 40
6.0
 40
7.0
 40
7.0
 40
7.0
 40
8.0
 40
8.0
 40
8.0
 40
9.0
 40
9.0
 40
9.0
 40
9.0
 10
75.04796005068246
 20
-129.295467090072
 30
0.0
 10
75.04796005068246
 20
-129.4808132271784
 30
0.0
 10
74.9780246123319
 20
-129.7429849936059
 30
0.0
 10
74.6459174075538
 20
-129.7836371203319
 30
0.0
 10
74.6459174075538
 20
-129.7836371203319
 30
0.0
 10
74.6459174075538
 20
-129.5555717992083
 30
0.0
 10
74.6459174075538
 20
-129.5555717992083
 30
0.0
 10
74.7051730499001
 20
-129.544202984107
 30
0.0
 10
74.85331215576585
 20
-129.510096538803
 30
0.0
 10
74.85331215576585
 20
-129.2930555232323
 30
0.0
 10
74.85331215576585
 20
-128.9812743818172
 30
0.0
 10
74.52327200827891
 20
-128.9406222550912
 30
0.0
 10
74.31811657213228
 20
-128.9268418731502
 30
0.0
 10
74.3983872969386
 20
-129.0239935658343
 30
0.0
 10
74.45557588199375
 20
-129.0963405710245
 30
0.0
 10
74.45557588199375
 20
-129.2909884659412
 30
0.0
 10
74.45557588199375
 20
-129.4832247940181
 30
0.0
 10
74.34981145059658
 20
-129.8063747505345
 30
0.0
 10
73.94363469288562
 20
-129.8063747505345
 30
0.0
 10
73.6241020866287
 20
-129.8063747505345
 30
0.0
 10
73.4041327398955
 20
-129.5938123590946
 30
0.0
 10
73.4041327398955
 20
-129.254814963346
 30
0.0
 10
73.4041327398955
 20
-128.7053222334487
 30
0.0
 10
73.95844860347219
 20
-128.6939534183473
 30
0.0
 10
74.17204452355769
 20
-128.6939534183473
 30
0.0
 10
74.40269366629516
 20
-128.6939534183473
 30
0.0
 10
75.04796005068246
 20
-128.7142794817103
 30
0.0
 10
75.04796005068246
 20
-129.295467090072
 30
0.0
  0
SPLINE
  5
D2
330
CB
100
AcDbEntity
  8
_U+30EC_U+30A4_U+30E4_U+30FC 1
370
     0
100
AcDbSpline
210
0.0
220
0.0
230
1.0
 70
    11
 71
     3
 72
    17
 73
    13
 74
     0
 42
0.0000000001
 43
0.0000000001
 12
1.0
 22
0.0
 32
0.0
 13
1.0
 23
0.0
 33
0.0
 40
0.0
 40
0.0
 40
0.0
 40
0.0
 40
1.0
 40
1.0
 40
1.0
 40
2.0
 40
2.0
 40
2.0
 40
3.0
 40
3.0
 40
3.0
 40
4.0
 40
4.0
 40
4.0
 40
4.0
 10
73.59671357752096
 20
-129.2524033965063
 30
0.0
 10
73.59671357752096
 20
-129.3791829103635
 30
0.0
 10
73.65372990780185
 20
-129.5665961047611
 30
0.0
 10
73.93932832352905
 20
-129.5665961047611
 30
0.0
 10
74.16567109690997
 20
-129.5665961047611
 30
0.0
 10
74.26092798707714
 20
-129.4174234702498
 30
0.0
 10
74.26092798707714
 20
-129.2727294598693
 30
0.0
 10
74.26092798707714
 20
-128.99229868737
 30
0.0
 10
74.05146618157394
 20
-128.951646560644
 30
0.0
 10
73.93519420894675
 20
-128.951646560644
 30
0.0
 10
73.75949433919902
 20
-128.951646560644
 30
0.0
 10
73.59671357752096
 20
-129.0536213870074
 30
0.0
 10
73.59671357752096
 20
-129.2524033965063
 30
0.0
  0
HATCH
  5
D3
330
CB
100
AcDbEntity
  8
_U+30EC_U+30A4_U+30E4_U+30FC 1
 62
     7
420
 16777215
100
AcDbHatch
 10
0.0
 20
0.0
 30
0.0
210
0.0
220
0.0
230
1.0
  2
SOLID
 70
     1
 71
     0
 91
        2
 92
        1
 93
        1
 72
     4
 94
        3
 73
     0
 74
     1
 95
       32
 96
       28
 40
0.0
 40
0.0
 40
0.0
 40
0.0
 40
1.0
 40
1.0
 40
1.0
 40
2.0
 40
2.0
 40
2.0
 40
3.0
 40
3.0
 40
3.0
 40
4.0
 40
4.0
 40
4.0
 40
5.0
 40
5.0
 40
5.0
 40
6.0
 40
6.0
 40
6.0
 40
7.0
 40
7.0
 40
7.0
 40
8.0
 40
8.0
 40
8.0
 40
9.0
 40
9.0
 40
9.0
 40
9.0
 10
75.04796005068246
 20
-129.295467090072
 10
75.04796005068246
 20
-129.4808132271784
 10
74.9780246123319
 20
-129.7429849936059
 10
74.6459174075538
 20
-129.7836371203319
 10
74.6459174075538
 20
-129.7836371203319
 10
74.6459174075538
 20
-129.5555717992083
 10
74.6459174075538
 20
-129.5555717992083
 10
74.7051730499001
 20
-129.544202984107
 10
74.85331215576585
 20
-129.510096538803
 10
74.85331215576585
 20
-129.2930555232323
 10
74.85331215576585
 20
-128.9812743818172
 10
74.52327200827891
 20
-128.9406222550912
 10
74.31811657213228
 20
-128.9268418731502
 10
74.3983872969386
 20
-129.0239935658343
 10
74.45557588199375
 20
-129.0963405710245
 10
74.45557588199375
 20
-129.2909884659412
 10
74.45557588199375
 20
-129.4832247940181
 10
74.34981145059658
 20
-129.8063747505345
 10
73.94363469288562
 20
-129.8063747505345
 10
73.6241020866287
 20
-129.8063747505345
 10
73.4041327398955
 20
-129.5938123590946
 10
73.4041327398955
 20
-129.254814963346
 10
73.4041327398955
 20
-128.7053222334487
 10
73.95844860347219
 20
-128.6939534183473
 10
74.17204452355769
 20
-128.6939534183473
 10
74.40269366629516
 20
-128.6939534183473
 10
75.04796005068246
 20
-128.7142794817103
 10
75.04796005068246
 20
-129.295467090072
 97
        0
 97
        0
 92
        1
 93
        1
 72
     4
 94
        3
 73
     0
 74
     1
 95
       17
 96
       13
 40
0.0
 40
0.0
 40
0.0
 40
0.0
 40
1.0
 40
1.0
 40
1.0
 40
2.0
 40
2.0
 40
2.0
 40
3.0
 40
3.0
 40
3.0
 40
4.0
 40
4.0
 40
4.0
 40
4.0
 10
73.59671357752096
 20
-129.2524033965063
 10
73.59671357752096
 20
-129.3791829103635
 10
73.65372990780185
 20
-129.5665961047611
 10
73.93932832352905
 20
-129.5665961047611
 10
74.16567109690997
 20
-129.5665961047611
 10
74.26092798707714
 20
-129.4174234702498
 10
74.26092798707714
 20
-129.2727294598693
 10
74.26092798707714
 20
-128.99229868737
 10
74.05146618157394
 20
-128.951646560644
 10
73.93519420894675
 20
-128.951646560644
 10
73.75949433919902
 20
-128.951646560644
 10
73.59671357752096
 20
-129.0536213870074
 10
73.59671357752096
 20
-129.2524033965063
 97
        0
 97
        0
 75
     2
 76
     1
 98
        0
  0
POLYLINE
  5
D4
330
CB
100
AcDbEntity
  8
_U+30EC_U+30A4_U+30E4_U+30FC 1
370
     0
100
AcDb2dPolyline
 66
     1
 10
0.0
 20
0.0
 30
0.0
  0
VERTEX
  5
D5
330
D4
100
AcDbEntity
  8
_U+30EC_U+30A4_U+30E4_U+30FC 1
370
     0
100
AcDbVertex
100
AcDb2dVertex
 10
74.99714489227502
 20
-128.4627875112871
 30
0.0
  0
VERTEX
  5
D6
330
D4
100
AcDbEntity
  8
_U+30EC_U+30A4_U+30E4_U+30FC 1
370
     0
100
AcDbVertex
100
AcDb2dVertex
 10
74.74548066707752
 20
-128.4627875112871
 30
0.0
  0
VERTEX
  5
D7
330
D4
100
AcDbEntity
  8
_U+30EC_U+30A4_U+30E4_U+30FC 1
370
     0
100
AcDbVertex
100
AcDb2dVertex
 10
74.74548066707752
 20
-128.1937255538891
 30
0.0
  0
VERTEX
  5
D8
330
D4
100
AcDbEntity
  8
_U+30EC_U+30A4_U+30E4_U+30FC 1
370
     0
100
AcDbVertex
100
AcDb2dVertex
 10
74.99714489227502
 20
-128.1937255538891
 30
0.0
  0
VERTEX
  5
D9
330
D4
100
AcDbEntity
  8
_U+30EC_U+30A4_U+30E4_U+30FC 1
370
     0
100
AcDbVertex
100
AcDb2dVertex
 10
74.99714489227502
 20
-128.4627875112871
 30
0.0
  0
SEQEND
  5
DA
330
D4
100
AcDbEntity
  8
_U+30EC_U+30A4_U+30E4_U+30FC 1
370
     0
  0
HATCH
  5
DB
330
CB
100
AcDbEntity
  8
_U+30EC_U+30A4_U+30E4_U+30FC 1
 62
     7
420
 16777215
100
AcDbHatch
 10
0.0
 20
0.0
 30
0.0
210
0.0
220
0.0
230
1.0
  2
SOLID
 70
     1
 71
     0
 91
        1
 92
        1
 93
        4
 72
     1
 10
74.99714489227502
 20
-128.4627875112871
 11
74.74548066707752
 21
-128.4627875112871
 72
     1
 10
74.74548066707752
 20
-128.4627875112871
 11
74.74548066707752
 21
-128.1937255538891
 72
     1
 10
74.74548066707752
 20
-128.1937255538891
 11
74.99714489227502
 21
-128.1937255538891
 72
     1
 10
74.99714489227502
 20
-128.1937255538891
 11
74.99714489227502
 21
-128.4627875112871
 97
        0
 75
     2
 76
     1
 98
        0
  0
SPLINE
  5
DC
330
CB
100
AcDbEntity
  8
_U+30EC_U+30A4_U+30E4_U+30FC 1
370
     0
100
AcDbSpline
210
0.0
220
0.0
230
1.0
 70
    11
 71
     3
 72
    53
 73
    49
 74
     0
 42
0.0000000001
 43
0.0000000001
 12
1.0
 22
0.0
 32
0.0
 13
1.0
 23
0.0
 33
0.0
 40
0.0
 40
0.0
 40
0.0
 40
0.0
 40
1.0
 40
1.0
 40
1.0
 40
2.0
 40
2.0
 40
2.0
 40
3.0
 40
3.0
 40
3.0
 40
4.0
 40
4.0
 40
4.0
 40
5.0
 40
5.0
 40
5.0
 40
6.0
 40
6.0
 40
6.0
 40
7.0
 40
7.0
 40
7.0
 40
8.0
 40
8.0
 40
8.0
 40
9.0
 40
9.0
 40
9.0
 40
10.0
 40
10.0
 40
10.0
 40
11.0
 40
11.0
 40
11.0
 40
12.0
 40
12.0
 40
12.0
 40
13.0
 40
13.0
 40
13.0
 40
14.0
 40
14.0
 40
14.0
 40
15.0
 40
15.0
 40
15.0
 40
16.0
 40
16.0
 40
16.0
 40
16.0
 10
75.04796005068246
 20
-127.4270195536467
 30
0.0
 10
75.04796005068246
 20
-127.5107353739383
 30
0.0
 10
75.03107908280474
 20
-127.6192558817237
 30
0.0
 10
74.96751707110188
 20
-127.727776389509
 30
0.0
 10
74.85744627034815
 20
-127.9132947813897
 30
0.0
 10
74.72636038713439
 20
-127.9356879020439
 30
0.0
 10
74.61852889844607
 20
-127.9560139654068
 30
0.0
 10
74.61852889844607
 20
-127.9560139654068
 30
0.0
 10
74.61852889844607
 20
-127.7186468864731
 30
0.0
 10
74.61852889844607
 20
-127.7186468864731
 30
0.0
 10
74.81731090794499
 20
-127.6599080084496
 30
0.0
 10
74.84693872911814
 20
-127.524343501105
 30
0.0
 10
74.84693872911814
 20
-127.4247802415813
 30
0.0
 10
74.84693872911814
 20
-127.27560760707
 30
0.0
 10
74.74754772436867
 20
-127.1128268453919
 30
0.0
 10
74.51483152434004
 20
-127.1128268453919
 30
0.0
 10
74.25886092978598
 20
-127.1128268453919
 30
0.0
 10
74.18909774620967
 20
-127.3050631734689
 30
0.0
 10
74.18909774620967
 20
-127.4339097446172
 30
0.0
 10
74.18909774620967
 20
-127.4678439351469
 30
0.0
 10
74.18909774620967
 20
-127.6192558817237
 30
0.0
 10
74.31811657213228
 20
-127.7141682623423
 30
0.0
 10
74.31811657213228
 20
-127.7141682623423
 30
0.0
 10
74.29899629218914
 20
-127.9019259662884
 30
0.0
 10
74.29899629218914
 20
-127.9019259662884
 30
0.0
 10
74.29899629218914
 20
-127.9019259662884
 30
0.0
 10
73.45288084101178
 20
-127.7730793951401
 30
0.0
 10
73.45288084101178
 20
-127.7730793951401
 30
0.0
 10
73.45288084101178
 20
-127.7730793951401
 30
0.0
 10
73.45288084101178
 20
-126.9410888354522
 30
0.0
 10
73.45288084101178
 20
-126.9410888354522
 30
0.0
 10
73.45288084101178
 20
-126.9410888354522
 30
0.0
 10
73.6475287359284
 20
-126.9410888354522
 30
0.0
 10
73.6475287359284
 20
-126.9410888354522
 30
0.0
 10
73.6475287359284
 20
-126.9410888354522
 30
0.0
 10
73.6475287359284
 20
-127.5989298183607
 30
0.0
 10
73.6475287359284
 20
-127.5989298183607
 30
0.0
 10
73.6475287359284
 20
-127.5989298183607
 30
0.0
 10
74.07058646151708
 20
-127.6690375114855
 30
0.0
 10
74.07058646151708
 20
-127.6690375114855
 30
0.0
 10
74.03665227098737
 20
-127.6034084424915
 30
0.0
 10
73.99651690858421
 20
-127.5152139980691
 30
0.0
 10
73.99651690858421
 20
-127.3886067389862
 30
0.0
 10
73.99651690858421
 20
-127.1173054695228
 30
0.0
 10
74.18272431956196
 20
-126.8640909513569
 30
0.0
 10
74.49571124439692
 20
-126.8640909513569
 30
0.0
 10
74.81317679336269
 20
-126.8640909513569
 30
0.0
 10
75.04796005068246
 20
-127.103697342356
 30
0.0
 10
75.04796005068246
 20
-127.4270195536467
 30
0.0
  0
HATCH
  5
DD
330
CB
100
AcDbEntity
  8
_U+30EC_U+30A4_U+30E4_U+30FC 1
 62
     7
420
 16777215
100
AcDbHatch
 10
0.0
 20
0.0
 30
0.0
210
0.0
220
0.0
230
1.0
  2
SOLID
 70
     1
 71
     0
 91
        1
 92
        1
 93
        1
 72
     4
 94
        3
 73
     0
 74
     1
 95
       53
 96
       49
 40
0.0
 40
0.0
 40
0.0
 40
0.0
 40
1.0
 40
1.0
 40
1.0
 40
2.0
 40
2.0
 40
2.0
 40
3.0
 40
3.0
 40
3.0
 40
4.0
 40
4.0
 40
4.0
 40
5.0
 40
5.0
 40
5.0
 40
6.0
 40
6.0
 40
6.0
 40
7.0
 40
7.0
 40
7.0
 40
8.0
 40
8.0
 40
8.0
 40
9.0
 40
9.0
 40
9.0
 40
10.0
 40
10.0
 40
10.0
 40
11.0
 40
11.0
 40
11.0
 40
12.0
 40
12.0
 40
12.0
 40
13.0
 40
13.0
 40
13.0
 40
14.0
 40
14.0
 40
14.0
 40
15.0
 40
15.0
 40
15.0
 40
16.0
 40
16.0
 40
16.0
 40
16.0
 10
75.04796005068246
 20
-127.4270195536467
 10
75.04796005068246
 20
-127.5107353739383
 10
75.03107908280474
 20
-127.6192558817237
 10
74.96751707110188
 20
-127.727776389509
 10
74.85744627034815
 20
-127.9132947813897
 10
74.72636038713439
 20
-127.9356879020439
 10
74.61852889844607
 20
-127.9560139654068
 10
74.61852889844607
 20
-127.9560139654068
 10
74.61852889844607
 20
-127.7186468864731
 10
74.61852889844607
 20
-127.7186468864731
 10
74.81731090794499
 20
-127.6599080084496
 10
74.84693872911814
 20
-127.524343501105
 10
74.84693872911814
 20
-127.4247802415813
 10
74.84693872911814
 20
-127.27560760707
 10
74.74754772436867
 20
-127.1128268453919
 10
74.51483152434004
 20
-127.1128268453919
 10
74.25886092978598
 20
-127.1128268453919
 10
74.18909774620967
 20
-127.3050631734689
 10
74.18909774620967
 20
-127.4339097446172
 10
74.18909774620967
 20
-127.4678439351469
 10
74.18909774620967
 20
-127.6192558817237
 10
74.31811657213228
 20
-127.7141682623423
 10
74.31811657213228
 20
-127.7141682623423
 10
74.29899629218914
 20
-127.9019259662884
 10
74.29899629218914
 20
-127.9019259662884
 10
74.29899629218914
 20
-127.9019259662884
 10
73.45288084101178
 20
-127.7730793951401
 10
73.45288084101178
 20
-127.7730793951401
 10
73.45288084101178
 20
-127.7730793951401
 10
73.45288084101178
 20
-126.9410888354522
 10
73.45288084101178
 20
-126.9410888354522
 10
73.45288084101178
 20
-126.9410888354522
 10
73.6475287359284
 20
-126.9410888354522
 10
73.6475287359284
 20
-126.9410888354522
 10
73.6475287359284
 20
-126.9410888354522
 10
73.6475287359284
 20
-127.5989298183607
 10
73.6475287359284
 20
-127.5989298183607
 10
73.6475287359284
 20
-127.5989298183607
 10
74.07058646151708
 20
-127.6690375114855
 10
74.07058646151708
 20
-127.6690375114855
 10
74.03665227098737
 20
-127.6034084424915
 10
73.99651690858421
 20
-127.5152139980691
 10
73.99651690858421
 20
-127.3886067389862
 10
73.99651690858421
 20
-127.1173054695228
 10
74.18272431956196
 20
-126.8640909513569
 10
74.49571124439692
 20
-126.8640909513569
 10
74.81317679336269
 20
-126.8640909513569
 10
75.04796005068246
 20
-127.103697342356
 10
75.04796005068246
 20
-127.4270195536467
 97
        0
 97
        0
 75
     2
 76
     1
 98
        0
  0
ENDBLK
  5
CE
330
CB
100
AcDbEntity
  8
0
100
AcDbBlockEnd
  0
BLOCK
  5
F1
330
EF
100
AcDbEntity
  8
0
100
AcDbBlockBegin
  2
block 5
 70
     0
 10
0.0
 20
0.0
 30
0.0
  3
block 5
  1

  0
SPLINE
  5
F3
330
EF
100
AcDbEntity
  8
_U+30EC_U+30A4_U+30E4_U+30FC 1
370
     0
100
AcDbSpline
210
0.0
220
0.0
230
1.0
 70
    11
 71
     3
 72
    53
 73
    49
 74
     0
 42
0.0000000001
 43
0.0000000001
 12
1.0
 22
0.0
 32
0.0
 13
1.0
 23
0.0
 33
0.0
 40
0.0
 40
0.0
 40
0.0
 40
0.0
 40
1.0
 40
1.0
 40
1.0
 40
2.0
 40
2.0
 40
2.0
 40
3.0
 40
3.0
 40
3.0
 40
4.0
 40
4.0
 40
4.0
 40
5.0
 40
5.0
 40
5.0
 40
6.0
 40
6.0
 40
6.0
 40
7.0
 40
7.0
 40
7.0
 40
8.0
 40
8.0
 40
8.0
 40
9.0
 40
9.0
 40
9.0
 40
10.0
 40
10.0
 40
10.0
 40
11.0
 40
11.0
 40
11.0
 40
12.0
 40
12.0
 40
12.0
 40
13.0
 40
13.0
 40
13.0
 40
14.0
 40
14.0
 40
14.0
 40
15.0
 40
15.0
 40
15.0
 40
16.0
 40
16.0
 40
16.0
 40
16.0
 10
107.5479573298838
 20
-136.0103027003724
 30
0.0
 10
107.5479573298838
 20
-136.094018520664
 30
0.0
 10
107.5310763620061
 20
-136.2021945189009
 30
0.0
 10
107.4676866050775
 20
-136.3110595362348
 30
0.0
 10
107.3577880590981
 20
-136.4964056733412
 30
0.0
 10
107.22652992111
 20
-136.5187987939953
 30
0.0
 10
107.1186984324217
 20
-136.5391248573583
 30
0.0
 10
107.1186984324217
 20
-136.5391248573583
 30
0.0
 10
107.1186984324217
 20
-136.3017577784246
 30
0.0
 10
107.1186984324217
 20
-136.3017577784246
 30
0.0
 10
107.3174804419206
 20
-136.2431911551753
 30
0.0
 10
107.3471082630938
 20
-136.1074543930565
 30
0.0
 10
107.3471082630938
 20
-136.0078911335328
 30
0.0
 10
107.3471082630938
 20
-135.8587184990214
 30
0.0
 10
107.2475450035701
 20
-135.6957654825691
 30
0.0
 10
107.0150010583157
 20
-135.6957654825691
 30
0.0
 10
106.7590304637616
 20
-135.6957654825691
 30
0.0
 10
106.6890950254111
 20
-135.8880018106461
 30
0.0
 10
106.6890950254111
 20
-136.0168483817944
 30
0.0
 10
106.6890950254111
 20
-136.0509548270984
 30
0.0
 10
106.6890950254111
 20
-136.2021945189009
 30
0.0
 10
106.8182861061079
 20
-136.2972791542937
 30
0.0
 10
106.8182861061079
 20
-136.2972791542937
 30
0.0
 10
106.7993380809391
 20
-136.4850368582399
 30
0.0
 10
106.7993380809391
 20
-136.4850368582399
 30
0.0
 10
106.7993380809391
 20
-136.4850368582399
 30
0.0
 10
105.9528781202132
 20
-136.3561902870915
 30
0.0
 10
105.9528781202132
 20
-136.3561902870915
 30
0.0
 10
105.9528781202132
 20
-136.3561902870915
 30
0.0
 10
105.9528781202132
 20
-135.5241997274037
 30
0.0
 10
105.9528781202132
 20
-135.5241997274037
 30
0.0
 10
105.9528781202132
 20
-135.5241997274037
 30
0.0
 10
106.1475260151298
 20
-135.5241997274037
 30
0.0
 10
106.1475260151298
 20
-135.5241997274037
 30
0.0
 10
106.1475260151298
 20
-135.5241997274037
 30
0.0
 10
106.1475260151298
 20
-136.1818684555379
 30
0.0
 10
106.1475260151298
 20
-136.1818684555379
 30
0.0
 10
106.1475260151298
 20
-136.1818684555379
 30
0.0
 10
106.5705837407185
 20
-136.252148403437
 30
0.0
 10
106.5705837407185
 20
-136.252148403437
 30
0.0
 10
106.536821804963
 20
-136.1866915892172
 30
0.0
 10
106.4965141877856
 20
-136.0984971447948
 30
0.0
 10
106.4965141877856
 20
-135.9717176309376
 30
0.0
 10
106.4965141877856
 20
-135.7005886162485
 30
0.0
 10
106.6828938535376
 20
-135.4473740980826
 30
0.0
 10
106.9960530331468
 20
-135.4473740980826
 30
0.0
 10
107.3133463273383
 20
-135.4473740980826
 30
0.0
 10
107.5479573298838
 20
-135.6868082343075
 30
0.0
 10
107.5479573298838
 20
-136.0103027003724
 30
0.0
  0
HATCH
  5
F4
330
EF
100
AcDbEntity
  8
_U+30EC_U+30A4_U+30E4_U+30FC 1
 62
     7
420
 16777215
100
AcDbHatch
 10
0.0
 20
0.0
 30
0.0
210
0.0
220
0.0
230
1.0
  2
SOLID
 70
     1
 71
     0
 91
        1
 92
        1
 93
        1
 72
     4
 94
        3
 73
     0
 74
     1
 95
       53
 96
       49
 40
0.0
 40
0.0
 40
0.0
 40
0.0
 40
1.0
 40
1.0
 40
1.0
 40
2.0
 40
2.0
 40
2.0
 40
3.0
 40
3.0
 40
3.0
 40
4.0
 40
4.0
 40
4.0
 40
5.0
 40
5.0
 40
5.0
 40
6.0
 40
6.0
 40
6.0
 40
7.0
 40
7.0
 40
7.0
 40
8.0
 40
8.0
 40
8.0
 40
9.0
 40
9.0
 40
9.0
 40
10.0
 40
10.0
 40
10.0
 40
11.0
 40
11.0
 40
11.0
 40
12.0
 40
12.0
 40
12.0
 40
13.0
 40
13.0
 40
13.0
 40
14.0
 40
14.0
 40
14.0
 40
15.0
 40
15.0
 40
15.0
 40
16.0
 40
16.0
 40
16.0
 40
16.0
 10
107.5479573298838
 20
-136.0103027003724
 10
107.5479573298838
 20
-136.094018520664
 10
107.5310763620061
 20
-136.2021945189009
 10
107.4676866050775
 20
-136.3110595362348
 10
107.3577880590981
 20
-136.4964056733412
 10
107.22652992111
 20
-136.5187987939953
 10
107.1186984324217
 20
-136.5391248573583
 10
107.1186984324217
 20
-136.5391248573583
 10
107.1186984324217
 20
-136.3017577784246
 10
107.1186984324217
 20
-136.3017577784246
 10
107.3174804419206
 20
-136.2431911551753
 10
107.3471082630938
 20
-136.1074543930565
 10
107.3471082630938
 20
-136.0078911335328
 10
107.3471082630938
 20
-135.8587184990214
 10
107.2475450035701
 20
-135.6957654825691
 10
107.0150010583157
 20
-135.6957654825691
 10
106.7590304637616
 20
-135.6957654825691
 10
106.6890950254111
 20
-135.8880018106461
 10
106.6890950254111
 20
-136.0168483817944
 10
106.6890950254111
 20
-136.0509548270984
 10
106.6890950254111
 20
-136.2021945189009
 10
106.8182861061079
 20
-136.2972791542937
 10
106.8182861061079
 20
-136.2972791542937
 10
106.7993380809391
 20
-136.4850368582399
 10
106.7993380809391
 20
-136.4850368582399
 10
106.7993380809391
 20
-136.4850368582399
 10
105.9528781202132
 20
-136.3561902870915
 10
105.9528781202132
 20
-136.3561902870915
 10
105.9528781202132
 20
-136.3561902870915
 10
105.9528781202132
 20
-135.5241997274037
 10
105.9528781202132
 20
-135.5241997274037
 10
105.9528781202132
 20
-135.5241997274037
 10
106.1475260151298
 20
-135.5241997274037
 10
106.1475260151298
 20
-135.5241997274037
 10
106.1475260151298
 20
-135.5241997274037
 10
106.1475260151298
 20
-136.1818684555379
 10
106.1475260151298
 20
-136.1818684555379
 10
106.1475260151298
 20
-136.1818684555379
 10
106.5705837407185
 20
-136.252148403437
 10
106.5705837407185
 20
-136.252148403437
 10
106.536821804963
 20
-136.1866915892172
 10
106.4965141877856
 20
-136.0984971447948
 10
106.4965141877856
 20
-135.9717176309376
 10
106.4965141877856
 20
-135.7005886162485
 10
106.6828938535376
 20
-135.4473740980826
 10
106.9960530331468
 20
-135.4473740980826
 10
107.3133463273383
 20
-135.4473740980826
 10
107.5479573298838
 20
-135.6868082343075
 10
107.5479573298838
 20
-136.0103027003724
 97
        0
 97
        0
 75
     2
 76
     1
 98
        0
  0
POLYLINE
  5
F5
330
EF
100
AcDbEntity
  8
_U+30EC_U+30A4_U+30E4_U+30FC 1
370
     0
100
AcDb2dPolyline
 66
     1
 10
0.0
 20
0.0
 30
0.0
  0
VERTEX
  5
F6
330
F5
100
AcDbEntity
  8
_U+30EC_U+30A4_U+30E4_U+30FC 1
370
     0
100
AcDbVertex
100
AcDb2dVertex
 10
107.4973144262507
 20
-135.2024278090813
 30
0.0
  0
VERTEX
  5
F7
330
F5
100
AcDbEntity
  8
_U+30EC_U+30A4_U+30E4_U+30FC 1
370
     0
100
AcDbVertex
100
AcDb2dVertex
 10
107.2454779462789
 20
-135.2024278090813
 30
0.0
  0
VERTEX
  5
F8
330
F5
100
AcDbEntity
  8
_U+30EC_U+30A4_U+30E4_U+30FC 1
370
     0
100
AcDbVertex
100
AcDb2dVertex
 10
107.2454779462789
 20
-134.9333658516833
 30
0.0
  0
VERTEX
  5
F9
330
F5
100
AcDbEntity
  8
_U+30EC_U+30A4_U+30E4_U+30FC 1
370
     0
100
AcDbVertex
100
AcDb2dVertex
 10
107.4973144262507
 20
-134.9333658516833
 30
0.0
  0
VERTEX
  5
FA
330
F5
100
AcDbEntity
  8
_U+30EC_U+30A4_U+30E4_U+30FC 1
370
     0
100
AcDbVertex
100
AcDb2dVertex
 10
107.4973144262507
 20
-135.2024278090813
 30
0.0
  0
SEQEND
  5
FB
330
F5
100
AcDbEntity
  8
_U+30EC_U+30A4_U+30E4_U+30FC 1
370
     0
  0
HATCH
  5
FC
330
EF
100
AcDbEntity
  8
_U+30EC_U+30A4_U+30E4_U+30FC 1
 62
     7
420
 16777215
100
AcDbHatch
 10
0.0
 20
0.0
 30
0.0
210
0.0
220
0.0
230
1.0
  2
SOLID
 70
     1
 71
     0
 91
        1
 92
        1
 93
        4
 72
     1
 10
107.4973144262507
 20
-135.2024278090813
 11
107.2454779462789
 21
-135.2024278090813
 72
     1
 10
107.2454779462789
 20
-135.2024278090813
 11
107.2454779462789
 21
-134.9333658516833
 72
     1
 10
107.2454779462789
 20
-134.9333658516833
 11
107.4973144262507
 21
-134.9333658516833
 72
     1
 10
107.4973144262507
 20
-134.9333658516833
 11
107.4973144262507
 21
-135.2024278090813
 97
        0
 75
     2
 76
     1
 98
        0
  0
SPLINE
  5
FD
330
EF
100
AcDbEntity
  8
_U+30EC_U+30A4_U+30E4_U+30FC 1
370
     0
100
AcDbSpline
210
0.0
220
0.0
230
1.0
 70
    11
 71
     3
 72
    53
 73
    49
 74
     0
 42
0.0000000001
 43
0.0000000001
 12
1.0
 22
0.0
 32
0.0
 13
1.0
 23
0.0
 33
0.0
 40
0.0
 40
0.0
 40
0.0
 40
0.0
 40
1.0
 40
1.0
 40
1.0
 40
2.0
 40
2.0
 40
2.0
 40
3.0
 40
3.0
 40
3.0
 40
4.0
 40
4.0
 40
4.0
 40
5.0
 40
5.0
 40
5.0
 40
6.0
 40
6.0
 40
6.0
 40
7.0
 40
7.0
 40
7.0
 40
8.0
 40
8.0
 40
8.0
 40
9.0
 40
9.0
 40
9.0
 40
10.0
 40
10.0
 40
10.0
 40
11.0
 40
11.0
 40
11.0
 40
12.0
 40
12.0
 40
12.0
 40
13.0
 40
13.0
 40
13.0
 40
14.0
 40
14.0
 40
14.0
 40
15.0
 40
15.0
 40
15.0
 40
16.0
 40
16.0
 40
16.0
 40
16.0
 10
107.5479573298838
 20
-134.1664875966667
 30
0.0
 10
107.5479573298838
 20
-134.2502034169583
 30
0.0
 10
107.5310763620061
 20
-134.3583794151951
 30
0.0
 10
107.4676866050775
 20
-134.467244432529
 30
0.0
 10
107.3577880590981
 20
-134.6525905696355
 30
0.0
 10
107.22652992111
 20
-134.6749836902896
 30
0.0
 10
107.1186984324217
 20
-134.6953097536526
 30
0.0
 10
107.1186984324217
 20
-134.6953097536526
 30
0.0
 10
107.1186984324217
 20
-134.4579426747189
 30
0.0
 10
107.1186984324217
 20
-134.4579426747189
 30
0.0
 10
107.3174804419206
 20
-134.3993760514696
 30
0.0
 10
107.3471082630938
 20
-134.2636392893507
 30
0.0
 10
107.3471082630938
 20
-134.164076029827
 30
0.0
 10
107.3471082630938
 20
-134.0149033953157
 30
0.0
 10
107.2475450035701
 20
-133.8519503788634
 30
0.0
 10
107.0150010583157
 20
-133.8519503788634
 30
0.0
 10
106.7590304637616
 20
-133.8519503788634
 30
0.0
 10
106.6890950254111
 20
-134.0441867069403
 30
0.0
 10
106.6890950254111
 20
-134.1730332780887
 30
0.0
 10
106.6890950254111
 20
-134.2071397233927
 30
0.0
 10
106.6890950254111
 20
-134.3583794151951
 30
0.0
 10
106.8182861061079
 20
-134.453464050588
 30
0.0
 10
106.8182861061079
 20
-134.453464050588
 30
0.0
 10
106.7993380809391
 20
-134.6412217545341
 30
0.0
 10
106.7993380809391
 20
-134.6412217545341
 30
0.0
 10
106.7993380809391
 20
-134.6412217545341
 30
0.0
 10
105.9528781202132
 20
-134.5123751833858
 30
0.0
 10
105.9528781202132
 20
-134.5123751833858
 30
0.0
 10
105.9528781202132
 20
-134.5123751833858
 30
0.0
 10
105.9528781202132
 20
-133.680384623698
 30
0.0
 10
105.9528781202132
 20
-133.680384623698
 30
0.0
 10
105.9528781202132
 20
-133.680384623698
 30
0.0
 10
106.1475260151298
 20
-133.680384623698
 30
0.0
 10
106.1475260151298
 20
-133.680384623698
 30
0.0
 10
106.1475260151298
 20
-133.680384623698
 30
0.0
 10
106.1475260151298
 20
-134.3380533518322
 30
0.0
 10
106.1475260151298
 20
-134.3380533518322
 30
0.0
 10
106.1475260151298
 20
-134.3380533518322
 30
0.0
 10
106.5705837407185
 20
-134.4083332997313
 30
0.0
 10
106.5705837407185
 20
-134.4083332997313
 30
0.0
 10
106.536821804963
 20
-134.3428764855115
 30
0.0
 10
106.4965141877856
 20
-134.2546820410891
 30
0.0
 10
106.4965141877856
 20
-134.1279025272319
 30
0.0
 10
106.4965141877856
 20
-133.8567735125428
 30
0.0
 10
106.6828938535376
 20
-133.6035589943769
 30
0.0
 10
106.9960530331468
 20
-133.6035589943769
 30
0.0
 10
107.3133463273383
 20
-133.6035589943769
 30
0.0
 10
107.5479573298838
 20
-133.8429931306018
 30
0.0
 10
107.5479573298838
 20
-134.1664875966667
 30
0.0
  0
HATCH
  5
FE
330
EF
100
AcDbEntity
  8
_U+30EC_U+30A4_U+30E4_U+30FC 1
 62
     7
420
 16777215
100
AcDbHatch
 10
0.0
 20
0.0
 30
0.0
210
0.0
220
0.0
230
1.0
  2
SOLID
 70
     1
 71
     0
 91
        1
 92
        1
 93
        1
 72
     4
 94
        3
 73
     0
 74
     1
 95
       53
 96
       49
 40
0.0
 40
0.0
 40
0.0
 40
0.0
 40
1.0
 40
1.0
 40
1.0
 40
2.0
 40
2.0
 40
2.0
 40
3.0
 40
3.0
 40
3.0
 40
4.0
 40
4.0
 40
4.0
 40
5.0
 40
5.0
 40
5.0
 40
6.0
 40
6.0
 40
6.0
 40
7.0
 40
7.0
 40
7.0
 40
8.0
 40
8.0
 40
8.0
 40
9.0
 40
9.0
 40
9.0
 40
10.0
 40
10.0
 40
10.0
 40
11.0
 40
11.0
 40
11.0
 40
12.0
 40
12.0
 40
12.0
 40
13.0
 40
13.0
 40
13.0
 40
14.0
 40
14.0
 40
14.0
 40
15.0
 40
15.0
 40
15.0
 40
16.0
 40
16.0
 40
16.0
 40
16.0
 10
107.5479573298838
 20
-134.1664875966667
 10
107.5479573298838
 20
-134.2502034169583
 10
107.5310763620061
 20
-134.3583794151951
 10
107.4676866050775
 20
-134.467244432529
 10
107.3577880590981
 20
-134.6525905696355
 10
107.22652992111
 20
-134.6749836902896
 10
107.1186984324217
 20
-134.6953097536526
 10
107.1186984324217
 20
-134.6953097536526
 10
107.1186984324217
 20
-134.4579426747189
 10
107.1186984324217
 20
-134.4579426747189
 10
107.3174804419206
 20
-134.3993760514696
 10
107.3471082630938
 20
-134.2636392893507
 10
107.3471082630938
 20
-134.164076029827
 10
107.3471082630938
 20
-134.0149033953157
 10
107.2475450035701
 20
-133.8519503788634
 10
107.0150010583157
 20
-133.8519503788634
 10
106.7590304637616
 20
-133.8519503788634
 10
106.6890950254111
 20
-134.0441867069403
 10
106.6890950254111
 20
-134.1730332780887
 10
106.6890950254111
 20
-134.2071397233927
 10
106.6890950254111
 20
-134.3583794151951
 10
106.8182861061079
 20
-134.453464050588
 10
106.8182861061079
 20
-134.453464050588
 10
106.7993380809391
 20
-134.6412217545341
 10
106.7993380809391
 20
-134.6412217545341
 10
106.7993380809391
 20
-134.6412217545341
 10
105.9528781202132
 20
-134.5123751833858
 10
105.9528781202132
 20
-134.5123751833858
 10
105.9528781202132
 20
-134.5123751833858
 10
105.9528781202132
 20
-133.680384623698
 10
105.9528781202132
 20
-133.680384623698
 10
105.9528781202132
 20
-133.680384623698
 10
106.1475260151298
 20
-133.680384623698
 10
106.1475260151298
 20
-133.680384623698
 10
106.1475260151298
 20
-133.680384623698
 10
106.1475260151298
 20
-134.3380533518322
 10
106.1475260151298
 20
-134.3380533518322
 10
106.1475260151298
 20
-134.3380533518322
 10
106.5705837407185
 20
-134.4083332997313
 10
106.5705837407185
 20
-134.4083332997313
 10
106.536821804963
 20
-134.3428764855115
 10
106.4965141877856
 20
-134.2546820410891
 10
106.4965141877856
 20
-134.1279025272319
 10
106.4965141877856
 20
-133.8567735125428
 10
106.6828938535376
 20
-133.6035589943769
 10
106.9960530331468
 20
-133.6035589943769
 10
107.3133463273383
 20
-133.6035589943769
 10
107.5479573298838
 20
-133.8429931306018
 10
107.5479573298838
 20
-134.1664875966667
 97
        0
 97
        0
 75
     2
 76
     1
 98
        0
  0
ENDBLK
  5
F2
330
EF
100
AcDbEntity
  8
0
100
AcDbBlockEnd
  0
BLOCK
  5
112
330
110
100
AcDbEntity
  8
0
100
AcDbBlockBegin
  2
block 6
 70
     0
 10
0.0
 20
0.0
 30
0.0
  3
block 6
  1

  0
SPLINE
  5
114
330
110
100
AcDbEntity
  8
_U+30EC_U+30A4_U+30E4_U+30FC 1
370
     0
100
AcDbSpline
210
0.0
220
0.0
230
1.0
 70
    11
 71
     3
 72
    53
 73
    49
 74
     0
 42
0.0000000001
 43
0.0000000001
 12
1.0
 22
0.0
 32
0.0
 13
1.0
 23
0.0
 33
0.0
 40
0.0
 40
0.0
 40
0.0
 40
0.0
 40
1.0
 40
1.0
 40
1.0
 40
2.0
 40
2.0
 40
2.0
 40
3.0
 40
3.0
 40
3.0
 40
4.0
 40
4.0
 40
4.0
 40
5.0
 40
5.0
 40
5.0
 40
6.0
 40
6.0
 40
6.0
 40
7.0
 40
7.0
 40
7.0
 40
8.0
 40
8.0
 40
8.0
 40
9.0
 40
9.0
 40
9.0
 40
10.0
 40
10.0
 40
10.0
 40
11.0
 40
11.0
 40
11.0
 40
12.0
 40
12.0
 40
12.0
 40
13.0
 40
13.0
 40
13.0
 40
14.0
 40
14.0
 40
14.0
 40
15.0
 40
15.0
 40
15.0
 40
16.0
 40
16.0
 40
16.0
 40
16.0
 10
82.54879419594266
 20
-114.92011715877
 30
0.0
 10
82.46507837565109
 20
-114.92011715877
 30
0.0
 10
82.35655786786573
 20
-114.9032361908923
 30
0.0
 10
82.24803736008036
 20
-114.8396741791894
 30
0.0
 10
82.06269122297391
 20
-114.7296033784357
 30
0.0
 10
82.04012584754553
 20
-114.5985174952219
 30
0.0
 10
82.0196275294083
 20
-114.4906860065336
 30
0.0
 10
82.0196275294083
 20
-114.4906860065336
 30
0.0
 10
82.25716686311627
 20
-114.4906860065336
 30
0.0
 10
82.25716686311627
 20
-114.4906860065336
 30
0.0
 10
82.31590574113977
 20
-114.6894680160325
 30
0.0
 10
82.45147024848436
 20
-114.7190958372056
 30
0.0
 10
82.55103350800808
 20
-114.7190958372056
 30
0.0
 10
82.70020614251939
 20
-114.7190958372056
 30
0.0
 10
82.86298690419746
 20
-114.6197048324562
 30
0.0
 10
82.86298690419746
 20
-114.3869886324276
 30
0.0
 10
82.86298690419746
 20
-114.1310180378735
 30
0.0
 10
82.67075057612051
 20
-114.0612548542972
 30
0.0
 10
82.54190400497217
 20
-114.0612548542972
 30
0.0
 10
82.50796981444246
 20
-114.0612548542972
 30
0.0
 10
82.35655786786573
 20
-114.0612548542972
 30
0.0
 10
82.2616454872471
 20
-114.1902736802198
 30
0.0
 10
82.2616454872471
 20
-114.1902736802198
 30
0.0
 10
82.07388778330098
 20
-114.1711534002767
 30
0.0
 10
82.07388778330098
 20
-114.1711534002767
 30
0.0
 10
82.07388778330098
 20
-114.1711534002767
 30
0.0
 10
82.20273435444932
 20
-113.3250379490993
 30
0.0
 10
82.20273435444932
 20
-113.3250379490993
 30
0.0
 10
82.20273435444932
 20
-113.3250379490993
 30
0.0
 10
83.03472491413716
 20
-113.3250379490993
 30
0.0
 10
83.03472491413716
 20
-113.3250379490993
 30
0.0
 10
83.03472491413716
 20
-113.3250379490993
 30
0.0
 10
83.03472491413716
 20
-113.5196858440159
 30
0.0
 10
83.03472491413716
 20
-113.5196858440159
 30
0.0
 10
83.03472491413716
 20
-113.5196858440159
 30
0.0
 10
82.3768839312287
 20
-113.5196858440159
 30
0.0
 10
82.3768839312287
 20
-113.5196858440159
 30
0.0
 10
82.3768839312287
 20
-113.5196858440159
 30
0.0
 10
82.30677623810386
 20
-113.9427435696046
 30
0.0
 10
82.30677623810386
 20
-113.9427435696046
 30
0.0
 10
82.37240530709788
 20
-113.9088093790749
 30
0.0
 10
82.46059975152028
 20
-113.8686740166717
 30
0.0
 10
82.58720701060321
 20
-113.8686740166717
 30
0.0
 10
82.85850828006663
 20
-113.8686740166717
 30
0.0
 10
83.11172279823249
 20
-114.0548814276495
 30
0.0
 10
83.11172279823249
 20
-114.3678683524844
 30
0.0
 10
83.11172279823249
 20
-114.6853339014502
 30
0.0
 10
82.87211640723336
 20
-114.92011715877
 30
0.0
 10
82.54879419594266
 20
-114.92011715877
 30
0.0
  0
HATCH
  5
115
330
110
100
AcDbEntity
  8
_U+30EC_U+30A4_U+30E4_U+30FC 1
 62
     7
420
 16777215
100
AcDbHatch
 10
0.0
 20
0.0
 30
0.0
210
0.0
220
0.0
230
1.0
  2
SOLID
 70
     1
 71
     0
 91
        1
 92
        1
 93
        1
 72
     4
 94
        3
 73
     0
 74
     1
 95
       53
 96
       49
 40
0.0
 40
0.0
 40
0.0
 40
0.0
 40
1.0
 40
1.0
 40
1.0
 40
2.0
 40
2.0
 40
2.0
 40
3.0
 40
3.0
 40
3.0
 40
4.0
 40
4.0
 40
4.0
 40
5.0
 40
5.0
 40
5.0
 40
6.0
 40
6.0
 40
6.0
 40
7.0
 40
7.0
 40
7.0
 40
8.0
 40
8.0
 40
8.0
 40
9.0
 40
9.0
 40
9.0
 40
10.0
 40
10.0
 40
10.0
 40
11.0
 40
11.0
 40
11.0
 40
12.0
 40
12.0
 40
12.0
 40
13.0
 40
13.0
 40
13.0
 40
14.0
 40
14.0
 40
14.0
 40
15.0
 40
15.0
 40
15.0
 40
16.0
 40
16.0
 40
16.0
 40
16.0
 10
82.54879419594266
 20
-114.92011715877
 10
82.46507837565109
 20
-114.92011715877
 10
82.35655786786573
 20
-114.9032361908923
 10
82.24803736008036
 20
-114.8396741791894
 10
82.06269122297391
 20
-114.7296033784357
 10
82.04012584754553
 20
-114.5985174952219
 10
82.0196275294083
 20
-114.4906860065336
 10
82.0196275294083
 20
-114.4906860065336
 10
82.25716686311627
 20
-114.4906860065336
 10
82.25716686311627
 20
-114.4906860065336
 10
82.31590574113977
 20
-114.6894680160325
 10
82.45147024848436
 20
-114.7190958372056
 10
82.55103350800808
 20
-114.7190958372056
 10
82.70020614251939
 20
-114.7190958372056
 10
82.86298690419746
 20
-114.6197048324562
 10
82.86298690419746
 20
-114.3869886324276
 10
82.86298690419746
 20
-114.1310180378735
 10
82.67075057612051
 20
-114.0612548542972
 10
82.54190400497217
 20
-114.0612548542972
 10
82.50796981444246
 20
-114.0612548542972
 10
82.35655786786573
 20
-114.0612548542972
 10
82.2616454872471
 20
-114.1902736802198
 10
82.2616454872471
 20
-114.1902736802198
 10
82.07388778330098
 20
-114.1711534002767
 10
82.07388778330098
 20
-114.1711534002767
 10
82.07388778330098
 20
-114.1711534002767
 10
82.20273435444932
 20
-113.3250379490993
 10
82.20273435444932
 20
-113.3250379490993
 10
82.20273435444932
 20
-113.3250379490993
 10
83.03472491413716
 20
-113.3250379490993
 10
83.03472491413716
 20
-113.3250379490993
 10
83.03472491413716
 20
-113.3250379490993
 10
83.03472491413716
 20
-113.5196858440159
 10
83.03472491413716
 20
-113.5196858440159
 10
83.03472491413716
 20
-113.5196858440159
 10
82.3768839312287
 20
-113.5196858440159
 10
82.3768839312287
 20
-113.5196858440159
 10
82.3768839312287
 20
-113.5196858440159
 10
82.30677623810386
 20
-113.9427435696046
 10
82.30677623810386
 20
-113.9427435696046
 10
82.37240530709788
 20
-113.9088093790749
 10
82.46059975152028
 20
-113.8686740166717
 10
82.58720701060321
 20
-113.8686740166717
 10
82.85850828006663
 20
-113.8686740166717
 10
83.11172279823249
 20
-114.0548814276495
 10
83.11172279823249
 20
-114.3678683524844
 10
83.11172279823249
 20
-114.6853339014502
 10
82.87211640723336
 20
-114.92011715877
 10
82.54879419594266
 20
-114.92011715877
 97
        0
 97
        0
 75
     2
 76
     1
 98
        0
  0
POLYLINE
  5
116
330
110
100
AcDbEntity
  8
_U+30EC_U+30A4_U+30E4_U+30FC 1
370
     0
100
AcDb2dPolyline
 66
     1
 10
0.0
 20
0.0
 30
0.0
  0
VERTEX
  5
117
330
116
100
AcDbEntity
  8
_U+30EC_U+30A4_U+30E4_U+30FC 1
370
     0
100
AcDbVertex
100
AcDb2dVertex
 10
83.35666908723375
 20
-114.8693020003625
 30
0.0
  0
VERTEX
  5
118
330
116
100
AcDbEntity
  8
_U+30EC_U+30A4_U+30E4_U+30FC 1
370
     0
100
AcDbVertex
100
AcDb2dVertex
 10
83.35666908723375
 20
-114.617637775165
 30
0.0
  0
VERTEX
  5
119
330
116
100
AcDbEntity
  8
_U+30EC_U+30A4_U+30E4_U+30FC 1
370
     0
100
AcDbVertex
100
AcDb2dVertex
 10
83.62573104463176
 20
-114.617637775165
 30
0.0
  0
VERTEX
  5
11A
330
116
100
AcDbEntity
  8
_U+30EC_U+30A4_U+30E4_U+30FC 1
370
     0
100
AcDbVertex
100
AcDb2dVertex
 10
83.62573104463176
 20
-114.8693020003625
 30
0.0
  0
VERTEX
  5
11B
330
116
100
AcDbEntity
  8
_U+30EC_U+30A4_U+30E4_U+30FC 1
370
     0
100
AcDbVertex
100
AcDb2dVertex
 10
83.35666908723375
 20
-114.8693020003625
 30
0.0
  0
SEQEND
  5
11C
330
116
100
AcDbEntity
  8
_U+30EC_U+30A4_U+30E4_U+30FC 1
370
     0
  0
HATCH
  5
11D
330
110
100
AcDbEntity
  8
_U+30EC_U+30A4_U+30E4_U+30FC 1
 62
     7
420
 16777215
100
AcDbHatch
 10
0.0
 20
0.0
 30
0.0
210
0.0
220
0.0
230
1.0
  2
SOLID
 70
     1
 71
     0
 91
        1
 92
        1
 93
        4
 72
     1
 10
83.35666908723375
 20
-114.8693020003625
 11
83.35666908723375
 21
-114.617637775165
 72
     1
 10
83.35666908723375
 20
-114.617637775165
 11
83.62573104463176
 21
-114.617637775165
 72
     1
 10
83.62573104463176
 20
-114.617637775165
 11
83.62573104463176
 21
-114.8693020003625
 72
     1
 10
83.62573104463176
 20
-114.8693020003625
 11
83.35666908723375
 21
-114.8693020003625
 97
        0
 75
     2
 76
     1
 98
        0
  0
SPLINE
  5
11E
330
110
100
AcDbEntity
  8
_U+30EC_U+30A4_U+30E4_U+30FC 1
370
     0
100
AcDbSpline
210
0.0
220
0.0
230
1.0
 70
    11
 71
     3
 72
    53
 73
    49
 74
     0
 42
0.0000000001
 43
0.0000000001
 12
1.0
 22
0.0
 32
0.0
 13
1.0
 23
0.0
 33
0.0
 40
0.0
 40
0.0
 40
0.0
 40
0.0
 40
1.0
 40
1.0
 40
1.0
 40
2.0
 40
2.0
 40
2.0
 40
3.0
 40
3.0
 40
3.0
 40
4.0
 40
4.0
 40
4.0
 40
5.0
 40
5.0
 40
5.0
 40
6.0
 40
6.0
 40
6.0
 40
7.0
 40
7.0
 40
7.0
 40
8.0
 40
8.0
 40
8.0
 40
9.0
 40
9.0
 40
9.0
 40
10.0
 40
10.0
 40
10.0
 40
11.0
 40
11.0
 40
11.0
 40
12.0
 40
12.0
 40
12.0
 40
13.0
 40
13.0
 40
13.0
 40
14.0
 40
14.0
 40
14.0
 40
15.0
 40
15.0
 40
15.0
 40
16.0
 40
16.0
 40
16.0
 40
16.0
 10
84.39243704487411
 20
-114.92011715877
 30
0.0
 10
84.30872122458254
 20
-114.92011715877
 30
0.0
 10
84.20020071679717
 20
-114.9032361908923
 30
0.0
 10
84.09168020901181
 20
-114.8396741791894
 30
0.0
 10
83.90633407190536
 20
-114.7296033784357
 30
0.0
 10
83.88359644170272
 20
-114.5985174952219
 30
0.0
 10
83.86327037833975
 20
-114.4906860065336
 30
0.0
 10
83.86327037833975
 20
-114.4906860065336
 30
0.0
 10
84.10063745727345
 20
-114.4906860065336
 30
0.0
 10
84.10063745727345
 20
-114.4906860065336
 30
0.0
 10
84.15954859007122
 20
-114.6894680160325
 30
0.0
 10
84.29511309741581
 20
-114.7190958372056
 30
0.0
 10
84.39467635693953
 20
-114.7190958372056
 30
0.0
 10
84.54384899145084
 20
-114.7190958372056
 30
0.0
 10
84.70662975312891
 20
-114.6197048324562
 30
0.0
 10
84.70662975312891
 20
-114.3869886324276
 30
0.0
 10
84.70662975312891
 20
-114.1310180378735
 30
0.0
 10
84.51439342505196
 20
-114.0612548542972
 30
0.0
 10
84.38554685390362
 20
-114.0612548542972
 30
0.0
 10
84.3516126633739
 20
-114.0612548542972
 30
0.0
 10
84.20020071679717
 20
-114.0612548542972
 30
0.0
 10
84.10528833617855
 20
-114.1902736802198
 30
0.0
 10
84.10528833617855
 20
-114.1902736802198
 30
0.0
 10
83.91753063223243
 20
-114.1711534002767
 30
0.0
 10
83.91753063223243
 20
-114.1711534002767
 30
0.0
 10
83.91753063223243
 20
-114.1711534002767
 30
0.0
 10
84.04654945815503
 20
-113.3250379490993
 30
0.0
 10
84.04654945815503
 20
-113.3250379490993
 30
0.0
 10
84.04654945815503
 20
-113.3250379490993
 30
0.0
 10
84.87854001784287
 20
-113.3250379490993
 30
0.0
 10
84.87854001784287
 20
-113.3250379490993
 30
0.0
 10
84.87854001784287
 20
-113.3250379490993
 30
0.0
 10
84.87854001784287
 20
-113.5196858440159
 30
0.0
 10
84.87854001784287
 20
-113.5196858440159
 30
0.0
 10
84.87854001784287
 20
-113.5196858440159
 30
0.0
 10
84.22052678016016
 20
-113.5196858440159
 30
0.0
 10
84.22052678016016
 20
-113.5196858440159
 30
0.0
 10
84.22052678016016
 20
-113.5196858440159
 30
0.0
 10
84.15041908703532
 20
-113.9427435696046
 30
0.0
 10
84.15041908703532
 20
-113.9427435696046
 30
0.0
 10
84.21604815602933
 20
-113.9088093790749
 30
0.0
 10
84.30424260045172
 20
-113.8686740166717
 30
0.0
 10
84.43084985953465
 20
-113.8686740166717
 30
0.0
 10
84.70215112899808
 20
-113.8686740166717
 30
0.0
 10
84.95536564716394
 20
-114.0548814276495
 30
0.0
 10
84.95536564716394
 20
-114.3678683524844
 30
0.0
 10
84.95536564716394
 20
-114.6853339014502
 30
0.0
 10
84.71558700139055
 20
-114.92011715877
 30
0.0
 10
84.39243704487411
 20
-114.92011715877
 30
0.0
  0
HATCH
  5
11F
330
110
100
AcDbEntity
  8
_U+30EC_U+30A4_U+30E4_U+30FC 1
 62
     7
420
 16777215
100
AcDbHatch
 10
0.0
 20
0.0
 30
0.0
210
0.0
220
0.0
230
1.0
  2
SOLID
 70
     1
 71
     0
 91
        1
 92
        1
 93
        1
 72
     4
 94
        3
 73
     0
 74
     1
 95
       53
 96
       49
 40
0.0
 40
0.0
 40
0.0
 40
0.0
 40
1.0
 40
1.0
 40
1.0
 40
2.0
 40
2.0
 40
2.0
 40
3.0
 40
3.0
 40
3.0
 40
4.0
 40
4.0
 40
4.0
 40
5.0
 40
5.0
 40
5.0
 40
6.0
 40
6.0
 40
6.0
 40
7.0
 40
7.0
 40
7.0
 40
8.0
 40
8.0
 40
8.0
 40
9.0
 40
9.0
 40
9.0
 40
10.0
 40
10.0
 40
10.0
 40
11.0
 40
11.0
 40
11.0
 40
12.0
 40
12.0
 40
12.0
 40
13.0
 40
13.0
 40
13.0
 40
14.0
 40
14.0
 40
14.0
 40
15.0
 40
15.0
 40
15.0
 40
16.0
 40
16.0
 40
16.0
 40
16.0
 10
84.39243704487411
 20
-114.92011715877
 10
84.30872122458254
 20
-114.92011715877
 10
84.20020071679717
 20
-114.9032361908923
 10
84.09168020901181
 20
-114.8396741791894
 10
83.90633407190536
 20
-114.7296033784357
 10
83.88359644170272
 20
-114.5985174952219
 10
83.86327037833975
 20
-114.4906860065336
 10
83.86327037833975
 20
-114.4906860065336
 10
84.10063745727345
 20
-114.4906860065336
 10
84.10063745727345
 20
-114.4906860065336
 10
84.15954859007122
 20
-114.6894680160325
 10
84.29511309741581
 20
-114.7190958372056
 10
84.39467635693953
 20
-114.7190958372056
 10
84.54384899145084
 20
-114.7190958372056
 10
84.70662975312891
 20
-114.6197048324562
 10
84.70662975312891
 20
-114.3869886324276
 10
84.70662975312891
 20
-114.1310180378735
 10
84.51439342505196
 20
-114.0612548542972
 10
84.38554685390362
 20
-114.0612548542972
 10
84.3516126633739
 20
-114.0612548542972
 10
84.20020071679717
 20
-114.0612548542972
 10
84.10528833617855
 20
-114.1902736802198
 10
84.10528833617855
 20
-114.1902736802198
 10
83.91753063223243
 20
-114.1711534002767
 10
83.91753063223243
 20
-114.1711534002767
 10
83.91753063223243
 20
-114.1711534002767
 10
84.04654945815503
 20
-113.3250379490993
 10
84.04654945815503
 20
-113.3250379490993
 10
84.04654945815503
 20
-113.3250379490993
 10
84.87854001784287
 20
-113.3250379490993
 10
84.87854001784287
 20
-113.3250379490993
 10
84.87854001784287
 20
-113.3250379490993
 10
84.87854001784287
 20
-113.5196858440159
 10
84.87854001784287
 20
-113.5196858440159
 10
84.87854001784287
 20
-113.5196858440159
 10
84.22052678016016
 20
-113.5196858440159
 10
84.22052678016016
 20
-113.5196858440159
 10
84.22052678016016
 20
-113.5196858440159
 10
84.15041908703532
 20
-113.9427435696046
 10
84.15041908703532
 20
-113.9427435696046
 10
84.21604815602933
 20
-113.9088093790749
 10
84.30424260045172
 20
-113.8686740166717
 10
84.43084985953465
 20
-113.8686740166717
 10
84.70215112899808
 20
-113.8686740166717
 10
84.95536564716394
 20
-114.0548814276495
 10
84.95536564716394
 20
-114.3678683524844
 10
84.95536564716394
 20
-114.6853339014502
 10
84.71558700139055
 20
-114.92011715877
 10
84.39243704487411
 20
-114.92011715877
 97
        0
 97
        0
 75
     2
 76
     1
 98
        0
  0
ENDBLK
  5
113
330
110
100
AcDbEntity
  8
0
100
AcDbBlockEnd
  0
BLOCK
  5
12E
330
12C
100
AcDbEntity
  8
0
100
AcDbBlockBegin
  2
block 7
 70
     0
 10
0.0
 20
0.0
 30
0.0
  3
block 7
  1

  0
SPLINE
  5
130
330
12C
100
AcDbEntity
  8
_U+30EC_U+30A4_U+30E4_U+30FC 1
370
     0
100
AcDbSpline
210
0.0
220
0.0
230
1.0
 70
    11
 71
     3
 72
    44
 73
    40
 74
     0
 42
0.0000000001
 43
0.0000000001
 12
1.0
 22
0.0
 32
0.0
 13
1.0
 23
0.0
 33
0.0
 40
0.0
 40
0.0
 40
0.0
 40
0.0
 40
1.0
 40
1.0
 40
1.0
 40
2.0
 40
2.0
 40
2.0
 40
3.0
 40
3.0
 40
3.0
 40
4.0
 40
4.0
 40
4.0
 40
5.0
 40
5.0
 40
5.0
 40
6.0
 40
6.0
 40
6.0
 40
7.0
 40
7.0
 40
7.0
 40
8.0
 40
8.0
 40
8.0
 40
9.0
 40
9.0
 40
9.0
 40
10.0
 40
10.0
 40
10.0
 40
11.0
 40
11.0
 40
11.0
 40
12.0
 40
12.0
 40
12.0
 40
13.0
 40
13.0
 40
13.0
 40
13.0
 10
90.65062524860471
 20
-141.7873833195879
 30
0.0
 10
90.41773679380182
 20
-141.9462022214579
 30
0.0
 10
90.31834578905236
 20
-142.0202717743908
 30
0.0
 10
90.26632484722509
 20
-142.1639322561257
 30
0.0
 10
90.26632484722509
 20
-142.1639322561257
 30
0.0
 10
91.09831540691293
 20
-142.1639322561257
 30
0.0
 10
91.09831540691293
 20
-142.1639322561257
 30
0.0
 10
91.09831540691293
 20
-142.1639322561257
 30
0.0
 10
91.09831540691293
 20
-142.3692599470466
 30
0.0
 10
91.09831540691293
 20
-142.3692599470466
 30
0.0
 10
91.09831540691293
 20
-142.3692599470466
 30
0.0
 10
89.99950220189248
 20
-142.3692599470466
 30
0.0
 10
89.99950220189248
 20
-142.3692599470466
 30
0.0
 10
90.0334363924222
 20
-142.0116590356776
 30
0.0
 10
90.10354408554703
 20
-141.9334553681625
 30
0.0
 10
90.51506074126013
 20
-141.6351100991398
 30
0.0
 10
90.78860132278896
 20
-141.4363280896409
 30
0.0
 10
90.85853676113953
 20
-141.3684597085815
 30
0.0
 10
90.85853676113953
 20
-141.23100039872
 30
0.0
 10
90.85853676113953
 20
-141.1124891140274
 30
0.0
 10
90.78171113181847
 20
-140.9815754855879
 30
0.0
 10
90.57156030721822
 20
-140.9815754855879
 30
0.0
 10
90.29354110155856
 20
-140.9815754855879
 30
0.0
 10
90.28441159852265
 20
-141.2120523735512
 30
0.0
 10
90.27993297439183
 20
-141.3284966009526
 30
0.0
 10
90.27993297439183
 20
-141.3284966009526
 30
0.0
 10
90.0403265833927
 20
-141.3284966009526
 30
0.0
 10
90.0403265833927
 20
-141.3284966009526
 30
0.0
 10
90.04928383165435
 20
-141.2013725775469
 30
0.0
 10
90.06065264675567
 20
-141.0894069742763
 30
0.0
 10
90.1464355243384
 20
-140.9708956895837
 30
0.0
 10
90.26408553515968
 20
-140.8100097304225
 30
0.0
 10
90.46303979943285
 20
-140.7762477946671
 30
0.0
 10
90.58740774645038
 20
-140.7762477946671
 30
0.0
 10
90.88368595818186
 20
-140.7762477946671
 30
0.0
 10
91.10520559788343
 20
-140.9602158935794
 30
0.0
 10
91.10520559788343
 20
-141.2330674560112
 30
0.0
 10
91.10520559788343
 20
-141.4618217962318
 30
0.0
 10
90.98083765086591
 20
-141.561040546207
 30
0.0
 10
90.65062524860471
 20
-141.7873833195879
 30
0.0
  0
HATCH
  5
131
330
12C
100
AcDbEntity
  8
_U+30EC_U+30A4_U+30E4_U+30FC 1
 62
     7
420
 16777215
100
AcDbHatch
 10
0.0
 20
0.0
 30
0.0
210
0.0
220
0.0
230
1.0
  2
SOLID
 70
     1
 71
     0
 91
        1
 92
        1
 93
        1
 72
     4
 94
        3
 73
     0
 74
     1
 95
       44
 96
       40
 40
0.0
 40
0.0
 40
0.0
 40
0.0
 40
1.0
 40
1.0
 40
1.0
 40
2.0
 40
2.0
 40
2.0
 40
3.0
 40
3.0
 40
3.0
 40
4.0
 40
4.0
 40
4.0
 40
5.0
 40
5.0
 40
5.0
 40
6.0
 40
6.0
 40
6.0
 40
7.0
 40
7.0
 40
7.0
 40
8.0
 40
8.0
 40
8.0
 40
9.0
 40
9.0
 40
9.0
 40
10.0
 40
10.0
 40
10.0
 40
11.0
 40
11.0
 40
11.0
 40
12.0
 40
12.0
 40
12.0
 40
13.0
 40
13.0
 40
13.0
 40
13.0
 10
90.65062524860471
 20
-141.7873833195879
 10
90.41773679380182
 20
-141.9462022214579
 10
90.31834578905236
 20
-142.0202717743908
 10
90.26632484722509
 20
-142.1639322561257
 10
90.26632484722509
 20
-142.1639322561257
 10
91.09831540691293
 20
-142.1639322561257
 10
91.09831540691293
 20
-142.1639322561257
 10
91.09831540691293
 20
-142.1639322561257
 10
91.09831540691293
 20
-142.3692599470466
 10
91.09831540691293
 20
-142.3692599470466
 10
91.09831540691293
 20
-142.3692599470466
 10
89.99950220189248
 20
-142.3692599470466
 10
89.99950220189248
 20
-142.3692599470466
 10
90.0334363924222
 20
-142.0116590356776
 10
90.10354408554703
 20
-141.9334553681625
 10
90.51506074126013
 20
-141.6351100991398
 10
90.78860132278896
 20
-141.4363280896409
 10
90.85853676113953
 20
-141.3684597085815
 10
90.85853676113953
 20
-141.23100039872
 10
90.85853676113953
 20
-141.1124891140274
 10
90.78171113181847
 20
-140.9815754855879
 10
90.57156030721822
 20
-140.9815754855879
 10
90.29354110155856
 20
-140.9815754855879
 10
90.28441159852265
 20
-141.2120523735512
 10
90.27993297439183
 20
-141.3284966009526
 10
90.27993297439183
 20
-141.3284966009526
 10
90.0403265833927
 20
-141.3284966009526
 10
90.0403265833927
 20
-141.3284966009526
 10
90.04928383165435
 20
-141.2013725775469
 10
90.06065264675567
 20
-141.0894069742763
 10
90.1464355243384
 20
-140.9708956895837
 10
90.26408553515968
 20
-140.8100097304225
 10
90.46303979943285
 20
-140.7762477946671
 10
90.58740774645038
 20
-140.7762477946671
 10
90.88368595818186
 20
-140.7762477946671
 10
91.10520559788343
 20
-140.9602158935794
 10
91.10520559788343
 20
-141.2330674560112
 10
91.10520559788343
 20
-141.4618217962318
 10
90.98083765086591
 20
-141.561040546207
 10
90.65062524860471
 20
-141.7873833195879
 97
        0
 97
        0
 75
     2
 76
     1
 98
        0
  0
POLYLINE
  5
132
330
12C
100
AcDbEntity
  8
_U+30EC_U+30A4_U+30E4_U+30FC 1
370
     0
100
AcDb2dPolyline
 66
     1
 10
0.0
 20
0.0
 30
0.0
  0
VERTEX
  5
133
330
132
100
AcDbEntity
  8
_U+30EC_U+30A4_U+30E4_U+30FC 1
370
     0
100
AcDbVertex
100
AcDb2dVertex
 10
92.1638834405007
 20
-142.0223388316819
 30
0.0
  0
VERTEX
  5
134
330
132
100
AcDbEntity
  8
_U+30EC_U+30A4_U+30E4_U+30FC 1
370
     0
100
AcDbVertex
100
AcDb2dVertex
 10
92.1638834405007
 20
-142.3692599470466
 30
0.0
  0
VERTEX
  5
135
330
132
100
AcDbEntity
  8
_U+30EC_U+30A4_U+30E4_U+30FC 1
370
     0
100
AcDbVertex
100
AcDb2dVertex
 10
91.93099498569781
 20
-142.3692599470466
 30
0.0
  0
VERTEX
  5
136
330
132
100
AcDbEntity
  8
_U+30EC_U+30A4_U+30E4_U+30FC 1
370
     0
100
AcDbVertex
100
AcDb2dVertex
 10
91.93099498569781
 20
-142.0223388316819
 30
0.0
  0
VERTEX
  5
137
330
132
100
AcDbEntity
  8
_U+30EC_U+30A4_U+30E4_U+30FC 1
370
     0
100
AcDbVertex
100
AcDb2dVertex
 10
91.22991805444947
 20
-142.0223388316819
 30
0.0
  0
VERTEX
  5
138
330
132
100
AcDbEntity
  8
_U+30EC_U+30A4_U+30E4_U+30FC 1
370
     0
100
AcDbVertex
100
AcDb2dVertex
 10
91.22991805444947
 20
-141.7980631155922
 30
0.0
  0
VERTEX
  5
139
330
132
100
AcDbEntity
  8
_U+30EC_U+30A4_U+30E4_U+30FC 1
370
     0
100
AcDbVertex
100
AcDb2dVertex
 10
91.9557996731916
 20
-140.8248236410091
 30
0.0
  0
VERTEX
  5
13A
330
132
100
AcDbEntity
  8
_U+30EC_U+30A4_U+30E4_U+30FC 1
370
     0
100
AcDbVertex
100
AcDb2dVertex
 10
92.1638834405007
 20
-140.8248236410091
 30
0.0
  0
VERTEX
  5
13B
330
132
100
AcDbEntity
  8
_U+30EC_U+30A4_U+30E4_U+30FC 1
370
     0
100
AcDbVertex
100
AcDb2dVertex
 10
92.1638834405007
 20
-141.823556822183
 30
0.0
  0
VERTEX
  5
13C
330
132
100
AcDbEntity
  8
_U+30EC_U+30A4_U+30E4_U+30FC 1
370
     0
100
AcDbVertex
100
AcDb2dVertex
 10
92.38540308020227
 20
-141.823556822183
 30
0.0
  0
VERTEX
  5
13D
330
132
100
AcDbEntity
  8
_U+30EC_U+30A4_U+30E4_U+30FC 1
370
     0
100
AcDbVertex
100
AcDb2dVertex
 10
92.38540308020227
 20
-142.0223388316819
 30
0.0
  0
VERTEX
  5
13E
330
132
100
AcDbEntity
  8
_U+30EC_U+30A4_U+30E4_U+30FC 1
370
     0
100
AcDbVertex
100
AcDb2dVertex
 10
92.1638834405007
 20
-142.0223388316819
 30
0.0
  0
SEQEND
  5
13F
330
132
100
AcDbEntity
  8
_U+30EC_U+30A4_U+30E4_U+30FC 1
370
     0
  0
POLYLINE
  5
140
330
12C
100
AcDbEntity
  8
_U+30EC_U+30A4_U+30E4_U+30FC 1
370
     0
100
AcDb2dPolyline
 66
     1
 10
0.0
 20
0.0
 30
0.0
  0
VERTEX
  5
141
330
140
100
AcDbEntity
  8
_U+30EC_U+30A4_U+30E4_U+30FC 1
370
     0
100
AcDbVertex
100
AcDb2dVertex
 10
91.93099498569781
 20
-141.1676106417914
 30
0.0
  0
VERTEX
  5
142
330
140
100
AcDbEntity
  8
_U+30EC_U+30A4_U+30E4_U+30FC 1
370
     0
100
AcDbVertex
100
AcDb2dVertex
 10
91.44248044588939
 20
-141.823556822183
 30
0.0
  0
VERTEX
  5
143
330
140
100
AcDbEntity
  8
_U+30EC_U+30A4_U+30E4_U+30FC 1
370
     0
100
AcDbVertex
100
AcDb2dVertex
 10
91.93099498569781
 20
-141.823556822183
 30
0.0
  0
VERTEX
  5
144
330
140
100
AcDbEntity
  8
_U+30EC_U+30A4_U+30E4_U+30FC 1
370
     0
100
AcDbVertex
100
AcDb2dVertex
 10
91.93099498569781
 20
-141.1676106417914
 30
0.0
  0
SEQEND
  5
145
330
140
100
AcDbEntity
  8
_U+30EC_U+30A4_U+30E4_U+30FC 1
370
     0
  0
HATCH
  5
146
330
12C
100
AcDbEntity
  8
_U+30EC_U+30A4_U+30E4_U+30FC 1
 62
     7
420
 16777215
100
AcDbHatch
 10
0.0
 20
0.0
 30
0.0
210
0.0
220
0.0
230
1.0
  2
SOLID
 70
     1
 71
     0
 91
        2
 92
        1
 93
       11
 72
     1
 10
92.1638834405007
 20
-142.0223388316819
 11
92.1638834405007
 21
-142.3692599470466
 72
     1
 10
92.1638834405007
 20
-142.3692599470466
 11
91.93099498569781
 21
-142.3692599470466
 72
     1
 10
91.93099498569781
 20
-142.3692599470466
 11
91.93099498569781
 21
-142.0223388316819
 72
     1
 10
91.93099498569781
 20
-142.0223388316819
 11
91.22991805444947
 21
-142.0223388316819
 72
     1
 10
91.22991805444947
 20
-142.0223388316819
 11
91.22991805444947
 21
-141.7980631155922
 72
     1
 10
91.22991805444947
 20
-141.7980631155922
 11
91.9557996731916
 21
-140.8248236410091
 72
     1
 10
91.9557996731916
 20
-140.8248236410091
 11
92.1638834405007
 21
-140.8248236410091
 72
     1
 10
92.1638834405007
 20
-140.8248236410091
 11
92.1638834405007
 21
-141.823556822183
 72
     1
 10
92.1638834405007
 20
-141.823556822183
 11
92.38540308020227
 21
-141.823556822183
 72
     1
 10
92.38540308020227
 20
-141.823556822183
 11
92.38540308020227
 21
-142.0223388316819
 72
     1
 10
92.38540308020227
 20
-142.0223388316819
 11
92.1638834405007
 21
-142.0223388316819
 97
        0
 92
        1
 93
        3
 72
     1
 10
91.93099498569781
 20
-141.1676106417914
 11
91.44248044588939
 21
-141.823556822183
 72
     1
 10
91.44248044588939
 20
-141.823556822183
 11
91.93099498569781
 21
-141.823556822183
 72
     1
 10
91.93099498569781
 20
-141.823556822183
 11
91.93099498569781
 21
-141.1676106417914
 97
        0
 75
     2
 76
     1
 98
        0
  0
POLYLINE
  5
147
330
12C
100
AcDbEntity
  8
_U+30EC_U+30A4_U+30E4_U+30FC 1
370
     0
100
AcDb2dPolyline
 66
     1
 10
0.0
 20
0.0
 30
0.0
  0
VERTEX
  5
148
330
147
100
AcDbEntity
  8
_U+30EC_U+30A4_U+30E4_U+30FC 1
370
     0
100
AcDbVertex
100
AcDb2dVertex
 10
92.59624292389955
 20
-142.3692599470466
 30
0.0
  0
VERTEX
  5
149
330
147
100
AcDbEntity
  8
_U+30EC_U+30A4_U+30E4_U+30FC 1
370
     0
100
AcDbVertex
100
AcDb2dVertex
 10
92.59624292389955
 20
-142.1174234670748
 30
0.0
  0
VERTEX
  5
14A
330
147
100
AcDbEntity
  8
_U+30EC_U+30A4_U+30E4_U+30FC 1
370
     0
100
AcDbVertex
100
AcDb2dVertex
 10
92.86530488129756
 20
-142.1174234670748
 30
0.0
  0
VERTEX
  5
14B
330
147
100
AcDbEntity
  8
_U+30EC_U+30A4_U+30E4_U+30FC 1
370
     0
100
AcDbVertex
100
AcDb2dVertex
 10
92.86530488129756
 20
-142.3692599470466
 30
0.0
  0
VERTEX
  5
14C
330
147
100
AcDbEntity
  8
_U+30EC_U+30A4_U+30E4_U+30FC 1
370
     0
100
AcDbVertex
100
AcDb2dVertex
 10
92.59624292389955
 20
-142.3692599470466
 30
0.0
  0
SEQEND
  5
14D
330
147
100
AcDbEntity
  8
_U+30EC_U+30A4_U+30E4_U+30FC 1
370
     0
  0
HATCH
  5
14E
330
12C
100
AcDbEntity
  8
_U+30EC_U+30A4_U+30E4_U+30FC 1
 62
     7
420
 16777215
100
AcDbHatch
 10
0.0
 20
0.0
 30
0.0
210
0.0
220
0.0
230
1.0
  2
SOLID
 70
     1
 71
     0
 91
        1
 92
        1
 93
        4
 72
     1
 10
92.59624292389955
 20
-142.3692599470466
 11
92.59624292389955
 21
-142.1174234670748
 72
     1
 10
92.59624292389955
 20
-142.1174234670748
 11
92.86530488129756
 21
-142.1174234670748
 72
     1
 10
92.86530488129756
 20
-142.1174234670748
 11
92.86530488129756
 21
-142.3692599470466
 72
     1
 10
92.86530488129756
 20
-142.3692599470466
 11
92.59624292389955
 21
-142.3692599470466
 97
        0
 75
     2
 76
     1
 98
        0
  0
SPLINE
  5
14F
330
12C
100
AcDbEntity
  8
_U+30EC_U+30A4_U+30E4_U+30FC 1
370
     0
100
AcDbSpline
210
0.0
220
0.0
230
1.0
 70
    11
 71
     3
 72
    53
 73
    49
 74
     0
 42
0.0000000001
 43
0.0000000001
 12
1.0
 22
0.0
 32
0.0
 13
1.0
 23
0.0
 33
0.0
 40
0.0
 40
0.0
 40
0.0
 40
0.0
 40
1.0
 40
1.0
 40
1.0
 40
2.0
 40
2.0
 40
2.0
 40
3.0
 40
3.0
 40
3.0
 40
4.0
 40
4.0
 40
4.0
 40
5.0
 40
5.0
 40
5.0
 40
6.0
 40
6.0
 40
6.0
 40
7.0
 40
7.0
 40
7.0
 40
8.0
 40
8.0
 40
8.0
 40
9.0
 40
9.0
 40
9.0
 40
10.0
 40
10.0
 40
10.0
 40
11.0
 40
11.0
 40
11.0
 40
12.0
 40
12.0
 40
12.0
 40
13.0
 40
13.0
 40
13.0
 40
14.0
 40
14.0
 40
14.0
 40
15.0
 40
15.0
 40
15.0
 40
16.0
 40
16.0
 40
16.0
 40
16.0
 10
93.63218313631418
 20
-142.4199028506798
 30
0.0
 10
93.54846731602261
 20
-142.4199028506798
 30
0.0
 10
93.44029131778576
 20
-142.403021882802
 30
0.0
 10
93.33142630045187
 20
-142.3396321258734
 30
0.0
 10
93.14608016334543
 20
-142.229733579894
 30
0.0
 10
93.1236870426913
 20
-142.0984754419059
 30
0.0
 10
93.10336097932833
 20
-141.9906439532176
 30
0.0
 10
93.10336097932833
 20
-141.9906439532176
 30
0.0
 10
93.34072805826204
 20
-141.9906439532176
 30
0.0
 10
93.34072805826204
 20
-141.9906439532176
 30
0.0
 10
93.3992946815113
 20
-142.1894259627165
 30
0.0
 10
93.53503144363013
 20
-142.2190537838897
 30
0.0
 10
93.63459470315385
 20
-142.2190537838897
 30
0.0
 10
93.78376733766517
 20
-142.2190537838897
 30
0.0
 10
93.94672035411749
 20
-142.119490524366
 30
0.0
 10
93.94672035411749
 20
-141.8869465791116
 30
0.0
 10
93.94672035411749
 20
-141.6309759845576
 30
0.0
 10
93.75448402604054
 20
-141.561040546207
 30
0.0
 10
93.6256374548922
 20
-141.561040546207
 30
0.0
 10
93.59153100958824
 20
-141.561040546207
 30
0.0
 10
93.44029131778576
 20
-141.561040546207
 30
0.0
 10
93.34520668239287
 20
-141.6902316269038
 30
0.0
 10
93.34520668239287
 20
-141.6902316269038
 30
0.0
 10
93.15744897844675
 20
-141.671283601735
 30
0.0
 10
93.15744897844675
 20
-141.671283601735
 30
0.0
 10
93.15744897844675
 20
-141.671283601735
 30
0.0
 10
93.2862955495951
 20
-140.8248236410091
 30
0.0
 10
93.2862955495951
 20
-140.8248236410091
 30
0.0
 10
93.2862955495951
 20
-140.8248236410091
 30
0.0
 10
94.11828610928293
 20
-140.8248236410091
 30
0.0
 10
94.11828610928293
 20
-140.8248236410091
 30
0.0
 10
94.11828610928293
 20
-140.8248236410091
 30
0.0
 10
94.11828610928293
 20
-141.0194715359257
 30
0.0
 10
94.11828610928293
 20
-141.0194715359257
 30
0.0
 10
94.11828610928293
 20
-141.0194715359257
 30
0.0
 10
93.46061738114874
 20
-141.0194715359257
 30
0.0
 10
93.46061738114874
 20
-141.0194715359257
 30
0.0
 10
93.46061738114874
 20
-141.0194715359257
 30
0.0
 10
93.39033743324964
 20
-141.4425292615144
 30
0.0
 10
93.39033743324964
 20
-141.4425292615144
 30
0.0
 10
93.45579424746938
 20
-141.4087673257589
 30
0.0
 10
93.54398869189178
 20
-141.3684597085815
 30
0.0
 10
93.67076820574898
 20
-141.3684597085815
 30
0.0
 10
93.94189722043814
 20
-141.3684597085815
 30
0.0
 10
94.195111738604
 20
-141.5548393743335
 30
0.0
 10
94.195111738604
 20
-141.8679985539427
 30
0.0
 10
94.195111738604
 20
-142.1852918481342
 30
0.0
 10
93.95567760237914
 20
-142.4199028506798
 30
0.0
 10
93.63218313631418
 20
-142.4199028506798
 30
0.0
  0
HATCH
  5
150
330
12C
100
AcDbEntity
  8
_U+30EC_U+30A4_U+30E4_U+30FC 1
 62
     7
420
 16777215
100
AcDbHatch
 10
0.0
 20
0.0
 30
0.0
210
0.0
220
0.0
230
1.0
  2
SOLID
 70
     1
 71
     0
 91
        1
 92
        1
 93
        1
 72
     4
 94
        3
 73
     0
 74
     1
 95
       53
 96
       49
 40
0.0
 40
0.0
 40
0.0
 40
0.0
 40
1.0
 40
1.0
 40
1.0
 40
2.0
 40
2.0
 40
2.0
 40
3.0
 40
3.0
 40
3.0
 40
4.0
 40
4.0
 40
4.0
 40
5.0
 40
5.0
 40
5.0
 40
6.0
 40
6.0
 40
6.0
 40
7.0
 40
7.0
 40
7.0
 40
8.0
 40
8.0
 40
8.0
 40
9.0
 40
9.0
 40
9.0
 40
10.0
 40
10.0
 40
10.0
 40
11.0
 40
11.0
 40
11.0
 40
12.0
 40
12.0
 40
12.0
 40
13.0
 40
13.0
 40
13.0
 40
14.0
 40
14.0
 40
14.0
 40
15.0
 40
15.0
 40
15.0
 40
16.0
 40
16.0
 40
16.0
 40
16.0
 10
93.63218313631418
 20
-142.4199028506798
 10
93.54846731602261
 20
-142.4199028506798
 10
93.44029131778576
 20
-142.403021882802
 10
93.33142630045187
 20
-142.3396321258734
 10
93.14608016334543
 20
-142.229733579894
 10
93.1236870426913
 20
-142.0984754419059
 10
93.10336097932833
 20
-141.9906439532176
 10
93.10336097932833
 20
-141.9906439532176
 10
93.34072805826204
 20
-141.9906439532176
 10
93.34072805826204
 20
-141.9906439532176
 10
93.3992946815113
 20
-142.1894259627165
 10
93.53503144363013
 20
-142.2190537838897
 10
93.63459470315385
 20
-142.2190537838897
 10
93.78376733766517
 20
-142.2190537838897
 10
93.94672035411749
 20
-142.119490524366
 10
93.94672035411749
 20
-141.8869465791116
 10
93.94672035411749
 20
-141.6309759845576
 10
93.75448402604054
 20
-141.561040546207
 10
93.6256374548922
 20
-141.561040546207
 10
93.59153100958824
 20
-141.561040546207
 10
93.44029131778576
 20
-141.561040546207
 10
93.34520668239287
 20
-141.6902316269038
 10
93.34520668239287
 20
-141.6902316269038
 10
93.15744897844675
 20
-141.671283601735
 10
93.15744897844675
 20
-141.671283601735
 10
93.15744897844675
 20
-141.671283601735
 10
93.2862955495951
 20
-140.8248236410091
 10
93.2862955495951
 20
-140.8248236410091
 10
93.2862955495951
 20
-140.8248236410091
 10
94.11828610928293
 20
-140.8248236410091
 10
94.11828610928293
 20
-140.8248236410091
 10
94.11828610928293
 20
-140.8248236410091
 10
94.11828610928293
 20
-141.0194715359257
 10
94.11828610928293
 20
-141.0194715359257
 10
94.11828610928293
 20
-141.0194715359257
 10
93.46061738114874
 20
-141.0194715359257
 10
93.46061738114874
 20
-141.0194715359257
 10
93.46061738114874
 20
-141.0194715359257
 10
93.39033743324964
 20
-141.4425292615144
 10
93.39033743324964
 20
-141.4425292615144
 10
93.45579424746938
 20
-141.4087673257589
 10
93.54398869189178
 20
-141.3684597085815
 10
93.67076820574898
 20
-141.3684597085815
 10
93.94189722043814
 20
-141.3684597085815
 10
94.195111738604
 20
-141.5548393743335
 10
94.195111738604
 20
-141.8679985539427
 10
94.195111738604
 20
-142.1852918481342
 10
93.95567760237914
 20
-142.4199028506798
 10
93.63218313631418
 20
-142.4199028506798
 97
        0
 97
        0
 75
     2
 76
     1
 98
        0
  0
ENDBLK
  5
12F
330
12C
100
AcDbEntity
  8
0
100
AcDbBlockEnd
  0
BLOCK
  5
15B
330
159
100
AcDbEntity
  8
0
100
AcDbBlockBegin
  2
block 8
 70
     0
 10
0.0
 20
0.0
 30
0.0
  3
block 8
  1

  0
SPLINE
  5
15D
330
159
100
AcDbEntity
  8
_U+30EC_U+30A4_U+30E4_U+30FC 1
370
     0
100
AcDbSpline
210
0.0
220
0.0
230
1.0
 70
    11
 71
     3
 72
    26
 73
    22
 74
     0
 42
0.0000000001
 43
0.0000000001
 12
1.0
 22
0.0
 32
0.0
 13
1.0
 23
0.0
 33
0.0
 40
0.0
 40
0.0
 40
0.0
 40
0.0
 40
1.0
 40
1.0
 40
1.0
 40
2.0
 40
2.0
 40
2.0
 40
3.0
 40
3.0
 40
3.0
 40
4.0
 40
4.0
 40
4.0
 40
5.0
 40
5.0
 40
5.0
 40
6.0
 40
6.0
 40
6.0
 40
7.0
 40
7.0
 40
7.0
 40
7.0
 10
78.53732501291776
 20
-114.8851494395947
 30
0.0
 10
78.53732501291776
 20
-114.8851494395947
 30
0.0
 10
78.53732501291776
 20
-113.7808240817979
 30
0.0
 10
78.53732501291776
 20
-113.7808240817979
 30
0.0
 10
78.53732501291776
 20
-113.7808240817979
 30
0.0
 10
78.18454723522817
 20
-113.7808240817979
 30
0.0
 10
78.18454723522817
 20
-113.7808240817979
 30
0.0
 10
78.18454723522817
 20
-113.7808240817979
 30
0.0
 10
78.18454723522817
 20
-113.6326849759321
 30
0.0
 10
78.18454723522817
 20
-113.6326849759321
 30
0.0
 10
78.53956432498317
 20
-113.6180433201198
 30
0.0
 10
78.58934595474503
 20
-113.4550903036675
 30
0.0
 10
78.62086857843506
 20
-113.3408853883314
 30
0.0
 10
78.62086857843506
 20
-113.3408853883314
 30
0.0
 10
78.77693140391688
 20
-113.3408853883314
 30
0.0
 10
78.77693140391688
 20
-113.3408853883314
 30
0.0
 10
78.77693140391688
 20
-113.3408853883314
 30
0.0
 10
78.77693140391688
 20
-114.8851494395947
 30
0.0
 10
78.77693140391688
 20
-114.8851494395947
 30
0.0
 10
78.77693140391688
 20
-114.8851494395947
 30
0.0
 10
78.53732501291776
 20
-114.8851494395947
 30
0.0
 10
78.53732501291776
 20
-114.8851494395947
 30
0.0
  0
HATCH
  5
15E
330
159
100
AcDbEntity
  8
_U+30EC_U+30A4_U+30E4_U+30FC 1
 62
     7
420
 16777215
100
AcDbHatch
 10
0.0
 20
0.0
 30
0.0
210
0.0
220
0.0
230
1.0
  2
SOLID
 70
     1
 71
     0
 91
        1
 92
        1
 93
        1
 72
     4
 94
        3
 73
     0
 74
     1
 95
       26
 96
       22
 40
0.0
 40
0.0
 40
0.0
 40
0.0
 40
1.0
 40
1.0
 40
1.0
 40
2.0
 40
2.0
 40
2.0
 40
3.0
 40
3.0
 40
3.0
 40
4.0
 40
4.0
 40
4.0
 40
5.0
 40
5.0
 40
5.0
 40
6.0
 40
6.0
 40
6.0
 40
7.0
 40
7.0
 40
7.0
 40
7.0
 10
78.53732501291776
 20
-114.8851494395947
 10
78.53732501291776
 20
-114.8851494395947
 10
78.53732501291776
 20
-113.7808240817979
 10
78.53732501291776
 20
-113.7808240817979
 10
78.53732501291776
 20
-113.7808240817979
 10
78.18454723522817
 20
-113.7808240817979
 10
78.18454723522817
 20
-113.7808240817979
 10
78.18454723522817
 20
-113.7808240817979
 10
78.18454723522817
 20
-113.6326849759321
 10
78.18454723522817
 20
-113.6326849759321
 10
78.53956432498317
 20
-113.6180433201198
 10
78.58934595474503
 20
-113.4550903036675
 10
78.62086857843506
 20
-113.3408853883314
 10
78.62086857843506
 20
-113.3408853883314
 10
78.77693140391688
 20
-113.3408853883314
 10
78.77693140391688
 20
-113.3408853883314
 10
78.77693140391688
 20
-113.3408853883314
 10
78.77693140391688
 20
-114.8851494395947
 10
78.77693140391688
 20
-114.8851494395947
 10
78.77693140391688
 20
-114.8851494395947
 10
78.53732501291776
 20
-114.8851494395947
 10
78.53732501291776
 20
-114.8851494395947
 97
        0
 97
        0
 75
     2
 76
     1
 98
        0
  0
ENDBLK
  5
15C
330
159
100
AcDbEntity
  8
0
100
AcDbBlockEnd
  0
ENDSEC
  0
SECTION
  2
ENTITIES
  0
SPLINE
  5
41
330
1F
100
AcDbEntity
  8
_U+30EC_U+30A4_U+30E4_U+30FC 1
370
     0
100
AcDbSpline
210
0.0
220
0.0
230
1.0
 70
    11
 71
     3
 72
    74
 73
    70
 74
     0
 42
0.0000000001
 43
0.0000000001
 12
1.0
 22
0.0
 32
0.0
 13
1.0
 23
0.0
 33
0.0
 40
0.0
 40
0.0
 40
0.0
 40
0.0
 40
1.0
 40
1.0
 40
1.0
 40
2.0
 40
2.0
 40
2.0
 40
3.0
 40
3.0
 40
3.0
 40
4.0
 40
4.0
 40
4.0
 40
5.0
 40
5.0
 40
5.0
 40
6.0
 40
6.0
 40
6.0
 40
7.0
 40
7.0
 40
7.0
 40
8.0
 40
8.0
 40
8.0
 40
9.0
 40
9.0
 40
9.0
 40
10.0
 40
10.0
 40
10.0
 40
11.0
 40
11.0
 40
11.0
 40
12.0
 40
12.0
 40
12.0
 40
13.0
 40
13.0
 40
13.0
 40
14.0
 40
14.0
 40
14.0
 40
15.0
 40
15.0
 40
15.0
 40
16.0
 40
16.0
 40
16.0
 40
17.0
 40
17.0
 40
17.0
 40
18.0
 40
18.0
 40
18.0
 40
19.0
 40
19.0
 40
19.0
 40
20.0
 40
20.0
 40
20.0
 40
21.0
 40
21.0
 40
21.0
 40
22.0
 40
22.0
 40
22.0
 40
23.0
 40
23.0
 40
23.0
 40
23.0
 10
103.5940031904301
 20
-138.4656305209392
 30
0.0
 10
103.5940031904301
 20
-138.4656305209392
 30
0.0
 10
94.09383898835506
 20
-138.4656305209392
 30
0.0
 10
94.09383898835506
 20
-138.4656305209392
 30
0.0
 10
94.09383898835506
 20
-138.4656305209392
 30
0.0
 10
92.71991069007356
 20
-137.9653916321755
 30
0.0
 10
92.71991069007356
 20
-137.9653916321755
 30
0.0
 10
92.71991069007356
 20
-137.9653916321755
 30
0.0
 10
84.00778146789405
 20
-137.9653916321755
 30
0.0
 10
84.00778146789405
 20
-137.9653916321755
 30
0.0
 10
84.00778146789405
 20
-137.9653916321755
 30
0.0
 10
82.72483455618031
 20
-136.6824446880515
 30
0.0
 10
82.72483455618031
 20
-136.6824446880515
 30
0.0
 10
82.72483455618031
 20
-136.6824446880515
 30
0.0
 10
86.9423280596942
 20
-132.4656566335505
 30
0.0
 10
86.9423280596942
 20
-132.4656566335505
 30
0.0
 10
86.9423280596942
 20
-132.4656566335505
 30
0.0
 10
94.09383898835506
 20
-132.4656566335505
 30
0.0
 10
94.09383898835506
 20
-132.4656566335505
 30
0.0
 10
94.09383898835506
 20
-132.4656566335505
 30
0.0
 10
94.09383898835506
 20
-131.9654177447862
 30
0.0
 10
94.09383898835506
 20
-131.9654177447862
 30
0.0
 10
94.09383898835506
 20
-131.9654177447862
 30
0.0
 10
92.09358903938569
 20
-131.4651788560225
 30
0.0
 10
92.09358903938569
 20
-131.4651788560225
 30
0.0
 10
92.09358903938569
 20
-131.4651788560225
 30
0.0
 10
87.09391666693796
 20
-131.4651788560225
 30
0.0
 10
87.09391666693796
 20
-131.4651788560225
 30
0.0
 10
87.09391666693796
 20
-131.4651788560225
 30
0.0
 10
87.09391666693796
 20
-126.4653299683838
 30
0.0
 10
87.09391666693796
 20
-126.4653299683838
 30
0.0
 10
87.09391666693796
 20
-126.4653299683838
 30
0.0
 10
86.59367779081123
 20
-124.4654327466616
 30
0.0
 10
86.59367779081123
 20
-124.4654327466616
 30
0.0
 10
86.59367779081123
 20
-124.4654327466616
 30
0.0
 10
86.0934389146845
 20
-124.4654327466616
 30
0.0
 10
86.0934389146845
 20
-124.4654327466616
 30
0.0
 10
86.0934389146845
 20
-124.4654327466616
 30
0.0
 10
86.0934389146845
 20
-131.6167674670959
 30
0.0
 10
86.0934389146845
 20
-131.6167674670959
 30
0.0
 10
86.0934389146845
 20
-131.6167674670959
 30
0.0
 10
81.87665096670817
 20
-135.8342610771523
 30
0.0
 10
81.87665096670817
 20
-135.8342610771523
 30
0.0
 10
81.87665096670817
 20
-135.8342610771523
 30
0.0
 10
80.59370405499442
 20
-134.551314133029
 30
0.0
 10
80.59370405499442
 20
-134.551314133029
 30
0.0
 10
80.59370405499442
 20
-134.551314133029
 30
0.0
 10
80.59370405499442
 20
-125.8393610796513
 30
0.0
 10
80.59370405499442
 20
-125.8393610796513
 30
0.0
 10
80.59370405499442
 20
-125.8393610796513
 30
0.0
 10
80.09346517886769
 20
-124.4654327466616
 30
0.0
 10
80.09346517886769
 20
-124.4654327466616
 30
0.0
 10
80.09346517886769
 20
-124.4654327466616
 30
0.0
 10
80.09346517886769
 20
-119.9654699700085
 30
0.0
 10
80.09346517886769
 20
-119.9654699700085
 30
0.0
 10
80.09346517886769
 20
-119.6891744145221
 30
0.0
 10
79.8695571290245
 20
-119.4652310812448
 30
0.0
 10
79.59393185827851
 20
-119.4652310812448
 30
0.0
 10
79.59393185827851
 20
-119.4652310812448
 30
0.0
 10
79.59393185827851
 20
-134.9654046884812
 30
0.0
 10
79.59393185827851
 20
-134.9654046884812
 30
0.0
 10
79.59393185827851
 20
-134.9654046884812
 30
0.0
 10
83.59369092290282
 20
-138.9651638541474
 30
0.0
 10
83.59369092290282
 20
-138.9651638541474
 30
0.0
 10
83.59369092290282
 20
-138.9651638541474
 30
0.0
 10
104.0935717887962
 20
-138.9651638541474
 30
0.0
 10
104.0935717887962
 20
-138.9651638541474
 30
0.0
 10
104.0935717887962
 20
-138.689538576439
 30
0.0
 10
103.8702987389368
 20
-138.4656305209392
 30
0.0
 10
103.5940031904301
 20
-138.4656305209392
 30
0.0
  0
HATCH
  5
42
330
1F
100
AcDbEntity
  8
_U+30EC_U+30A4_U+30E4_U+30FC 1
 62
   253
420
 11711154
100
AcDbHatch
 10
0.0
 20
0.0
 30
0.0
210
0.0
220
0.0
230
1.0
  2
SOLID
 70
     1
 71
     0
 91
        1
 92
        1
 93
        1
 72
     4
 94
        3
 73
     0
 74
     1
 95
       74
 96
       70
 40
0.0
 40
0.0
 40
0.0
 40
0.0
 40
1.0
 40
1.0
 40
1.0
 40
2.0
 40
2.0
 40
2.0
 40
3.0
 40
3.0
 40
3.0
 40
4.0
 40
4.0
 40
4.0
 40
5.0
 40
5.0
 40
5.0
 40
6.0
 40
6.0
 40
6.0
 40
7.0
 40
7.0
 40
7.0
 40
8.0
 40
8.0
 40
8.0
 40
9.0
 40
9.0
 40
9.0
 40
10.0
 40
10.0
 40
10.0
 40
11.0
 40
11.0
 40
11.0
 40
12.0
 40
12.0
 40
12.0
 40
13.0
 40
13.0
 40
13.0
 40
14.0
 40
14.0
 40
14.0
 40
15.0
 40
15.0
 40
15.0
 40
16.0
 40
16.0
 40
16.0
 40
17.0
 40
17.0
 40
17.0
 40
18.0
 40
18.0
 40
18.0
 40
19.0
 40
19.0
 40
19.0
 40
20.0
 40
20.0
 40
20.0
 40
21.0
 40
21.0
 40
21.0
 40
22.0
 40
22.0
 40
22.0
 40
23.0
 40
23.0
 40
23.0
 40
23.0
 10
103.5940031904301
 20
-138.4656305209392
 10
103.5940031904301
 20
-138.4656305209392
 10
94.09383898835506
 20
-138.4656305209392
 10
94.09383898835506
 20
-138.4656305209392
 10
94.09383898835506
 20
-138.4656305209392
 10
92.71991069007356
 20
-137.9653916321755
 10
92.71991069007356
 20
-137.9653916321755
 10
92.71991069007356
 20
-137.9653916321755
 10
84.00778146789405
 20
-137.9653916321755
 10
84.00778146789405
 20
-137.9653916321755
 10
84.00778146789405
 20
-137.9653916321755
 10
82.72483455618031
 20
-136.6824446880515
 10
82.72483455618031
 20
-136.6824446880515
 10
82.72483455618031
 20
-136.6824446880515
 10
86.9423280596942
 20
-132.4656566335505
 10
86.9423280596942
 20
-132.4656566335505
 10
86.9423280596942
 20
-132.4656566335505
 10
94.09383898835506
 20
-132.4656566335505
 10
94.09383898835506
 20
-132.4656566335505
 10
94.09383898835506
 20
-132.4656566335505
 10
94.09383898835506
 20
-131.9654177447862
 10
94.09383898835506
 20
-131.9654177447862
 10
94.09383898835506
 20
-131.9654177447862
 10
92.09358903938569
 20
-131.4651788560225
 10
92.09358903938569
 20
-131.4651788560225
 10
92.09358903938569
 20
-131.4651788560225
 10
87.09391666693796
 20
-131.4651788560225
 10
87.09391666693796
 20
-131.4651788560225
 10
87.09391666693796
 20
-131.4651788560225
 10
87.09391666693796
 20
-126.4653299683838
 10
87.09391666693796
 20
-126.4653299683838
 10
87.09391666693796
 20
-126.4653299683838
 10
86.59367779081123
 20
-124.4654327466616
 10
86.59367779081123
 20
-124.4654327466616
 10
86.59367779081123
 20
-124.4654327466616
 10
86.0934389146845
 20
-124.4654327466616
 10
86.0934389146845
 20
-124.4654327466616
 10
86.0934389146845
 20
-124.4654327466616
 10
86.0934389146845
 20
-131.6167674670959
 10
86.0934389146845
 20
-131.6167674670959
 10
86.0934389146845
 20
-131.6167674670959
 10
81.87665096670817
 20
-135.8342610771523
 10
81.87665096670817
 20
-135.8342610771523
 10
81.87665096670817
 20
-135.8342610771523
 10
80.59370405499442
 20
-134.551314133029
 10
80.59370405499442
 20
-134.551314133029
 10
80.59370405499442
 20
-134.551314133029
 10
80.59370405499442
 20
-125.8393610796513
 10
80.59370405499442
 20
-125.8393610796513
 10
80.59370405499442
 20
-125.8393610796513
 10
80.09346517886769
 20
-124.4654327466616
 10
80.09346517886769
 20
-124.4654327466616
 10
80.09346517886769
 20
-124.4654327466616
 10
80.09346517886769
 20
-119.9654699700085
 10
80.09346517886769
 20
-119.9654699700085
 10
80.09346517886769
 20
-119.6891744145221
 10
79.8695571290245
 20
-119.4652310812448
 10
79.59393185827851
 20
-119.4652310812448
 10
79.59393185827851
 20
-119.4652310812448
 10
79.59393185827851
 20
-134.9654046884812
 10
79.59393185827851
 20
-134.9654046884812
 10
79.59393185827851
 20
-134.9654046884812
 10
83.59369092290282
 20
-138.9651638541474
 10
83.59369092290282
 20
-138.9651638541474
 10
83.59369092290282
 20
-138.9651638541474
 10
104.0935717887962
 20
-138.9651638541474
 10
104.0935717887962
 20
-138.9651638541474
 10
104.0935717887962
 20
-138.689538576439
 10
103.8702987389368
 20
-138.4656305209392
 10
103.5940031904301
 20
-138.4656305209392
 97
        0
 97
        0
 75
     2
 76
     1
 98
        0
  0
POLYLINE
  5
43
330
1F
100
AcDbEntity
  8
_U+30EC_U+30A4_U+30E4_U+30FC 1
 62
     7
420
 16777215
370
    25
100
AcDb2dPolyline
 66
     1
 10
0.0
 20
0.0
 30
0.0
  0
VERTEX
  5
44
330
43
100
AcDbEntity
  8
_U+30EC_U+30A4_U+30E4_U+30FC 1
 62
     7
420
 16777215
370
    25
100
AcDbVertex
100
AcDb2dVertex
 10
79.59393185827851
 20
-119.4652310812448
 30
0.0
  0
VERTEX
  5
45
330
43
100
AcDbEntity
  8
_U+30EC_U+30A4_U+30E4_U+30FC 1
 62
     7
420
 16777215
370
    25
100
AcDbVertex
100
AcDb2dVertex
 10
79.59393185827851
 20
-134.9654046884812
 30
0.0
  0
SEQEND
  5
46
330
43
100
AcDbEntity
  8
_U+30EC_U+30A4_U+30E4_U+30FC 1
 62
     7
420
 16777215
370
    25
  0
POLYLINE
  5
47
330
1F
100
AcDbEntity
  8
_U+30EC_U+30A4_U+30E4_U+30FC 1
 62
     7
420
 16777215
370
    25
100
AcDb2dPolyline
 66
     1
 10
0.0
 20
0.0
 30
0.0
  0
VERTEX
  5
48
330
47
100
AcDbEntity
  8
_U+30EC_U+30A4_U+30E4_U+30FC 1
 62
     7
420
 16777215
370
    25
100
AcDbVertex
100
AcDb2dVertex
 10
83.59369092290282
 20
-138.9651638541474
 30
0.0
  0
VERTEX
  5
49
330
47
100
AcDbEntity
  8
_U+30EC_U+30A4_U+30E4_U+30FC 1
 62
     7
420
 16777215
370
    25
100
AcDbVertex
100
AcDb2dVertex
 10
79.59393185827851
 20
-134.9654046884812
 30
0.0
  0
SEQEND
  5
4A
330
47
100
AcDbEntity
  8
_U+30EC_U+30A4_U+30E4_U+30FC 1
 62
     7
420
 16777215
370
    25
  0
POLYLINE
  5
4B
330
1F
100
AcDbEntity
  8
_U+30EC_U+30A4_U+30E4_U+30FC 1
 62
     7
420
 16777215
370
    25
100
AcDb2dPolyline
 66
     1
 10
0.0
 20
0.0
 30
0.0
  0
VERTEX
  5
4C
330
4B
100
AcDbEntity
  8
_U+30EC_U+30A4_U+30E4_U+30FC 1
 62
     7
420
 16777215
370
    25
100
AcDbVertex
100
AcDb2dVertex
 10
80.59370405499442
 20
-125.8393610796513
 30
0.0
  0
VERTEX
  5
4D
330
4B
100
AcDbEntity
  8
_U+30EC_U+30A4_U+30E4_U+30FC 1
 62
     7
420
 16777215
370
    25
100
AcDbVertex
100
AcDb2dVertex
 10
80.59370405499442
 20
-134.551314133029
 30
0.0
  0
SEQEND
  5
4E
330
4B
100
AcDbEntity
  8
_U+30EC_U+30A4_U+30E4_U+30FC 1
 62
     7
420
 16777215
370
    25
  0
POLYLINE
  5
4F
330
1F
100
AcDbEntity
  8
_U+30EC_U+30A4_U+30E4_U+30FC 1
 62
     7
420
 16777215
370
    25
100
AcDb2dPolyline
 66
     1
 10
0.0
 20
0.0
 30
0.0
  0
VERTEX
  5
50
330
4F
100
AcDbEntity
  8
_U+30EC_U+30A4_U+30E4_U+30FC 1
 62
     7
420
 16777215
370
    25
100
AcDbVertex
100
AcDb2dVertex
 10
84.00778146789405
 20
-137.9653916321755
 30
0.0
  0
VERTEX
  5
51
330
4F
100
AcDbEntity
  8
_U+30EC_U+30A4_U+30E4_U+30FC 1
 62
     7
420
 16777215
370
    25
100
AcDbVertex
100
AcDb2dVertex
 10
92.71991069007356
 20
-137.9653916321755
 30
0.0
  0
SEQEND
  5
52
330
4F
100
AcDbEntity
  8
_U+30EC_U+30A4_U+30E4_U+30FC 1
 62
     7
420
 16777215
370
    25
  0
POLYLINE
  5
53
330
1F
100
AcDbEntity
  8
_U+30EC_U+30A4_U+30E4_U+30FC 1
 62
     7
420
 16777215
370
    25
100
AcDb2dPolyline
 66
     1
 10
0.0
 20
0.0
 30
0.0
  0
VERTEX
  5
54
330
53
100
AcDbEntity
  8
_U+30EC_U+30A4_U+30E4_U+30FC 1
 62
     7
420
 16777215
370
    25
100
AcDbVertex
100
AcDb2dVertex
 10
86.0934389146845
 20
-124.4654327466616
 30
0.0
  0
VERTEX
  5
55
330
53
100
AcDbEntity
  8
_U+30EC_U+30A4_U+30E4_U+30FC 1
 62
     7
420
 16777215
370
    25
100
AcDbVertex
100
AcDb2dVertex
 10
86.0934389146845
 20
-131.6167674670959
 30
0.0
  0
SEQEND
  5
56
330
53
100
AcDbEntity
  8
_U+30EC_U+30A4_U+30E4_U+30FC 1
 62
     7
420
 16777215
370
    25
  0
POLYLINE
  5
57
330
1F
100
AcDbEntity
  8
_U+30EC_U+30A4_U+30E4_U+30FC 1
 62
     7
420
 16777215
370
    25
100
AcDb2dPolyline
 66
     1
 10
0.0
 20
0.0
 30
0.0
  0
VERTEX
  5
58
330
57
100
AcDbEntity
  8
_U+30EC_U+30A4_U+30E4_U+30FC 1
 62
     7
420
 16777215
370
    25
100
AcDbVertex
100
AcDb2dVertex
 10
86.9423280596942
 20
-132.4656566335505
 30
0.0
  0
VERTEX
  5
59
330
57
100
AcDbEntity
  8
_U+30EC_U+30A4_U+30E4_U+30FC 1
 62
     7
420
 16777215
370
    25
100
AcDbVertex
100
AcDb2dVertex
 10
94.09383898835506
 20
-132.4656566335505
 30
0.0
  0
SEQEND
  5
5A
330
57
100
AcDbEntity
  8
_U+30EC_U+30A4_U+30E4_U+30FC 1
 62
     7
420
 16777215
370
    25
  0
POLYLINE
  5
5B
330
1F
100
AcDbEntity
  8
_U+30EC_U+30A4_U+30E4_U+30FC 1
 62
     7
420
 16777215
370
    25
100
AcDb2dPolyline
 66
     1
 10
0.0
 20
0.0
 30
0.0
  0
VERTEX
  5
5C
330
5B
100
AcDbEntity
  8
_U+30EC_U+30A4_U+30E4_U+30FC 1
 62
     7
420
 16777215
370
    25
100
AcDbVertex
100
AcDb2dVertex
 10
80.09346517886769
 20
-119.9654699700085
 30
0.0
  0
VERTEX
  5
5D
330
5B
100
AcDbEntity
  8
_U+30EC_U+30A4_U+30E4_U+30FC 1
 62
     7
420
 16777215
370
    25
100
AcDbVertex
100
AcDb2dVertex
 10
80.09346517886769
 20
-124.4654327466616
 30
0.0
  0
SEQEND
  5
5E
330
5B
100
AcDbEntity
  8
_U+30EC_U+30A4_U+30E4_U+30FC 1
 62
     7
420
 16777215
370
    25
  0
POLYLINE
  5
5F
330
1F
100
AcDbEntity
  8
_U+30EC_U+30A4_U+30E4_U+30FC 1
 62
     7
420
 16777215
370
    25
100
AcDb2dPolyline
 66
     1
 10
0.0
 20
0.0
 30
0.0
  0
VERTEX
  5
60
330
5F
100
AcDbEntity
  8
_U+30EC_U+30A4_U+30E4_U+30FC 1
 62
     7
420
 16777215
370
    25
100
AcDbVertex
100
AcDb2dVertex
 10
80.59370405499442
 20
-125.8393610796513
 30
0.0
  0
VERTEX
  5
61
330
5F
100
AcDbEntity
  8
_U+30EC_U+30A4_U+30E4_U+30FC 1
 62
     7
420
 16777215
370
    25
100
AcDbVertex
100
AcDb2dVertex
 10
80.09346517886769
 20
-124.4654327466616
 30
0.0
  0
SEQEND
  5
62
330
5F
100
AcDbEntity
  8
_U+30EC_U+30A4_U+30E4_U+30FC 1
 62
     7
420
 16777215
370
    25
  0
POLYLINE
  5
63
330
1F
100
AcDbEntity
  8
_U+30EC_U+30A4_U+30E4_U+30FC 1
 62
     7
420
 16777215
370
    25
100
AcDb2dPolyline
 66
     1
 10
0.0
 20
0.0
 30
0.0
  0
VERTEX
  5
64
330
63
100
AcDbEntity
  8
_U+30EC_U+30A4_U+30E4_U+30FC 1
 62
     7
420
 16777215
370
    25
100
AcDbVertex
100
AcDb2dVertex
 10
94.09383898835506
 20
-138.4656305209392
 30
0.0
  0
VERTEX
  5
65
330
63
100
AcDbEntity
  8
_U+30EC_U+30A4_U+30E4_U+30FC 1
 62
     7
420
 16777215
370
    25
100
AcDbVertex
100
AcDb2dVertex
 10
103.5940031904301
 20
-138.4656305209392
 30
0.0
  0
SEQEND
  5
66
330
63
100
AcDbEntity
  8
_U+30EC_U+30A4_U+30E4_U+30FC 1
 62
     7
420
 16777215
370
    25
  0
POLYLINE
  5
67
330
1F
100
AcDbEntity
  8
_U+30EC_U+30A4_U+30E4_U+30FC 1
 62
     7
420
 16777215
370
    25
100
AcDb2dPolyline
 66
     1
 10
0.0
 20
0.0
 30
0.0
  0
VERTEX
  5
68
330
67
100
AcDbEntity
  8
_U+30EC_U+30A4_U+30E4_U+30FC 1
 62
     7
420
 16777215
370
    25
100
AcDbVertex
100
AcDb2dVertex
 10
92.71991069007356
 20
-137.9653916321755
 30
0.0
  0
VERTEX
  5
69
330
67
100
AcDbEntity
  8
_U+30EC_U+30A4_U+30E4_U+30FC 1
 62
     7
420
 16777215
370
    25
100
AcDbVertex
100
AcDb2dVertex
 10
94.09383898835506
 20
-138.4656305209392
 30
0.0
  0
SEQEND
  5
6A
330
67
100
AcDbEntity
  8
_U+30EC_U+30A4_U+30E4_U+30FC 1
 62
     7
420
 16777215
370
    25
  0
POLYLINE
  5
6B
330
1F
100
AcDbEntity
  8
_U+30EC_U+30A4_U+30E4_U+30FC 1
 62
     7
420
 16777215
370
    25
100
AcDb2dPolyline
 66
     1
 10
0.0
 20
0.0
 30
0.0
  0
VERTEX
  5
6C
330
6B
100
AcDbEntity
  8
_U+30EC_U+30A4_U+30E4_U+30FC 1
 62
     7
420
 16777215
370
    25
100
AcDbVertex
100
AcDb2dVertex
 10
83.59369092290282
 20
-138.9651638541474
 30
0.0
  0
VERTEX
  5
6D
330
6B
100
AcDbEntity
  8
_U+30EC_U+30A4_U+30E4_U+30FC 1
 62
     7
420
 16777215
370
    25
100
AcDbVertex
100
AcDb2dVertex
 10
104.0935717887962
 20
-138.9651638541474
 30
0.0
  0
SEQEND
  5
6E
330
6B
100
AcDbEntity
  8
_U+30EC_U+30A4_U+30E4_U+30FC 1
 62
     7
420
 16777215
370
    25
  0
POLYLINE
  5
6F
330
1F
100
AcDbEntity
  8
_U+30EC_U+30A4_U+30E4_U+30FC 1
 62
     7
420
 16777215
370
    25
100
AcDb2dPolyline
 66
     1
 10
0.0
 20
0.0
 30
0.0
  0
VERTEX
  5
70
330
6F
100
AcDbEntity
  8
_U+30EC_U+30A4_U+30E4_U+30FC 1
 62
     7
420
 16777215
370
    25
100
AcDbVertex
100
AcDb2dVertex
 10
84.00778146789405
 20
-137.9653916321755
 30
0.0
  0
VERTEX
  5
71
330
6F
100
AcDbEntity
  8
_U+30EC_U+30A4_U+30E4_U+30FC 1
 62
     7
420
 16777215
370
    25
100
AcDbVertex
100
AcDb2dVertex
 10
82.72483455618031
 20
-136.6824446880515
 30
0.0
  0
SEQEND
  5
72
330
6F
100
AcDbEntity
  8
_U+30EC_U+30A4_U+30E4_U+30FC 1
 62
     7
420
 16777215
370
    25
  0
POLYLINE
  5
73
330
1F
100
AcDbEntity
  8
_U+30EC_U+30A4_U+30E4_U+30FC 1
 62
     7
420
 16777215
370
    25
100
AcDb2dPolyline
 66
     1
 10
0.0
 20
0.0
 30
0.0
  0
VERTEX
  5
74
330
73
100
AcDbEntity
  8
_U+30EC_U+30A4_U+30E4_U+30FC 1
 62
     7
420
 16777215
370
    25
100
AcDbVertex
100
AcDb2dVertex
 10
81.87665096670817
 20
-135.8342610771523
 30
0.0
  0
VERTEX
  5
75
330
73
100
AcDbEntity
  8
_U+30EC_U+30A4_U+30E4_U+30FC 1
 62
     7
420
 16777215
370
    25
100
AcDbVertex
100
AcDb2dVertex
 10
80.59370405499442
 20
-134.551314133029
 30
0.0
  0
SEQEND
  5
76
330
73
100
AcDbEntity
  8
_U+30EC_U+30A4_U+30E4_U+30FC 1
 62
     7
420
 16777215
370
    25
  0
POLYLINE
  5
77
330
1F
100
AcDbEntity
  8
_U+30EC_U+30A4_U+30E4_U+30FC 1
 62
     7
420
 16777215
370
    25
100
AcDb2dPolyline
 66
     1
 10
0.0
 20
0.0
 30
0.0
  0
VERTEX
  5
78
330
77
100
AcDbEntity
  8
_U+30EC_U+30A4_U+30E4_U+30FC 1
 62
     7
420
 16777215
370
    25
100
AcDbVertex
100
AcDb2dVertex
 10
81.87665096670817
 20
-135.8342610771523
 30
0.0
  0
VERTEX
  5
79
330
77
100
AcDbEntity
  8
_U+30EC_U+30A4_U+30E4_U+30FC 1
 62
     7
420
 16777215
370
    25
100
AcDbVertex
100
AcDb2dVertex
 10
86.0934389146845
 20
-131.6167674670959
 30
0.0
  0
SEQEND
  5
7A
330
77
100
AcDbEntity
  8
_U+30EC_U+30A4_U+30E4_U+30FC 1
 62
     7
420
 16777215
370
    25
  0
POLYLINE
  5
7B
330
1F
100
AcDbEntity
  8
_U+30EC_U+30A4_U+30E4_U+30FC 1
 62
     7
420
 16777215
370
    25
100
AcDb2dPolyline
 66
     1
 10
0.0
 20
0.0
 30
0.0
  0
VERTEX
  5
7C
330
7B
100
AcDbEntity
  8
_U+30EC_U+30A4_U+30E4_U+30FC 1
 62
     7
420
 16777215
370
    25
100
AcDbVertex
100
AcDb2dVertex
 10
82.72483455618031
 20
-136.6824446880515
 30
0.0
  0
VERTEX
  5
7D
330
7B
100
AcDbEntity
  8
_U+30EC_U+30A4_U+30E4_U+30FC 1
 62
     7
420
 16777215
370
    25
100
AcDbVertex
100
AcDb2dVertex
 10
86.9423280596942
 20
-132.4656566335505
 30
0.0
  0
SEQEND
  5
7E
330
7B
100
AcDbEntity
  8
_U+30EC_U+30A4_U+30E4_U+30FC 1
 62
     7
420
 16777215
370
    25
  0
POLYLINE
  5
7F
330
1F
100
AcDbEntity
  8
_U+30EC_U+30A4_U+30E4_U+30FC 1
 62
     7
420
 16777215
370
    25
100
AcDb2dPolyline
 66
     1
 10
0.0
 20
0.0
 30
0.0
  0
VERTEX
  5
80
330
7F
100
AcDbEntity
  8
_U+30EC_U+30A4_U+30E4_U+30FC 1
 62
     7
420
 16777215
370
    25
100
AcDbVertex
100
AcDb2dVertex
 10
94.09383898835506
 20
-131.9654177447862
 30
0.0
  0
VERTEX
  5
81
330
7F
100
AcDbEntity
  8
_U+30EC_U+30A4_U+30E4_U+30FC 1
 62
     7
420
 16777215
370
    25
100
AcDbVertex
100
AcDb2dVertex
 10
94.09383898835506
 20
-132.4656566335505
 30
0.0
  0
SEQEND
  5
82
330
7F
100
AcDbEntity
  8
_U+30EC_U+30A4_U+30E4_U+30FC 1
 62
     7
420
 16777215
370
    25
  0
POLYLINE
  5
83
330
1F
100
AcDbEntity
  8
_U+30EC_U+30A4_U+30E4_U+30FC 1
 62
     7
420
 16777215
370
    25
100
AcDb2dPolyline
 66
     1
 10
0.0
 20
0.0
 30
0.0
  0
VERTEX
  5
84
330
83
100
AcDbEntity
  8
_U+30EC_U+30A4_U+30E4_U+30FC 1
 62
     7
420
 16777215
370
    25
100
AcDbVertex
100
AcDb2dVertex
 10
86.0934389146845
 20
-124.4654327466616
 30
0.0
  0
VERTEX
  5
85
330
83
100
AcDbEntity
  8
_U+30EC_U+30A4_U+30E4_U+30FC 1
 62
     7
420
 16777215
370
    25
100
AcDbVertex
100
AcDb2dVertex
 10
86.59367779081123
 20
-124.4654327466616
 30
0.0
  0
SEQEND
  5
86
330
83
100
AcDbEntity
  8
_U+30EC_U+30A4_U+30E4_U+30FC 1
 62
     7
420
 16777215
370
    25
  0
POLYLINE
  5
87
330
1F
100
AcDbEntity
  8
_U+30EC_U+30A4_U+30E4_U+30FC 1
 62
     7
420
 16777215
370
    25
100
AcDb2dPolyline
 66
     1
 10
0.0
 20
0.0
 30
0.0
  0
VERTEX
  5
88
330
87
100
AcDbEntity
  8
_U+30EC_U+30A4_U+30E4_U+30FC 1
 62
     7
420
 16777215
370
    25
100
AcDbVertex
100
AcDb2dVertex
 10
87.09391666693796
 20
-131.4651788560225
 30
0.0
  0
VERTEX
  5
89
330
87
100
AcDbEntity
  8
_U+30EC_U+30A4_U+30E4_U+30FC 1
 62
     7
420
 16777215
370
    25
100
AcDbVertex
100
AcDb2dVertex
 10
92.09358903938569
 20
-131.4651788560225
 30
0.0
  0
SEQEND
  5
8A
330
87
100
AcDbEntity
  8
_U+30EC_U+30A4_U+30E4_U+30FC 1
 62
     7
420
 16777215
370
    25
  0
POLYLINE
  5
8B
330
1F
100
AcDbEntity
  8
_U+30EC_U+30A4_U+30E4_U+30FC 1
 62
     7
420
 16777215
370
    25
100
AcDb2dPolyline
 66
     1
 10
0.0
 20
0.0
 30
0.0
  0
VERTEX
  5
8C
330
8B
100
AcDbEntity
  8
_U+30EC_U+30A4_U+30E4_U+30FC 1
 62
     7
420
 16777215
370
    25
100
AcDbVertex
100
AcDb2dVertex
 10
87.09391666693796
 20
-126.4653299683838
 30
0.0
  0
VERTEX
  5
8D
330
8B
100
AcDbEntity
  8
_U+30EC_U+30A4_U+30E4_U+30FC 1
 62
     7
420
 16777215
370
    25
100
AcDbVertex
100
AcDb2dVertex
 10
87.09391666693796
 20
-131.4651788560225
 30
0.0
  0
SEQEND
  5
8E
330
8B
100
AcDbEntity
  8
_U+30EC_U+30A4_U+30E4_U+30FC 1
 62
     7
420
 16777215
370
    25
  0
POLYLINE
  5
8F
330
1F
100
AcDbEntity
  8
_U+30EC_U+30A4_U+30E4_U+30FC 1
 62
     7
420
 16777215
370
    25
100
AcDb2dPolyline
 66
     1
 10
0.0
 20
0.0
 30
0.0
  0
VERTEX
  5
90
330
8F
100
AcDbEntity
  8
_U+30EC_U+30A4_U+30E4_U+30FC 1
 62
     7
420
 16777215
370
    25
100
AcDbVertex
100
AcDb2dVertex
 10
87.09391666693796
 20
-126.4653299683838
 30
0.0
  0
VERTEX
  5
91
330
8F
100
AcDbEntity
  8
_U+30EC_U+30A4_U+30E4_U+30FC 1
 62
     7
420
 16777215
370
    25
100
AcDbVertex
100
AcDb2dVertex
 10
86.59367779081123
 20
-124.4654327466616
 30
0.0
  0
SEQEND
  5
92
330
8F
100
AcDbEntity
  8
_U+30EC_U+30A4_U+30E4_U+30FC 1
 62
     7
420
 16777215
370
    25
  0
POLYLINE
  5
93
330
1F
100
AcDbEntity
  8
_U+30EC_U+30A4_U+30E4_U+30FC 1
 62
     7
420
 16777215
370
    25
100
AcDb2dPolyline
 66
     1
 10
0.0
 20
0.0
 30
0.0
  0
VERTEX
  5
94
330
93
100
AcDbEntity
  8
_U+30EC_U+30A4_U+30E4_U+30FC 1
 62
     7
420
 16777215
370
    25
100
AcDbVertex
100
AcDb2dVertex
 10
92.09358903938569
 20
-131.4651788560225
 30
0.0
  0
VERTEX
  5
95
330
93
100
AcDbEntity
  8
_U+30EC_U+30A4_U+30E4_U+30FC 1
 62
     7
420
 16777215
370
    25
100
AcDbVertex
100
AcDb2dVertex
 10
94.09383898835506
 20
-131.9654177447862
 30
0.0
  0
SEQEND
  5
96
330
93
100
AcDbEntity
  8
_U+30EC_U+30A4_U+30E4_U+30FC 1
 62
     7
420
 16777215
370
    25
  0
SPLINE
  5
97
330
1F
100
AcDbEntity
  8
_U+30EC_U+30A4_U+30E4_U+30FC 1
 62
     7
420
 16777215
370
    25
100
AcDbSpline
210
0.0
220
0.0
230
1.0
 70
     8
 71
     3
 72
     8
 73
     4
 74
     0
 42
0.0000000001
 43
0.0000000001
 12
1.0
 22
0.0
 32
0.0
 13
1.0
 23
0.0
 33
0.0
 40
0.0
 40
0.0
 40
0.0
 40
0.0
 40
1.0
 40
1.0
 40
1.0
 40
1.0
 10
80.09346517886769
 20
-119.9654699700085
 30
0.0
 10
80.09346517886769
 20
-119.6891744145221
 30
0.0
 10
79.8695571290245
 20
-119.4652310812448
 30
0.0
 10
79.59393185827851
 20
-119.4652310812448
 30
0.0
  0
SPLINE
  5
98
330
1F
100
AcDbEntity
  8
_U+30EC_U+30A4_U+30E4_U+30FC 1
 62
     7
420
 16777215
370
    25
100
AcDbSpline
210
0.0
220
0.0
230
1.0
 70
     8
 71
     3
 72
     8
 73
     4
 74
     0
 42
0.0000000001
 43
0.0000000001
 12
1.0
 22
0.0
 32
0.0
 13
1.0
 23
0.0
 33
0.0
 40
0.0
 40
0.0
 40
0.0
 40
0.0
 40
1.0
 40
1.0
 40
1.0
 40
1.0
 10
104.0935717887962
 20
-138.9651638541474
 30
0.0
 10
104.0935717887962
 20
-138.689538576439
 30
0.0
 10
103.8702987389368
 20
-138.4656305209392
 30
0.0
 10
103.5940031904301
 20
-138.4656305209392
 30
0.0
  0
SPLINE
  5
99
330
1F
100
AcDbEntity
  8
_U+30EC_U+30A4_U+30E4_U+30FC 1
 62
     7
420
 16777215
370
     9
100
AcDbSpline
210
0.0
220
0.0
230
1.0
 70
    11
 71
     3
 72
    17
 73
    13
 74
     0
 42
0.0000000001
 43
0.0000000001
 12
1.0
 22
0.0
 32
0.0
 13
1.0
 23
0.0
 33
0.0
 40
0.0
 40
0.0
 40
0.0
 40
0.0
 40
1.0
 40
1.0
 40
1.0
 40
2.0
 40
2.0
 40
2.0
 40
3.0
 40
3.0
 40
3.0
 40
4.0
 40
4.0
 40
4.0
 40
4.0
 10
75.69341109218787
 20
-119.4652310812448
 30
0.0
 10
75.69341109218787
 20
-119.4101271923695
 30
0.0
 10
75.64860831442115
 20
-119.3653244146032
 30
0.0
 10
75.59350251589353
 20
-119.3653244146032
 30
0.0
 10
75.53836335063357
 20
-119.3653244146032
 30
0.0
 10
75.4935958517757
 20
-119.4101271923695
 30
0.0
 10
75.4935958517757
 20
-119.4652310812448
 30
0.0
 10
75.4935958517757
 20
-119.5203702478975
 30
0.0
 10
75.53836335063357
 20
-119.5651377478864
 30
0.0
 10
75.59350251589353
 20
-119.5651377478864
 30
0.0
 10
75.64860831442115
 20
-119.5651377478864
 30
0.0
 10
75.69341109218787
 20
-119.5203702478975
 30
0.0
 10
75.69341109218787
 20
-119.4652310812448
 30
0.0
  0
SPLINE
  5
9A
330
1F
100
AcDbEntity
  8
_U+30EC_U+30A4_U+30E4_U+30FC 1
 62
     7
420
 16777215
370
     9
100
AcDbSpline
210
0.0
220
0.0
230
1.0
 70
    11
 71
     3
 72
    17
 73
    13
 74
     0
 42
0.0000000001
 43
0.0000000001
 12
1.0
 22
0.0
 32
0.0
 13
1.0
 23
0.0
 33
0.0
 40
0.0
 40
0.0
 40
0.0
 40
0.0
 40
1.0
 40
1.0
 40
1.0
 40
2.0
 40
2.0
 40
2.0
 40
3.0
 40
3.0
 40
3.0
 40
4.0
 40
4.0
 40
4.0
 40
4.0
 10
80.69361071911226
 20
-115.4654719155782
 30
0.0
 10
80.69361071911226
 20
-115.410368026703
 30
0.0
 10
80.64880794247749
 20
-115.3655652489363
 30
0.0
 10
80.59370405499442
 20
-115.3655652489363
 30
0.0
 10
80.53856488973447
 20
-115.3655652489363
 30
0.0
 10
80.4937973908766
 20
-115.410368026703
 30
0.0
 10
80.4937973908766
 20
-115.4654719155782
 30
0.0
 10
80.4937973908766
 20
-115.520611082231
 30
0.0
 10
80.53856488973447
 20
-115.5653785822199
 30
0.0
 10
80.59370405499442
 20
-115.5653785822199
 30
0.0
 10
80.64880794247749
 20
-115.5653785822199
 30
0.0
 10
80.69361071911226
 20
-115.520611082231
 30
0.0
 10
80.69361071911226
 20
-115.4654719155782
 30
0.0
  0
SPLINE
  5
9B
330
1F
100
AcDbEntity
  8
_U+30EC_U+30A4_U+30E4_U+30FC 1
 62
     7
420
 16777215
370
     9
100
AcDbSpline
210
0.0
220
0.0
230
1.0
 70
    11
 71
     3
 72
    17
 73
    13
 74
     0
 42
0.0000000001
 43
0.0000000001
 12
1.0
 22
0.0
 32
0.0
 13
1.0
 23
0.0
 33
0.0
 40
0.0
 40
0.0
 40
0.0
 40
0.0
 40
1.0
 40
1.0
 40
1.0
 40
2.0
 40
2.0
 40
2.0
 40
3.0
 40
3.0
 40
3.0
 40
4.0
 40
4.0
 40
4.0
 40
4.0
 10
86.19334557880234
 20
-115.4654719155782
 30
0.0
 10
86.19334557880234
 20
-115.410368026703
 30
0.0
 10
86.14924835770512
 20
-115.3655652489363
 30
0.0
 10
86.0934389146845
 20
-115.3655652489363
 30
0.0
 10
86.03833502720143
 20
-115.3655652489363
 30
0.0
 10
85.99353225056666
 20
-115.410368026703
 30
0.0
 10
85.99353225056666
 20
-115.4654719155782
 30
0.0
 10
85.99353225056666
 20
-115.520611082231
 30
0.0
 10
86.03833502720143
 20
-115.5653785822199
 30
0.0
 10
86.0934389146845
 20
-115.5653785822199
 30
0.0
 10
86.14924835770512
 20
-115.5653785822199
 30
0.0
 10
86.19334557880234
 20
-115.520611082231
 30
0.0
 10
86.19334557880234
 20
-115.4654719155782
 30
0.0
  0
SPLINE
  5
9C
330
1F
100
AcDbEntity
  8
_U+30EC_U+30A4_U+30E4_U+30FC 1
 62
     7
420
 16777215
370
     9
100
AcDbSpline
210
0.0
220
0.0
230
1.0
 70
    11
 71
     3
 72
    17
 73
    13
 74
     0
 42
0.0000000001
 43
0.0000000001
 12
1.0
 22
0.0
 32
0.0
 13
1.0
 23
0.0
 33
0.0
 40
0.0
 40
0.0
 40
0.0
 40
0.0
 40
1.0
 40
1.0
 40
1.0
 40
2.0
 40
2.0
 40
2.0
 40
3.0
 40
3.0
 40
3.0
 40
4.0
 40
4.0
 40
4.0
 40
4.0
 10
94.1937456524729
 20
-115.4654719155782
 30
0.0
 10
94.1937456524729
 20
-115.410368026703
 30
0.0
 10
94.14894287583813
 20
-115.3655652489363
 30
0.0
 10
94.09383898835506
 20
-115.3655652489363
 30
0.0
 10
94.03869982309511
 20
-115.3655652489363
 30
0.0
 10
93.99393232423724
 20
-115.410368026703
 30
0.0
 10
93.99393232423724
 20
-115.4654719155782
 30
0.0
 10
93.99393232423724
 20
-115.520611082231
 30
0.0
 10
94.03869982309511
 20
-115.5653785822199
 30
0.0
 10
94.09383898835506
 20
-115.5653785822199
 30
0.0
 10
94.14894287583813
 20
-115.5653785822199
 30
0.0
 10
94.1937456524729
 20
-115.520611082231
 30
0.0
 10
94.1937456524729
 20
-115.4654719155782
 30
0.0
  0
SPLINE
  5
9D
330
1F
100
AcDbEntity
  8
_U+30EC_U+30A4_U+30E4_U+30FC 1
 62
     7
420
 16777215
370
     9
100
AcDbSpline
210
0.0
220
0.0
230
1.0
 70
    11
 71
     3
 72
    17
 73
    13
 74
     0
 42
0.0000000001
 43
0.0000000001
 12
1.0
 22
0.0
 32
0.0
 13
1.0
 23
0.0
 33
0.0
 40
0.0
 40
0.0
 40
0.0
 40
0.0
 40
1.0
 40
1.0
 40
1.0
 40
2.0
 40
2.0
 40
2.0
 40
3.0
 40
3.0
 40
3.0
 40
4.0
 40
4.0
 40
4.0
 40
4.0
 10
108.193907795299
 20
-124.4654327466616
 30
0.0
 10
108.193907795299
 20
-124.4103288577863
 30
0.0
 10
108.1491402964411
 20
-124.3655260800196
 30
0.0
 10
108.0940011311812
 20
-124.3655260800196
 30
0.0
 10
108.0388999729904
 20
-124.3655260800196
 30
0.0
 10
107.9940971952237
 20
-124.4103288577863
 30
0.0
 10
107.9940971952237
 20
-124.4654327466616
 30
0.0
 10
107.9940971952237
 20
-124.5205719133143
 30
0.0
 10
108.0388999729904
 20
-124.5653394133032
 30
0.0
 10
108.0940011311812
 20
-124.5653394133032
 30
0.0
 10
108.1491402964411
 20
-124.5653394133032
 30
0.0
 10
108.193907795299
 20
-124.5205719133143
 30
0.0
 10
108.193907795299
 20
-124.4654327466616
 30
0.0
  0
SPLINE
  5
9E
330
1F
100
AcDbEntity
  8
_U+30EC_U+30A4_U+30E4_U+30FC 1
 62
     7
420
 16777215
370
     9
100
AcDbSpline
210
0.0
220
0.0
230
1.0
 70
    11
 71
     3
 72
    17
 73
    13
 74
     0
 42
0.0000000001
 43
0.0000000001
 12
1.0
 22
0.0
 32
0.0
 13
1.0
 23
0.0
 33
0.0
 40
0.0
 40
0.0
 40
0.0
 40
0.0
 40
1.0
 40
1.0
 40
1.0
 40
2.0
 40
2.0
 40
2.0
 40
3.0
 40
3.0
 40
3.0
 40
4.0
 40
4.0
 40
4.0
 40
4.0
 10
108.193907795299
 20
-132.4656566335505
 30
0.0
 10
108.193907795299
 20
-132.4105174668975
 30
0.0
 10
108.1491402964411
 20
-132.3657499669083
 30
0.0
 10
108.0940011311812
 20
-132.3657499669083
 30
0.0
 10
108.0388999729904
 20
-132.3657499669083
 30
0.0
 10
107.9940971952237
 20
-132.4105174668975
 30
0.0
 10
107.9940971952237
 20
-132.4656566335505
 30
0.0
 10
107.9940971952237
 20
-132.5207605224255
 30
0.0
 10
108.0388999729904
 20
-132.5655633001922
 30
0.0
 10
108.0940011311812
 20
-132.5655633001922
 30
0.0
 10
108.1491402964411
 20
-132.5655633001922
 30
0.0
 10
108.193907795299
 20
-132.5207605224255
 30
0.0
 10
108.193907795299
 20
-132.4656566335505
 30
0.0
  0
SPLINE
  5
9F
330
1F
100
AcDbEntity
  8
_U+30EC_U+30A4_U+30E4_U+30FC 1
 62
     7
420
 16777215
370
     9
100
AcDbSpline
210
0.0
220
0.0
230
1.0
 70
    11
 71
     3
 72
    17
 73
    13
 74
     0
 42
0.0000000001
 43
0.0000000001
 12
1.0
 22
0.0
 32
0.0
 13
1.0
 23
0.0
 33
0.0
 40
0.0
 40
0.0
 40
0.0
 40
0.0
 40
1.0
 40
1.0
 40
1.0
 40
2.0
 40
2.0
 40
2.0
 40
3.0
 40
3.0
 40
3.0
 40
4.0
 40
4.0
 40
4.0
 40
4.0
 10
108.193907795299
 20
-137.9653916321755
 30
0.0
 10
108.193907795299
 20
-137.9102877433
 30
0.0
 10
108.1491402964411
 20
-137.8654849655339
 30
0.0
 10
108.0940011311812
 20
-137.8654849655339
 30
0.0
 10
108.0388999729904
 20
-137.8654849655339
 30
0.0
 10
107.9940971952237
 20
-137.9102877433
 30
0.0
 10
107.9940971952237
 20
-137.9653916321755
 30
0.0
 10
107.9940971952237
 20
-138.020530798828
 30
0.0
 10
108.0388999729904
 20
-138.0652982988171
 30
0.0
 10
108.0940011311812
 20
-138.0652982988171
 30
0.0
 10
108.1491402964411
 20
-138.0652982988171
 30
0.0
 10
108.193907795299
 20
-138.020530798828
 30
0.0
 10
108.193907795299
 20
-137.9653916321755
 30
0.0
  0
SPLINE
  5
A0
330
1F
100
AcDbEntity
  8
_U+30EC_U+30A4_U+30E4_U+30FC 1
 62
     7
420
 16777215
370
     9
100
AcDbSpline
210
0.0
220
0.0
230
1.0
 70
    11
 71
     3
 72
    17
 73
    13
 74
     0
 42
0.0000000001
 43
0.0000000001
 12
1.0
 22
0.0
 32
0.0
 13
1.0
 23
0.0
 33
0.0
 40
0.0
 40
0.0
 40
0.0
 40
0.0
 40
1.0
 40
1.0
 40
1.0
 40
2.0
 40
2.0
 40
2.0
 40
3.0
 40
3.0
 40
3.0
 40
4.0
 40
4.0
 40
4.0
 40
4.0
 10
104.1941487306747
 20
-142.9655932975917
 30
0.0
 10
104.1941487306747
 20
-142.9104894087168
 30
0.0
 10
104.1493812318168
 20
-142.86568663095
 30
0.0
 10
104.0935717887962
 20
-142.86568663095
 30
0.0
 10
104.0384326235362
 20
-142.86568663095
 30
0.0
 10
103.9936651246783
 20
-142.9104894087168
 30
0.0
 10
103.9936651246783
 20
-142.9655932975917
 30
0.0
 10
103.9936651246783
 20
-143.0207324642447
 30
0.0
 10
104.0384326235362
 20
-143.0654999642339
 30
0.0
 10
104.0935717887962
 20
-143.0654999642339
 30
0.0
 10
104.1493812318168
 20
-143.0654999642339
 30
0.0
 10
104.1941487306747
 20
-143.0207324642447
 30
0.0
 10
104.1941487306747
 20
-142.9655932975917
 30
0.0
  0
SPLINE
  5
A1
330
1F
100
AcDbEntity
  8
_U+30EC_U+30A4_U+30E4_U+30FC 1
 62
     7
420
 16777215
370
     9
100
AcDbSpline
210
0.0
220
0.0
230
1.0
 70
    11
 71
     3
 72
    17
 73
    13
 74
     0
 42
0.0000000001
 43
0.0000000001
 12
1.0
 22
0.0
 32
0.0
 13
1.0
 23
0.0
 33
0.0
 40
0.0
 40
0.0
 40
0.0
 40
0.0
 40
1.0
 40
1.0
 40
1.0
 40
2.0
 40
2.0
 40
2.0
 40
3.0
 40
3.0
 40
3.0
 40
4.0
 40
4.0
 40
4.0
 40
4.0
 10
75.69341109218787
 20
-138.9651638541474
 30
0.0
 10
75.69341109218787
 20
-138.910024687495
 30
0.0
 10
75.64860831442115
 20
-138.8652571875058
 30
0.0
 10
75.59350251589353
 20
-138.8652571875058
 30
0.0
 10
75.53836335063357
 20
-138.8652571875058
 30
0.0
 10
75.4935958517757
 20
-138.910024687495
 30
0.0
 10
75.4935958517757
 20
-138.9651638541474
 30
0.0
 10
75.4935958517757
 20
-139.0209732985778
 30
0.0
 10
75.53836335063357
 20
-139.065740798567
 30
0.0
 10
75.59350251589353
 20
-139.065740798567
 30
0.0
 10
75.64860831442115
 20
-139.065740798567
 30
0.0
 10
75.69341109218787
 20
-139.0209732985778
 30
0.0
 10
75.69341109218787
 20
-138.9651638541474
 30
0.0
  0
SPLINE
  5
A2
330
1F
100
AcDbEntity
  8
_U+30EC_U+30A4_U+30E4_U+30FC 1
 62
     7
420
 16777215
370
     9
100
AcDbSpline
210
0.0
220
0.0
230
1.0
 70
    11
 71
     3
 72
    17
 73
    13
 74
     0
 42
0.0000000001
 43
0.0000000001
 12
1.0
 22
0.0
 32
0.0
 13
1.0
 23
0.0
 33
0.0
 40
0.0
 40
0.0
 40
0.0
 40
0.0
 40
1.0
 40
1.0
 40
1.0
 40
2.0
 40
2.0
 40
2.0
 40
3.0
 40
3.0
 40
3.0
 40
4.0
 40
4.0
 40
4.0
 40
4.0
 10
79.69383852239635
 20
-142.9655932975917
 30
0.0
 10
79.69383852239635
 20
-142.9104894087168
 30
0.0
 10
79.64907102353847
 20
-142.86568663095
 30
0.0
 10
79.59393185827851
 20
-142.86568663095
 30
0.0
 10
79.53812241525789
 20
-142.86568663095
 30
0.0
 10
79.49331963862312
 20
-142.9104894087168
 30
0.0
 10
79.49331963862312
 20
-142.9655932975917
 30
0.0
 10
79.49331963862312
 20
-143.0207324642447
 30
0.0
 10
79.53812241525789
 20
-143.0654999642339
 30
0.0
 10
79.59393185827851
 20
-143.0654999642339
 30
0.0
 10
79.64907102353847
 20
-143.0654999642339
 30
0.0
 10
79.69383852239635
 20
-143.0207324642447
 30
0.0
 10
79.69383852239635
 20
-142.9655932975917
 30
0.0
  0
POLYLINE
  5
A3
330
1F
100
AcDbEntity
  8
_U+30EC_U+30A4_U+30E4_U+30FC 1
 62
     7
420
 16777215
370
     9
100
AcDb2dPolyline
 66
     1
 10
0.0
 20
0.0
 30
0.0
  0
VERTEX
  5
A4
330
A3
100
AcDbEntity
  8
_U+30EC_U+30A4_U+30E4_U+30FC 1
 62
     7
420
 16777215
370
     9
100
AcDbVertex
100
AcDb2dVertex
 10
86.0934389146845
 20
-115.4654719155782
 30
0.0
  0
VERTEX
  5
A5
330
A3
100
AcDbEntity
  8
_U+30EC_U+30A4_U+30E4_U+30FC 1
 62
     7
420
 16777215
370
     9
100
AcDbVertex
100
AcDb2dVertex
 10
94.09383898835506
 20
-115.4654719155782
 30
0.0
  0
SEQEND
  5
A6
330
A3
100
AcDbEntity
  8
_U+30EC_U+30A4_U+30E4_U+30FC 1
 62
     7
420
 16777215
370
     9
  0
POLYLINE
  5
A7
330
1F
100
AcDbEntity
  8
_U+30EC_U+30A4_U+30E4_U+30FC 1
 62
     7
420
 16777215
370
     9
100
AcDb2dPolyline
 66
     1
 10
0.0
 20
0.0
 30
0.0
  0
VERTEX
  5
A8
330
A7
100
AcDbEntity
  8
_U+30EC_U+30A4_U+30E4_U+30FC 1
 62
     7
420
 16777215
370
     9
100
AcDbVertex
100
AcDb2dVertex
 10
94.09383898835506
 20
-129.3808971898769
 30
0.0
  0
VERTEX
  5
A9
330
A7
100
AcDbEntity
  8
_U+30EC_U+30A4_U+30E4_U+30FC 1
 62
     7
420
 16777215
370
     9
100
AcDbVertex
100
AcDb2dVertex
 10
94.09383898835506
 20
-114.4653821936058
 30
0.0
  0
SEQEND
  5
AA
330
A7
100
AcDbEntity
  8
_U+30EC_U+30A4_U+30E4_U+30FC 1
 62
     7
420
 16777215
370
     9
  0
INSERT
  5
AC
330
1F
100
AcDbEntity
  8
_U+30EC_U+30A4_U+30E4_U+30FC 1
100
AcDbBlockReference
  2
block 2
 10
0.0
 20
0.0
 30
0.0
  0
POLYLINE
  5
B1
330
1F
100
AcDbEntity
  8
_U+30EC_U+30A4_U+30E4_U+30FC 1
 62
     7
420
 16777215
370
     9
100
AcDb2dPolyline
 66
     1
 10
0.0
 20
0.0
 30
0.0
  0
VERTEX
  5
B2
330
B1
100
AcDbEntity
  8
_U+30EC_U+30A4_U+30E4_U+30FC 1
 62
     7
420
 16777215
370
     9
100
AcDbVertex
100
AcDb2dVertex
 10
108.0940011311812
 20
-132.4656566335505
 30
0.0
  0
VERTEX
  5
B3
330
B1
100
AcDbEntity
  8
_U+30EC_U+30A4_U+30E4_U+30FC 1
 62
     7
420
 16777215
370
     9
100
AcDbVertex
100
AcDb2dVertex
 10
108.0940011311812
 20
-124.4654327466616
 30
0.0
  0
SEQEND
  5
B4
330
B1
100
AcDbEntity
  8
_U+30EC_U+30A4_U+30E4_U+30FC 1
 62
     7
420
 16777215
370
     9
  0
POLYLINE
  5
B5
330
1F
100
AcDbEntity
  8
_U+30EC_U+30A4_U+30E4_U+30FC 1
 62
     7
420
 16777215
370
     9
100
AcDb2dPolyline
 66
     1
 10
0.0
 20
0.0
 30
0.0
  0
VERTEX
  5
B6
330
B5
100
AcDbEntity
  8
_U+30EC_U+30A4_U+30E4_U+30FC 1
 62
     7
420
 16777215
370
     9
100
AcDbVertex
100
AcDb2dVertex
 10
89.17819828043018
 20
-124.4654327466616
 30
0.0
  0
VERTEX
  5
B7
330
B5
100
AcDbEntity
  8
_U+30EC_U+30A4_U+30E4_U+30FC 1
 62
     7
420
 16777215
370
     9
100
AcDbVertex
100
AcDb2dVertex
 10
109.0937733278971
 20
-124.4654327466616
 30
0.0
  0
SEQEND
  5
B8
330
B5
100
AcDbEntity
  8
_U+30EC_U+30A4_U+30E4_U+30FC 1
 62
     7
420
 16777215
370
     9
  0
INSERT
  5
BA
330
1F
100
AcDbEntity
  8
_U+30EC_U+30A4_U+30E4_U+30FC 1
100
AcDbBlockReference
  2
block 3
 10
0.0
 20
0.0
 30
0.0
  0
POLYLINE
  5
BF
330
1F
100
AcDbEntity
  8
_U+30EC_U+30A4_U+30E4_U+30FC 1
 62
     7
420
 16777215
370
     9
100
AcDb2dPolyline
 66
     1
 10
0.0
 20
0.0
 30
0.0
  0
VERTEX
  5
C0
330
BF
100
AcDbEntity
  8
_U+30EC_U+30A4_U+30E4_U+30FC 1
 62
     7
420
 16777215
370
     9
100
AcDbVertex
100
AcDb2dVertex
 10
75.59350251589353
 20
-138.9651638541474
 30
0.0
  0
VERTEX
  5
C1
330
BF
100
AcDbEntity
  8
_U+30EC_U+30A4_U+30E4_U+30FC 1
 62
     7
420
 16777215
370
     9
100
AcDbVertex
100
AcDb2dVertex
 10
75.59350251589353
 20
-119.4652310812448
 30
0.0
  0
SEQEND
  5
C2
330
BF
100
AcDbEntity
  8
_U+30EC_U+30A4_U+30E4_U+30FC 1
 62
     7
420
 16777215
370
     9
  0
POLYLINE
  5
C3
330
1F
100
AcDbEntity
  8
_U+30EC_U+30A4_U+30E4_U+30FC 1
 62
     7
420
 16777215
370
     9
100
AcDb2dPolyline
 66
     1
 10
0.0
 20
0.0
 30
0.0
  0
VERTEX
  5
C4
330
C3
100
AcDbEntity
  8
_U+30EC_U+30A4_U+30E4_U+30FC 1
 62
     7
420
 16777215
370
     9
100
AcDbVertex
100
AcDb2dVertex
 10
81.05326765438109
 20
-138.9651638541474
 30
0.0
  0
VERTEX
  5
C5
330
C3
100
AcDbEntity
  8
_U+30EC_U+30A4_U+30E4_U+30FC 1
 62
     7
420
 16777215
370
     9
100
AcDbVertex
100
AcDb2dVertex
 10
74.59373031917762
 20
-138.9651638541474
 30
0.0
  0
SEQEND
  5
C6
330
C3
100
AcDbEntity
  8
_U+30EC_U+30A4_U+30E4_U+30FC 1
 62
     7
420
 16777215
370
     9
  0
POLYLINE
  5
C7
330
1F
100
AcDbEntity
  8
_U+30EC_U+30A4_U+30E4_U+30FC 1
 62
     7
420
 16777215
370
     9
100
AcDb2dPolyline
 66
     1
 10
0.0
 20
0.0
 30
0.0
  0
VERTEX
  5
C8
330
C7
100
AcDbEntity
  8
_U+30EC_U+30A4_U+30E4_U+30FC 1
 62
     7
420
 16777215
370
     9
100
AcDbVertex
100
AcDb2dVertex
 10
77.05350858975677
 20
-119.4652310812448
 30
0.0
  0
VERTEX
  5
C9
330
C7
100
AcDbEntity
  8
_U+30EC_U+30A4_U+30E4_U+30FC 1
 62
     7
420
 16777215
370
     9
100
AcDbVertex
100
AcDb2dVertex
 10
74.59373031917762
 20
-119.4652310812448
 30
0.0
  0
SEQEND
  5
CA
330
C7
100
AcDbEntity
  8
_U+30EC_U+30A4_U+30E4_U+30FC 1
 62
     7
420
 16777215
370
     9
  0
INSERT
  5
CC
330
1F
100
AcDbEntity
  8
_U+30EC_U+30A4_U+30E4_U+30FC 1
100
AcDbBlockReference
  2
block 4
 10
0.0
 20
0.0
 30
0.0
  0
POLYLINE
  5
DE
330
1F
100
AcDbEntity
  8
_U+30EC_U+30A4_U+30E4_U+30FC 1
 62
     7
420
 16777215
370
     9
100
AcDb2dPolyline
 66
     1
 10
0.0
 20
0.0
 30
0.0
  0
VERTEX
  5
DF
330
DE
100
AcDbEntity
  8
_U+30EC_U+30A4_U+30E4_U+30FC 1
 62
     7
420
 16777215
370
     9
100
AcDbVertex
100
AcDb2dVertex
 10
108.0940011311812
 20
-132.4656566335505
 30
0.0
  0
VERTEX
  5
E0
330
DE
100
AcDbEntity
  8
_U+30EC_U+30A4_U+30E4_U+30FC 1
 62
     7
420
 16777215
370
     9
100
AcDbVertex
100
AcDb2dVertex
 10
108.0940011311812
 20
-137.9653916321755
 30
0.0
  0
SEQEND
  5
E1
330
DE
100
AcDbEntity
  8
_U+30EC_U+30A4_U+30E4_U+30FC 1
 62
     7
420
 16777215
370
     9
  0
POLYLINE
  5
E2
330
1F
100
AcDbEntity
  8
_U+30EC_U+30A4_U+30E4_U+30FC 1
 62
     7
420
 16777215
370
     9
100
AcDb2dPolyline
 66
     1
 10
0.0
 20
0.0
 30
0.0
  0
VERTEX
  5
E3
330
E2
100
AcDbEntity
  8
_U+30EC_U+30A4_U+30E4_U+30FC 1
 62
     7
420
 16777215
370
     9
100
AcDbVertex
100
AcDb2dVertex
 10
96.63355670133924
 20
-132.4656566335505
 30
0.0
  0
VERTEX
  5
E4
330
E2
100
AcDbEntity
  8
_U+30EC_U+30A4_U+30E4_U+30FC 1
 62
     7
420
 16777215
370
     9
100
AcDbVertex
100
AcDb2dVertex
 10
109.0937733278971
 20
-132.4656566335505
 30
0.0
  0
SEQEND
  5
E5
330
E2
100
AcDbEntity
  8
_U+30EC_U+30A4_U+30E4_U+30FC 1
 62
     7
420
 16777215
370
     9
  0
SPLINE
  5
E6
330
1F
100
AcDbEntity
  8
_U+30EC_U+30A4_U+30E4_U+30FC 1
 62
     7
420
 16777215
370
     9
100
AcDbSpline
210
0.0
220
0.0
230
1.0
 70
    11
 71
     3
 72
    17
 73
    13
 74
     0
 42
0.0000000001
 43
0.0000000001
 12
1.0
 22
0.0
 32
0.0
 13
1.0
 23
0.0
 33
0.0
 40
0.0
 40
0.0
 40
0.0
 40
0.0
 40
1.0
 40
1.0
 40
1.0
 40
2.0
 40
2.0
 40
2.0
 40
3.0
 40
3.0
 40
3.0
 40
4.0
 40
4.0
 40
4.0
 40
4.0
 10
108.193907795299
 20
-131.230934411637
 30
0.0
 10
108.193907795299
 20
-131.1757952449839
 30
0.0
 10
108.1491402964411
 20
-131.1310277449947
 30
0.0
 10
108.0940011311812
 20
-131.1310277449947
 30
0.0
 10
108.0388999729904
 20
-131.1310277449947
 30
0.0
 10
107.9940971952237
 20
-131.1757952449839
 30
0.0
 10
107.9940971952237
 20
-131.230934411637
 30
0.0
 10
107.9940971952237
 20
-131.2860383005119
 30
0.0
 10
108.0388999729904
 20
-131.3308410782786
 30
0.0
 10
108.0940011311812
 20
-131.3308410782786
 30
0.0
 10
108.1491402964411
 20
-131.3308410782786
 30
0.0
 10
108.193907795299
 20
-131.2860383005119
 30
0.0
 10
108.193907795299
 20
-131.230934411637
 30
0.0
  0
POLYLINE
  5
E7
330
1F
100
AcDbEntity
  8
_U+30EC_U+30A4_U+30E4_U+30FC 1
 62
     7
420
 16777215
370
     9
100
AcDb2dPolyline
 66
     1
 10
0.0
 20
0.0
 30
0.0
  0
VERTEX
  5
E8
330
E7
100
AcDbEntity
  8
_U+30EC_U+30A4_U+30E4_U+30FC 1
 62
     7
420
 16777215
370
     9
100
AcDbVertex
100
AcDb2dVertex
 10
96.63355670133924
 20
-131.230934411637
 30
0.0
  0
VERTEX
  5
E9
330
E7
100
AcDbEntity
  8
_U+30EC_U+30A4_U+30E4_U+30FC 1
 62
     7
420
 16777215
370
     9
100
AcDbVertex
100
AcDb2dVertex
 10
109.0937733278971
 20
-131.230934411637
 30
0.0
  0
SEQEND
  5
EA
330
E7
100
AcDbEntity
  8
_U+30EC_U+30A4_U+30E4_U+30FC 1
 62
     7
420
 16777215
370
     9
  0
POLYLINE
  5
EB
330
1F
100
AcDbEntity
  8
_U+30EC_U+30A4_U+30E4_U+30FC 1
 62
     7
420
 16777215
370
     9
100
AcDb2dPolyline
 66
     1
 10
0.0
 20
0.0
 30
0.0
  0
VERTEX
  5
EC
330
EB
100
AcDbEntity
  8
_U+30EC_U+30A4_U+30E4_U+30FC 1
 62
     7
420
 16777215
370
     9
100
AcDbVertex
100
AcDb2dVertex
 10
95.2603339585953
 20
-137.9653916321755
 30
0.0
  0
VERTEX
  5
ED
330
EB
100
AcDbEntity
  8
_U+30EC_U+30A4_U+30E4_U+30FC 1
 62
     7
420
 16777215
370
     9
100
AcDbVertex
100
AcDb2dVertex
 10
109.0937733278971
 20
-137.9653916321755
 30
0.0
  0
SEQEND
  5
EE
330
EB
100
AcDbEntity
  8
_U+30EC_U+30A4_U+30E4_U+30FC 1
 62
     7
420
 16777215
370
     9
  0
INSERT
  5
F0
330
1F
100
AcDbEntity
  8
_U+30EC_U+30A4_U+30E4_U+30FC 1
100
AcDbBlockReference
  2
block 5
 10
0.0
 20
0.0
 30
0.0
  0
POLYLINE
  5
FF
330
1F
100
AcDbEntity
  8
_U+30EC_U+30A4_U+30E4_U+30FC 1
 62
     7
420
 16777215
370
     9
100
AcDb2dPolyline
 66
     1
 10
0.0
 20
0.0
 30
0.0
  0
VERTEX
  5
100
330
FF
100
AcDbEntity
  8
_U+30EC_U+30A4_U+30E4_U+30FC 1
 62
     7
420
 16777215
370
     9
100
AcDbVertex
100
AcDb2dVertex
 10
80.59370405499442
 20
-115.4654719155782
 30
0.0
  0
VERTEX
  5
101
330
FF
100
AcDbEntity
  8
_U+30EC_U+30A4_U+30E4_U+30FC 1
 62
     7
420
 16777215
370
     9
100
AcDbVertex
100
AcDb2dVertex
 10
86.0934389146845
 20
-115.4654719155782
 30
0.0
  0
SEQEND
  5
102
330
FF
100
AcDbEntity
  8
_U+30EC_U+30A4_U+30E4_U+30FC 1
 62
     7
420
 16777215
370
     9
  0
POLYLINE
  5
103
330
1F
100
AcDbEntity
  8
_U+30EC_U+30A4_U+30E4_U+30FC 1
 62
     7
420
 16777215
370
     9
100
AcDb2dPolyline
 66
     1
 10
0.0
 20
0.0
 30
0.0
  0
VERTEX
  5
104
330
103
100
AcDbEntity
  8
_U+30EC_U+30A4_U+30E4_U+30FC 1
 62
     7
420
 16777215
370
     9
100
AcDbVertex
100
AcDb2dVertex
 10
80.59370405499442
 20
-123.2989377469529
 30
0.0
  0
VERTEX
  5
105
330
103
100
AcDbEntity
  8
_U+30EC_U+30A4_U+30E4_U+30FC 1
 62
     7
420
 16777215
370
     9
100
AcDbVertex
100
AcDb2dVertex
 10
80.59370405499442
 20
-114.4653821936058
 30
0.0
  0
SEQEND
  5
106
330
103
100
AcDbEntity
  8
_U+30EC_U+30A4_U+30E4_U+30FC 1
 62
     7
420
 16777215
370
     9
  0
POLYLINE
  5
107
330
1F
100
AcDbEntity
  8
_U+30EC_U+30A4_U+30E4_U+30FC 1
 62
     7
420
 16777215
370
     9
100
AcDb2dPolyline
 66
     1
 10
0.0
 20
0.0
 30
0.0
  0
VERTEX
  5
108
330
107
100
AcDbEntity
  8
_U+30EC_U+30A4_U+30E4_U+30FC 1
 62
     7
420
 16777215
370
     9
100
AcDbVertex
100
AcDb2dVertex
 10
86.0934389146845
 20
-121.925362191741
 30
0.0
  0
VERTEX
  5
109
330
107
100
AcDbEntity
  8
_U+30EC_U+30A4_U+30E4_U+30FC 1
 62
     7
420
 16777215
370
     9
100
AcDbVertex
100
AcDb2dVertex
 10
86.0934389146845
 20
-114.4653821936058
 30
0.0
  0
SEQEND
  5
10A
330
107
100
AcDbEntity
  8
_U+30EC_U+30A4_U+30E4_U+30FC 1
 62
     7
420
 16777215
370
     9
  0
SPLINE
  5
10B
330
1F
100
AcDbEntity
  8
_U+30EC_U+30A4_U+30E4_U+30FC 1
 62
     7
420
 16777215
370
     9
100
AcDbSpline
210
0.0
220
0.0
230
1.0
 70
    11
 71
     3
 72
    17
 73
    13
 74
     0
 42
0.0000000001
 43
0.0000000001
 12
1.0
 22
0.0
 32
0.0
 13
1.0
 23
0.0
 33
0.0
 40
0.0
 40
0.0
 40
0.0
 40
0.0
 40
1.0
 40
1.0
 40
1.0
 40
2.0
 40
2.0
 40
2.0
 40
3.0
 40
3.0
 40
3.0
 40
4.0
 40
4.0
 40
4.0
 40
4.0
 10
87.1938233310558
 20
-115.4654719155782
 30
0.0
 10
87.1938233310558
 20
-115.410368026703
 30
0.0
 10
87.14902055442103
 20
-115.3655652489363
 30
0.0
 10
87.09391666693796
 20
-115.3655652489363
 30
0.0
 10
87.03877750167801
 20
-115.3655652489363
 30
0.0
 10
86.99401000282013
 20
-115.410368026703
 30
0.0
 10
86.99401000282013
 20
-115.4654719155782
 30
0.0
 10
86.99401000282013
 20
-115.520611082231
 30
0.0
 10
87.03877750167801
 20
-115.5653785822199
 30
0.0
 10
87.09391666693796
 20
-115.5653785822199
 30
0.0
 10
87.14902055442103
 20
-115.5653785822199
 30
0.0
 10
87.1938233310558
 20
-115.520611082231
 30
0.0
 10
87.1938233310558
 20
-115.4654719155782
 30
0.0
  0
POLYLINE
  5
10C
330
1F
100
AcDbEntity
  8
_U+30EC_U+30A4_U+30E4_U+30FC 1
 62
     7
420
 16777215
370
     9
100
AcDb2dPolyline
 66
     1
 10
0.0
 20
0.0
 30
0.0
  0
VERTEX
  5
10D
330
10C
100
AcDbEntity
  8
_U+30EC_U+30A4_U+30E4_U+30FC 1
 62
     7
420
 16777215
370
     9
100
AcDbVertex
100
AcDb2dVertex
 10
87.09391666693796
 20
-121.925362191741
 30
0.0
  0
VERTEX
  5
10E
330
10C
100
AcDbEntity
  8
_U+30EC_U+30A4_U+30E4_U+30FC 1
 62
     7
420
 16777215
370
     9
100
AcDbVertex
100
AcDb2dVertex
 10
87.09391666693796
 20
-114.4653821936058
 30
0.0
  0
SEQEND
  5
10F
330
10C
100
AcDbEntity
  8
_U+30EC_U+30A4_U+30E4_U+30FC 1
 62
     7
420
 16777215
370
     9
  0
INSERT
  5
111
330
1F
100
AcDbEntity
  8
_U+30EC_U+30A4_U+30E4_U+30FC 1
100
AcDbBlockReference
  2
block 6
 10
0.0
 20
0.0
 30
0.0
  0
POLYLINE
  5
120
330
1F
100
AcDbEntity
  8
_U+30EC_U+30A4_U+30E4_U+30FC 1
 62
     7
420
 16777215
370
     9
100
AcDb2dPolyline
 66
     1
 10
0.0
 20
0.0
 30
0.0
  0
VERTEX
  5
121
330
120
100
AcDbEntity
  8
_U+30EC_U+30A4_U+30E4_U+30FC 1
 62
     7
420
 16777215
370
     9
100
AcDbVertex
100
AcDb2dVertex
 10
79.59393185827851
 20
-142.9655932975917
 30
0.0
  0
VERTEX
  5
122
330
120
100
AcDbEntity
  8
_U+30EC_U+30A4_U+30E4_U+30FC 1
 62
     7
420
 16777215
370
     9
100
AcDbVertex
100
AcDb2dVertex
 10
104.0935717887962
 20
-142.9655932975917
 30
0.0
  0
SEQEND
  5
123
330
120
100
AcDbEntity
  8
_U+30EC_U+30A4_U+30E4_U+30FC 1
 62
     7
420
 16777215
370
     9
  0
POLYLINE
  5
124
330
1F
100
AcDbEntity
  8
_U+30EC_U+30A4_U+30E4_U+30FC 1
 62
     7
420
 16777215
370
     9
100
AcDb2dPolyline
 66
     1
 10
0.0
 20
0.0
 30
0.0
  0
VERTEX
  5
125
330
124
100
AcDbEntity
  8
_U+30EC_U+30A4_U+30E4_U+30FC 1
 62
     7
420
 16777215
370
     9
100
AcDbVertex
100
AcDb2dVertex
 10
79.59393185827851
 20
-137.5051224656237
 30
0.0
  0
VERTEX
  5
126
330
124
100
AcDbEntity
  8
_U+30EC_U+30A4_U+30E4_U+30FC 1
 62
     7
420
 16777215
370
     9
100
AcDbVertex
100
AcDb2dVertex
 10
79.59393185827851
 20
-143.9653655195642
 30
0.0
  0
SEQEND
  5
127
330
124
100
AcDbEntity
  8
_U+30EC_U+30A4_U+30E4_U+30FC 1
 62
     7
420
 16777215
370
     9
  0
POLYLINE
  5
128
330
1F
100
AcDbEntity
  8
_U+30EC_U+30A4_U+30E4_U+30FC 1
 62
     7
420
 16777215
370
     9
100
AcDb2dPolyline
 66
     1
 10
0.0
 20
0.0
 30
0.0
  0
VERTEX
  5
129
330
128
100
AcDbEntity
  8
_U+30EC_U+30A4_U+30E4_U+30FC 1
 62
     7
420
 16777215
370
     9
100
AcDbVertex
100
AcDb2dVertex
 10
104.0935717887962
 20
-141.5055871868461
 30
0.0
  0
VERTEX
  5
12A
330
128
100
AcDbEntity
  8
_U+30EC_U+30A4_U+30E4_U+30FC 1
 62
     7
420
 16777215
370
     9
100
AcDbVertex
100
AcDb2dVertex
 10
104.0935717887962
 20
-143.9653655195642
 30
0.0
  0
SEQEND
  5
12B
330
128
100
AcDbEntity
  8
_U+30EC_U+30A4_U+30E4_U+30FC 1
 62
     7
420
 16777215
370
     9
  0
INSERT
  5
12D
330
1F
100
AcDbEntity
  8
_U+30EC_U+30A4_U+30E4_U+30FC 1
100
AcDbBlockReference
  2
block 7
 10
0.0
 20
0.0
 30
0.0
  0
POLYLINE
  5
151
330
1F
100
AcDbEntity
  8
_U+30EC_U+30A4_U+30E4_U+30FC 1
 62
     7
420
 16777215
370
     9
100
AcDb2dPolyline
 66
     1
 10
0.0
 20
0.0
 30
0.0
  0
VERTEX
  5
152
330
151
100
AcDbEntity
  8
_U+30EC_U+30A4_U+30E4_U+30FC 1
 62
     7
420
 16777215
370
     9
100
AcDbVertex
100
AcDb2dVertex
 10
77.86553245792922
 20
-115.4654719155782
 30
0.0
  0
VERTEX
  5
153
330
151
100
AcDbEntity
  8
_U+30EC_U+30A4_U+30E4_U+30FC 1
 62
     7
420
 16777215
370
     9
100
AcDbVertex
100
AcDb2dVertex
 10
85.10506143990011
 20
-115.4654719155782
 30
0.0
  0
SEQEND
  5
154
330
151
100
AcDbEntity
  8
_U+30EC_U+30A4_U+30E4_U+30FC 1
 62
     7
420
 16777215
370
     9
  0
POLYLINE
  5
155
330
1F
100
AcDbEntity
  8
_U+30EC_U+30A4_U+30E4_U+30FC 1
 62
     7
420
 16777215
370
     9
100
AcDb2dPolyline
 66
     1
 10
0.0
 20
0.0
 30
0.0
  0
VERTEX
  5
156
330
155
100
AcDbEntity
  8
_U+30EC_U+30A4_U+30E4_U+30FC 1
 62
     7
420
 16777215
370
     9
100
AcDbVertex
100
AcDb2dVertex
 10
79.59633074710621
 20
-117.3116991373386
 30
0.0
  0
VERTEX
  5
157
330
155
100
AcDbEntity
  8
_U+30EC_U+30A4_U+30E4_U+30FC 1
 62
     7
420
 16777215
370
     9
100
AcDbVertex
100
AcDb2dVertex
 10
79.59633074710621
 20
-114.5018946935967
 30
0.0
  0
SEQEND
  5
158
330
155
100
AcDbEntity
  8
_U+30EC_U+30A4_U+30E4_U+30FC 1
 62
     7
420
 16777215
370
     9
  0
INSERT
  5
15A
330
1F
100
AcDbEntity
  8
_U+30EC_U+30A4_U+30E4_U+30FC 1
100
AcDbBlockReference
  2
block 8
 10
0.0
 20
0.0
 30
0.0
  0
SPLINE
  5
15F
330
1F
100
AcDbEntity
  8
_U+30EC_U+30A4_U+30E4_U+30FC 1
 62
     7
420
 16777215
370
     9
100
AcDbSpline
210
0.0
220
0.0
230
1.0
 70
    11
 71
     3
 72
    17
 73
    13
 74
     0
 42
0.0000000001
 43
0.0000000001
 12
1.0
 22
0.0
 32
0.0
 13
1.0
 23
0.0
 33
0.0
 40
0.0
 40
0.0
 40
0.0
 40
0.0
 40
1.0
 40
1.0
 40
1.0
 40
2.0
 40
2.0
 40
2.0
 40
3.0
 40
3.0
 40
3.0
 40
4.0
 40
4.0
 40
4.0
 40
4.0
 10
79.69659018899281
 20
-115.4813116377964
 30
0.0
 10
79.69659018899281
 20
-115.4262077489212
 30
0.0
 10
79.65182269013494
 20
-115.3814049711548
 30
0.0
 10
79.59668352487498
 20
-115.3814049711548
 30
0.0
 10
79.54087408185435
 20
-115.3814049711548
 30
0.0
 10
79.49610658299648
 20
-115.4262077489212
 30
0.0
 10
79.49610658299648
 20
-115.4813116377964
 30
0.0
 10
79.49610658299648
 20
-115.536803582227
 30
0.0
 10
79.54087408185435
 20
-115.5815710822158
 30
0.0
 10
79.59668352487498
 20
-115.5815710822158
 30
0.0
 10
79.65182269013494
 20
-115.5815710822158
 30
0.0
 10
79.69659018899281
 20
-115.536803582227
 30
0.0
 10
79.69659018899281
 20
-115.4813116377964
 30
0.0
  0
ENDSEC
  0
SECTION
  2
OBJECTS
  0
DICTIONARY
  5
C
330
0
100
AcDbDictionary
281
     1
  3
ACAD_GROUP
350
D
  3
ACAD_LAYOUT
350
1A
  3
ACAD_MATERIAL
350
3B
  3
ACAD_MLEADERSTYLE
350
161
  3
ACAD_MLINESTYLE
350
17
  3
ACAD_PLOTSETTINGS
350
19
  3
ACAD_PLOTSTYLENAME
350
E
  3
ACAD_TABLESTYLE
350
160
  3
ACAD_VISUALSTYLE
350
2A
  0
SUN
  5
3F
330
29
100
AcDbSun
 90
        1
290
     0
 63
     7
421
 16777215
 40
1.0
291
     1
 91
  2455826
 92
 54000000
292
     0
 70
     2
 71
   256
280
     1
  0
DICTIONARY
  5
D
102
{ACAD_REACTORS
330
C
102
}
330
C
100
AcDbDictionary
281
     1
  0
DICTIONARY
  5
1A
102
{ACAD_REACTORS
330
C
102
}
330
C
100
AcDbDictionary
281
     1
  3
Layout1
350
1E
  3
Layout2
350
26
  3
Model
350
22
  0
DICTIONARY
  5
3B
102
{ACAD_REACTORS
330
C
102
}
330
C
100
AcDbDictionary
281
     1
  3
ByBlock
350
3D
  3
ByLayer
350
3C
  3
Global
350
3E
  0
DICTIONARY
  5
161
102
{ACAD_REACTORS
330
C
102
}
330
C
100
AcDbDictionary
281
     1
  0
DICTIONARY
  5
17
102
{ACAD_REACTORS
330
C
102
}
330
C
100
AcDbDictionary
281
     1
  3
Standard
350
18
  0
DICTIONARY
  5
19
102
{ACAD_REACTORS
330
C
102
}
330
C
100
AcDbDictionary
281
     1
  0
ACDBDICTIONARYWDFLT
  5
E
102
{ACAD_REACTORS
330
C
102
}
330
C
100
AcDbDictionary
281
     1
  3
Normal
350
F
100
AcDbDictionaryWithDefault
340
F
  0
DICTIONARY
  5
160
102
{ACAD_REACTORS
330
C
102
}
330
C
100
AcDbDictionary
281
     1
  0
DICTIONARY
  5
2A
102
{ACAD_REACTORS
330
C
102
}
330
C
100
AcDbDictionary
281
     1
  3
2dWireframe
350
2F
  3
3D Hidden
350
31
  3
3dWireframe
350
30
  3
Basic
350
32
  3
Brighten
350
36
  3
ColorChange
350
3A
  3
Conceptual
350
34
  3
Dim
350
35
  3
Facepattern
350
39
  3
Flat
350
2B
  3
FlatWithEdges
350
2C
  3
Gouraud
350
2D
  3
GouraudWithEdges
350
2E
  3
Linepattern
350
38
  3
Realistic
350
33
  3
Thicken
350
37
  0
LAYOUT
  5
1E
102
{ACAD_REACTORS
330
1A
102
}
330
1A
100
AcDbPlotSettings
  1

  2
none_device
  4

  6

 40
0.0
 41
0.0
 42
0.0
 43
0.0
 44
0.0
 45
0.0
 46
0.0
 47
0.0
 48
0.0
 49
0.0
140
0.0
141
0.0
142
1.0
143
1.0
 70
   688
 72
     0
 73
     0
 74
     5
  7

 75
    16
 76
     0
 77
     2
 78
   300
147
1.0
148
0.0
149
0.0
100
AcDbLayout
  1
Layout1
 70
     1
 71
     1
 10
0.0
 20
0.0
 11
12.0
 21
9.0
 12
0.0
 22
0.0
 32
0.0
 14
1.000000000000000E+20
 24
1.000000000000000E+20
 34
1.000000000000000E+20
 15
-1.000000000000000E+20
 25
-1.000000000000000E+20
 35
-1.000000000000000E+20
146
0.0
 13
0.0
 23
0.0
 33
0.0
 16
1.0
 26
0.0
 36
0.0
 17
0.0
 27
1.0
 37
0.0
 76
     0
330
1B
  0
LAYOUT
  5
26
102
{ACAD_REACTORS
330
1A
102
}
330
1A
100
AcDbPlotSettings
  1

  2
none_device
  4

  6

 40
0.0
 41
0.0
 42
0.0
 43
0.0
 44
0.0
 45
0.0
 46
0.0
 47
0.0
 48
0.0
 49
0.0
140
0.0
141
0.0
142
1.0
143
1.0
 70
   688
 72
     0
 73
     0
 74
     5
  7

 75
    16
 76
     0
 77
     2
 78
   300
147
1.0
148
0.0
149
0.0
100
AcDbLayout
  1
Layout2
 70
     1
 71
     2
 10
0.0
 20
0.0
 11
0.0
 21
0.0
 12
0.0
 22
0.0
 32
0.0
 14
0.0
 24
0.0
 34
0.0
 15
0.0
 25
0.0
 35
0.0
146
0.0
 13
0.0
 23
0.0
 33
0.0
 16
1.0
 26
0.0
 36
0.0
 17
0.0
 27
1.0
 37
0.0
 76
     0
330
23
  0
LAYOUT
  5
22
102
{ACAD_REACTORS
330
1A
102
}
330
1A
100
AcDbPlotSettings
  1

  2
none_device
  4

  6

 40
0.0
 41
0.0
 42
0.0
 43
0.0
 44
0.0
 45
0.0
 46
0.0
 47
0.0
 48
0.0
 49
0.0
140
0.0
141
0.0
142
1.0
143
1.0
 70
  1712
 72
     0
 73
     0
 74
     0
  7

 75
     0
 76
     0
 77
     2
 78
   300
147
1.0
148
0.0
149
0.0
100
AcDbLayout
  1
Model
 70
     1
 71
     0
 10
0.0
 20
0.0
 11
12.0
 21
9.0
 12
0.0
 22
0.0
 32
0.0
 14
1.000000000000000E+20
 24
1.000000000000000E+20
 34
1.000000000000000E+20
 15
-1.000000000000000E+20
 25
-1.000000000000000E+20
 35
-1.000000000000000E+20
146
0.0
 13
0.0
 23
0.0
 33
0.0
 16
1.0
 26
0.0
 36
0.0
 17
0.0
 27
1.0
 37
0.0
 76
     0
330
1F
331
29
  0
MATERIAL
  5
3D
102
{ACAD_REACTORS
330
3B
102
}
330
3B
100
AcDbMaterial
  1
ByBlock
 72
     1
 94
      127
  0
MATERIAL
  5
3C
102
{ACAD_REACTORS
330
3B
102
}
330
3B
100
AcDbMaterial
  1
ByLayer
 72
     1
 94
      127
  0
MATERIAL
  5
3E
102
{ACAD_REACTORS
330
3B
102
}
330
3B
100
AcDbMaterial
  1
Global
 72
     1
 94
      127
  0
MLINESTYLE
  5
18
102
{ACAD_REACTORS
330
17
102
}
330
17
100
AcDbMlineStyle
  2
Standard
 70
     0
  3

 62
   256
 51
90.0
 52
90.0
 71
     2
 49
0.5
 62
   256
  6
BYLAYER
 49
-0.5
 62
   256
  6
BYLAYER
  0
ACDBPLACEHOLDER
  5
F
102
{ACAD_REACTORS
330
E
102
}
330
E
  0
VISUALSTYLE
  5
2F
102
{ACAD_REACTORS
330
2A
102
}
330
2A
100
AcDbVisualStyle
  2
2dWireframe
 70
     4
177
     2
291
     0
 71
     0
176
     1
 72
     2
176
     1
 73
     0
176
     1
 90
        0
176
     1
 40
-0.6
176
     1
 41
-30.0
176
     1
 62
     5
 63
     7
421
 16777215
176
     1
 74
     1
176
     1
 91
        4
176
     1
 64
     7
176
     1
 65
   257
176
     1
 75
     1
176
     1
175
     1
176
     1
 42
1.0
176
     1
 92
        0
176
     1
 66
   257
176
     1
 43
1.0
176
     1
 76
     1
176
     1
 77
     6
176
     1
 78
     2
176
     1
 67
     7
176
     1
 79
     5
176
     1
170
     0
176
     1
171
     0
176
     1
290
     0
176
     1
 93
        1
176
     1
 44
0.0
176
     1
173
     0
176
     1
  0
VISUALSTYLE
  5
31
102
{ACAD_REACTORS
330
2A
102
}
330
2A
100
AcDbVisualStyle
  2
3D Hidden
 70
     6
177
     2
291
     0
 71
     1
176
     1
 72
     2
176
     1
 73
     2
176
     1
 90
        0
176
     1
 40
-0.6
176
     1
 41
-30.0
176
     1
 62
     5
 63
     7
421
 16777215
176
     1
 74
     2
176
     1
 91
        2
176
     1
 64
     7
176
     1
 65
   257
176
     1
 75
     2
176
     1
175
     1
176
     1
 42
40.0
176
     1
 92
        0
176
     1
 66
   257
176
     1
 43
1.0
176
     1
 76
     1
176
     1
 77
     6
176
     1
 78
     2
176
     1
 67
     7
176
     1
 79
     3
176
     1
170
     0
176
     1
171
     0
176
     1
290
     0
176
     1
 93
        1
176
     1
 44
0.0
176
     1
173
     0
176
     1
  0
VISUALSTYLE
  5
30
102
{ACAD_REACTORS
330
2A
102
}
330
2A
100
AcDbVisualStyle
  2
3dWireframe
 70
     5
177
     2
291
     0
 71
     0
176
     1
 72
     2
176
     1
 73
     0
176
     1
 90
        0
176
     1
 40
-0.6
176
     1
 41
-30.0
176
     1
 62
     5
 63
     7
421
 16777215
176
     1
 74
     1
176
     1
 91
        4
176
     1
 64
     7
176
     1
 65
   257
176
     1
 75
     1
176
     1
175
     1
176
     1
 42
1.0
176
     1
 92
        0
176
     1
 66
   257
176
     1
 43
1.0
176
     1
 76
     1
176
     1
 77
     6
176
     1
 78
     2
176
     1
 67
     7
176
     1
 79
     5
176
     1
170
     0
176
     1
171
     0
176
     1
290
     0
176
     1
 93
        1
176
     1
 44
0.0
176
     1
173
     0
176
     1
  0
VISUALSTYLE
  5
32
102
{ACAD_REACTORS
330
2A
102
}
330
2A
100
AcDbVisualStyle
  2
Basic
 70
     7
177
     2
291
     1
 71
     1
176
     1
 72
     0
176
     1
 73
     1
176
     1
 90
        0
176
     1
 40
-0.6
176
     1
 41
-30.0
176
     1
 62
     5
 63
     7
421
 16777215
176
     1
 74
     0
176
     1
 91
        4
176
     1
 64
     7
176
     1
 65
   257
176
     1
 75
     1
176
     1
175
     1
176
     1
 42
1.0
176
     1
 92
        8
176
     1
 66
     7
176
     1
 43
1.0
176
     1
 76
     1
176
     1
 77
     6
176
     1
 78
     2
176
     1
 67
     7
176
     1
 79
     5
176
     1
170
     0
176
     1
171
     0
176
     1
290
     0
176
     1
 93
        1
176
     1
 44
0.0
176
     1
173
     0
176
     1
  0
VISUALSTYLE
  5
36
102
{ACAD_REACTORS
330
2A
102
}
330
2A
100
AcDbVisualStyle
  2
Brighten
 70
    12
177
     2
291
     1
 71
     2
176
     1
 72
     2
176
     1
 73
     0
176
     1
 90
        0
176
     1
 40
-0.6
176
     1
 41
-30.0
176
     1
 62
     5
 63
     7
421
 16777215
176
     1
 74
     1
176
     1
 91
        4
176
     1
 64
     7
176
     1
 65
   257
176
     1
 75
     1
176
     1
175
     1
176
     1
 42
1.0
176
     1
 92
        8
176
     1
 66
     7
176
     1
 43
1.0
176
     1
 76
     1
176
     1
 77
     6
176
     1
 78
     2
176
     1
 67
     7
176
     1
 79
     5
176
     1
170
     0
176
     1
171
     0
176
     1
290
     0
176
     1
 93
        1
176
     1
 44
50.0
176
     1
173
     0
176
     1
  0
VISUALSTYLE
  5
3A
102
{ACAD_REACTORS
330
2A
102
}
330
2A
100
AcDbVisualStyle
  2
ColorChange
 70
    16
177
     2
291
     1
 71
     2
176
     1
 72
     2
176
     1
 73
     3
176
     1
 90
        0
176
     1
 40
-0.6
176
     1
 41
-30.0
176
     1
 62
     5
 63
     8
421
  8421504
176
     1
 74
     1
176
     1
 91
        4
176
     1
 64
     7
176
     1
 65
   257
176
     1
 75
     1
176
     1
175
     1
176
     1
 42
1.0
176
     1
 92
        8
176
     1
 66
     8
424
  8421504
176
     1
 43
1.0
176
     1
 76
     1
176
     1
 77
     6
176
     1
 78
     2
176
     1
 67
     7
176
     1
 79
     5
176
     1
170
     0
176
     1
171
     0
176
     1
290
     0
176
     1
 93
        1
176
     1
 44
0.0
176
     1
173
     0
176
     1
  0
VISUALSTYLE
  5
34
102
{ACAD_REACTORS
330
2A
102
}
330
2A
100
AcDbVisualStyle
  2
Conceptual
 70
     9
177
     2
291
     0
 71
     3
176
     1
 72
     2
176
     1
 73
     0
176
     1
 90
        0
176
     1
 40
-0.6
176
     1
 41
-30.0
176
     1
 62
     5
 63
     7
421
 16777215
176
     1
 74
     2
176
     1
 91
        2
176
     1
 64
     7
176
     1
 65
   257
176
     1
 75
     1
176
     1
175
     1
176
     1
 42
40.0
176
     1
 92
        8
176
     1
 66
     7
176
     1
 43
1.0
176
     1
 76
     1
176
     1
 77
     6
176
     1
 78
     2
176
     1
 67
     7
176
     1
 79
     3
176
     1
170
     0
176
     1
171
     0
176
     1
290
     0
176
     1
 93
        1
176
     1
 44
0.0
176
     1
173
     0
176
     1
  0
VISUALSTYLE
  5
35
102
{ACAD_REACTORS
330
2A
102
}
330
2A
100
AcDbVisualStyle
  2
Dim
 70
    11
177
     2
291
     1
 71
     2
176
     1
 72
     2
176
     1
 73
     0
176
     1
 90
        0
176
     1
 40
-0.6
176
     1
 41
-30.0
176
     1
 62
     5
 63
     7
421
 16777215
176
     1
 74
     1
176
     1
 91
        4
176
     1
 64
     7
176
     1
 65
   257
176
     1
 75
     1
176
     1
175
     1
176
     1
 42
1.0
176
     1
 92
        8
176
     1
 66
     7
176
     1
 43
1.0
176
     1
 76
     1
176
     1
 77
     6
176
     1
 78
     2
176
     1
 67
     7
176
     1
 79
     5
176
     1
170
     0
176
     1
171
     0
176
     1
290
     0
176
     1
 93
        1
176
     1
 44
-50.0
176
     1
173
     0
176
     1
  0
VISUALSTYLE
  5
39
102
{ACAD_REACTORS
330
2A
102
}
330
2A
100
AcDbVisualStyle
  2
Facepattern
 70
    15
177
     2
291
     1
 71
     2
176
     1
 72
     2
176
     1
 73
     0
176
     1
 90
        0
176
     1
 40
-0.6
176
     1
 41
-30.0
176
     1
 62
     5
 63
     7
421
 16777215
176
     1
 74
     1
176
     1
 91
        4
176
     1
 64
     7
176
     1
 65
   257
176
     1
 75
     1
176
     1
175
     1
176
     1
 42
1.0
176
     1
 92
        8
176
     1
 66
     7
176
     1
 43
1.0
176
     1
 76
     1
176
     1
 77
     6
176
     1
 78
     2
176
     1
 67
     7
176
     1
 79
     5
176
     1
170
     0
176
     1
171
     0
176
     1
290
     0
176
     1
 93
        1
176
     1
 44
0.0
176
     1
173
     0
176
     1
  0
VISUALSTYLE
  5
2B
102
{ACAD_REACTORS
330
2A
102
}
330
2A
100
AcDbVisualStyle
  2
Flat
 70
     0
177
     2
291
     1
 71
     2
176
     1
 72
     1
176
     1
 73
     1
176
     1
 90
        2
176
     1
 40
-0.6
176
     1
 41
30.0
176
     1
 62
     5
 63
     7
421
 16777215
176
     1
 74
     0
176
     1
 91
        4
176
     1
 64
     7
176
     1
 65
   257
176
     1
 75
     1
176
     1
175
     1
176
     1
 42
1.0
176
     1
 92
        8
176
     1
 66
     7
176
     1
 43
1.0
176
     1
 76
     1
176
     1
 77
     6
176
     1
 78
     2
176
     1
 67
     7
176
     1
 79
     5
176
     1
170
     0
176
     1
171
     0
176
     1
290
     0
176
     1
 93
       13
176
     1
 44
0.0
176
     1
173
     0
176
     1
  0
VISUALSTYLE
  5
2C
102
{ACAD_REACTORS
330
2A
102
}
330
2A
100
AcDbVisualStyle
  2
FlatWithEdges
 70
     1
177
     2
291
     1
 71
     2
176
     1
 72
     1
176
     1
 73
     1
176
     1
 90
        2
176
     1
 40
-0.6
176
     1
 41
30.0
176
     1
 62
     5
 63
     7
421
 16777215
176
     1
 74
     1
176
     1
 91
        4
176
     1
 64
     7
176
     1
 65
   257
176
     1
 75
     1
176
     1
175
     1
176
     1
 42
1.0
176
     1
 92
        0
176
     1
 66
   257
176
     1
 43
1.0
176
     1
 76
     1
176
     1
 77
     6
176
     1
 78
     2
176
     1
 67
     7
176
     1
 79
     5
176
     1
170
     0
176
     1
171
     0
176
     1
290
     0
176
     1
 93
       13
176
     1
 44
0.0
176
     1
173
     0
176
     1
  0
VISUALSTYLE
  5
2D
102
{ACAD_REACTORS
330
2A
102
}
330
2A
100
AcDbVisualStyle
  2
Gouraud
 70
     2
177
     2
291
     1
 71
     2
176
     1
 72
     2
176
     1
 73
     1
176
     1
 90
        2
176
     1
 40
-0.6
176
     1
 41
30.0
176
     1
 62
     5
 63
     7
421
 16777215
176
     1
 74
     0
176
     1
 91
        4
176
     1
 64
     7
176
     1
 65
   257
176
     1
 75
     1
176
     1
175
     1
176
     1
 42
1.0
176
     1
 92
        0
176
     1
 66
     7
176
     1
 43
1.0
176
     1
 76
     1
176
     1
 77
     6
176
     1
 78
     2
176
     1
 67
     7
176
     1
 79
     5
176
     1
170
     0
176
     1
171
     0
176
     1
290
     0
176
     1
 93
       13
176
     1
 44
0.0
176
     1
173
     0
176
     1
  0
VISUALSTYLE
  5
2E
102
{ACAD_REACTORS
330
2A
102
}
330
2A
100
AcDbVisualStyle
  2
GouraudWithEdges
 70
     3
177
     2
291
     1
 71
     2
176
     1
 72
     2
176
     1
 73
     1
176
     1
 90
        2
176
     1
 40
-0.6
176
     1
 41
30.0
176
     1
 62
     5
 63
     7
421
 16777215
176
     1
 74
     1
176
     1
 91
        4
176
     1
 64
     7
176
     1
 65
   257
176
     1
 75
     1
176
     1
175
     1
176
     1
 42
1.0
176
     1
 92
        0
176
     1
 66
   257
176
     1
 43
1.0
176
     1
 76
     1
176
     1
 77
     6
176
     1
 78
     2
176
     1
 67
     7
176
     1
 79
     5
176
     1
170
     0
176
     1
171
     0
176
     1
290
     0
176
     1
 93
       13
176
     1
 44
0.0
176
     1
173
     0
176
     1
  0
VISUALSTYLE
  5
38
102
{ACAD_REACTORS
330
2A
102
}
330
2A
100
AcDbVisualStyle
  2
Linepattern
 70
    14
177
     2
291
     1
 71
     2
176
     1
 72
     2
176
     1
 73
     0
176
     1
 90
        0
176
     1
 40
-0.6
176
     1
 41
-30.0
176
     1
 62
     5
 63
     7
421
 16777215
176
     1
 74
     1
176
     1
 91
        4
176
     1
 64
     7
176
     1
 65
   257
176
     1
 75
     7
176
     1
175
     7
176
     1
 42
1.0
176
     1
 92
        8
176
     1
 66
     7
176
     1
 43
1.0
176
     1
 76
     1
176
     1
 77
     6
176
     1
 78
     2
176
     1
 67
     7
176
     1
 79
     5
176
     1
170
     0
176
     1
171
     0
176
     1
290
     0
176
     1
 93
        1
176
     1
 44
0.0
176
     1
173
     0
176
     1
  0
VISUALSTYLE
  5
33
102
{ACAD_REACTORS
330
2A
102
}
330
2A
100
AcDbVisualStyle
  2
Realistic
 70
     8
177
     2
291
     0
 71
     2
176
     1
 72
     2
176
     1
 73
     0
176
     1
 90
        0
176
     1
 40
-0.6
176
     1
 41
-30.0
176
     1
 62
     5
 63
     7
421
 16777215
176
     1
 74
     1
176
     1
 91
        0
176
     1
 64
     7
176
     1
 65
   257
176
     1
 75
     1
176
     1
175
     1
176
     1
 42
1.0
176
     1
 92
        8
176
     1
 66
     8
424
  7895160
176
     1
 43
1.0
176
     1
 76
     1
176
     1
 77
     6
176
     1
 78
     2
176
     1
 67
     7
176
     1
 79
     5
176
     1
170
     0
176
     1
171
     0
176
     1
290
     0
176
     1
 93
       13
176
     1
 44
0.0
176
     1
173
     0
176
     1
  0
VISUALSTYLE
  5
37
102
{ACAD_REACTORS
330
2A
102
}
330
2A
100
AcDbVisualStyle
  2
Thicken
 70
    13
177
     2
291
     1
 71
     2
176
     1
 72
     2
176
     1
 73
     0
176
     1
 90
        0
176
     1
 40
-0.6
176
     1
 41
-30.0
176
     1
 62
     5
 63
     7
421
 16777215
176
     1
 74
     1
176
     1
 91
        4
176
     1
 64
     7
176
     1
 65
   257
176
     1
 75
     1
176
     1
175
     1
176
     1
 42
1.0
176
     1
 92
       12
176
     1
 66
     7
176
     1
 43
1.0
176
     1
 76
     1
176
     1
 77
     6
176
     1
 78
     2
176
     1
 67
     7
176
     1
 79
     5
176
     1
170
     0
176
     1
171
     0
176
     1
290
     0
176
     1
 93
        1
176
     1
 44
0.0
176
     1
173
     0
176
     1
  0
ENDSEC
  0
EOF
