  0
SECTION
  2
HEADER
  9
$ACADVER
  1
AC1024
  9
$ACADMAINTVER
 70
     6
  9
$DWGCODEPAGE
  3
UNDEFINED
  9
$INSBASE
 10
0.0
 20
0.0
 30
0.0
  9
$EXTMIN
 10
1.000000000000000E+20
 20
1.000000000000000E+20
 30
1.000000000000000E+20
  9
$EXTMAX
 10
-1.000000000000000E+20
 20
-1.000000000000000E+20
 30
-1.000000000000000E+20
  9
$LIMMIN
 10
0.0
 20
0.0
  9
$LIMMAX
 10
12.0
 20
9.0
  9
$ORTHOMODE
 70
     0
  9
$REGENMODE
 70
     1
  9
$FILLMODE
 70
     1
  9
$QTEXTMODE
 70
     0
  9
$MIRRTEXT
 70
     1
  9
$LTSCALE
 40
1.0
  9
$ATTMODE
 70
     1
  9
$TEXTSIZE
 40
0.2
  9
$TRACEWID
 40
0.05
  9
$TEXTSTYLE
  7
Standard
  9
$CLAYER
  8
0
  9
$CELTYPE
  6
ByLayer
  9
$CECOLOR
 62
   256
  9
$CELTSCALE
 40
1.0
  9
$DISPSILH
 70
     0
  9
$DIMSCALE
 40
1.0
  9
$DIMASZ
 40
0.18
  9
$DIMEXO
 40
0.0625
  9
$DIMDLI
 40
0.38
  9
$DIMRND
 40
0.0
  9
$DIMDLE
 40
0.0
  9
$DIMEXE
 40
0.18
  9
$DIMTP
 40
0.0
  9
$DIMTM
 40
0.0
  9
$DIMTXT
 40
0.18
  9
$DIMCEN
 40
0.09
  9
$DIMTSZ
 40
0.0
  9
$DIMTOL
 70
     0
  9
$DIMLIM
 70
     0
  9
$DIMTIH
 70
     1
  9
$DIMTOH
 70
     1
  9
$DIMSE1
 70
     0
  9
$DIMSE2
 70
     0
  9
$DIMTAD
 70
     0
  9
$DIMZIN
 70
     0
  9
$DIMBLK
  1

  9
$DIMASO
 70
     1
  9
$DIMSHO
 70
     1
  9
$DIMPOST
  1

  9
$DIMAPOST
  1

  9
$DIMALT
 70
     0
  9
$DIMALTD
 70
     2
  9
$DIMALTF
 40
25.4
  9
$DIMLFAC
 40
1.0
  9
$DIMTOFL
 70
     0
  9
$DIMTVP
 40
0.0
  9
$DIMTIX
 70
     0
  9
$DIMSOXD
 70
     0
  9
$DIMSAH
 70
     0
  9
$DIMBLK1
  1

  9
$DIMBLK2
  1

  9
$DIMSTYLE
  2
Standard
  9
$DIMCLRD
 70
     0
  9
$DIMCLRE
 70
     0
  9
$DIMCLRT
 70
     0
  9
$DIMTFAC
 40
1.0
  9
$DIMGAP
 40
0.09
  9
$DIMJUST
 70
     0
  9
$DIMSD1
 70
     0
  9
$DIMSD2
 70
     0
  9
$DIMTOLJ
 70
     1
  9
$DIMTZIN
 70
     0
  9
$DIMALTZ
 70
     0
  9
$DIMALTTZ
 70
     0
  9
$DIMUPT
 70
     0
  9
$DIMDEC
 70
     4
  9
$DIMTDEC
 70
     4
  9
$DIMALTU
 70
     2
  9
$DIMALTTD
 70
     2
  9
$DIMTXSTY
  7
Standard
  9
$DIMAUNIT
 70
     0
  9
$DIMADEC
 70
     0
  9
$DIMALTRND
 40
0.0
  9
$DIMAZIN
 70
     0
  9
$DIMDSEP
 70
    46
  9
$DIMATFIT
 70
     3
  9
$DIMFRAC
 70
     0
  9
$DIMLDRBLK
  1

  9
$DIMLUNIT
 70
     2
  9
$DIMLWD
 70
    -2
  9
$DIMLWE
 70
    -2
  9
$DIMTMOVE
 70
     0
  9
$DIMFXL
 40
1.0
  9
$DIMFXLON
 70
     0
  9
$DIMJOGANG
 40
0.7853981633974483
  9
$DIMTFILL
 70
     0
  9
$DIMTFILLCLR
 70
     0
  9
$DIMARCSYM
 70
     0
  9
$DIMLTYPE
  6

  9
$DIMLTEX1
  6

  9
$DIMLTEX2
  6

  9
$DIMTXTDIRECTION
 70
     0
  9
$LUNITS
 70
     2
  9
$LUPREC
 70
     4
  9
$SKETCHINC
 40
0.1
  9
$FILLETRAD
 40
0.5
  9
$AUNITS
 70
     0
  9
$AUPREC
 70
     0
  9
$MENU
  1
.
  9
$ELEVATION
 40
0.0
  9
$PELEVATION
 40
0.0
  9
$THICKNESS
 40
0.0
  9
$LIMCHECK
 70
     0
  9
$CHAMFERA
 40
0.5
  9
$CHAMFERB
 40
0.5
  9
$CHAMFERC
 40
1.0
  9
$CHAMFERD
 40
0.0
  9
$SKPOLY
 70
     0
  9
$TDCREATE
 40
2457917.619942118
  9
$TDUCREATE
 40
2457917.24494213
  9
$TDUPDATE
 40
2457917.619942118
  9
$TDUUPDATE
 40
2457917.24494213
  9
$TDINDWG
 40
0.0000000116
  9
$TDUSRTIMER
 40
0.0000000116
  9
$USRTIMER
 70
     1
  9
$ANGBASE
 50
0.0
  9
$ANGDIR
 70
     0
  9
$PDMODE
 70
     0
  9
$PDSIZE
 40
0.0
  9
$PLINEWID
 40
0.0
  9
$SPLFRAME
 70
     0
  9
$SPLINETYPE
 70
     6
  9
$SPLINESEGS
 70
     8
  9
$HANDSEED
  5
17F
  9
$SURFTAB1
 70
     6
  9
$SURFTAB2
 70
     6
  9
$SURFTYPE
 70
     6
  9
$SURFU
 70
     6
  9
$SURFV
 70
     6
  9
$UCSBASE
  2

  9
$UCSNAME
  2

  9
$UCSORG
 10
0.0
 20
0.0
 30
0.0
  9
$UCSXDIR
 10
1.0
 20
0.0
 30
0.0
  9
$UCSYDIR
 10
0.0
 20
1.0
 30
0.0
  9
$UCSORTHOREF
  2

  9
$UCSORTHOVIEW
 70
     0
  9
$UCSORGTOP
 10
0.0
 20
0.0
 30
0.0
  9
$UCSORGBOTTOM
 10
0.0
 20
0.0
 30
0.0
  9
$UCSORGLEFT
 10
0.0
 20
0.0
 30
0.0
  9
$UCSORGRIGHT
 10
0.0
 20
0.0
 30
0.0
  9
$UCSORGFRONT
 10
0.0
 20
0.0
 30
0.0
  9
$UCSORGBACK
 10
0.0
 20
0.0
 30
0.0
  9
$PUCSBASE
  2

  9
$PUCSNAME
  2

  9
$PUCSORG
 10
0.0
 20
0.0
 30
0.0
  9
$PUCSXDIR
 10
1.0
 20
0.0
 30
0.0
  9
$PUCSYDIR
 10
0.0
 20
1.0
 30
0.0
  9
$PUCSORTHOREF
  2

  9
$PUCSORTHOVIEW
 70
     0
  9
$PUCSORGTOP
 10
0.0
 20
0.0
 30
0.0
  9
$PUCSORGBOTTOM
 10
0.0
 20
0.0
 30
0.0
  9
$PUCSORGLEFT
 10
0.0
 20
0.0
 30
0.0
  9
$PUCSORGRIGHT
 10
0.0
 20
0.0
 30
0.0
  9
$PUCSORGFRONT
 10
0.0
 20
0.0
 30
0.0
  9
$PUCSORGBACK
 10
0.0
 20
0.0
 30
0.0
  9
$USERI1
 70
     0
  9
$USERI2
 70
     0
  9
$USERI3
 70
     0
  9
$USERI4
 70
     0
  9
$USERI5
 70
     0
  9
$USERR1
 40
0.0
  9
$USERR2
 40
0.0
  9
$USERR3
 40
0.0
  9
$USERR4
 40
0.0
  9
$USERR5
 40
0.0
  9
$WORLDVIEW
 70
     1
  9
$SHADEDGE
 70
     3
  9
$SHADEDIF
 70
    70
  9
$TILEMODE
 70
     1
  9
$MAXACTVP
 70
    64
  9
$PINSBASE
 10
0.0
 20
0.0
 30
0.0
  9
$PLIMCHECK
 70
     0
  9
$PEXTMIN
 10
1.000000000000000E+20
 20
1.000000000000000E+20
 30
1.000000000000000E+20
  9
$PEXTMAX
 10
-1.000000000000000E+20
 20
-1.000000000000000E+20
 30
-1.000000000000000E+20
  9
$PLIMMIN
 10
0.0
 20
0.0
  9
$PLIMMAX
 10
12.0
 20
9.0
  9
$UNITMODE
 70
     0
  9
$VISRETAIN
 70
     1
  9
$PLINEGEN
 70
     0
  9
$PSLTSCALE
 70
     1
  9
$TREEDEPTH
 70
  3020
  9
$CMLSTYLE
  2
Standard
  9
$CMLJUST
 70
     0
  9
$CMLSCALE
 40
1.0
  9
$PROXYGRAPHICS
 70
     1
  9
$MEASUREMENT
 70
     0
  9
$CELWEIGHT
370
    -1
  9
$ENDCAPS
280
     0
  9
$JOINSTYLE
280
     0
  9
$LWDISPLAY
290
     1
  9
$INSUNITS
 70
     1
  9
$HYPERLINKBASE
  1

  9
$STYLESHEET
  1

  9
$XEDIT
290
     1
  9
$CEPSNTYPE
380
     0
  9
$PSTYLEMODE
290
     1
  9
$FINGERPRINTGUID
  2
{7C98EE26-852B-10B3-1889-02FCD5681D59}
  9
$VERSIONGUID
  2
{FAEB1C32-E019-11D5-929B-00C0DF256EC4}
  9
$EXTNAMES
290
     1
  9
$PSVPSCALE
 40
0.0
  9
$OLESTARTUP
290
     0
  9
$SORTENTS
280
   127
  9
$INDEXCTL
280
     0
  9
$HIDETEXT
280
     1
  9
$XCLIPFRAME
280
     2
  9
$HALOGAP
280
     0
  9
$OBSCOLOR
 70
   257
  9
$OBSLTYPE
280
     0
  9
$INTERSECTIONDISPLAY
280
     0
  9
$INTERSECTIONCOLOR
 70
   257
  9
$DIMASSOC
280
     2
  9
$PROJECTNAME
  1

  9
$CAMERADISPLAY
290
     0
  9
$LENSLENGTH
 40
50.0
  9
$CAMERAHEIGHT
 40
0.0
  9
$STEPSPERSEC
 40
2.0
  9
$STEPSIZE
 40
6.0
  9
$3DDWFPREC
 40
2.0
  9
$PSOLWIDTH
 40
0.25
  9
$PSOLHEIGHT
 40
4.0
  9
$LOFTANG1
 40
1.570796326794897
  9
$LOFTANG2
 40
1.570796326794897
  9
$LOFTMAG1
 40
0.0
  9
$LOFTMAG2
 40
0.0
  9
$LOFTPARAM
 70
     7
  9
$LOFTNORMALS
280
     1
  9
$LATITUDE
 40
37.795
  9
$LONGITUDE
 40
-122.394
  9
$NORTHDIRECTION
 40
0.0
  9
$TIMEZONE
 70
 -8000
  9
$LIGHTGLYPHDISPLAY
280
     1
  9
$TILEMODELIGHTSYNCH
280
     1
  9
$CMATERIAL
347
3C
  9
$SOLIDHIST
280
     1
  9
$SHOWHIST
280
     1
  9
$DWFFRAME
280
     2
  9
$DGNFRAME
280
     2
  9
$REALWORLDSCALE
290
     1
  9
$INTERFERECOLOR
 62
   256
  9
$CSHADOW
280
     0
  9
$SHADOWPLANELOCATION
 40
0.0
  0
ENDSEC
  0
SECTION
  2
CLASSES
  0
CLASS
  1
ACDBDICTIONARYWDFLT
  2
AcDbDictionaryWithDefault
  3
ObjectDBX Classes
 90
        0
 91
        4
280
     0
281
     0
  0
CLASS
  1
VISUALSTYLE
  2
AcDbVisualStyle
  3
ObjectDBX Classes
 90
     4095
 91
        4
280
     0
281
     0
  0
CLASS
  1
MATERIAL
  2
AcDbMaterial
  3
ObjectDBX Classes
 90
     1153
 91
        4
280
     0
281
     0
  0
CLASS
  1
SUN
  2
AcDbSun
  3
SCENEOE
 90
     1024
 91
        4
280
     0
281
     0
  0
ENDSEC
  0
SECTION
  2
TABLES
  0
TABLE
  2
VPORT
  5
8
330
0
100
AcDbSymbolTable
 70
     1
  0
VPORT
  5
29
330
8
100
AcDbSymbolTableRecord
100
AcDbViewportTableRecord
  2
*Active
 70
     0
 10
0.0
 20
0.0
 11
1.0
 21
1.0
 12
0.0
 22
0.0
 13
0.0
 23
0.0
 14
0.5
 24
0.5
 15
0.5
 25
0.5
 16
0.0
 26
0.0
 36
1.0
 17
91.00082462281999
 27
-128.4993055234307
 37
0.0
 40
256.9986110468615
 41
0.7081814508812795
 42
50.0
 43
0.0
 44
0.0
 50
0.0
 51
0.0
 71
     0
 72
   100
 73
     1
 74
     3
 75
     0
 76
     0
 77
     0
 78
     0
281
     0
 65
     1
110
0.0
120
0.0
130
0.0
111
1.0
121
0.0
131
0.0
112
0.0
122
1.0
132
0.0
 79
     0
146
0.0
 60
     3
 61
     5
292
     1
282
     1
141
0.0
142
0.0
 63
   250
361
3F
  0
ENDTAB
  0
TABLE
  2
LTYPE
  5
5
330
0
100
AcDbSymbolTable
 70
     2
  0
LTYPE
  5
14
330
5
100
AcDbSymbolTableRecord
100
AcDbLinetypeTableRecord
  2
ByBlock
 70
     0
  3

 72
    65
 73
     0
 40
0.0
  0
LTYPE
  5
15
330
5
100
AcDbSymbolTableRecord
100
AcDbLinetypeTableRecord
  2
ByLayer
 70
     0
  3

 72
    65
 73
     0
 40
0.0
  0
LTYPE
  5
16
330
5
100
AcDbSymbolTableRecord
100
AcDbLinetypeTableRecord
  2
Continuous
 70
     0
  3
Solid line
 72
    65
 73
     0
 40
0.0
  0
LTYPE
  5
16B
330
5
100
AcDbSymbolTableRecord
100
AcDbLinetypeTableRecord
  2
AI-Linetype-1
 70
     0
  3
Adobe Illustrator Linetype No. 1
 72
    65
 73
     2
 40
1.411111110758333
 49
0.7055555553791667
 74
     0
 49
-0.7055555553791667
 74
     0
  0
ENDTAB
  0
TABLE
  2
LAYER
  5
2
330
0
100
AcDbSymbolTable
 70
     2
  0
LAYER
  5
10
330
2
100
AcDbSymbolTableRecord
100
AcDbLayerTableRecord
  2
0
 70
     0
 62
     7
  6
Continuous
370
    -3
390
F
347
3E
  0
LAYER
  5
40
330
2
100
AcDbSymbolTableRecord
100
AcDbLayerTableRecord
  2
_U+30EC_U+30A4_U+30E4_U+30FC 1
 70
     0
 62
     7
  6
Continuous
370
    -3
390
F
347
3E
  0
ENDTAB
  0
TABLE
  2
STYLE
  5
3
330
0
100
AcDbSymbolTable
 70
     1
  0
STYLE
  5
11
330
3
100
AcDbSymbolTableRecord
100
AcDbTextStyleTableRecord
  2
Standard
 70
     0
 40
0.0
 41
1.0
 50
0.0
 71
     0
 42
0.2
  3
txt
  4

  0
ENDTAB
  0
TABLE
  2
VIEW
  5
6
330
0
100
AcDbSymbolTable
 70
     0
  0
ENDTAB
  0
TABLE
  2
UCS
  5
7
330
0
100
AcDbSymbolTable
 70
     0
  0
ENDTAB
  0
TABLE
  2
APPID
  5
9
330
0
100
AcDbSymbolTable
 70
     1
  0
APPID
  5
12
330
9
100
AcDbSymbolTableRecord
100
AcDbRegAppTableRecord
  2
ACAD
 70
     0
  0
ENDTAB
  0
TABLE
  2
DIMSTYLE
  5
A
330
0
100
AcDbSymbolTable
 70
     1
100
AcDbDimStyleTable
  0
DIMSTYLE
105
27
330
A
100
AcDbSymbolTableRecord
100
AcDbDimStyleTableRecord
  2
Standard
 70
     0
178
     0
340
11
  0
ENDTAB
  0
TABLE
  2
BLOCK_RECORD
  5
1
330
0
100
AcDbSymbolTable
 70
     8
  0
BLOCK_RECORD
  5
1F
330
1
100
AcDbSymbolTableRecord
100
AcDbBlockTableRecord
  2
*Model_Space
340
22
 70
     0
280
     1
281
     0
  0
BLOCK_RECORD
  5
1B
330
1
100
AcDbSymbolTableRecord
100
AcDbBlockTableRecord
  2
*Paper_Space
340
1E
 70
     0
280
     1
281
     0
  0
BLOCK_RECORD
  5
23
330
1
100
AcDbSymbolTableRecord
100
AcDbBlockTableRecord
  2
*Paper_Space0
340
26
 70
     0
280
     1
281
     0
  0
BLOCK_RECORD
  5
AB
330
1
100
AcDbSymbolTableRecord
100
AcDbBlockTableRecord
  2
block 2
340
0
102
{BLKREFS
331
AC
102
}
 70
     0
280
     1
281
     0
  0
BLOCK_RECORD
  5
B9
330
1
100
AcDbSymbolTableRecord
100
AcDbBlockTableRecord
  2
block 3
340
0
102
{BLKREFS
331
BA
102
}
 70
     0
280
     1
281
     0
  0
BLOCK_RECORD
  5
D0
330
1
100
AcDbSymbolTableRecord
100
AcDbBlockTableRecord
  2
block 4
340
0
102
{BLKREFS
331
D1
102
}
 70
     0
280
     1
281
     0
  0
BLOCK_RECORD
  5
FF
330
1
100
AcDbSymbolTableRecord
100
AcDbBlockTableRecord
  2
block 5
340
0
102
{BLKREFS
331
100
102
}
 70
     0
280
     1
281
     0
  0
BLOCK_RECORD
  5
122
330
1
100
AcDbSymbolTableRecord
100
AcDbBlockTableRecord
  2
block 6
340
0
102
{BLKREFS
331
123
102
}
 70
     0
280
     1
281
     0
  0
BLOCK_RECORD
  5
151
330
1
100
AcDbSymbolTableRecord
100
AcDbBlockTableRecord
  2
block 7
340
0
102
{BLKREFS
331
152
102
}
 70
     0
280
     1
281
     0
  0
BLOCK_RECORD
  5
176
330
1
100
AcDbSymbolTableRecord
100
AcDbBlockTableRecord
  2
block 8
340
0
102
{BLKREFS
331
177
102
}
 70
     0
280
     1
281
     0
  0
ENDTAB
  0
ENDSEC
  0
SECTION
  2
BLOCKS
  0
BLOCK
  5
20
330
1F
100
AcDbEntity
  8
0
100
AcDbBlockBegin
  2
*Model_Space
 70
     0
 10
0.0
 20
0.0
 30
0.0
  3
*Model_Space
  1

  0
ENDBLK
  5
21
330
1F
100
AcDbEntity
  8
0
100
AcDbBlockEnd
  0
BLOCK
  5
1C
330
1B
100
AcDbEntity
 67
     1
  8
0
100
AcDbBlockBegin
  2
*Paper_Space
 70
     0
 10
0.0
 20
0.0
 30
0.0
  3
*Paper_Space
  1

  0
ENDBLK
  5
1D
330
1B
100
AcDbEntity
 67
     1
  8
0
100
AcDbBlockEnd
  0
BLOCK
  5
24
330
23
100
AcDbEntity
  8
0
100
AcDbBlockBegin
  2
*Paper_Space0
 70
     0
 10
0.0
 20
0.0
 30
0.0
  3
*Paper_Space0
  1

  0
ENDBLK
  5
25
330
23
100
AcDbEntity
  8
0
100
AcDbBlockEnd
  0
BLOCK
  5
AD
330
AB
100
AcDbEntity
  8
0
100
AcDbBlockBegin
  2
block 2
 70
     0
 10
0.0
 20
0.0
 30
0.0
  3
block 2
  1

  0
SPLINE
  5
AF
330
AB
100
AcDbEntity
  8
_U+30EC_U+30A4_U+30E4_U+30FC 1
370
     0
100
AcDbSpline
210
0.0
220
0.0
230
1.0
 70
    11
 71
     3
 72
    26
 73
    22
 74
     0
 42
0.0000000001
 43
0.0000000001
 12
1.0
 22
0.0
 32
0.0
 13
1.0
 23
0.0
 33
0.0
 40
0.0
 40
0.0
 40
0.0
 40
0.0
 40
1.0
 40
1.0
 40
1.0
 40
2.0
 40
2.0
 40
2.0
 40
3.0
 40
3.0
 40
3.0
 40
4.0
 40
4.0
 40
4.0
 40
5.0
 40
5.0
 40
5.0
 40
6.0
 40
6.0
 40
6.0
 40
7.0
 40
7.0
 40
7.0
 40
7.0
 10
88.48486597180239
 20
-115.4975151620979
 30
0.0
 10
88.48486597180239
 20
-115.4975151620979
 30
0.0
 10
88.23165145363653
 20
-115.4975151620979
 30
0.0
 10
88.23165145363653
 20
-115.4975151620979
 30
0.0
 10
88.25886770797001
 20
-115.1886623518452
 30
0.0
 10
88.46453990843942
 20
-114.6703477360894
 30
0.0
 10
88.8986219395809
 20
-114.164779973629
 30
0.0
 10
88.8986219395809
 20
-114.164779973629
 30
0.0
 10
88.00341387773874
 20
-114.164779973629
 30
0.0
 10
88.00341387773874
 20
-114.164779973629
 30
0.0
 10
88.00341387773874
 20
-114.164779973629
 30
0.0
 10
88.00341387773874
 20
-113.9532511108346
 30
0.0
 10
88.00341387773874
 20
-113.9532511108346
 30
0.0
 10
88.00341387773874
 20
-113.9532511108346
 30
0.0
 10
89.15183645774677
 20
-113.9532511108346
 30
0.0
 10
89.15183645774677
 20
-113.9532511108346
 30
0.0
 10
89.15183645774677
 20
-113.9532511108346
 30
0.0
 10
89.15183645774677
 20
-114.164779973629
 30
0.0
 10
89.15183645774677
 20
-114.164779973629
 30
0.0
 10
88.80594887102768
 20
-114.4545125039385
 30
0.0
 10
88.52103947439753
 20
-115.0468966726272
 30
0.0
 10
88.48486597180239
 20
-115.4975151620979
 30
0.0
  0
HATCH
  5
B0
330
AB
100
AcDbEntity
  8
_U+30EC_U+30A4_U+30E4_U+30FC 1
 62
     7
420
 16777215
100
AcDbHatch
 10
0.0
 20
0.0
 30
0.0
210
0.0
220
0.0
230
1.0
  2
SOLID
 70
     1
 71
     0
 91
        1
 92
        1
 93
        1
 72
     4
 94
        3
 73
     0
 74
     1
 95
       26
 96
       22
 40
0.0
 40
0.0
 40
0.0
 40
0.0
 40
1.0
 40
1.0
 40
1.0
 40
2.0
 40
2.0
 40
2.0
 40
3.0
 40
3.0
 40
3.0
 40
4.0
 40
4.0
 40
4.0
 40
5.0
 40
5.0
 40
5.0
 40
6.0
 40
6.0
 40
6.0
 40
7.0
 40
7.0
 40
7.0
 40
7.0
 10
88.48486597180239
 20
-115.4975151620979
 10
88.48486597180239
 20
-115.4975151620979
 10
88.23165145363653
 20
-115.4975151620979
 10
88.23165145363653
 20
-115.4975151620979
 10
88.25886770797001
 20
-115.1886623518452
 10
88.46453990843942
 20
-114.6703477360894
 10
88.8986219395809
 20
-114.164779973629
 10
88.8986219395809
 20
-114.164779973629
 10
88.00341387773874
 20
-114.164779973629
 10
88.00341387773874
 20
-114.164779973629
 10
88.00341387773874
 20
-114.164779973629
 10
88.00341387773874
 20
-113.9532511108346
 10
88.00341387773874
 20
-113.9532511108346
 10
88.00341387773874
 20
-113.9532511108346
 10
89.15183645774677
 20
-113.9532511108346
 10
89.15183645774677
 20
-113.9532511108346
 10
89.15183645774677
 20
-113.9532511108346
 10
89.15183645774677
 20
-114.164779973629
 10
89.15183645774677
 20
-114.164779973629
 10
88.80594887102768
 20
-114.4545125039385
 10
88.52103947439753
 20
-115.0468966726272
 10
88.48486597180239
 20
-115.4975151620979
 97
        0
 97
        0
 75
     2
 76
     1
 98
        0
  0
ENDBLK
  5
AE
330
AB
100
AcDbEntity
  8
0
100
AcDbBlockEnd
  0
BLOCK
  5
BB
330
B9
100
AcDbEntity
  8
0
100
AcDbBlockBegin
  2
block 3
 70
     0
 10
0.0
 20
0.0
 30
0.0
  3
block 3
  1

  0
SPLINE
  5
BD
330
B9
100
AcDbEntity
  8
_U+30EC_U+30A4_U+30E4_U+30FC 1
370
     0
100
AcDbSpline
210
0.0
220
0.0
230
1.0
 70
    11
 71
     3
 72
    26
 73
    22
 74
     0
 42
0.0000000001
 43
0.0000000001
 12
1.0
 22
0.0
 32
0.0
 13
1.0
 23
0.0
 33
0.0
 40
0.0
 40
0.0
 40
0.0
 40
0.0
 40
1.0
 40
1.0
 40
1.0
 40
2.0
 40
2.0
 40
2.0
 40
3.0
 40
3.0
 40
3.0
 40
4.0
 40
4.0
 40
4.0
 40
5.0
 40
5.0
 40
5.0
 40
6.0
 40
6.0
 40
6.0
 40
7.0
 40
7.0
 40
7.0
 40
7.0
 10
105.5597927253462
 20
-128.7649223853435
 30
0.0
 10
105.5597927253462
 20
-128.7649223853435
 30
0.0
 10
105.5597927253462
 20
-129.0181369035094
 30
0.0
 10
105.5597927253462
 20
-129.0181369035094
 30
0.0
 10
105.2507676603193
 20
-128.9912651587244
 30
0.0
 10
104.7326252993377
 20
-128.7852484487065
 30
0.0
 10
104.226885282103
 20
-128.3513386723393
 30
0.0
 10
104.226885282103
 20
-128.3513386723393
 30
0.0
 10
104.226885282103
 20
-129.2465467341814
 30
0.0
 10
104.226885282103
 20
-129.2465467341814
 30
0.0
 10
104.226885282103
 20
-129.2465467341814
 30
0.0
 10
104.0153564193087
 20
-129.2465467341814
 30
0.0
 10
104.0153564193087
 20
-129.2465467341814
 30
0.0
 10
104.0153564193087
 20
-129.2465467341814
 30
0.0
 10
104.0153564193087
 20
-128.0981241541734
 30
0.0
 10
104.0153564193087
 20
-128.0981241541734
 30
0.0
 10
104.0153564193087
 20
-128.0981241541734
 30
0.0
 10
104.226885282103
 20
-128.0981241541734
 30
0.0
 10
104.226885282103
 20
-128.0981241541734
 30
0.0
 10
104.516962321961
 20
-128.4440117408925
 30
0.0
 10
105.1091742358755
 20
-128.7287488827484
 30
0.0
 10
105.5597927253462
 20
-128.7649223853435
 30
0.0
  0
HATCH
  5
BE
330
B9
100
AcDbEntity
  8
_U+30EC_U+30A4_U+30E4_U+30FC 1
 62
     7
420
 16777215
100
AcDbHatch
 10
0.0
 20
0.0
 30
0.0
210
0.0
220
0.0
230
1.0
  2
SOLID
 70
     1
 71
     0
 91
        1
 92
        1
 93
        1
 72
     4
 94
        3
 73
     0
 74
     1
 95
       26
 96
       22
 40
0.0
 40
0.0
 40
0.0
 40
0.0
 40
1.0
 40
1.0
 40
1.0
 40
2.0
 40
2.0
 40
2.0
 40
3.0
 40
3.0
 40
3.0
 40
4.0
 40
4.0
 40
4.0
 40
5.0
 40
5.0
 40
5.0
 40
6.0
 40
6.0
 40
6.0
 40
7.0
 40
7.0
 40
7.0
 40
7.0
 10
105.5597927253462
 20
-128.7649223853435
 10
105.5597927253462
 20
-128.7649223853435
 10
105.5597927253462
 20
-129.0181369035094
 10
105.5597927253462
 20
-129.0181369035094
 10
105.2507676603193
 20
-128.9912651587244
 10
104.7326252993377
 20
-128.7852484487065
 10
104.226885282103
 20
-128.3513386723393
 10
104.226885282103
 20
-128.3513386723393
 10
104.226885282103
 20
-129.2465467341814
 10
104.226885282103
 20
-129.2465467341814
 10
104.226885282103
 20
-129.2465467341814
 10
104.0153564193087
 20
-129.2465467341814
 10
104.0153564193087
 20
-129.2465467341814
 10
104.0153564193087
 20
-129.2465467341814
 10
104.0153564193087
 20
-128.0981241541734
 10
104.0153564193087
 20
-128.0981241541734
 10
104.0153564193087
 20
-128.0981241541734
 10
104.226885282103
 20
-128.0981241541734
 10
104.226885282103
 20
-128.0981241541734
 10
104.516962321961
 20
-128.4440117408925
 10
105.1091742358755
 20
-128.7287488827484
 10
105.5597927253462
 20
-128.7649223853435
 97
        0
 97
        0
 75
     2
 76
     1
 98
        0
  0
ENDBLK
  5
BC
330
B9
100
AcDbEntity
  8
0
100
AcDbBlockEnd
  0
BLOCK
  5
D2
330
D0
100
AcDbEntity
  8
0
100
AcDbBlockBegin
  2
block 4
 70
     0
 10
0.0
 20
0.0
 30
0.0
  3
block 4
  1

  0
POLYLINE
  5
D4
330
D0
100
AcDbEntity
  8
_U+30EC_U+30A4_U+30E4_U+30FC 1
370
     0
100
AcDb2dPolyline
 66
     1
 10
0.0
 20
0.0
 30
0.0
  0
VERTEX
  5
D5
330
D4
100
AcDbEntity
  8
_U+30EC_U+30A4_U+30E4_U+30FC 1
370
     0
100
AcDbVertex
100
AcDb2dVertex
 10
81.38486868625101
 20
-115.1504217919589
 30
0.0
  0
VERTEX
  5
D6
330
D4
100
AcDbEntity
  8
_U+30EC_U+30A4_U+30E4_U+30FC 1
370
     0
100
AcDbVertex
100
AcDb2dVertex
 10
81.38486868625101
 20
-115.4973429073236
 30
0.0
  0
VERTEX
  5
D7
330
D4
100
AcDbEntity
  8
_U+30EC_U+30A4_U+30E4_U+30FC 1
370
     0
100
AcDbVertex
100
AcDb2dVertex
 10
81.15198023144812
 20
-115.4973429073236
 30
0.0
  0
VERTEX
  5
D8
330
D4
100
AcDbEntity
  8
_U+30EC_U+30A4_U+30E4_U+30FC 1
370
     0
100
AcDbVertex
100
AcDb2dVertex
 10
81.15198023144812
 20
-115.1504217919589
 30
0.0
  0
VERTEX
  5
D9
330
D4
100
AcDbEntity
  8
_U+30EC_U+30A4_U+30E4_U+30FC 1
370
     0
100
AcDbVertex
100
AcDb2dVertex
 10
80.45124780974831
 20
-115.1504217919589
 30
0.0
  0
VERTEX
  5
DA
330
D4
100
AcDbEntity
  8
_U+30EC_U+30A4_U+30E4_U+30FC 1
370
     0
100
AcDbVertex
100
AcDb2dVertex
 10
80.45124780974831
 20
-114.9261460758692
 30
0.0
  0
VERTEX
  5
DB
330
D4
100
AcDbEntity
  8
_U+30EC_U+30A4_U+30E4_U+30FC 1
370
     0
100
AcDbVertex
100
AcDb2dVertex
 10
81.17695717371618
 20
-113.9530788560603
 30
0.0
  0
VERTEX
  5
DC
330
D4
100
AcDbEntity
  8
_U+30EC_U+30A4_U+30E4_U+30FC 1
370
     0
100
AcDbVertex
100
AcDb2dVertex
 10
81.38486868625101
 20
-113.9530788560603
 30
0.0
  0
VERTEX
  5
DD
330
D4
100
AcDbEntity
  8
_U+30EC_U+30A4_U+30E4_U+30FC 1
370
     0
100
AcDbVertex
100
AcDb2dVertex
 10
81.38486868625101
 20
-114.9514675276858
 30
0.0
  0
VERTEX
  5
DE
330
D4
100
AcDbEntity
  8
_U+30EC_U+30A4_U+30E4_U+30FC 1
370
     0
100
AcDbVertex
100
AcDb2dVertex
 10
81.60656058072684
 20
-114.9514675276858
 30
0.0
  0
VERTEX
  5
DF
330
D4
100
AcDbEntity
  8
_U+30EC_U+30A4_U+30E4_U+30FC 1
370
     0
100
AcDbVertex
100
AcDb2dVertex
 10
81.60656058072684
 20
-115.1504217919589
 30
0.0
  0
VERTEX
  5
E0
330
D4
100
AcDbEntity
  8
_U+30EC_U+30A4_U+30E4_U+30FC 1
370
     0
100
AcDbVertex
100
AcDb2dVertex
 10
81.38486868625101
 20
-115.1504217919589
 30
0.0
  0
SEQEND
  5
E1
330
D4
100
AcDbEntity
  8
_U+30EC_U+30A4_U+30E4_U+30FC 1
370
     0
  0
POLYLINE
  5
E2
330
D0
100
AcDbEntity
  8
_U+30EC_U+30A4_U+30E4_U+30FC 1
370
     0
100
AcDb2dPolyline
 66
     1
 10
0.0
 20
0.0
 30
0.0
  0
VERTEX
  5
E3
330
E2
100
AcDbEntity
  8
_U+30EC_U+30A4_U+30E4_U+30FC 1
370
     0
100
AcDbVertex
100
AcDb2dVertex
 10
81.15198023144812
 20
-114.2956936020684
 30
0.0
  0
VERTEX
  5
E4
330
E2
100
AcDbEntity
  8
_U+30EC_U+30A4_U+30E4_U+30FC 1
370
     0
100
AcDbVertex
100
AcDb2dVertex
 10
80.66381020118821
 20
-114.9514675276858
 30
0.0
  0
VERTEX
  5
E5
330
E2
100
AcDbEntity
  8
_U+30EC_U+30A4_U+30E4_U+30FC 1
370
     0
100
AcDbVertex
100
AcDb2dVertex
 10
81.15198023144812
 20
-114.9514675276858
 30
0.0
  0
VERTEX
  5
E6
330
E2
100
AcDbEntity
  8
_U+30EC_U+30A4_U+30E4_U+30FC 1
370
     0
100
AcDbVertex
100
AcDb2dVertex
 10
81.15198023144812
 20
-114.2956936020684
 30
0.0
  0
SEQEND
  5
E7
330
E2
100
AcDbEntity
  8
_U+30EC_U+30A4_U+30E4_U+30FC 1
370
     0
  0
HATCH
  5
E8
330
D0
100
AcDbEntity
  8
_U+30EC_U+30A4_U+30E4_U+30FC 1
 62
     7
420
 16777215
100
AcDbHatch
 10
0.0
 20
0.0
 30
0.0
210
0.0
220
0.0
230
1.0
  2
SOLID
 70
     1
 71
     0
 91
        2
 92
        1
 93
       11
 72
     1
 10
81.38486868625101
 20
-115.1504217919589
 11
81.38486868625101
 21
-115.4973429073236
 72
     1
 10
81.38486868625101
 20
-115.4973429073236
 11
81.15198023144812
 21
-115.4973429073236
 72
     1
 10
81.15198023144812
 20
-115.4973429073236
 11
81.15198023144812
 21
-115.1504217919589
 72
     1
 10
81.15198023144812
 20
-115.1504217919589
 11
80.45124780974831
 21
-115.1504217919589
 72
     1
 10
80.45124780974831
 20
-115.1504217919589
 11
80.45124780974831
 21
-114.9261460758692
 72
     1
 10
80.45124780974831
 20
-114.9261460758692
 11
81.17695717371618
 21
-113.9530788560603
 72
     1
 10
81.17695717371618
 20
-113.9530788560603
 11
81.38486868625101
 21
-113.9530788560603
 72
     1
 10
81.38486868625101
 20
-113.9530788560603
 11
81.38486868625101
 21
-114.9514675276858
 72
     1
 10
81.38486868625101
 20
-114.9514675276858
 11
81.60656058072684
 21
-114.9514675276858
 72
     1
 10
81.60656058072684
 20
-114.9514675276858
 11
81.60656058072684
 21
-115.1504217919589
 72
     1
 10
81.60656058072684
 20
-115.1504217919589
 11
81.38486868625101
 21
-115.1504217919589
 97
        0
 92
        1
 93
        3
 72
     1
 10
81.15198023144812
 20
-114.2956936020684
 11
80.66381020118821
 21
-114.9514675276858
 72
     1
 10
80.66381020118821
 20
-114.9514675276858
 11
81.15198023144812
 21
-114.9514675276858
 72
     1
 10
81.15198023144812
 20
-114.9514675276858
 11
81.15198023144812
 21
-114.2956936020684
 97
        0
 75
     2
 76
     1
 98
        0
  0
POLYLINE
  5
E9
330
D0
100
AcDbEntity
  8
_U+30EC_U+30A4_U+30E4_U+30FC 1
370
     0
100
AcDb2dPolyline
 66
     1
 10
0.0
 20
0.0
 30
0.0
  0
VERTEX
  5
EA
330
E9
100
AcDbEntity
  8
_U+30EC_U+30A4_U+30E4_U+30FC 1
370
     0
100
AcDbVertex
100
AcDb2dVertex
 10
81.81757267919839
 20
-115.4973429073236
 30
0.0
  0
VERTEX
  5
EB
330
E9
100
AcDbEntity
  8
_U+30EC_U+30A4_U+30E4_U+30FC 1
370
     0
100
AcDbVertex
100
AcDb2dVertex
 10
81.81757267919839
 20
-115.2456786821261
 30
0.0
  0
VERTEX
  5
EC
330
E9
100
AcDbEntity
  8
_U+30EC_U+30A4_U+30E4_U+30FC 1
370
     0
100
AcDbVertex
100
AcDb2dVertex
 10
82.0866346365964
 20
-115.2456786821261
 30
0.0
  0
VERTEX
  5
ED
330
E9
100
AcDbEntity
  8
_U+30EC_U+30A4_U+30E4_U+30FC 1
370
     0
100
AcDbVertex
100
AcDb2dVertex
 10
82.0866346365964
 20
-115.4973429073236
 30
0.0
  0
VERTEX
  5
EE
330
E9
100
AcDbEntity
  8
_U+30EC_U+30A4_U+30E4_U+30FC 1
370
     0
100
AcDbVertex
100
AcDb2dVertex
 10
81.81757267919839
 20
-115.4973429073236
 30
0.0
  0
SEQEND
  5
EF
330
E9
100
AcDbEntity
  8
_U+30EC_U+30A4_U+30E4_U+30FC 1
370
     0
  0
HATCH
  5
F0
330
D0
100
AcDbEntity
  8
_U+30EC_U+30A4_U+30E4_U+30FC 1
 62
     7
420
 16777215
100
AcDbHatch
 10
0.0
 20
0.0
 30
0.0
210
0.0
220
0.0
230
1.0
  2
SOLID
 70
     1
 71
     0
 91
        1
 92
        1
 93
        4
 72
     1
 10
81.81757267919839
 20
-115.4973429073236
 11
81.81757267919839
 21
-115.2456786821261
 72
     1
 10
81.81757267919839
 20
-115.2456786821261
 11
82.0866346365964
 21
-115.2456786821261
 72
     1
 10
82.0866346365964
 20
-115.2456786821261
 11
82.0866346365964
 21
-115.4973429073236
 72
     1
 10
82.0866346365964
 20
-115.4973429073236
 11
81.81757267919839
 21
-115.4973429073236
 97
        0
 75
     2
 76
     1
 98
        0
  0
SPLINE
  5
F1
330
D0
100
AcDbEntity
  8
_U+30EC_U+30A4_U+30E4_U+30FC 1
370
     0
100
AcDbSpline
210
0.0
220
0.0
230
1.0
 70
    11
 71
     3
 72
    53
 73
    49
 74
     0
 42
0.0000000001
 43
0.0000000001
 12
1.0
 22
0.0
 32
0.0
 13
1.0
 23
0.0
 33
0.0
 40
0.0
 40
0.0
 40
0.0
 40
0.0
 40
1.0
 40
1.0
 40
1.0
 40
2.0
 40
2.0
 40
2.0
 40
3.0
 40
3.0
 40
3.0
 40
4.0
 40
4.0
 40
4.0
 40
5.0
 40
5.0
 40
5.0
 40
6.0
 40
6.0
 40
6.0
 40
7.0
 40
7.0
 40
7.0
 40
8.0
 40
8.0
 40
8.0
 40
9.0
 40
9.0
 40
9.0
 40
10.0
 40
10.0
 40
10.0
 40
11.0
 40
11.0
 40
11.0
 40
12.0
 40
12.0
 40
12.0
 40
13.0
 40
13.0
 40
13.0
 40
14.0
 40
14.0
 40
14.0
 40
15.0
 40
15.0
 40
15.0
 40
16.0
 40
16.0
 40
16.0
 40
16.0
 10
82.85334063683875
 20
-115.548158065731
 30
0.0
 10
82.76962481654718
 20
-115.548158065731
 30
0.0
 10
82.66110430876181
 20
-115.5312770978533
 30
0.0
 10
82.55258380097644
 20
-115.4677150861504
 30
0.0
 10
82.36723766387
 20
-115.3576442853967
 30
0.0
 10
82.34467228844161
 20
-115.2265584021829
 30
0.0
 10
82.32417397030437
 20
-115.1187269134946
 30
0.0
 10
82.32417397030437
 20
-115.1187269134946
 30
0.0
 10
82.56171330401236
 20
-115.1187269134946
 30
0.0
 10
82.56171330401236
 20
-115.1187269134946
 30
0.0
 10
82.62045218203586
 20
-115.3175089229935
 30
0.0
 10
82.75601668938044
 20
-115.3471367441667
 30
0.0
 10
82.85557994890416
 20
-115.3471367441667
 30
0.0
 10
83.00475258341548
 20
-115.3471367441667
 30
0.0
 10
83.16753334509353
 20
-115.2477457394172
 30
0.0
 10
83.16753334509353
 20
-115.0150295393886
 30
0.0
 10
83.16753334509353
 20
-114.7590589448345
 30
0.0
 10
82.9752970170166
 20
-114.6892957612582
 30
0.0
 10
82.84645044586826
 20
-114.6892957612582
 30
0.0
 10
82.81251625533854
 20
-114.6892957612582
 30
0.0
 10
82.66110430876181
 20
-114.6892957612582
 30
0.0
 10
82.56619192814318
 20
-114.8183145871808
 30
0.0
 10
82.56619192814318
 20
-114.8183145871808
 30
0.0
 10
82.37843422419706
 20
-114.7991943072377
 30
0.0
 10
82.37843422419706
 20
-114.7991943072377
 30
0.0
 10
82.37843422419706
 20
-114.7991943072377
 30
0.0
 10
82.50728079534541
 20
-113.9530788560603
 30
0.0
 10
82.50728079534541
 20
-113.9530788560603
 30
0.0
 10
82.50728079534541
 20
-113.9530788560603
 30
0.0
 10
83.33927135503325
 20
-113.9530788560603
 30
0.0
 10
83.33927135503325
 20
-113.9530788560603
 30
0.0
 10
83.33927135503325
 20
-113.9530788560603
 30
0.0
 10
83.33927135503325
 20
-114.147726750977
 30
0.0
 10
83.33927135503325
 20
-114.147726750977
 30
0.0
 10
83.33927135503325
 20
-114.147726750977
 30
0.0
 10
82.68143037212478
 20
-114.147726750977
 30
0.0
 10
82.68143037212478
 20
-114.147726750977
 30
0.0
 10
82.68143037212478
 20
-114.147726750977
 30
0.0
 10
82.61132267899995
 20
-114.5707844765656
 30
0.0
 10
82.61132267899995
 20
-114.5707844765656
 30
0.0
 10
82.67695174799395
 20
-114.5368502860359
 30
0.0
 10
82.76514619241635
 20
-114.4967149236328
 30
0.0
 10
82.89175345149928
 20
-114.4967149236328
 30
0.0
 10
83.1630547209627
 20
-114.4967149236328
 30
0.0
 10
83.41626923912858
 20
-114.6829223346105
 30
0.0
 10
83.41626923912858
 20
-114.9959092594455
 30
0.0
 10
83.41626923912858
 20
-115.3133748084112
 30
0.0
 10
83.17666284812945
 20
-115.548158065731
 30
0.0
 10
82.85334063683875
 20
-115.548158065731
 30
0.0
  0
HATCH
  5
F2
330
D0
100
AcDbEntity
  8
_U+30EC_U+30A4_U+30E4_U+30FC 1
 62
     7
420
 16777215
100
AcDbHatch
 10
0.0
 20
0.0
 30
0.0
210
0.0
220
0.0
230
1.0
  2
SOLID
 70
     1
 71
     0
 91
        1
 92
        1
 93
        1
 72
     4
 94
        3
 73
     0
 74
     1
 95
       53
 96
       49
 40
0.0
 40
0.0
 40
0.0
 40
0.0
 40
1.0
 40
1.0
 40
1.0
 40
2.0
 40
2.0
 40
2.0
 40
3.0
 40
3.0
 40
3.0
 40
4.0
 40
4.0
 40
4.0
 40
5.0
 40
5.0
 40
5.0
 40
6.0
 40
6.0
 40
6.0
 40
7.0
 40
7.0
 40
7.0
 40
8.0
 40
8.0
 40
8.0
 40
9.0
 40
9.0
 40
9.0
 40
10.0
 40
10.0
 40
10.0
 40
11.0
 40
11.0
 40
11.0
 40
12.0
 40
12.0
 40
12.0
 40
13.0
 40
13.0
 40
13.0
 40
14.0
 40
14.0
 40
14.0
 40
15.0
 40
15.0
 40
15.0
 40
16.0
 40
16.0
 40
16.0
 40
16.0
 10
82.85334063683875
 20
-115.548158065731
 10
82.76962481654718
 20
-115.548158065731
 10
82.66110430876181
 20
-115.5312770978533
 10
82.55258380097644
 20
-115.4677150861504
 10
82.36723766387
 20
-115.3576442853967
 10
82.34467228844161
 20
-115.2265584021829
 10
82.32417397030437
 20
-115.1187269134946
 10
82.32417397030437
 20
-115.1187269134946
 10
82.56171330401236
 20
-115.1187269134946
 10
82.56171330401236
 20
-115.1187269134946
 10
82.62045218203586
 20
-115.3175089229935
 10
82.75601668938044
 20
-115.3471367441667
 10
82.85557994890416
 20
-115.3471367441667
 10
83.00475258341548
 20
-115.3471367441667
 10
83.16753334509353
 20
-115.2477457394172
 10
83.16753334509353
 20
-115.0150295393886
 10
83.16753334509353
 20
-114.7590589448345
 10
82.9752970170166
 20
-114.6892957612582
 10
82.84645044586826
 20
-114.6892957612582
 10
82.81251625533854
 20
-114.6892957612582
 10
82.66110430876181
 20
-114.6892957612582
 10
82.56619192814318
 20
-114.8183145871808
 10
82.56619192814318
 20
-114.8183145871808
 10
82.37843422419706
 20
-114.7991943072377
 10
82.37843422419706
 20
-114.7991943072377
 10
82.37843422419706
 20
-114.7991943072377
 10
82.50728079534541
 20
-113.9530788560603
 10
82.50728079534541
 20
-113.9530788560603
 10
82.50728079534541
 20
-113.9530788560603
 10
83.33927135503325
 20
-113.9530788560603
 10
83.33927135503325
 20
-113.9530788560603
 10
83.33927135503325
 20
-113.9530788560603
 10
83.33927135503325
 20
-114.147726750977
 10
83.33927135503325
 20
-114.147726750977
 10
83.33927135503325
 20
-114.147726750977
 10
82.68143037212478
 20
-114.147726750977
 10
82.68143037212478
 20
-114.147726750977
 10
82.68143037212478
 20
-114.147726750977
 10
82.61132267899995
 20
-114.5707844765656
 10
82.61132267899995
 20
-114.5707844765656
 10
82.67695174799395
 20
-114.5368502860359
 10
82.76514619241635
 20
-114.4967149236328
 10
82.89175345149928
 20
-114.4967149236328
 10
83.1630547209627
 20
-114.4967149236328
 10
83.41626923912858
 20
-114.6829223346105
 10
83.41626923912858
 20
-114.9959092594455
 10
83.41626923912858
 20
-115.3133748084112
 10
83.17666284812945
 20
-115.548158065731
 10
82.85334063683875
 20
-115.548158065731
 97
        0
 97
        0
 75
     2
 76
     1
 98
        0
  0
ENDBLK
  5
D3
330
D0
100
AcDbEntity
  8
0
100
AcDbBlockEnd
  0
BLOCK
  5
101
330
FF
100
AcDbEntity
  8
0
100
AcDbBlockBegin
  2
block 5
 70
     0
 10
0.0
 20
0.0
 30
0.0
  3
block 5
  1

  0
SPLINE
  5
103
330
FF
100
AcDbEntity
  8
_U+30EC_U+30A4_U+30E4_U+30FC 1
370
     0
100
AcDbSpline
210
0.0
220
0.0
230
1.0
 70
    11
 71
     3
 72
    44
 73
    40
 74
     0
 42
0.0000000001
 43
0.0000000001
 12
1.0
 22
0.0
 32
0.0
 13
1.0
 23
0.0
 33
0.0
 40
0.0
 40
0.0
 40
0.0
 40
0.0
 40
1.0
 40
1.0
 40
1.0
 40
2.0
 40
2.0
 40
2.0
 40
3.0
 40
3.0
 40
3.0
 40
4.0
 40
4.0
 40
4.0
 40
5.0
 40
5.0
 40
5.0
 40
6.0
 40
6.0
 40
6.0
 40
7.0
 40
7.0
 40
7.0
 40
8.0
 40
8.0
 40
8.0
 40
9.0
 40
9.0
 40
9.0
 40
10.0
 40
10.0
 40
10.0
 40
11.0
 40
11.0
 40
11.0
 40
12.0
 40
12.0
 40
12.0
 40
13.0
 40
13.0
 40
13.0
 40
13.0
 10
89.21315915738421
 20
-141.4153130071809
 30
0.0
 10
88.98009844780707
 20
-141.5741319090509
 30
0.0
 10
88.8807074430576
 20
-141.6482014619838
 30
0.0
 10
88.82868650123034
 20
-141.7918619437187
 30
0.0
 10
88.82868650123034
 20
-141.7918619437187
 30
0.0
 10
89.66067706091818
 20
-141.7918619437187
 30
0.0
 10
89.66067706091818
 20
-141.7918619437187
 30
0.0
 10
89.66067706091818
 20
-141.7918619437187
 30
0.0
 10
89.66067706091818
 20
-141.9971896346396
 30
0.0
 10
89.66067706091818
 20
-141.9971896346396
 30
0.0
 10
89.66067706091818
 20
-141.9971896346396
 30
0.0
 10
88.56186385589773
 20
-141.9971896346396
 30
0.0
 10
88.56186385589773
 20
-141.9971896346396
 30
0.0
 10
88.59579804642745
 20
-141.6395887232707
 30
0.0
 10
88.66590573955227
 20
-141.5613850557555
 30
0.0
 10
89.07742239526537
 20
-141.2630397867329
 30
0.0
 10
89.35096297679421
 20
-141.0642577772339
 30
0.0
 10
89.42089841514478
 20
-140.9963893961745
 30
0.0
 10
89.42089841514478
 20
-140.8589300863131
 30
0.0
 10
89.42089841514478
 20
-140.7404188016205
 30
0.0
 10
89.34407278582371
 20
-140.609505173181
 30
0.0
 10
89.13392196122346
 20
-140.609505173181
 30
0.0
 10
88.8559027555638
 20
-140.609505173181
 30
0.0
 10
88.8467732525279
 20
-140.8399820611442
 30
0.0
 10
88.84229462839707
 20
-140.9564262885456
 30
0.0
 10
88.84229462839707
 20
-140.9564262885456
 30
0.0
 10
88.60268823739794
 20
-140.9564262885456
 30
0.0
 10
88.60268823739794
 20
-140.9564262885456
 30
0.0
 10
88.6116454856596
 20
-140.8293022651399
 30
0.0
 10
88.62301430076091
 20
-140.7173366618693
 30
0.0
 10
88.70879717834364
 20
-140.5988253771767
 30
0.0
 10
88.82644718916492
 20
-140.4379394180155
 30
0.0
 10
89.02540145343809
 20
-140.4041774822601
 30
0.0
 10
89.14976940045561
 20
-140.4041774822601
 30
0.0
 10
89.4460476121871
 20
-140.4041774822601
 30
0.0
 10
89.66756725188867
 20
-140.5881455811724
 30
0.0
 10
89.66756725188867
 20
-140.8609971436042
 30
0.0
 10
89.66756725188867
 20
-141.0897514838248
 30
0.0
 10
89.54319930487115
 20
-141.1889702338
 30
0.0
 10
89.21315915738421
 20
-141.4153130071809
 30
0.0
  0
HATCH
  5
104
330
FF
100
AcDbEntity
  8
_U+30EC_U+30A4_U+30E4_U+30FC 1
 62
     7
420
 16777215
100
AcDbHatch
 10
0.0
 20
0.0
 30
0.0
210
0.0
220
0.0
230
1.0
  2
SOLID
 70
     1
 71
     0
 91
        1
 92
        1
 93
        1
 72
     4
 94
        3
 73
     0
 74
     1
 95
       44
 96
       40
 40
0.0
 40
0.0
 40
0.0
 40
0.0
 40
1.0
 40
1.0
 40
1.0
 40
2.0
 40
2.0
 40
2.0
 40
3.0
 40
3.0
 40
3.0
 40
4.0
 40
4.0
 40
4.0
 40
5.0
 40
5.0
 40
5.0
 40
6.0
 40
6.0
 40
6.0
 40
7.0
 40
7.0
 40
7.0
 40
8.0
 40
8.0
 40
8.0
 40
9.0
 40
9.0
 40
9.0
 40
10.0
 40
10.0
 40
10.0
 40
11.0
 40
11.0
 40
11.0
 40
12.0
 40
12.0
 40
12.0
 40
13.0
 40
13.0
 40
13.0
 40
13.0
 10
89.21315915738421
 20
-141.4153130071809
 10
88.98009844780707
 20
-141.5741319090509
 10
88.8807074430576
 20
-141.6482014619838
 10
88.82868650123034
 20
-141.7918619437187
 10
88.82868650123034
 20
-141.7918619437187
 10
89.66067706091818
 20
-141.7918619437187
 10
89.66067706091818
 20
-141.7918619437187
 10
89.66067706091818
 20
-141.7918619437187
 10
89.66067706091818
 20
-141.9971896346396
 10
89.66067706091818
 20
-141.9971896346396
 10
89.66067706091818
 20
-141.9971896346396
 10
88.56186385589773
 20
-141.9971896346396
 10
88.56186385589773
 20
-141.9971896346396
 10
88.59579804642745
 20
-141.6395887232707
 10
88.66590573955227
 20
-141.5613850557555
 10
89.07742239526537
 20
-141.2630397867329
 10
89.35096297679421
 20
-141.0642577772339
 10
89.42089841514478
 20
-140.9963893961745
 10
89.42089841514478
 20
-140.8589300863131
 10
89.42089841514478
 20
-140.7404188016205
 10
89.34407278582371
 20
-140.609505173181
 10
89.13392196122346
 20
-140.609505173181
 10
88.8559027555638
 20
-140.609505173181
 10
88.8467732525279
 20
-140.8399820611442
 10
88.84229462839707
 20
-140.9564262885456
 10
88.84229462839707
 20
-140.9564262885456
 10
88.60268823739794
 20
-140.9564262885456
 10
88.60268823739794
 20
-140.9564262885456
 10
88.6116454856596
 20
-140.8293022651399
 10
88.62301430076091
 20
-140.7173366618693
 10
88.70879717834364
 20
-140.5988253771767
 10
88.82644718916492
 20
-140.4379394180155
 10
89.02540145343809
 20
-140.4041774822601
 10
89.14976940045561
 20
-140.4041774822601
 10
89.4460476121871
 20
-140.4041774822601
 10
89.66756725188867
 20
-140.5881455811724
 10
89.66756725188867
 20
-140.8609971436042
 10
89.66756725188867
 20
-141.0897514838248
 10
89.54319930487115
 20
-141.1889702338
 10
89.21315915738421
 20
-141.4153130071809
 97
        0
 97
        0
 75
     2
 76
     1
 98
        0
  0
SPLINE
  5
105
330
FF
100
AcDbEntity
  8
_U+30EC_U+30A4_U+30E4_U+30FC 1
370
     0
100
AcDbSpline
210
0.0
220
0.0
230
1.0
 70
    11
 71
     3
 72
    62
 73
    58
 74
     0
 42
0.0000000001
 43
0.0000000001
 12
1.0
 22
0.0
 32
0.0
 13
1.0
 23
0.0
 33
0.0
 40
0.0
 40
0.0
 40
0.0
 40
0.0
 40
1.0
 40
1.0
 40
1.0
 40
2.0
 40
2.0
 40
2.0
 40
3.0
 40
3.0
 40
3.0
 40
4.0
 40
4.0
 40
4.0
 40
5.0
 40
5.0
 40
5.0
 40
6.0
 40
6.0
 40
6.0
 40
7.0
 40
7.0
 40
7.0
 40
8.0
 40
8.0
 40
8.0
 40
9.0
 40
9.0
 40
9.0
 40
10.0
 40
10.0
 40
10.0
 40
11.0
 40
11.0
 40
11.0
 40
12.0
 40
12.0
 40
12.0
 40
13.0
 40
13.0
 40
13.0
 40
14.0
 40
14.0
 40
14.0
 40
15.0
 40
15.0
 40
15.0
 40
16.0
 40
16.0
 40
16.0
 40
17.0
 40
17.0
 40
17.0
 40
18.0
 40
18.0
 40
18.0
 40
19.0
 40
19.0
 40
19.0
 40
19.0
 10
90.36209850171504
 20
-142.0478325382728
 30
0.0
 10
90.26046818490016
 20
-142.0478325382728
 30
0.0
 10
90.02757973009727
 20
-142.0268174558127
 30
0.0
 10
89.8942545348181
 20
-141.8407822996093
 30
0.0
 10
89.81501733865736
 20
-141.7284721867901
 30
0.0
 10
89.81053871452653
 20
-141.6292534368149
 30
0.0
 10
89.80606009039572
 20
-141.5445040878778
 30
0.0
 10
89.80606009039572
 20
-141.5445040878778
 30
0.0
 10
90.04101560248975
 20
-141.5445040878778
 30
0.0
 10
90.04101560248975
 20
-141.5445040878778
 30
0.0
 10
90.04342716932942
 20
-141.6185736408106
 30
0.0
 10
90.05479598443075
 20
-141.8531846433561
 30
0.0
 10
90.35761987758421
 20
-141.8531846433561
 30
0.0
 10
90.50472545480437
 20
-141.8531846433561
 30
0.0
 10
90.66733396170817
 20
-141.7835937145541
 30
0.0
 10
90.66733396170817
 20
-141.5551838838821
 30
0.0
 10
90.66733396170817
 20
-141.4387396564806
 30
0.0
 10
90.62668183498222
 20
-141.3901638101386
 30
0.0
 10
90.59257538967825
 20
-141.3584689316743
 30
0.0
 10
90.51368270306602
 20
-141.2843993787414
 30
0.0
 10
90.3893147560485
 20
-141.271652525446
 30
0.0
 10
90.33040362325073
 20
-141.271652525446
 30
0.0
 10
90.31007755988776
 20
-141.271652525446
 30
0.0
 10
90.27183700000148
 20
-141.2737195827371
 30
0.0
 10
90.24220917882835
 20
-141.2778536973194
 30
0.0
 10
90.24220917882835
 20
-141.2778536973194
 30
0.0
 10
90.24220917882835
 20
-141.0832058024028
 30
0.0
 10
90.24220917882835
 20
-141.0832058024028
 30
0.0
 10
90.28286130555429
 20
-141.0897514838248
 30
0.0
 10
90.32833656595959
 20
-141.0918185411159
 30
0.0
 10
90.33488224738156
 20
-141.0918185411159
 30
0.0
 10
90.40516219528065
 20
-141.0918185411159
 30
0.0
 10
90.61772458672057
 20
-141.0704589491074
 30
0.0
 10
90.61772458672057
 20
-140.8337808892707
 30
0.0
 10
90.61772458672057
 20
-140.6560139622318
 30
0.0
 10
90.4775092004709
 20
-140.6008924344679
 30
0.0
 10
90.36003144442388
 20
-140.6008924344679
 30
0.0
 10
90.07718910508487
 20
-140.6008924344679
 30
0.0
 10
90.06823185682322
 20
-140.8337808892707
 30
0.0
 10
90.0637532326924
 20
-140.9054388753639
 30
0.0
 10
90.0637532326924
 20
-140.9054388753639
 30
0.0
 10
89.84671221712166
 20
-140.9054388753639
 30
0.0
 10
89.84671221712166
 20
-140.9054388753639
 30
0.0
 10
89.85566946538331
 20
-140.7807264187979
 30
0.0
 10
89.88495277700794
 20
-140.4041774822601
 30
0.0
 10
90.37346731681636
 20
-140.4041774822601
 30
0.0
 10
90.61324596258974
 20
-140.4041774822601
 30
0.0
 10
90.87093910488643
 20
-140.5313015056658
 30
0.0
 10
90.87093910488643
 20
-140.8272352078488
 30
0.0
 10
90.87093910488643
 20
-141.0136148736008
 30
0.0
 10
90.76896427852304
 20
-141.0959526556982
 30
0.0
 10
90.66285533757734
 20
-141.1572753553357
 30
0.0
 10
90.7283121517971
 20
-141.1848361192177
 30
0.0
 10
90.92296004671371
 20
-141.265106844024
 30
0.0
 10
90.92296004671371
 20
-141.5424370305866
 30
0.0
 10
90.92296004671371
 20
-141.8807454072382
 30
0.0
 10
90.65837671344651
 20
-142.0478325382728
 30
0.0
 10
90.36209850171504
 20
-142.0478325382728
 30
0.0
  0
HATCH
  5
106
330
FF
100
AcDbEntity
  8
_U+30EC_U+30A4_U+30E4_U+30FC 1
 62
     7
420
 16777215
100
AcDbHatch
 10
0.0
 20
0.0
 30
0.0
210
0.0
220
0.0
230
1.0
  2
SOLID
 70
     1
 71
     0
 91
        1
 92
        1
 93
        1
 72
     4
 94
        3
 73
     0
 74
     1
 95
       62
 96
       58
 40
0.0
 40
0.0
 40
0.0
 40
0.0
 40
1.0
 40
1.0
 40
1.0
 40
2.0
 40
2.0
 40
2.0
 40
3.0
 40
3.0
 40
3.0
 40
4.0
 40
4.0
 40
4.0
 40
5.0
 40
5.0
 40
5.0
 40
6.0
 40
6.0
 40
6.0
 40
7.0
 40
7.0
 40
7.0
 40
8.0
 40
8.0
 40
8.0
 40
9.0
 40
9.0
 40
9.0
 40
10.0
 40
10.0
 40
10.0
 40
11.0
 40
11.0
 40
11.0
 40
12.0
 40
12.0
 40
12.0
 40
13.0
 40
13.0
 40
13.0
 40
14.0
 40
14.0
 40
14.0
 40
15.0
 40
15.0
 40
15.0
 40
16.0
 40
16.0
 40
16.0
 40
17.0
 40
17.0
 40
17.0
 40
18.0
 40
18.0
 40
18.0
 40
19.0
 40
19.0
 40
19.0
 40
19.0
 10
90.36209850171504
 20
-142.0478325382728
 10
90.26046818490016
 20
-142.0478325382728
 10
90.02757973009727
 20
-142.0268174558127
 10
89.8942545348181
 20
-141.8407822996093
 10
89.81501733865736
 20
-141.7284721867901
 10
89.81053871452653
 20
-141.6292534368149
 10
89.80606009039572
 20
-141.5445040878778
 10
89.80606009039572
 20
-141.5445040878778
 10
90.04101560248975
 20
-141.5445040878778
 10
90.04101560248975
 20
-141.5445040878778
 10
90.04342716932942
 20
-141.6185736408106
 10
90.05479598443075
 20
-141.8531846433561
 10
90.35761987758421
 20
-141.8531846433561
 10
90.50472545480437
 20
-141.8531846433561
 10
90.66733396170817
 20
-141.7835937145541
 10
90.66733396170817
 20
-141.5551838838821
 10
90.66733396170817
 20
-141.4387396564806
 10
90.62668183498222
 20
-141.3901638101386
 10
90.59257538967825
 20
-141.3584689316743
 10
90.51368270306602
 20
-141.2843993787414
 10
90.3893147560485
 20
-141.271652525446
 10
90.33040362325073
 20
-141.271652525446
 10
90.31007755988776
 20
-141.271652525446
 10
90.27183700000148
 20
-141.2737195827371
 10
90.24220917882835
 20
-141.2778536973194
 10
90.24220917882835
 20
-141.2778536973194
 10
90.24220917882835
 20
-141.0832058024028
 10
90.24220917882835
 20
-141.0832058024028
 10
90.28286130555429
 20
-141.0897514838248
 10
90.32833656595959
 20
-141.0918185411159
 10
90.33488224738156
 20
-141.0918185411159
 10
90.40516219528065
 20
-141.0918185411159
 10
90.61772458672057
 20
-141.0704589491074
 10
90.61772458672057
 20
-140.8337808892707
 10
90.61772458672057
 20
-140.6560139622318
 10
90.4775092004709
 20
-140.6008924344679
 10
90.36003144442388
 20
-140.6008924344679
 10
90.07718910508487
 20
-140.6008924344679
 10
90.06823185682322
 20
-140.8337808892707
 10
90.0637532326924
 20
-140.9054388753639
 10
90.0637532326924
 20
-140.9054388753639
 10
89.84671221712166
 20
-140.9054388753639
 10
89.84671221712166
 20
-140.9054388753639
 10
89.85566946538331
 20
-140.7807264187979
 10
89.88495277700794
 20
-140.4041774822601
 10
90.37346731681636
 20
-140.4041774822601
 10
90.61324596258974
 20
-140.4041774822601
 10
90.87093910488643
 20
-140.5313015056658
 10
90.87093910488643
 20
-140.8272352078488
 10
90.87093910488643
 20
-141.0136148736008
 10
90.76896427852304
 20
-141.0959526556982
 10
90.66285533757734
 20
-141.1572753553357
 10
90.7283121517971
 20
-141.1848361192177
 10
90.92296004671371
 20
-141.265106844024
 10
90.92296004671371
 20
-141.5424370305866
 10
90.92296004671371
 20
-141.8807454072382
 10
90.65837671344651
 20
-142.0478325382728
 10
90.36209850171504
 20
-142.0478325382728
 97
        0
 97
        0
 75
     2
 76
     1
 98
        0
  0
POLYLINE
  5
107
330
FF
100
AcDbEntity
  8
_U+30EC_U+30A4_U+30E4_U+30FC 1
370
     0
100
AcDb2dPolyline
 66
     1
 10
0.0
 20
0.0
 30
0.0
  0
VERTEX
  5
108
330
107
100
AcDbEntity
  8
_U+30EC_U+30A4_U+30E4_U+30FC 1
370
     0
100
AcDbVertex
100
AcDb2dVertex
 10
91.1586045779048
 20
-141.9971896346396
 30
0.0
  0
VERTEX
  5
109
330
107
100
AcDbEntity
  8
_U+30EC_U+30A4_U+30E4_U+30FC 1
370
     0
100
AcDbVertex
100
AcDb2dVertex
 10
91.1586045779048
 20
-141.7453531546678
 30
0.0
  0
VERTEX
  5
10A
330
107
100
AcDbEntity
  8
_U+30EC_U+30A4_U+30E4_U+30FC 1
370
     0
100
AcDbVertex
100
AcDb2dVertex
 10
91.4276665353028
 20
-141.7453531546678
 30
0.0
  0
VERTEX
  5
10B
330
107
100
AcDbEntity
  8
_U+30EC_U+30A4_U+30E4_U+30FC 1
370
     0
100
AcDbVertex
100
AcDb2dVertex
 10
91.4276665353028
 20
-141.9971896346396
 30
0.0
  0
VERTEX
  5
10C
330
107
100
AcDbEntity
  8
_U+30EC_U+30A4_U+30E4_U+30FC 1
370
     0
100
AcDbVertex
100
AcDb2dVertex
 10
91.1586045779048
 20
-141.9971896346396
 30
0.0
  0
SEQEND
  5
10D
330
107
100
AcDbEntity
  8
_U+30EC_U+30A4_U+30E4_U+30FC 1
370
     0
  0
HATCH
  5
10E
330
FF
100
AcDbEntity
  8
_U+30EC_U+30A4_U+30E4_U+30FC 1
 62
     7
420
 16777215
100
AcDbHatch
 10
0.0
 20
0.0
 30
0.0
210
0.0
220
0.0
230
1.0
  2
SOLID
 70
     1
 71
     0
 91
        1
 92
        1
 93
        4
 72
     1
 10
91.1586045779048
 20
-141.9971896346396
 11
91.1586045779048
 21
-141.7453531546678
 72
     1
 10
91.1586045779048
 20
-141.7453531546678
 11
91.4276665353028
 21
-141.7453531546678
 72
     1
 10
91.4276665353028
 20
-141.7453531546678
 11
91.4276665353028
 21
-141.9971896346396
 72
     1
 10
91.4276665353028
 20
-141.9971896346396
 11
91.1586045779048
 21
-141.9971896346396
 97
        0
 75
     2
 76
     1
 98
        0
  0
SPLINE
  5
10F
330
FF
100
AcDbEntity
  8
_U+30EC_U+30A4_U+30E4_U+30FC 1
370
     0
100
AcDbSpline
210
0.0
220
0.0
230
1.0
 70
    11
 71
     3
 72
    53
 73
    49
 74
     0
 42
0.0000000001
 43
0.0000000001
 12
1.0
 22
0.0
 32
0.0
 13
1.0
 23
0.0
 33
0.0
 40
0.0
 40
0.0
 40
0.0
 40
0.0
 40
1.0
 40
1.0
 40
1.0
 40
2.0
 40
2.0
 40
2.0
 40
3.0
 40
3.0
 40
3.0
 40
4.0
 40
4.0
 40
4.0
 40
5.0
 40
5.0
 40
5.0
 40
6.0
 40
6.0
 40
6.0
 40
7.0
 40
7.0
 40
7.0
 40
8.0
 40
8.0
 40
8.0
 40
9.0
 40
9.0
 40
9.0
 40
10.0
 40
10.0
 40
10.0
 40
11.0
 40
11.0
 40
11.0
 40
12.0
 40
12.0
 40
12.0
 40
13.0
 40
13.0
 40
13.0
 40
14.0
 40
14.0
 40
14.0
 40
15.0
 40
15.0
 40
15.0
 40
16.0
 40
16.0
 40
16.0
 40
16.0
 10
92.19454479031943
 20
-142.0478325382728
 30
0.0
 10
92.11117347957638
 20
-142.0478325382728
 30
0.0
 10
92.00230846224248
 20
-142.030951570395
 30
0.0
 10
91.89413246400564
 20
-141.9675618134665
 30
0.0
 10
91.70844181735067
 20
-141.857663267487
 30
0.0
 10
91.68604869669655
 20
-141.726405129499
 30
0.0
 10
91.66572263333357
 20
-141.6185736408106
 30
0.0
 10
91.66572263333357
 20
-141.6185736408106
 30
0.0
 10
91.90308971226729
 20
-141.6185736408106
 30
0.0
 10
91.90308971226729
 20
-141.6185736408106
 30
0.0
 10
91.96165633551654
 20
-141.8173556503096
 30
0.0
 10
92.09739309763538
 20
-141.8469834714827
 30
0.0
 10
92.1969563571591
 20
-141.8469834714827
 30
0.0
 10
92.34612899167041
 20
-141.8469834714827
 30
0.0
 10
92.5087374985742
 20
-141.747420211959
 30
0.0
 10
92.5087374985742
 20
-141.5148762667046
 30
0.0
 10
92.5087374985742
 20
-141.2589056721505
 30
0.0
 10
92.31684568004579
 20
-141.1889702338
 30
0.0
 10
92.18799910889744
 20
-141.1889702338
 30
0.0
 10
92.15389266359348
 20
-141.1889702338
 30
0.0
 10
92.00230846224248
 20
-141.1889702338
 30
0.0
 10
91.90756833639811
 20
-141.3181613144968
 30
0.0
 10
91.90756833639811
 20
-141.3181613144968
 30
0.0
 10
91.719810632452
 20
-141.299213289328
 30
0.0
 10
91.719810632452
 20
-141.299213289328
 30
0.0
 10
91.719810632452
 20
-141.299213289328
 30
0.0
 10
91.84865720360034
 20
-140.4527533286021
 30
0.0
 10
91.84865720360034
 20
-140.4527533286021
 30
0.0
 10
91.84865720360034
 20
-140.4527533286021
 30
0.0
 10
92.68064776328818
 20
-140.4527533286021
 30
0.0
 10
92.68064776328818
 20
-140.4527533286021
 30
0.0
 10
92.68064776328818
 20
-140.4527533286021
 30
0.0
 10
92.68064776328818
 20
-140.6474012235187
 30
0.0
 10
92.68064776328818
 20
-140.6474012235187
 30
0.0
 10
92.68064776328818
 20
-140.6474012235187
 30
0.0
 10
92.02297903515398
 20
-140.6474012235187
 30
0.0
 10
92.02297903515398
 20
-140.6474012235187
 30
0.0
 10
92.02297903515398
 20
-140.6474012235187
 30
0.0
 10
91.95269908725489
 20
-141.0704589491074
 30
0.0
 10
91.95269908725489
 20
-141.0704589491074
 30
0.0
 10
92.01815590147463
 20
-141.036697013352
 30
0.0
 10
92.10635034589703
 20
-140.9963893961745
 30
0.0
 10
92.23312985975423
 20
-140.9963893961745
 30
0.0
 10
92.50425887444338
 20
-140.9963893961745
 30
0.0
 10
92.75747339260924
 20
-141.1827690619265
 30
0.0
 10
92.75747339260924
 20
-141.4959282415358
 30
0.0
 10
92.75747339260924
 20
-141.8132215357273
 30
0.0
 10
92.51803925638438
 20
-142.0478325382728
 30
0.0
 10
92.19454479031943
 20
-142.0478325382728
 30
0.0
  0
HATCH
  5
110
330
FF
100
AcDbEntity
  8
_U+30EC_U+30A4_U+30E4_U+30FC 1
 62
     7
420
 16777215
100
AcDbHatch
 10
0.0
 20
0.0
 30
0.0
210
0.0
220
0.0
230
1.0
  2
SOLID
 70
     1
 71
     0
 91
        1
 92
        1
 93
        1
 72
     4
 94
        3
 73
     0
 74
     1
 95
       53
 96
       49
 40
0.0
 40
0.0
 40
0.0
 40
0.0
 40
1.0
 40
1.0
 40
1.0
 40
2.0
 40
2.0
 40
2.0
 40
3.0
 40
3.0
 40
3.0
 40
4.0
 40
4.0
 40
4.0
 40
5.0
 40
5.0
 40
5.0
 40
6.0
 40
6.0
 40
6.0
 40
7.0
 40
7.0
 40
7.0
 40
8.0
 40
8.0
 40
8.0
 40
9.0
 40
9.0
 40
9.0
 40
10.0
 40
10.0
 40
10.0
 40
11.0
 40
11.0
 40
11.0
 40
12.0
 40
12.0
 40
12.0
 40
13.0
 40
13.0
 40
13.0
 40
14.0
 40
14.0
 40
14.0
 40
15.0
 40
15.0
 40
15.0
 40
16.0
 40
16.0
 40
16.0
 40
16.0
 10
92.19454479031943
 20
-142.0478325382728
 10
92.11117347957638
 20
-142.0478325382728
 10
92.00230846224248
 20
-142.030951570395
 10
91.89413246400564
 20
-141.9675618134665
 10
91.70844181735067
 20
-141.857663267487
 10
91.68604869669655
 20
-141.726405129499
 10
91.66572263333357
 20
-141.6185736408106
 10
91.66572263333357
 20
-141.6185736408106
 10
91.90308971226729
 20
-141.6185736408106
 10
91.90308971226729
 20
-141.6185736408106
 10
91.96165633551654
 20
-141.8173556503096
 10
92.09739309763538
 20
-141.8469834714827
 10
92.1969563571591
 20
-141.8469834714827
 10
92.34612899167041
 20
-141.8469834714827
 10
92.5087374985742
 20
-141.747420211959
 10
92.5087374985742
 20
-141.5148762667046
 10
92.5087374985742
 20
-141.2589056721505
 10
92.31684568004579
 20
-141.1889702338
 10
92.18799910889744
 20
-141.1889702338
 10
92.15389266359348
 20
-141.1889702338
 10
92.00230846224248
 20
-141.1889702338
 10
91.90756833639811
 20
-141.3181613144968
 10
91.90756833639811
 20
-141.3181613144968
 10
91.719810632452
 20
-141.299213289328
 10
91.719810632452
 20
-141.299213289328
 10
91.719810632452
 20
-141.299213289328
 10
91.84865720360034
 20
-140.4527533286021
 10
91.84865720360034
 20
-140.4527533286021
 10
91.84865720360034
 20
-140.4527533286021
 10
92.68064776328818
 20
-140.4527533286021
 10
92.68064776328818
 20
-140.4527533286021
 10
92.68064776328818
 20
-140.4527533286021
 10
92.68064776328818
 20
-140.6474012235187
 10
92.68064776328818
 20
-140.6474012235187
 10
92.68064776328818
 20
-140.6474012235187
 10
92.02297903515398
 20
-140.6474012235187
 10
92.02297903515398
 20
-140.6474012235187
 10
92.02297903515398
 20
-140.6474012235187
 10
91.95269908725489
 20
-141.0704589491074
 10
91.95269908725489
 20
-141.0704589491074
 10
92.01815590147463
 20
-141.036697013352
 10
92.10635034589703
 20
-140.9963893961745
 10
92.23312985975423
 20
-140.9963893961745
 10
92.50425887444338
 20
-140.9963893961745
 10
92.75747339260924
 20
-141.1827690619265
 10
92.75747339260924
 20
-141.4959282415358
 10
92.75747339260924
 20
-141.8132215357273
 10
92.51803925638438
 20
-142.0478325382728
 10
92.19454479031943
 20
-142.0478325382728
 97
        0
 97
        0
 75
     2
 76
     1
 98
        0
  0
ENDBLK
  5
102
330
FF
100
AcDbEntity
  8
0
100
AcDbBlockEnd
  0
BLOCK
  5
124
330
122
100
AcDbEntity
  8
0
100
AcDbBlockBegin
  2
block 6
 70
     0
 10
0.0
 20
0.0
 30
0.0
  3
block 6
  1

  0
POLYLINE
  5
126
330
122
100
AcDbEntity
  8
_U+30EC_U+30A4_U+30E4_U+30FC 1
370
     0
100
AcDb2dPolyline
 66
     1
 10
0.0
 20
0.0
 30
0.0
  0
VERTEX
  5
127
330
126
100
AcDbEntity
  8
_U+30EC_U+30A4_U+30E4_U+30FC 1
370
     0
100
AcDbVertex
100
AcDb2dVertex
 10
108.7406493868773
 20
-135.7801703219577
 30
0.0
  0
VERTEX
  5
128
330
126
100
AcDbEntity
  8
_U+30EC_U+30A4_U+30E4_U+30FC 1
370
     0
100
AcDbVertex
100
AcDb2dVertex
 10
109.087570502242
 20
-135.7801703219577
 30
0.0
  0
VERTEX
  5
129
330
126
100
AcDbEntity
  8
_U+30EC_U+30A4_U+30E4_U+30FC 1
370
     0
100
AcDbVertex
100
AcDb2dVertex
 10
109.087570502242
 20
-136.0130587767606
 30
0.0
  0
VERTEX
  5
12A
330
126
100
AcDbEntity
  8
_U+30EC_U+30A4_U+30E4_U+30FC 1
370
     0
100
AcDbVertex
100
AcDb2dVertex
 10
108.7406493868773
 20
-136.0130587767606
 30
0.0
  0
VERTEX
  5
12B
330
126
100
AcDbEntity
  8
_U+30EC_U+30A4_U+30E4_U+30FC 1
370
     0
100
AcDbVertex
100
AcDb2dVertex
 10
108.7406493868773
 20
-136.714135708009
 30
0.0
  0
VERTEX
  5
12C
330
126
100
AcDbEntity
  8
_U+30EC_U+30A4_U+30E4_U+30FC 1
370
     0
100
AcDbVertex
100
AcDb2dVertex
 10
108.5163736707876
 20
-136.714135708009
 30
0.0
  0
VERTEX
  5
12D
330
126
100
AcDbEntity
  8
_U+30EC_U+30A4_U+30E4_U+30FC 1
370
     0
100
AcDbVertex
100
AcDb2dVertex
 10
107.5431341962045
 20
-135.9882540892668
 30
0.0
  0
VERTEX
  5
12E
330
126
100
AcDbEntity
  8
_U+30EC_U+30A4_U+30E4_U+30FC 1
370
     0
100
AcDbVertex
100
AcDb2dVertex
 10
107.5431341962045
 20
-135.7801703219577
 30
0.0
  0
VERTEX
  5
12F
330
126
100
AcDbEntity
  8
_U+30EC_U+30A4_U+30E4_U+30FC 1
370
     0
100
AcDbVertex
100
AcDb2dVertex
 10
108.5418673773784
 20
-135.7801703219577
 30
0.0
  0
VERTEX
  5
130
330
126
100
AcDbEntity
  8
_U+30EC_U+30A4_U+30E4_U+30FC 1
370
     0
100
AcDbVertex
100
AcDb2dVertex
 10
108.5418673773784
 20
-135.5586506822562
 30
0.0
  0
VERTEX
  5
131
330
126
100
AcDbEntity
  8
_U+30EC_U+30A4_U+30E4_U+30FC 1
370
     0
100
AcDbVertex
100
AcDb2dVertex
 10
108.7406493868773
 20
-135.5586506822562
 30
0.0
  0
VERTEX
  5
132
330
126
100
AcDbEntity
  8
_U+30EC_U+30A4_U+30E4_U+30FC 1
370
     0
100
AcDbVertex
100
AcDb2dVertex
 10
108.7406493868773
 20
-135.7801703219577
 30
0.0
  0
SEQEND
  5
133
330
126
100
AcDbEntity
  8
_U+30EC_U+30A4_U+30E4_U+30FC 1
370
     0
  0
POLYLINE
  5
134
330
122
100
AcDbEntity
  8
_U+30EC_U+30A4_U+30E4_U+30FC 1
370
     0
100
AcDb2dPolyline
 66
     1
 10
0.0
 20
0.0
 30
0.0
  0
VERTEX
  5
135
330
134
100
AcDbEntity
  8
_U+30EC_U+30A4_U+30E4_U+30FC 1
370
     0
100
AcDbVertex
100
AcDb2dVertex
 10
107.8859211969869
 20
-136.0130587767606
 30
0.0
  0
VERTEX
  5
136
330
134
100
AcDbEntity
  8
_U+30EC_U+30A4_U+30E4_U+30FC 1
370
     0
100
AcDbVertex
100
AcDb2dVertex
 10
108.5418673773784
 20
-136.5015733165691
 30
0.0
  0
VERTEX
  5
137
330
134
100
AcDbEntity
  8
_U+30EC_U+30A4_U+30E4_U+30FC 1
370
     0
100
AcDbVertex
100
AcDb2dVertex
 10
108.5418673773784
 20
-136.0130587767606
 30
0.0
  0
VERTEX
  5
138
330
134
100
AcDbEntity
  8
_U+30EC_U+30A4_U+30E4_U+30FC 1
370
     0
100
AcDbVertex
100
AcDb2dVertex
 10
107.8859211969869
 20
-136.0130587767606
 30
0.0
  0
SEQEND
  5
139
330
134
100
AcDbEntity
  8
_U+30EC_U+30A4_U+30E4_U+30FC 1
370
     0
  0
HATCH
  5
13A
330
122
100
AcDbEntity
  8
_U+30EC_U+30A4_U+30E4_U+30FC 1
 62
     7
420
 16777215
100
AcDbHatch
 10
0.0
 20
0.0
 30
0.0
210
0.0
220
0.0
230
1.0
  2
SOLID
 70
     1
 71
     0
 91
        2
 92
        1
 93
       11
 72
     1
 10
108.7406493868773
 20
-135.7801703219577
 11
109.087570502242
 21
-135.7801703219577
 72
     1
 10
109.087570502242
 20
-135.7801703219577
 11
109.087570502242
 21
-136.0130587767606
 72
     1
 10
109.087570502242
 20
-136.0130587767606
 11
108.7406493868773
 21
-136.0130587767606
 72
     1
 10
108.7406493868773
 20
-136.0130587767606
 11
108.7406493868773
 21
-136.714135708009
 72
     1
 10
108.7406493868773
 20
-136.714135708009
 11
108.5163736707876
 21
-136.714135708009
 72
     1
 10
108.5163736707876
 20
-136.714135708009
 11
107.5431341962045
 21
-135.9882540892668
 72
     1
 10
107.5431341962045
 20
-135.9882540892668
 11
107.5431341962045
 21
-135.7801703219577
 72
     1
 10
107.5431341962045
 20
-135.7801703219577
 11
108.5418673773784
 21
-135.7801703219577
 72
     1
 10
108.5418673773784
 20
-135.7801703219577
 11
108.5418673773784
 21
-135.5586506822562
 72
     1
 10
108.5418673773784
 20
-135.5586506822562
 11
108.7406493868773
 21
-135.5586506822562
 72
     1
 10
108.7406493868773
 20
-135.5586506822562
 11
108.7406493868773
 21
-135.7801703219577
 97
        0
 92
        1
 93
        3
 72
     1
 10
107.8859211969869
 20
-136.0130587767606
 11
108.5418673773784
 21
-136.5015733165691
 72
     1
 10
108.5418673773784
 20
-136.5015733165691
 11
108.5418673773784
 21
-136.0130587767606
 72
     1
 10
108.5418673773784
 20
-136.0130587767606
 11
107.8859211969869
 21
-136.0130587767606
 97
        0
 75
     2
 76
     1
 98
        0
  0
POLYLINE
  5
13B
330
122
100
AcDbEntity
  8
_U+30EC_U+30A4_U+30E4_U+30FC 1
370
     0
100
AcDb2dPolyline
 66
     1
 10
0.0
 20
0.0
 30
0.0
  0
VERTEX
  5
13C
330
13B
100
AcDbEntity
  8
_U+30EC_U+30A4_U+30E4_U+30FC 1
370
     0
100
AcDbVertex
100
AcDb2dVertex
 10
109.087570502242
 20
-135.3478108385589
 30
0.0
  0
VERTEX
  5
13D
330
13B
100
AcDbEntity
  8
_U+30EC_U+30A4_U+30E4_U+30FC 1
370
     0
100
AcDbVertex
100
AcDb2dVertex
 10
108.8357340222702
 20
-135.3478108385589
 30
0.0
  0
VERTEX
  5
13E
330
13B
100
AcDbEntity
  8
_U+30EC_U+30A4_U+30E4_U+30FC 1
370
     0
100
AcDbVertex
100
AcDb2dVertex
 10
108.8357340222702
 20
-135.0787488811609
 30
0.0
  0
VERTEX
  5
13F
330
13B
100
AcDbEntity
  8
_U+30EC_U+30A4_U+30E4_U+30FC 1
370
     0
100
AcDbVertex
100
AcDb2dVertex
 10
109.087570502242
 20
-135.0787488811609
 30
0.0
  0
VERTEX
  5
140
330
13B
100
AcDbEntity
  8
_U+30EC_U+30A4_U+30E4_U+30FC 1
370
     0
100
AcDbVertex
100
AcDb2dVertex
 10
109.087570502242
 20
-135.3478108385589
 30
0.0
  0
SEQEND
  5
141
330
13B
100
AcDbEntity
  8
_U+30EC_U+30A4_U+30E4_U+30FC 1
370
     0
  0
HATCH
  5
142
330
122
100
AcDbEntity
  8
_U+30EC_U+30A4_U+30E4_U+30FC 1
 62
     7
420
 16777215
100
AcDbHatch
 10
0.0
 20
0.0
 30
0.0
210
0.0
220
0.0
230
1.0
  2
SOLID
 70
     1
 71
     0
 91
        1
 92
        1
 93
        4
 72
     1
 10
109.087570502242
 20
-135.3478108385589
 11
108.8357340222702
 21
-135.3478108385589
 72
     1
 10
108.8357340222702
 20
-135.3478108385589
 11
108.8357340222702
 21
-135.0787488811609
 72
     1
 10
108.8357340222702
 20
-135.0787488811609
 11
109.087570502242
 21
-135.0787488811609
 72
     1
 10
109.087570502242
 20
-135.0787488811609
 11
109.087570502242
 21
-135.3478108385589
 97
        0
 75
     2
 76
     1
 98
        0
  0
SPLINE
  5
143
330
122
100
AcDbEntity
  8
_U+30EC_U+30A4_U+30E4_U+30FC 1
370
     0
100
AcDbSpline
210
0.0
220
0.0
230
1.0
 70
    11
 71
     3
 72
    53
 73
    49
 74
     0
 42
0.0000000001
 43
0.0000000001
 12
1.0
 22
0.0
 32
0.0
 13
1.0
 23
0.0
 33
0.0
 40
0.0
 40
0.0
 40
0.0
 40
0.0
 40
1.0
 40
1.0
 40
1.0
 40
2.0
 40
2.0
 40
2.0
 40
3.0
 40
3.0
 40
3.0
 40
4.0
 40
4.0
 40
4.0
 40
5.0
 40
5.0
 40
5.0
 40
6.0
 40
6.0
 40
6.0
 40
7.0
 40
7.0
 40
7.0
 40
8.0
 40
8.0
 40
8.0
 40
9.0
 40
9.0
 40
9.0
 40
10.0
 40
10.0
 40
10.0
 40
11.0
 40
11.0
 40
11.0
 40
12.0
 40
12.0
 40
12.0
 40
13.0
 40
13.0
 40
13.0
 40
14.0
 40
14.0
 40
14.0
 40
15.0
 40
15.0
 40
15.0
 40
16.0
 40
16.0
 40
16.0
 40
16.0
 10
109.1382134058752
 20
-134.3118706261443
 30
0.0
 10
109.1382134058752
 20
-134.3952419368873
 30
0.0
 10
109.1213324379975
 20
-134.5041069542212
 30
0.0
 10
109.0579426810689
 20
-134.6122829524581
 30
0.0
 10
108.9480441350894
 20
-134.797973599113
 30
0.0
 10
108.8167859971014
 20
-134.8203667197672
 30
0.0
 10
108.708954508413
 20
-134.8406927831301
 30
0.0
 10
108.708954508413
 20
-134.8406927831301
 30
0.0
 10
108.708954508413
 20
-134.6033257041964
 30
0.0
 10
108.708954508413
 20
-134.6033257041964
 30
0.0
 10
108.907736517912
 20
-134.5447590809472
 30
0.0
 10
108.9373643390851
 20
-134.4090223188283
 30
0.0
 10
108.9373643390851
 20
-134.3094590593046
 30
0.0
 10
108.9373643390851
 20
-134.1602864247933
 30
0.0
 10
108.8378010795614
 20
-133.9976779178895
 30
0.0
 10
108.605257134307
 20
-133.9976779178895
 30
0.0
 10
108.349286539753
 20
-133.9976779178895
 30
0.0
 10
108.2793511014024
 20
-134.1895697364179
 30
0.0
 10
108.2793511014024
 20
-134.3184163075662
 30
0.0
 10
108.2793511014024
 20
-134.3525227528702
 30
0.0
 10
108.2793511014024
 20
-134.5041069542212
 30
0.0
 10
108.4085421820993
 20
-134.5988470800656
 30
0.0
 10
108.4085421820993
 20
-134.5988470800656
 30
0.0
 10
108.3895941569304
 20
-134.7866047840117
 30
0.0
 10
108.3895941569304
 20
-134.7866047840117
 30
0.0
 10
108.3895941569304
 20
-134.7866047840117
 30
0.0
 10
107.5431341962045
 20
-134.6577582128633
 30
0.0
 10
107.5431341962045
 20
-134.6577582128633
 30
0.0
 10
107.5431341962045
 20
-134.6577582128633
 30
0.0
 10
107.5431341962045
 20
-133.8257676531755
 30
0.0
 10
107.5431341962045
 20
-133.8257676531755
 30
0.0
 10
107.5431341962045
 20
-133.8257676531755
 30
0.0
 10
107.7377820911211
 20
-133.8257676531755
 30
0.0
 10
107.7377820911211
 20
-133.8257676531755
 30
0.0
 10
107.7377820911211
 20
-133.8257676531755
 30
0.0
 10
107.7377820911211
 20
-134.4834363813097
 30
0.0
 10
107.7377820911211
 20
-134.4834363813097
 30
0.0
 10
107.7377820911211
 20
-134.4834363813097
 30
0.0
 10
108.1608398167098
 20
-134.5537163292088
 30
0.0
 10
108.1608398167098
 20
-134.5537163292088
 30
0.0
 10
108.1270778809543
 20
-134.488259514989
 30
0.0
 10
108.0867702637769
 20
-134.4000650705667
 30
0.0
 10
108.0867702637769
 20
-134.2732855567095
 30
0.0
 10
108.0867702637769
 20
-134.0021565420203
 30
0.0
 10
108.2731499295289
 20
-133.7489420238544
 30
0.0
 10
108.5863091091382
 20
-133.7489420238544
 30
0.0
 10
108.9036024033297
 20
-133.7489420238544
 30
0.0
 10
109.1382134058752
 20
-133.9883761600793
 30
0.0
 10
109.1382134058752
 20
-134.3118706261443
 30
0.0
  0
HATCH
  5
144
330
122
100
AcDbEntity
  8
_U+30EC_U+30A4_U+30E4_U+30FC 1
 62
     7
420
 16777215
100
AcDbHatch
 10
0.0
 20
0.0
 30
0.0
210
0.0
220
0.0
230
1.0
  2
SOLID
 70
     1
 71
     0
 91
        1
 92
        1
 93
        1
 72
     4
 94
        3
 73
     0
 74
     1
 95
       53
 96
       49
 40
0.0
 40
0.0
 40
0.0
 40
0.0
 40
1.0
 40
1.0
 40
1.0
 40
2.0
 40
2.0
 40
2.0
 40
3.0
 40
3.0
 40
3.0
 40
4.0
 40
4.0
 40
4.0
 40
5.0
 40
5.0
 40
5.0
 40
6.0
 40
6.0
 40
6.0
 40
7.0
 40
7.0
 40
7.0
 40
8.0
 40
8.0
 40
8.0
 40
9.0
 40
9.0
 40
9.0
 40
10.0
 40
10.0
 40
10.0
 40
11.0
 40
11.0
 40
11.0
 40
12.0
 40
12.0
 40
12.0
 40
13.0
 40
13.0
 40
13.0
 40
14.0
 40
14.0
 40
14.0
 40
15.0
 40
15.0
 40
15.0
 40
16.0
 40
16.0
 40
16.0
 40
16.0
 10
109.1382134058752
 20
-134.3118706261443
 10
109.1382134058752
 20
-134.3952419368873
 10
109.1213324379975
 20
-134.5041069542212
 10
109.0579426810689
 20
-134.6122829524581
 10
108.9480441350894
 20
-134.797973599113
 10
108.8167859971014
 20
-134.8203667197672
 10
108.708954508413
 20
-134.8406927831301
 10
108.708954508413
 20
-134.8406927831301
 10
108.708954508413
 20
-134.6033257041964
 10
108.708954508413
 20
-134.6033257041964
 10
108.907736517912
 20
-134.5447590809472
 10
108.9373643390851
 20
-134.4090223188283
 10
108.9373643390851
 20
-134.3094590593046
 10
108.9373643390851
 20
-134.1602864247933
 10
108.8378010795614
 20
-133.9976779178895
 10
108.605257134307
 20
-133.9976779178895
 10
108.349286539753
 20
-133.9976779178895
 10
108.2793511014024
 20
-134.1895697364179
 10
108.2793511014024
 20
-134.3184163075662
 10
108.2793511014024
 20
-134.3525227528702
 10
108.2793511014024
 20
-134.5041069542212
 10
108.4085421820993
 20
-134.5988470800656
 10
108.4085421820993
 20
-134.5988470800656
 10
108.3895941569304
 20
-134.7866047840117
 10
108.3895941569304
 20
-134.7866047840117
 10
108.3895941569304
 20
-134.7866047840117
 10
107.5431341962045
 20
-134.6577582128633
 10
107.5431341962045
 20
-134.6577582128633
 10
107.5431341962045
 20
-134.6577582128633
 10
107.5431341962045
 20
-133.8257676531755
 10
107.5431341962045
 20
-133.8257676531755
 10
107.5431341962045
 20
-133.8257676531755
 10
107.7377820911211
 20
-133.8257676531755
 10
107.7377820911211
 20
-133.8257676531755
 10
107.7377820911211
 20
-133.8257676531755
 10
107.7377820911211
 20
-134.4834363813097
 10
107.7377820911211
 20
-134.4834363813097
 10
107.7377820911211
 20
-134.4834363813097
 10
108.1608398167098
 20
-134.5537163292088
 10
108.1608398167098
 20
-134.5537163292088
 10
108.1270778809543
 20
-134.488259514989
 10
108.0867702637769
 20
-134.4000650705667
 10
108.0867702637769
 20
-134.2732855567095
 10
108.0867702637769
 20
-134.0021565420203
 10
108.2731499295289
 20
-133.7489420238544
 10
108.5863091091382
 20
-133.7489420238544
 10
108.9036024033297
 20
-133.7489420238544
 10
109.1382134058752
 20
-133.9883761600793
 10
109.1382134058752
 20
-134.3118706261443
 97
        0
 97
        0
 75
     2
 76
     1
 98
        0
  0
ENDBLK
  5
125
330
122
100
AcDbEntity
  8
0
100
AcDbBlockEnd
  0
BLOCK
  5
153
330
151
100
AcDbEntity
  8
0
100
AcDbBlockBegin
  2
block 7
 70
     0
 10
0.0
 20
0.0
 30
0.0
  3
block 7
  1

  0
SPLINE
  5
155
330
151
100
AcDbEntity
  8
_U+30EC_U+30A4_U+30E4_U+30FC 1
370
     0
100
AcDbSpline
210
0.0
220
0.0
230
1.0
 70
    11
 71
     3
 72
    26
 73
    22
 74
     0
 42
0.0000000001
 43
0.0000000001
 12
1.0
 22
0.0
 32
0.0
 13
1.0
 23
0.0
 33
0.0
 40
0.0
 40
0.0
 40
0.0
 40
0.0
 40
1.0
 40
1.0
 40
1.0
 40
2.0
 40
2.0
 40
2.0
 40
3.0
 40
3.0
 40
3.0
 40
4.0
 40
4.0
 40
4.0
 40
5.0
 40
5.0
 40
5.0
 40
6.0
 40
6.0
 40
6.0
 40
7.0
 40
7.0
 40
7.0
 40
7.0
 10
74.05938990119002
 20
-130.6876301756614
 30
0.0
 10
74.05938990119002
 20
-130.6876301756614
 30
0.0
 10
72.95506454339318
 20
-130.6876301756614
 30
0.0
 10
72.95506454339318
 20
-130.6876301756614
 30
0.0
 10
72.95506454339318
 20
-130.6876301756614
 30
0.0
 10
72.95506454339318
 20
-131.0400634438025
 30
0.0
 10
72.95506454339318
 20
-131.0400634438025
 30
0.0
 10
72.95506454339318
 20
-131.0400634438025
 30
0.0
 10
72.80692543752744
 20
-131.0400634438025
 30
0.0
 10
72.80692543752744
 20
-131.0400634438025
 30
0.0
 10
72.79228378171513
 20
-130.6852186088218
 30
0.0
 10
72.62933076526281
 20
-130.6356092338341
 30
0.0
 10
72.51512584992678
 20
-130.6039143553699
 30
0.0
 10
72.51512584992678
 20
-130.6039143553699
 30
0.0
 10
72.51512584992678
 20
-130.4478515298881
 30
0.0
 10
72.51512584992678
 20
-130.4478515298881
 30
0.0
 10
72.51512584992678
 20
-130.4478515298881
 30
0.0
 10
74.05938990119002
 20
-130.4478515298881
 30
0.0
 10
74.05938990119002
 20
-130.4478515298881
 30
0.0
 10
74.05938990119002
 20
-130.4478515298881
 30
0.0
 10
74.05938990119002
 20
-130.6876301756614
 30
0.0
 10
74.05938990119002
 20
-130.6876301756614
 30
0.0
  0
HATCH
  5
156
330
151
100
AcDbEntity
  8
_U+30EC_U+30A4_U+30E4_U+30FC 1
 62
     7
420
 16777215
100
AcDbHatch
 10
0.0
 20
0.0
 30
0.0
210
0.0
220
0.0
230
1.0
  2
SOLID
 70
     1
 71
     0
 91
        1
 92
        1
 93
        1
 72
     4
 94
        3
 73
     0
 74
     1
 95
       26
 96
       22
 40
0.0
 40
0.0
 40
0.0
 40
0.0
 40
1.0
 40
1.0
 40
1.0
 40
2.0
 40
2.0
 40
2.0
 40
3.0
 40
3.0
 40
3.0
 40
4.0
 40
4.0
 40
4.0
 40
5.0
 40
5.0
 40
5.0
 40
6.0
 40
6.0
 40
6.0
 40
7.0
 40
7.0
 40
7.0
 40
7.0
 10
74.05938990119002
 20
-130.6876301756614
 10
74.05938990119002
 20
-130.6876301756614
 10
72.95506454339318
 20
-130.6876301756614
 10
72.95506454339318
 20
-130.6876301756614
 10
72.95506454339318
 20
-130.6876301756614
 10
72.95506454339318
 20
-131.0400634438025
 10
72.95506454339318
 20
-131.0400634438025
 10
72.95506454339318
 20
-131.0400634438025
 10
72.80692543752744
 20
-131.0400634438025
 10
72.80692543752744
 20
-131.0400634438025
 10
72.79228378171513
 20
-130.6852186088218
 10
72.62933076526281
 20
-130.6356092338341
 10
72.51512584992678
 20
-130.6039143553699
 10
72.51512584992678
 20
-130.6039143553699
 10
72.51512584992678
 20
-130.4478515298881
 10
72.51512584992678
 20
-130.4478515298881
 10
72.51512584992678
 20
-130.4478515298881
 10
74.05938990119002
 20
-130.4478515298881
 10
74.05938990119002
 20
-130.4478515298881
 10
74.05938990119002
 20
-130.4478515298881
 10
74.05938990119002
 20
-130.6876301756614
 10
74.05938990119002
 20
-130.6876301756614
 97
        0
 97
        0
 75
     2
 76
     1
 98
        0
  0
SPLINE
  5
157
330
151
100
AcDbEntity
  8
_U+30EC_U+30A4_U+30E4_U+30FC 1
370
     0
100
AcDbSpline
210
0.0
220
0.0
230
1.0
 70
    11
 71
     3
 72
    29
 73
    25
 74
     0
 42
0.0000000001
 43
0.0000000001
 12
1.0
 22
0.0
 32
0.0
 13
1.0
 23
0.0
 33
0.0
 40
0.0
 40
0.0
 40
0.0
 40
0.0
 40
1.0
 40
1.0
 40
1.0
 40
2.0
 40
2.0
 40
2.0
 40
3.0
 40
3.0
 40
3.0
 40
4.0
 40
4.0
 40
4.0
 40
5.0
 40
5.0
 40
5.0
 40
6.0
 40
6.0
 40
6.0
 40
7.0
 40
7.0
 40
7.0
 40
8.0
 40
8.0
 40
8.0
 40
8.0
 10
74.11020505959745
 20
-129.3778048721694
 30
0.0
 10
74.11020505959745
 20
-129.6623697592511
 30
0.0
 10
73.97257349496172
 20
-129.9338432834888
 30
0.0
 10
73.62358532230591
 20
-129.9338432834888
 30
0.0
 10
73.36761472775186
 20
-129.9338432834888
 30
0.0
 10
73.27235783758469
 20
-129.7822590821378
 30
0.0
 10
73.21103513794725
 20
-129.6692599502216
 30
0.0
 10
73.15177949560095
 20
-129.8025851455008
 30
0.0
 10
73.03757458026492
 20
-129.8842339085012
 30
0.0
 10
72.87686087587801
 20
-129.8842339085012
 30
0.0
 10
72.60177000138081
 20
-129.8842339085012
 30
0.0
 10
72.46637774881049
 20
-129.6716715170612
 30
0.0
 10
72.46637774881049
 20
-129.3778048721694
 30
0.0
 10
72.46637774881049
 20
-129.0746364694675
 30
0.0
 10
72.61021048531967
 20
-128.8713758358377
 30
0.0
 10
72.87686087587801
 20
-128.8713758358377
 30
0.0
 10
73.03757458026492
 20
-128.8713758358377
 30
0.0
 10
73.15177949560095
 20
-128.9547471465808
 30
0.0
 10
73.21103513794725
 20
-129.0884168514085
 30
0.0
 10
73.26185029635468
 20
-128.9933322160156
 30
0.0
 10
73.35710718652184
 20
-128.8238335181413
 30
0.0
 10
73.61927895294934
 20
-128.8238335181413
 30
0.0
 10
73.993760832196
 20
-128.8238335181413
 30
0.0
 10
74.11020505959745
 20
-129.1221787871639
 30
0.0
 10
74.11020505959745
 20
-129.3778048721694
 30
0.0
  0
SPLINE
  5
158
330
151
100
AcDbEntity
  8
_U+30EC_U+30A4_U+30E4_U+30FC 1
370
     0
100
AcDbSpline
210
0.0
220
0.0
230
1.0
 70
    11
 71
     3
 72
    17
 73
    13
 74
     0
 42
0.0000000001
 43
0.0000000001
 12
1.0
 22
0.0
 32
0.0
 13
1.0
 23
0.0
 33
0.0
 40
0.0
 40
0.0
 40
0.0
 40
0.0
 40
1.0
 40
1.0
 40
1.0
 40
2.0
 40
2.0
 40
2.0
 40
3.0
 40
3.0
 40
3.0
 40
4.0
 40
4.0
 40
4.0
 40
4.0
 10
72.65895858643596
 20
-129.3778048721694
 30
0.0
 10
72.65895858643596
 20
-129.5541937610142
 30
0.0
 10
72.75404322182885
 20
-129.6444552627278
 30
0.0
 10
72.88943547439918
 20
-129.6444552627278
 30
0.0
 10
73.01225312844834
 20
-129.6444552627278
 30
0.0
 10
73.13076441314092
 20
-129.5676296334067
 30
0.0
 10
73.13076441314092
 20
-129.3778048721694
 30
0.0
 10
73.13076441314092
 20
-129.1876356013836
 30
0.0
 10
73.01225312844834
 20
-129.1108099720626
 30
0.0
 10
72.88943547439918
 20
-129.1108099720626
 30
0.0
 10
72.75404322182885
 20
-129.1108099720626
 30
0.0
 10
72.65895858643596
 20
-129.2034830406158
 30
0.0
 10
72.65895858643596
 20
-129.3778048721694
 30
0.0
  0
SPLINE
  5
159
330
151
100
AcDbEntity
  8
_U+30EC_U+30A4_U+30E4_U+30FC 1
370
     0
100
AcDbSpline
210
0.0
220
0.0
230
1.0
 70
    11
 71
     3
 72
    17
 73
    13
 74
     0
 42
0.0000000001
 43
0.0000000001
 12
1.0
 22
0.0
 32
0.0
 13
1.0
 23
0.0
 33
0.0
 40
0.0
 40
0.0
 40
0.0
 40
0.0
 40
1.0
 40
1.0
 40
1.0
 40
2.0
 40
2.0
 40
2.0
 40
3.0
 40
3.0
 40
3.0
 40
4.0
 40
4.0
 40
4.0
 40
4.0
 10
73.31903888140982
 20
-129.3778048721694
 30
0.0
 10
73.31903888140982
 20
-129.5314561308116
 30
0.0
 10
73.40568303286386
 20
-129.6940646377154
 30
0.0
 10
73.60877141171933
 20
-129.6940646377154
 30
0.0
 10
73.81392684786597
 20
-129.6940646377154
 30
0.0
 10
73.91555716468083
 20
-129.5586723851451
 30
0.0
 10
73.91555716468083
 20
-129.3778048721694
 30
0.0
 10
73.91555716468083
 20
-129.178678353122
 30
0.0
 10
73.79291176540595
 20
-129.061200597075
 30
0.0
 10
73.61514483836704
 20
-129.061200597075
 30
0.0
 10
73.39293617956844
 20
-129.061200597075
 30
0.0
 10
73.31903888140982
 20
-129.2351779190801
 30
0.0
 10
73.31903888140982
 20
-129.3778048721694
 30
0.0
  0
HATCH
  5
15A
330
151
100
AcDbEntity
  8
_U+30EC_U+30A4_U+30E4_U+30FC 1
 62
     7
420
 16777215
100
AcDbHatch
 10
0.0
 20
0.0
 30
0.0
210
0.0
220
0.0
230
1.0
  2
SOLID
 70
     1
 71
     0
 91
        3
 92
        1
 93
        1
 72
     4
 94
        3
 73
     0
 74
     1
 95
       29
 96
       25
 40
0.0
 40
0.0
 40
0.0
 40
0.0
 40
1.0
 40
1.0
 40
1.0
 40
2.0
 40
2.0
 40
2.0
 40
3.0
 40
3.0
 40
3.0
 40
4.0
 40
4.0
 40
4.0
 40
5.0
 40
5.0
 40
5.0
 40
6.0
 40
6.0
 40
6.0
 40
7.0
 40
7.0
 40
7.0
 40
8.0
 40
8.0
 40
8.0
 40
8.0
 10
74.11020505959745
 20
-129.3778048721694
 10
74.11020505959745
 20
-129.6623697592511
 10
73.97257349496172
 20
-129.9338432834888
 10
73.62358532230591
 20
-129.9338432834888
 10
73.36761472775186
 20
-129.9338432834888
 10
73.27235783758469
 20
-129.7822590821378
 10
73.21103513794725
 20
-129.6692599502216
 10
73.15177949560095
 20
-129.8025851455008
 10
73.03757458026492
 20
-129.8842339085012
 10
72.87686087587801
 20
-129.8842339085012
 10
72.60177000138081
 20
-129.8842339085012
 10
72.46637774881049
 20
-129.6716715170612
 10
72.46637774881049
 20
-129.3778048721694
 10
72.46637774881049
 20
-129.0746364694675
 10
72.61021048531967
 20
-128.8713758358377
 10
72.87686087587801
 20
-128.8713758358377
 10
73.03757458026492
 20
-128.8713758358377
 10
73.15177949560095
 20
-128.9547471465808
 10
73.21103513794725
 20
-129.0884168514085
 10
73.26185029635468
 20
-128.9933322160156
 10
73.35710718652184
 20
-128.8238335181413
 10
73.61927895294934
 20
-128.8238335181413
 10
73.993760832196
 20
-128.8238335181413
 10
74.11020505959745
 20
-129.1221787871639
 10
74.11020505959745
 20
-129.3778048721694
 97
        0
 97
        0
 92
        1
 93
        1
 72
     4
 94
        3
 73
     0
 74
     1
 95
       17
 96
       13
 40
0.0
 40
0.0
 40
0.0
 40
0.0
 40
1.0
 40
1.0
 40
1.0
 40
2.0
 40
2.0
 40
2.0
 40
3.0
 40
3.0
 40
3.0
 40
4.0
 40
4.0
 40
4.0
 40
4.0
 10
72.65895858643596
 20
-129.3778048721694
 10
72.65895858643596
 20
-129.5541937610142
 10
72.75404322182885
 20
-129.6444552627278
 10
72.88943547439918
 20
-129.6444552627278
 10
73.01225312844834
 20
-129.6444552627278
 10
73.13076441314092
 20
-129.5676296334067
 10
73.13076441314092
 20
-129.3778048721694
 10
73.13076441314092
 20
-129.1876356013836
 10
73.01225312844834
 20
-129.1108099720626
 10
72.88943547439918
 20
-129.1108099720626
 10
72.75404322182885
 20
-129.1108099720626
 10
72.65895858643596
 20
-129.2034830406158
 10
72.65895858643596
 20
-129.3778048721694
 97
        0
 97
        0
 92
        1
 93
        1
 72
     4
 94
        3
 73
     0
 74
     1
 95
       17
 96
       13
 40
0.0
 40
0.0
 40
0.0
 40
0.0
 40
1.0
 40
1.0
 40
1.0
 40
2.0
 40
2.0
 40
2.0
 40
3.0
 40
3.0
 40
3.0
 40
4.0
 40
4.0
 40
4.0
 40
4.0
 10
73.31903888140982
 20
-129.3778048721694
 10
73.31903888140982
 20
-129.5314561308116
 10
73.40568303286386
 20
-129.6940646377154
 10
73.60877141171933
 20
-129.6940646377154
 10
73.81392684786597
 20
-129.6940646377154
 10
73.91555716468083
 20
-129.5586723851451
 10
73.91555716468083
 20
-129.3778048721694
 10
73.91555716468083
 20
-129.178678353122
 10
73.79291176540595
 20
-129.061200597075
 10
73.61514483836704
 20
-129.061200597075
 10
73.39293617956844
 20
-129.061200597075
 10
73.31903888140982
 20
-129.2351779190801
 10
73.31903888140982
 20
-129.3778048721694
 97
        0
 97
        0
 75
     2
 76
     1
 98
        0
  0
POLYLINE
  5
15B
330
151
100
AcDbEntity
  8
_U+30EC_U+30A4_U+30E4_U+30FC 1
370
     0
100
AcDb2dPolyline
 66
     1
 10
0.0
 20
0.0
 30
0.0
  0
VERTEX
  5
15C
330
15B
100
AcDbEntity
  8
_U+30EC_U+30A4_U+30E4_U+30FC 1
370
     0
100
AcDbVertex
100
AcDb2dVertex
 10
74.05938990119002
 20
-128.5902560442413
 30
0.0
  0
VERTEX
  5
15D
330
15B
100
AcDbEntity
  8
_U+30EC_U+30A4_U+30E4_U+30FC 1
370
     0
100
AcDbVertex
100
AcDb2dVertex
 10
73.80772567599251
 20
-128.5902560442413
 30
0.0
  0
VERTEX
  5
15E
330
15B
100
AcDbEntity
  8
_U+30EC_U+30A4_U+30E4_U+30FC 1
370
     0
100
AcDbVertex
100
AcDb2dVertex
 10
73.80772567599251
 20
-128.3211940868433
 30
0.0
  0
VERTEX
  5
15F
330
15B
100
AcDbEntity
  8
_U+30EC_U+30A4_U+30E4_U+30FC 1
370
     0
100
AcDbVertex
100
AcDb2dVertex
 10
74.05938990119002
 20
-128.3211940868433
 30
0.0
  0
VERTEX
  5
160
330
15B
100
AcDbEntity
  8
_U+30EC_U+30A4_U+30E4_U+30FC 1
370
     0
100
AcDbVertex
100
AcDb2dVertex
 10
74.05938990119002
 20
-128.5902560442413
 30
0.0
  0
SEQEND
  5
161
330
15B
100
AcDbEntity
  8
_U+30EC_U+30A4_U+30E4_U+30FC 1
370
     0
  0
HATCH
  5
162
330
151
100
AcDbEntity
  8
_U+30EC_U+30A4_U+30E4_U+30FC 1
 62
     7
420
 16777215
100
AcDbHatch
 10
0.0
 20
0.0
 30
0.0
210
0.0
220
0.0
230
1.0
  2
SOLID
 70
     1
 71
     0
 91
        1
 92
        1
 93
        4
 72
     1
 10
74.05938990119002
 20
-128.5902560442413
 11
73.80772567599251
 21
-128.5902560442413
 72
     1
 10
73.80772567599251
 20
-128.5902560442413
 11
73.80772567599251
 21
-128.3211940868433
 72
     1
 10
73.80772567599251
 20
-128.3211940868433
 11
74.05938990119002
 21
-128.3211940868433
 72
     1
 10
74.05938990119002
 20
-128.3211940868433
 11
74.05938990119002
 21
-128.5902560442413
 97
        0
 75
     2
 76
     1
 98
        0
  0
SPLINE
  5
163
330
151
100
AcDbEntity
  8
_U+30EC_U+30A4_U+30E4_U+30FC 1
370
     0
100
AcDbSpline
210
0.0
220
0.0
230
1.0
 70
    11
 71
     3
 72
    53
 73
    49
 74
     0
 42
0.0000000001
 43
0.0000000001
 12
1.0
 22
0.0
 32
0.0
 13
1.0
 23
0.0
 33
0.0
 40
0.0
 40
0.0
 40
0.0
 40
0.0
 40
1.0
 40
1.0
 40
1.0
 40
2.0
 40
2.0
 40
2.0
 40
3.0
 40
3.0
 40
3.0
 40
4.0
 40
4.0
 40
4.0
 40
5.0
 40
5.0
 40
5.0
 40
6.0
 40
6.0
 40
6.0
 40
7.0
 40
7.0
 40
7.0
 40
8.0
 40
8.0
 40
8.0
 40
9.0
 40
9.0
 40
9.0
 40
10.0
 40
10.0
 40
10.0
 40
11.0
 40
11.0
 40
11.0
 40
12.0
 40
12.0
 40
12.0
 40
13.0
 40
13.0
 40
13.0
 40
14.0
 40
14.0
 40
14.0
 40
15.0
 40
15.0
 40
15.0
 40
16.0
 40
16.0
 40
16.0
 40
16.0
 10
74.11020505959745
 20
-127.554488086601
 30
0.0
 10
74.11020505959745
 20
-127.6382039068925
 30
0.0
 10
74.09332409171972
 20
-127.7467244146779
 30
0.0
 10
74.02976208001687
 20
-127.8552449224633
 30
0.0
 10
73.91969127926313
 20
-128.0405910595697
 30
0.0
 10
73.78860539604938
 20
-128.0631564349981
 30
0.0
 10
73.68077390736106
 20
-128.0836547531353
 30
0.0
 10
73.68077390736106
 20
-128.0836547531353
 30
0.0
 10
73.68077390736106
 20
-127.8461154194274
 30
0.0
 10
73.68077390736106
 20
-127.8461154194274
 30
0.0
 10
73.87955591685997
 20
-127.7873765414039
 30
0.0
 10
73.90918373803312
 20
-127.6518120340593
 30
0.0
 10
73.90918373803312
 20
-127.5522487745356
 30
0.0
 10
73.90918373803312
 20
-127.4030761400242
 30
0.0
 10
73.80979273328367
 20
-127.2402953783462
 30
0.0
 10
73.57707653325504
 20
-127.2402953783462
 30
0.0
 10
73.32110593870098
 20
-127.2402953783462
 30
0.0
 10
73.25134275512467
 20
-127.4325317064231
 30
0.0
 10
73.25134275512467
 20
-127.5613782775715
 30
0.0
 10
73.25134275512467
 20
-127.5953124681012
 30
0.0
 10
73.25134275512467
 20
-127.7467244146779
 30
0.0
 10
73.38036158104727
 20
-127.8416367952965
 30
0.0
 10
73.38036158104727
 20
-127.8416367952965
 30
0.0
 10
73.36124130110414
 20
-128.0293944992427
 30
0.0
 10
73.36124130110414
 20
-128.0293944992427
 30
0.0
 10
73.36124130110414
 20
-128.0293944992427
 30
0.0
 10
72.51512584992678
 20
-127.9005479280943
 30
0.0
 10
72.51512584992678
 20
-127.9005479280943
 30
0.0
 10
72.51512584992678
 20
-127.9005479280943
 30
0.0
 10
72.51512584992678
 20
-127.0685573684065
 30
0.0
 10
72.51512584992678
 20
-127.0685573684065
 30
0.0
 10
72.51512584992678
 20
-127.0685573684065
 30
0.0
 10
72.70977374484339
 20
-127.0685573684065
 30
0.0
 10
72.70977374484339
 20
-127.0685573684065
 30
0.0
 10
72.70977374484339
 20
-127.0685573684065
 30
0.0
 10
72.70977374484339
 20
-127.7263983513149
 30
0.0
 10
72.70977374484339
 20
-127.7263983513149
 30
0.0
 10
72.70977374484339
 20
-127.7263983513149
 30
0.0
 10
73.13283147043208
 20
-127.7965060444398
 30
0.0
 10
73.13283147043208
 20
-127.7965060444398
 30
0.0
 10
73.09889727990236
 20
-127.7308769754458
 30
0.0
 10
73.0587619174992
 20
-127.6426825310234
 30
0.0
 10
73.0587619174992
 20
-127.5160752719404
 30
0.0
 10
73.0587619174992
 20
-127.244774002477
 30
0.0
 10
73.24496932847696
 20
-126.9915594843111
 30
0.0
 10
73.5579562533119
 20
-126.9915594843111
 30
0.0
 10
73.87542180227767
 20
-126.9915594843111
 30
0.0
 10
74.11020505959745
 20
-127.2311658753103
 30
0.0
 10
74.11020505959745
 20
-127.554488086601
 30
0.0
  0
HATCH
  5
164
330
151
100
AcDbEntity
  8
_U+30EC_U+30A4_U+30E4_U+30FC 1
 62
     7
420
 16777215
100
AcDbHatch
 10
0.0
 20
0.0
 30
0.0
210
0.0
220
0.0
230
1.0
  2
SOLID
 70
     1
 71
     0
 91
        1
 92
        1
 93
        1
 72
     4
 94
        3
 73
     0
 74
     1
 95
       53
 96
       49
 40
0.0
 40
0.0
 40
0.0
 40
0.0
 40
1.0
 40
1.0
 40
1.0
 40
2.0
 40
2.0
 40
2.0
 40
3.0
 40
3.0
 40
3.0
 40
4.0
 40
4.0
 40
4.0
 40
5.0
 40
5.0
 40
5.0
 40
6.0
 40
6.0
 40
6.0
 40
7.0
 40
7.0
 40
7.0
 40
8.0
 40
8.0
 40
8.0
 40
9.0
 40
9.0
 40
9.0
 40
10.0
 40
10.0
 40
10.0
 40
11.0
 40
11.0
 40
11.0
 40
12.0
 40
12.0
 40
12.0
 40
13.0
 40
13.0
 40
13.0
 40
14.0
 40
14.0
 40
14.0
 40
15.0
 40
15.0
 40
15.0
 40
16.0
 40
16.0
 40
16.0
 40
16.0
 10
74.11020505959745
 20
-127.554488086601
 10
74.11020505959745
 20
-127.6382039068925
 10
74.09332409171972
 20
-127.7467244146779
 10
74.02976208001687
 20
-127.8552449224633
 10
73.91969127926313
 20
-128.0405910595697
 10
73.78860539604938
 20
-128.0631564349981
 10
73.68077390736106
 20
-128.0836547531353
 10
73.68077390736106
 20
-128.0836547531353
 10
73.68077390736106
 20
-127.8461154194274
 10
73.68077390736106
 20
-127.8461154194274
 10
73.87955591685997
 20
-127.7873765414039
 10
73.90918373803312
 20
-127.6518120340593
 10
73.90918373803312
 20
-127.5522487745356
 10
73.90918373803312
 20
-127.4030761400242
 10
73.80979273328367
 20
-127.2402953783462
 10
73.57707653325504
 20
-127.2402953783462
 10
73.32110593870098
 20
-127.2402953783462
 10
73.25134275512467
 20
-127.4325317064231
 10
73.25134275512467
 20
-127.5613782775715
 10
73.25134275512467
 20
-127.5953124681012
 10
73.25134275512467
 20
-127.7467244146779
 10
73.38036158104727
 20
-127.8416367952965
 10
73.38036158104727
 20
-127.8416367952965
 10
73.36124130110414
 20
-128.0293944992427
 10
73.36124130110414
 20
-128.0293944992427
 10
73.36124130110414
 20
-128.0293944992427
 10
72.51512584992678
 20
-127.9005479280943
 10
72.51512584992678
 20
-127.9005479280943
 10
72.51512584992678
 20
-127.9005479280943
 10
72.51512584992678
 20
-127.0685573684065
 10
72.51512584992678
 20
-127.0685573684065
 10
72.51512584992678
 20
-127.0685573684065
 10
72.70977374484339
 20
-127.0685573684065
 10
72.70977374484339
 20
-127.0685573684065
 10
72.70977374484339
 20
-127.0685573684065
 10
72.70977374484339
 20
-127.7263983513149
 10
72.70977374484339
 20
-127.7263983513149
 10
72.70977374484339
 20
-127.7263983513149
 10
73.13283147043208
 20
-127.7965060444398
 10
73.13283147043208
 20
-127.7965060444398
 10
73.09889727990236
 20
-127.7308769754458
 10
73.0587619174992
 20
-127.6426825310234
 10
73.0587619174992
 20
-127.5160752719404
 10
73.0587619174992
 20
-127.244774002477
 10
73.24496932847696
 20
-126.9915594843111
 10
73.5579562533119
 20
-126.9915594843111
 10
73.87542180227767
 20
-126.9915594843111
 10
74.11020505959745
 20
-127.2311658753103
 10
74.11020505959745
 20
-127.554488086601
 97
        0
 97
        0
 75
     2
 76
     1
 98
        0
  0
ENDBLK
  5
154
330
151
100
AcDbEntity
  8
0
100
AcDbBlockEnd
  0
BLOCK
  5
178
330
176
100
AcDbEntity
  8
0
100
AcDbBlockBegin
  2
block 8
 70
     0
 10
0.0
 20
0.0
 30
0.0
  3
block 8
  1

  0
SPLINE
  5
17A
330
176
100
AcDbEntity
  8
_U+30EC_U+30A4_U+30E4_U+30FC 1
370
     0
100
AcDbSpline
210
0.0
220
0.0
230
1.0
 70
    11
 71
     3
 72
    26
 73
    22
 74
     0
 42
0.0000000001
 43
0.0000000001
 12
1.0
 22
0.0
 32
0.0
 13
1.0
 23
0.0
 33
0.0
 40
0.0
 40
0.0
 40
0.0
 40
0.0
 40
1.0
 40
1.0
 40
1.0
 40
2.0
 40
2.0
 40
2.0
 40
3.0
 40
3.0
 40
3.0
 40
4.0
 40
4.0
 40
4.0
 40
5.0
 40
5.0
 40
5.0
 40
6.0
 40
6.0
 40
6.0
 40
7.0
 40
7.0
 40
7.0
 40
7.0
 10
77.5975029645416
 20
-115.5138793656528
 30
0.0
 10
77.5975029645416
 20
-115.5138793656528
 30
0.0
 10
77.5975029645416
 20
-114.4095540078559
 30
0.0
 10
77.5975029645416
 20
-114.4095540078559
 30
0.0
 10
77.5975029645416
 20
-114.4095540078559
 30
0.0
 10
77.24472518685202
 20
-114.4095540078559
 30
0.0
 10
77.24472518685202
 20
-114.4095540078559
 30
0.0
 10
77.24472518685202
 20
-114.4095540078559
 30
0.0
 10
77.24472518685202
 20
-114.2614149019902
 30
0.0
 10
77.24472518685202
 20
-114.2614149019902
 30
0.0
 10
77.59974227660702
 20
-114.2467732461779
 30
0.0
 10
77.64952390636887
 20
-114.0838202297256
 30
0.0
 10
77.68104653005891
 20
-113.9696153143895
 30
0.0
 10
77.68104653005891
 20
-113.9696153143895
 30
0.0
 10
77.83710935554073
 20
-113.9696153143895
 30
0.0
 10
77.83710935554073
 20
-113.9696153143895
 30
0.0
 10
77.83710935554073
 20
-113.9696153143895
 30
0.0
 10
77.83710935554073
 20
-115.5138793656528
 30
0.0
 10
77.83710935554073
 20
-115.5138793656528
 30
0.0
 10
77.83710935554073
 20
-115.5138793656528
 30
0.0
 10
77.5975029645416
 20
-115.5138793656528
 30
0.0
 10
77.5975029645416
 20
-115.5138793656528
 30
0.0
  0
HATCH
  5
17B
330
176
100
AcDbEntity
  8
_U+30EC_U+30A4_U+30E4_U+30FC 1
 62
     7
420
 16777215
100
AcDbHatch
 10
0.0
 20
0.0
 30
0.0
210
0.0
220
0.0
230
1.0
  2
SOLID
 70
     1
 71
     0
 91
        1
 92
        1
 93
        1
 72
     4
 94
        3
 73
     0
 74
     1
 95
       26
 96
       22
 40
0.0
 40
0.0
 40
0.0
 40
0.0
 40
1.0
 40
1.0
 40
1.0
 40
2.0
 40
2.0
 40
2.0
 40
3.0
 40
3.0
 40
3.0
 40
4.0
 40
4.0
 40
4.0
 40
5.0
 40
5.0
 40
5.0
 40
6.0
 40
6.0
 40
6.0
 40
7.0
 40
7.0
 40
7.0
 40
7.0
 10
77.5975029645416
 20
-115.5138793656528
 10
77.5975029645416
 20
-115.5138793656528
 10
77.5975029645416
 20
-114.4095540078559
 10
77.5975029645416
 20
-114.4095540078559
 10
77.5975029645416
 20
-114.4095540078559
 10
77.24472518685202
 20
-114.4095540078559
 10
77.24472518685202
 20
-114.4095540078559
 10
77.24472518685202
 20
-114.4095540078559
 10
77.24472518685202
 20
-114.2614149019902
 10
77.24472518685202
 20
-114.2614149019902
 10
77.59974227660702
 20
-114.2467732461779
 10
77.64952390636887
 20
-114.0838202297256
 10
77.68104653005891
 20
-113.9696153143895
 10
77.68104653005891
 20
-113.9696153143895
 10
77.83710935554073
 20
-113.9696153143895
 10
77.83710935554073
 20
-113.9696153143895
 10
77.83710935554073
 20
-113.9696153143895
 10
77.83710935554073
 20
-115.5138793656528
 10
77.83710935554073
 20
-115.5138793656528
 10
77.83710935554073
 20
-115.5138793656528
 10
77.5975029645416
 20
-115.5138793656528
 10
77.5975029645416
 20
-115.5138793656528
 97
        0
 97
        0
 75
     2
 76
     1
 98
        0
  0
ENDBLK
  5
179
330
176
100
AcDbEntity
  8
0
100
AcDbBlockEnd
  0
ENDSEC
  0
SECTION
  2
ENTITIES
  0
SPLINE
  5
41
330
1F
100
AcDbEntity
  8
_U+30EC_U+30A4_U+30E4_U+30FC 1
370
     0
100
AcDbSpline
210
0.0
220
0.0
230
1.0
 70
    11
 71
     3
 72
    74
 73
    70
 74
     0
 42
0.0000000001
 43
0.0000000001
 12
1.0
 22
0.0
 32
0.0
 13
1.0
 23
0.0
 33
0.0
 40
0.0
 40
0.0
 40
0.0
 40
0.0
 40
1.0
 40
1.0
 40
1.0
 40
2.0
 40
2.0
 40
2.0
 40
3.0
 40
3.0
 40
3.0
 40
4.0
 40
4.0
 40
4.0
 40
5.0
 40
5.0
 40
5.0
 40
6.0
 40
6.0
 40
6.0
 40
7.0
 40
7.0
 40
7.0
 40
8.0
 40
8.0
 40
8.0
 40
9.0
 40
9.0
 40
9.0
 40
10.0
 40
10.0
 40
10.0
 40
11.0
 40
11.0
 40
11.0
 40
12.0
 40
12.0
 40
12.0
 40
13.0
 40
13.0
 40
13.0
 40
14.0
 40
14.0
 40
14.0
 40
15.0
 40
15.0
 40
15.0
 40
16.0
 40
16.0
 40
16.0
 40
17.0
 40
17.0
 40
17.0
 40
18.0
 40
18.0
 40
18.0
 40
19.0
 40
19.0
 40
19.0
 40
20.0
 40
20.0
 40
20.0
 40
21.0
 40
21.0
 40
21.0
 40
22.0
 40
22.0
 40
22.0
 40
23.0
 40
23.0
 40
23.0
 40
23.0
 10
101.6565124065263
 20
-138.0935557988098
 30
0.0
 10
101.6565124065263
 20
-138.0935557988098
 30
0.0
 10
92.15631292667436
 20
-138.0935557988098
 30
0.0
 10
92.15631292667436
 20
-138.0935557988098
 30
0.0
 10
92.15631292667436
 20
-138.0935557988098
 30
0.0
 10
90.78189073951657
 20
-137.5933169100461
 30
0.0
 10
90.78189073951657
 20
-137.5933169100461
 30
0.0
 10
90.78189073951657
 20
-137.5933169100461
 30
0.0
 10
83.07020399181364
 20
-137.5933169100461
 30
0.0
 10
83.07020399181364
 20
-137.5933169100461
 30
0.0
 10
83.07020399181364
 20
-137.5933169100461
 30
0.0
 10
81.78760985786869
 20
-136.3103699659227
 30
0.0
 10
81.78760985786869
 20
-136.3103699659227
 30
0.0
 10
81.78760985786869
 20
-136.3103699659227
 30
0.0
 10
85.00462775652649
 20
-133.0936716333933
 30
0.0
 10
85.00462775652649
 20
-133.0936716333933
 30
0.0
 10
85.00462775652649
 20
-133.0936716333933
 30
0.0
 10
92.15631292667436
 20
-133.0936716333933
 30
0.0
 10
92.15631292667436
 20
-133.0936716333933
 30
0.0
 10
92.15631292667436
 20
-133.0936716333933
 30
0.0
 10
92.15631292667436
 20
-132.5934680224071
 30
0.0
 10
92.15631292667436
 20
-132.5934680224071
 30
0.0
 10
92.15631292667436
 20
-132.5934680224071
 30
0.0
 10
90.1555690888287
 20
-132.0939346891989
 30
0.0
 10
90.1555690888287
 20
-132.0939346891989
 30
0.0
 10
90.1555690888287
 20
-132.0939346891989
 30
0.0
 10
85.15621421637287
 20
-132.0939346891989
 30
0.0
 10
85.15621421637287
 20
-132.0939346891989
 30
0.0
 10
85.15621421637287
 20
-132.0939346891989
 30
0.0
 10
85.15621421637287
 20
-127.0936977460043
 30
0.0
 10
85.15621421637287
 20
-127.0936977460043
 30
0.0
 10
85.15621421637287
 20
-127.0936977460043
 30
0.0
 10
84.65597534024614
 20
-125.0934830242821
 30
0.0
 10
84.65597534024614
 20
-125.0934830242821
 30
0.0
 10
84.65597534024614
 20
-125.0934830242821
 30
0.0
 10
84.15577174189629
 20
-125.0934830242821
 30
0.0
 10
84.15577174189629
 20
-125.0934830242821
 30
0.0
 10
84.15577174189629
 20
-125.0934830242821
 30
0.0
 10
84.15577174189629
 20
-132.2454880224942
 30
0.0
 10
84.15577174189629
 20
-132.2454880224942
 30
0.0
 10
84.15577174189629
 20
-132.2454880224942
 30
0.0
 10
80.93872071285898
 20
-135.4621863550236
 30
0.0
 10
80.93872071285898
 20
-135.4621863550236
 30
0.0
 10
80.93872071285898
 20
-135.4621863550236
 30
0.0
 10
79.65577380114524
 20
-134.1795921886773
 30
0.0
 10
79.65577380114524
 20
-134.1795921886773
 30
0.0
 10
79.65577380114524
 20
-134.1795921886773
 30
0.0
 10
79.65577380114524
 20
-126.4673760794943
 30
0.0
 10
79.65577380114524
 20
-126.4673760794943
 30
0.0
 10
79.65577380114524
 20
-126.4673760794943
 30
0.0
 10
79.15624048055606
 20
-125.0934830242821
 30
0.0
 10
79.15624048055606
 20
-125.0934830242821
 30
0.0
 10
79.15624048055606
 20
-125.0934830242821
 30
0.0
 10
79.15624048055606
 20
-120.5934849698515
 30
0.0
 10
79.15624048055606
 20
-120.5934849698515
 30
0.0
 10
79.15624048055606
 20
-120.3171894143651
 30
0.0
 10
78.932297152936
 20
-120.0939516366434
 30
0.0
 10
78.65600160442933
 20
-120.0939516366434
 30
0.0
 10
78.65600160442933
 20
-120.0939516366434
 30
0.0
 10
78.65600160442933
 20
-134.5933299663517
 30
0.0
 10
78.65600160442933
 20
-134.5933299663517
 30
0.0
 10
78.65600160442933
 20
-134.5933299663517
 30
0.0
 10
82.65576066905365
 20
-138.5930891320186
 30
0.0
 10
82.65576066905365
 20
-138.5930891320186
 30
0.0
 10
82.65576066905365
 20
-138.5930891320186
 30
0.0
 10
102.1560457271155
 20
-138.5930891320186
 30
0.0
 10
102.1560457271155
 20
-138.5930891320186
 30
0.0
 10
102.1560457271155
 20
-138.3174991320871
 30
0.0
 10
101.932807955033
 20
-138.0935557988098
 30
0.0
 10
101.6565124065263
 20
-138.0935557988098
 30
0.0
  0
HATCH
  5
42
330
1F
100
AcDbEntity
  8
_U+30EC_U+30A4_U+30E4_U+30FC 1
 62
   253
420
 11711154
100
AcDbHatch
 10
0.0
 20
0.0
 30
0.0
210
0.0
220
0.0
230
1.0
  2
SOLID
 70
     1
 71
     0
 91
        1
 92
        1
 93
        1
 72
     4
 94
        3
 73
     0
 74
     1
 95
       74
 96
       70
 40
0.0
 40
0.0
 40
0.0
 40
0.0
 40
1.0
 40
1.0
 40
1.0
 40
2.0
 40
2.0
 40
2.0
 40
3.0
 40
3.0
 40
3.0
 40
4.0
 40
4.0
 40
4.0
 40
5.0
 40
5.0
 40
5.0
 40
6.0
 40
6.0
 40
6.0
 40
7.0
 40
7.0
 40
7.0
 40
8.0
 40
8.0
 40
8.0
 40
9.0
 40
9.0
 40
9.0
 40
10.0
 40
10.0
 40
10.0
 40
11.0
 40
11.0
 40
11.0
 40
12.0
 40
12.0
 40
12.0
 40
13.0
 40
13.0
 40
13.0
 40
14.0
 40
14.0
 40
14.0
 40
15.0
 40
15.0
 40
15.0
 40
16.0
 40
16.0
 40
16.0
 40
17.0
 40
17.0
 40
17.0
 40
18.0
 40
18.0
 40
18.0
 40
19.0
 40
19.0
 40
19.0
 40
20.0
 40
20.0
 40
20.0
 40
21.0
 40
21.0
 40
21.0
 40
22.0
 40
22.0
 40
22.0
 40
23.0
 40
23.0
 40
23.0
 40
23.0
 10
101.6565124065263
 20
-138.0935557988098
 10
101.6565124065263
 20
-138.0935557988098
 10
92.15631292667436
 20
-138.0935557988098
 10
92.15631292667436
 20
-138.0935557988098
 10
92.15631292667436
 20
-138.0935557988098
 10
90.78189073951657
 20
-137.5933169100461
 10
90.78189073951657
 20
-137.5933169100461
 10
90.78189073951657
 20
-137.5933169100461
 10
83.07020399181364
 20
-137.5933169100461
 10
83.07020399181364
 20
-137.5933169100461
 10
83.07020399181364
 20
-137.5933169100461
 10
81.78760985786869
 20
-136.3103699659227
 10
81.78760985786869
 20
-136.3103699659227
 10
81.78760985786869
 20
-136.3103699659227
 10
85.00462775652649
 20
-133.0936716333933
 10
85.00462775652649
 20
-133.0936716333933
 10
85.00462775652649
 20
-133.0936716333933
 10
92.15631292667436
 20
-133.0936716333933
 10
92.15631292667436
 20
-133.0936716333933
 10
92.15631292667436
 20
-133.0936716333933
 10
92.15631292667436
 20
-132.5934680224071
 10
92.15631292667436
 20
-132.5934680224071
 10
92.15631292667436
 20
-132.5934680224071
 10
90.1555690888287
 20
-132.0939346891989
 10
90.1555690888287
 20
-132.0939346891989
 10
90.1555690888287
 20
-132.0939346891989
 10
85.15621421637287
 20
-132.0939346891989
 10
85.15621421637287
 20
-132.0939346891989
 10
85.15621421637287
 20
-132.0939346891989
 10
85.15621421637287
 20
-127.0936977460043
 10
85.15621421637287
 20
-127.0936977460043
 10
85.15621421637287
 20
-127.0936977460043
 10
84.65597534024614
 20
-125.0934830242821
 10
84.65597534024614
 20
-125.0934830242821
 10
84.65597534024614
 20
-125.0934830242821
 10
84.15577174189629
 20
-125.0934830242821
 10
84.15577174189629
 20
-125.0934830242821
 10
84.15577174189629
 20
-125.0934830242821
 10
84.15577174189629
 20
-132.2454880224942
 10
84.15577174189629
 20
-132.2454880224942
 10
84.15577174189629
 20
-132.2454880224942
 10
80.93872071285898
 20
-135.4621863550236
 10
80.93872071285898
 20
-135.4621863550236
 10
80.93872071285898
 20
-135.4621863550236
 10
79.65577380114524
 20
-134.1795921886773
 10
79.65577380114524
 20
-134.1795921886773
 10
79.65577380114524
 20
-134.1795921886773
 10
79.65577380114524
 20
-126.4673760794943
 10
79.65577380114524
 20
-126.4673760794943
 10
79.65577380114524
 20
-126.4673760794943
 10
79.15624048055606
 20
-125.0934830242821
 10
79.15624048055606
 20
-125.0934830242821
 10
79.15624048055606
 20
-125.0934830242821
 10
79.15624048055606
 20
-120.5934849698515
 10
79.15624048055606
 20
-120.5934849698515
 10
79.15624048055606
 20
-120.3171894143651
 10
78.932297152936
 20
-120.0939516366434
 10
78.65600160442933
 20
-120.0939516366434
 10
78.65600160442933
 20
-120.0939516366434
 10
78.65600160442933
 20
-134.5933299663517
 10
78.65600160442933
 20
-134.5933299663517
 10
78.65600160442933
 20
-134.5933299663517
 10
82.65576066905365
 20
-138.5930891320186
 10
82.65576066905365
 20
-138.5930891320186
 10
82.65576066905365
 20
-138.5930891320186
 10
102.1560457271155
 20
-138.5930891320186
 10
102.1560457271155
 20
-138.5930891320186
 10
102.1560457271155
 20
-138.3174991320871
 10
101.932807955033
 20
-138.0935557988098
 10
101.6565124065263
 20
-138.0935557988098
 97
        0
 97
        0
 75
     2
 76
     1
 98
        0
  0
POLYLINE
  5
43
330
1F
100
AcDbEntity
  8
_U+30EC_U+30A4_U+30E4_U+30FC 1
 62
     7
420
 16777215
370
    25
100
AcDb2dPolyline
 66
     1
 10
0.0
 20
0.0
 30
0.0
  0
VERTEX
  5
44
330
43
100
AcDbEntity
  8
_U+30EC_U+30A4_U+30E4_U+30FC 1
 62
     7
420
 16777215
370
    25
100
AcDbVertex
100
AcDb2dVertex
 10
78.65600160442933
 20
-120.0939516366434
 30
0.0
  0
VERTEX
  5
45
330
43
100
AcDbEntity
  8
_U+30EC_U+30A4_U+30E4_U+30FC 1
 62
     7
420
 16777215
370
    25
100
AcDbVertex
100
AcDb2dVertex
 10
78.65600160442933
 20
-134.5933299663517
 30
0.0
  0
SEQEND
  5
46
330
43
100
AcDbEntity
  8
_U+30EC_U+30A4_U+30E4_U+30FC 1
 62
     7
420
 16777215
370
    25
  0
POLYLINE
  5
47
330
1F
100
AcDbEntity
  8
_U+30EC_U+30A4_U+30E4_U+30FC 1
 62
     7
420
 16777215
370
    25
100
AcDb2dPolyline
 66
     1
 10
0.0
 20
0.0
 30
0.0
  0
VERTEX
  5
48
330
47
100
AcDbEntity
  8
_U+30EC_U+30A4_U+30E4_U+30FC 1
 62
     7
420
 16777215
370
    25
100
AcDbVertex
100
AcDb2dVertex
 10
82.65576066905365
 20
-138.5930891320186
 30
0.0
  0
VERTEX
  5
49
330
47
100
AcDbEntity
  8
_U+30EC_U+30A4_U+30E4_U+30FC 1
 62
     7
420
 16777215
370
    25
100
AcDbVertex
100
AcDb2dVertex
 10
78.65600160442933
 20
-134.5933299663517
 30
0.0
  0
SEQEND
  5
4A
330
47
100
AcDbEntity
  8
_U+30EC_U+30A4_U+30E4_U+30FC 1
 62
     7
420
 16777215
370
    25
  0
POLYLINE
  5
4B
330
1F
100
AcDbEntity
  8
_U+30EC_U+30A4_U+30E4_U+30FC 1
 62
     7
420
 16777215
370
    25
100
AcDb2dPolyline
 66
     1
 10
0.0
 20
0.0
 30
0.0
  0
VERTEX
  5
4C
330
4B
100
AcDbEntity
  8
_U+30EC_U+30A4_U+30E4_U+30FC 1
 62
     7
420
 16777215
370
    25
100
AcDbVertex
100
AcDb2dVertex
 10
79.65577380114524
 20
-126.4673760794943
 30
0.0
  0
VERTEX
  5
4D
330
4B
100
AcDbEntity
  8
_U+30EC_U+30A4_U+30E4_U+30FC 1
 62
     7
420
 16777215
370
    25
100
AcDbVertex
100
AcDb2dVertex
 10
79.65577380114524
 20
-134.1795921886773
 30
0.0
  0
SEQEND
  5
4E
330
4B
100
AcDbEntity
  8
_U+30EC_U+30A4_U+30E4_U+30FC 1
 62
     7
420
 16777215
370
    25
  0
POLYLINE
  5
4F
330
1F
100
AcDbEntity
  8
_U+30EC_U+30A4_U+30E4_U+30FC 1
 62
     7
420
 16777215
370
    25
100
AcDb2dPolyline
 66
     1
 10
0.0
 20
0.0
 30
0.0
  0
VERTEX
  5
50
330
4F
100
AcDbEntity
  8
_U+30EC_U+30A4_U+30E4_U+30FC 1
 62
     7
420
 16777215
370
    25
100
AcDbVertex
100
AcDb2dVertex
 10
83.07020399181364
 20
-137.5933169100461
 30
0.0
  0
VERTEX
  5
51
330
4F
100
AcDbEntity
  8
_U+30EC_U+30A4_U+30E4_U+30FC 1
 62
     7
420
 16777215
370
    25
100
AcDbVertex
100
AcDb2dVertex
 10
90.78189073951657
 20
-137.5933169100461
 30
0.0
  0
SEQEND
  5
52
330
4F
100
AcDbEntity
  8
_U+30EC_U+30A4_U+30E4_U+30FC 1
 62
     7
420
 16777215
370
    25
  0
POLYLINE
  5
53
330
1F
100
AcDbEntity
  8
_U+30EC_U+30A4_U+30E4_U+30FC 1
 62
     7
420
 16777215
370
    25
100
AcDb2dPolyline
 66
     1
 10
0.0
 20
0.0
 30
0.0
  0
VERTEX
  5
54
330
53
100
AcDbEntity
  8
_U+30EC_U+30A4_U+30E4_U+30FC 1
 62
     7
420
 16777215
370
    25
100
AcDbVertex
100
AcDb2dVertex
 10
84.15577174189629
 20
-125.0934830242821
 30
0.0
  0
VERTEX
  5
55
330
53
100
AcDbEntity
  8
_U+30EC_U+30A4_U+30E4_U+30FC 1
 62
     7
420
 16777215
370
    25
100
AcDbVertex
100
AcDb2dVertex
 10
84.15577174189629
 20
-132.2454880224942
 30
0.0
  0
SEQEND
  5
56
330
53
100
AcDbEntity
  8
_U+30EC_U+30A4_U+30E4_U+30FC 1
 62
     7
420
 16777215
370
    25
  0
POLYLINE
  5
57
330
1F
100
AcDbEntity
  8
_U+30EC_U+30A4_U+30E4_U+30FC 1
 62
     7
420
 16777215
370
    25
100
AcDb2dPolyline
 66
     1
 10
0.0
 20
0.0
 30
0.0
  0
VERTEX
  5
58
330
57
100
AcDbEntity
  8
_U+30EC_U+30A4_U+30E4_U+30FC 1
 62
     7
420
 16777215
370
    25
100
AcDbVertex
100
AcDb2dVertex
 10
85.00462775652649
 20
-133.0936716333933
 30
0.0
  0
VERTEX
  5
59
330
57
100
AcDbEntity
  8
_U+30EC_U+30A4_U+30E4_U+30FC 1
 62
     7
420
 16777215
370
    25
100
AcDbVertex
100
AcDb2dVertex
 10
92.15631292667436
 20
-133.0936716333933
 30
0.0
  0
SEQEND
  5
5A
330
57
100
AcDbEntity
  8
_U+30EC_U+30A4_U+30E4_U+30FC 1
 62
     7
420
 16777215
370
    25
  0
POLYLINE
  5
5B
330
1F
100
AcDbEntity
  8
_U+30EC_U+30A4_U+30E4_U+30FC 1
 62
     7
420
 16777215
370
    25
100
AcDb2dPolyline
 66
     1
 10
0.0
 20
0.0
 30
0.0
  0
VERTEX
  5
5C
330
5B
100
AcDbEntity
  8
_U+30EC_U+30A4_U+30E4_U+30FC 1
 62
     7
420
 16777215
370
    25
100
AcDbVertex
100
AcDb2dVertex
 10
79.15624048055606
 20
-120.5934849698515
 30
0.0
  0
VERTEX
  5
5D
330
5B
100
AcDbEntity
  8
_U+30EC_U+30A4_U+30E4_U+30FC 1
 62
     7
420
 16777215
370
    25
100
AcDbVertex
100
AcDb2dVertex
 10
79.15624048055606
 20
-125.0934830242821
 30
0.0
  0
SEQEND
  5
5E
330
5B
100
AcDbEntity
  8
_U+30EC_U+30A4_U+30E4_U+30FC 1
 62
     7
420
 16777215
370
    25
  0
POLYLINE
  5
5F
330
1F
100
AcDbEntity
  8
_U+30EC_U+30A4_U+30E4_U+30FC 1
 62
     7
420
 16777215
370
    25
100
AcDb2dPolyline
 66
     1
 10
0.0
 20
0.0
 30
0.0
  0
VERTEX
  5
60
330
5F
100
AcDbEntity
  8
_U+30EC_U+30A4_U+30E4_U+30FC 1
 62
     7
420
 16777215
370
    25
100
AcDbVertex
100
AcDb2dVertex
 10
79.65577380114524
 20
-126.4673760794943
 30
0.0
  0
VERTEX
  5
61
330
5F
100
AcDbEntity
  8
_U+30EC_U+30A4_U+30E4_U+30FC 1
 62
     7
420
 16777215
370
    25
100
AcDbVertex
100
AcDb2dVertex
 10
79.15624048055606
 20
-125.0934830242821
 30
0.0
  0
SEQEND
  5
62
330
5F
100
AcDbEntity
  8
_U+30EC_U+30A4_U+30E4_U+30FC 1
 62
     7
420
 16777215
370
    25
  0
POLYLINE
  5
63
330
1F
100
AcDbEntity
  8
_U+30EC_U+30A4_U+30E4_U+30FC 1
 62
     7
420
 16777215
370
    25
100
AcDb2dPolyline
 66
     1
 10
0.0
 20
0.0
 30
0.0
  0
VERTEX
  5
64
330
63
100
AcDbEntity
  8
_U+30EC_U+30A4_U+30E4_U+30FC 1
 62
     7
420
 16777215
370
    25
100
AcDbVertex
100
AcDb2dVertex
 10
92.15631292667436
 20
-138.0935557988098
 30
0.0
  0
VERTEX
  5
65
330
63
100
AcDbEntity
  8
_U+30EC_U+30A4_U+30E4_U+30FC 1
 62
     7
420
 16777215
370
    25
100
AcDbVertex
100
AcDb2dVertex
 10
101.6565124065263
 20
-138.0935557988098
 30
0.0
  0
SEQEND
  5
66
330
63
100
AcDbEntity
  8
_U+30EC_U+30A4_U+30E4_U+30FC 1
 62
     7
420
 16777215
370
    25
  0
POLYLINE
  5
67
330
1F
100
AcDbEntity
  8
_U+30EC_U+30A4_U+30E4_U+30FC 1
 62
     7
420
 16777215
370
    25
100
AcDb2dPolyline
 66
     1
 10
0.0
 20
0.0
 30
0.0
  0
VERTEX
  5
68
330
67
100
AcDbEntity
  8
_U+30EC_U+30A4_U+30E4_U+30FC 1
 62
     7
420
 16777215
370
    25
100
AcDbVertex
100
AcDb2dVertex
 10
90.78189073951657
 20
-137.5933169100461
 30
0.0
  0
VERTEX
  5
69
330
67
100
AcDbEntity
  8
_U+30EC_U+30A4_U+30E4_U+30FC 1
 62
     7
420
 16777215
370
    25
100
AcDbVertex
100
AcDb2dVertex
 10
92.15631292667436
 20
-138.0935557988098
 30
0.0
  0
SEQEND
  5
6A
330
67
100
AcDbEntity
  8
_U+30EC_U+30A4_U+30E4_U+30FC 1
 62
     7
420
 16777215
370
    25
  0
POLYLINE
  5
6B
330
1F
100
AcDbEntity
  8
_U+30EC_U+30A4_U+30E4_U+30FC 1
 62
     7
420
 16777215
370
    25
100
AcDb2dPolyline
 66
     1
 10
0.0
 20
0.0
 30
0.0
  0
VERTEX
  5
6C
330
6B
100
AcDbEntity
  8
_U+30EC_U+30A4_U+30E4_U+30FC 1
 62
     7
420
 16777215
370
    25
100
AcDbVertex
100
AcDb2dVertex
 10
83.07020399181364
 20
-137.5933169100461
 30
0.0
  0
VERTEX
  5
6D
330
6B
100
AcDbEntity
  8
_U+30EC_U+30A4_U+30E4_U+30FC 1
 62
     7
420
 16777215
370
    25
100
AcDbVertex
100
AcDb2dVertex
 10
81.78760985786869
 20
-136.3103699659227
 30
0.0
  0
SEQEND
  5
6E
330
6B
100
AcDbEntity
  8
_U+30EC_U+30A4_U+30E4_U+30FC 1
 62
     7
420
 16777215
370
    25
  0
POLYLINE
  5
6F
330
1F
100
AcDbEntity
  8
_U+30EC_U+30A4_U+30E4_U+30FC 1
 62
     7
420
 16777215
370
    25
100
AcDb2dPolyline
 66
     1
 10
0.0
 20
0.0
 30
0.0
  0
VERTEX
  5
70
330
6F
100
AcDbEntity
  8
_U+30EC_U+30A4_U+30E4_U+30FC 1
 62
     7
420
 16777215
370
    25
100
AcDbVertex
100
AcDb2dVertex
 10
80.93872071285898
 20
-135.4621863550236
 30
0.0
  0
VERTEX
  5
71
330
6F
100
AcDbEntity
  8
_U+30EC_U+30A4_U+30E4_U+30FC 1
 62
     7
420
 16777215
370
    25
100
AcDbVertex
100
AcDb2dVertex
 10
79.65577380114524
 20
-134.1795921886773
 30
0.0
  0
SEQEND
  5
72
330
6F
100
AcDbEntity
  8
_U+30EC_U+30A4_U+30E4_U+30FC 1
 62
     7
420
 16777215
370
    25
  0
POLYLINE
  5
73
330
1F
100
AcDbEntity
  8
_U+30EC_U+30A4_U+30E4_U+30FC 1
 62
     7
420
 16777215
370
    25
100
AcDb2dPolyline
 66
     1
 10
0.0
 20
0.0
 30
0.0
  0
VERTEX
  5
74
330
73
100
AcDbEntity
  8
_U+30EC_U+30A4_U+30E4_U+30FC 1
 62
     7
420
 16777215
370
    25
100
AcDbVertex
100
AcDb2dVertex
 10
82.65576066905365
 20
-138.5930891320186
 30
0.0
  0
VERTEX
  5
75
330
73
100
AcDbEntity
  8
_U+30EC_U+30A4_U+30E4_U+30FC 1
 62
     7
420
 16777215
370
    25
100
AcDbVertex
100
AcDb2dVertex
 10
102.1560457271155
 20
-138.5930891320186
 30
0.0
  0
SEQEND
  5
76
330
73
100
AcDbEntity
  8
_U+30EC_U+30A4_U+30E4_U+30FC 1
 62
     7
420
 16777215
370
    25
  0
POLYLINE
  5
77
330
1F
100
AcDbEntity
  8
_U+30EC_U+30A4_U+30E4_U+30FC 1
 62
     7
420
 16777215
370
    25
100
AcDb2dPolyline
 66
     1
 10
0.0
 20
0.0
 30
0.0
  0
VERTEX
  5
78
330
77
100
AcDbEntity
  8
_U+30EC_U+30A4_U+30E4_U+30FC 1
 62
     7
420
 16777215
370
    25
100
AcDbVertex
100
AcDb2dVertex
 10
80.93872071285898
 20
-135.4621863550236
 30
0.0
  0
VERTEX
  5
79
330
77
100
AcDbEntity
  8
_U+30EC_U+30A4_U+30E4_U+30FC 1
 62
     7
420
 16777215
370
    25
100
AcDbVertex
100
AcDb2dVertex
 10
84.15577174189629
 20
-132.2454880224942
 30
0.0
  0
SEQEND
  5
7A
330
77
100
AcDbEntity
  8
_U+30EC_U+30A4_U+30E4_U+30FC 1
 62
     7
420
 16777215
370
    25
  0
POLYLINE
  5
7B
330
1F
100
AcDbEntity
  8
_U+30EC_U+30A4_U+30E4_U+30FC 1
 62
     7
420
 16777215
370
    25
100
AcDb2dPolyline
 66
     1
 10
0.0
 20
0.0
 30
0.0
  0
VERTEX
  5
7C
330
7B
100
AcDbEntity
  8
_U+30EC_U+30A4_U+30E4_U+30FC 1
 62
     7
420
 16777215
370
    25
100
AcDbVertex
100
AcDb2dVertex
 10
81.78760985786869
 20
-136.3103699659227
 30
0.0
  0
VERTEX
  5
7D
330
7B
100
AcDbEntity
  8
_U+30EC_U+30A4_U+30E4_U+30FC 1
 62
     7
420
 16777215
370
    25
100
AcDbVertex
100
AcDb2dVertex
 10
85.00462775652649
 20
-133.0936716333933
 30
0.0
  0
SEQEND
  5
7E
330
7B
100
AcDbEntity
  8
_U+30EC_U+30A4_U+30E4_U+30FC 1
 62
     7
420
 16777215
370
    25
  0
POLYLINE
  5
7F
330
1F
100
AcDbEntity
  8
_U+30EC_U+30A4_U+30E4_U+30FC 1
 62
     7
420
 16777215
370
    25
100
AcDb2dPolyline
 66
     1
 10
0.0
 20
0.0
 30
0.0
  0
VERTEX
  5
80
330
7F
100
AcDbEntity
  8
_U+30EC_U+30A4_U+30E4_U+30FC 1
 62
     7
420
 16777215
370
    25
100
AcDbVertex
100
AcDb2dVertex
 10
92.15631292667436
 20
-132.5934680224071
 30
0.0
  0
VERTEX
  5
81
330
7F
100
AcDbEntity
  8
_U+30EC_U+30A4_U+30E4_U+30FC 1
 62
     7
420
 16777215
370
    25
100
AcDbVertex
100
AcDb2dVertex
 10
92.15631292667436
 20
-133.0936716333933
 30
0.0
  0
SEQEND
  5
82
330
7F
100
AcDbEntity
  8
_U+30EC_U+30A4_U+30E4_U+30FC 1
 62
     7
420
 16777215
370
    25
  0
POLYLINE
  5
83
330
1F
100
AcDbEntity
  8
_U+30EC_U+30A4_U+30E4_U+30FC 1
 62
     7
420
 16777215
370
    25
100
AcDb2dPolyline
 66
     1
 10
0.0
 20
0.0
 30
0.0
  0
VERTEX
  5
84
330
83
100
AcDbEntity
  8
_U+30EC_U+30A4_U+30E4_U+30FC 1
 62
     7
420
 16777215
370
    25
100
AcDbVertex
100
AcDb2dVertex
 10
84.15577174189629
 20
-125.0934830242821
 30
0.0
  0
VERTEX
  5
85
330
83
100
AcDbEntity
  8
_U+30EC_U+30A4_U+30E4_U+30FC 1
 62
     7
420
 16777215
370
    25
100
AcDbVertex
100
AcDb2dVertex
 10
84.65597534024614
 20
-125.0934830242821
 30
0.0
  0
SEQEND
  5
86
330
83
100
AcDbEntity
  8
_U+30EC_U+30A4_U+30E4_U+30FC 1
 62
     7
420
 16777215
370
    25
  0
POLYLINE
  5
87
330
1F
100
AcDbEntity
  8
_U+30EC_U+30A4_U+30E4_U+30FC 1
 62
     7
420
 16777215
370
    25
100
AcDb2dPolyline
 66
     1
 10
0.0
 20
0.0
 30
0.0
  0
VERTEX
  5
88
330
87
100
AcDbEntity
  8
_U+30EC_U+30A4_U+30E4_U+30FC 1
 62
     7
420
 16777215
370
    25
100
AcDbVertex
100
AcDb2dVertex
 10
85.15621421637287
 20
-132.0939346891989
 30
0.0
  0
VERTEX
  5
89
330
87
100
AcDbEntity
  8
_U+30EC_U+30A4_U+30E4_U+30FC 1
 62
     7
420
 16777215
370
    25
100
AcDbVertex
100
AcDb2dVertex
 10
90.1555690888287
 20
-132.0939346891989
 30
0.0
  0
SEQEND
  5
8A
330
87
100
AcDbEntity
  8
_U+30EC_U+30A4_U+30E4_U+30FC 1
 62
     7
420
 16777215
370
    25
  0
POLYLINE
  5
8B
330
1F
100
AcDbEntity
  8
_U+30EC_U+30A4_U+30E4_U+30FC 1
 62
     7
420
 16777215
370
    25
100
AcDb2dPolyline
 66
     1
 10
0.0
 20
0.0
 30
0.0
  0
VERTEX
  5
8C
330
8B
100
AcDbEntity
  8
_U+30EC_U+30A4_U+30E4_U+30FC 1
 62
     7
420
 16777215
370
    25
100
AcDbVertex
100
AcDb2dVertex
 10
85.15621421637287
 20
-127.0936977460043
 30
0.0
  0
VERTEX
  5
8D
330
8B
100
AcDbEntity
  8
_U+30EC_U+30A4_U+30E4_U+30FC 1
 62
     7
420
 16777215
370
    25
100
AcDbVertex
100
AcDb2dVertex
 10
85.15621421637287
 20
-132.0939346891989
 30
0.0
  0
SEQEND
  5
8E
330
8B
100
AcDbEntity
  8
_U+30EC_U+30A4_U+30E4_U+30FC 1
 62
     7
420
 16777215
370
    25
  0
POLYLINE
  5
8F
330
1F
100
AcDbEntity
  8
_U+30EC_U+30A4_U+30E4_U+30FC 1
 62
     7
420
 16777215
370
    25
100
AcDb2dPolyline
 66
     1
 10
0.0
 20
0.0
 30
0.0
  0
VERTEX
  5
90
330
8F
100
AcDbEntity
  8
_U+30EC_U+30A4_U+30E4_U+30FC 1
 62
     7
420
 16777215
370
    25
100
AcDbVertex
100
AcDb2dVertex
 10
85.15621421637287
 20
-127.0936977460043
 30
0.0
  0
VERTEX
  5
91
330
8F
100
AcDbEntity
  8
_U+30EC_U+30A4_U+30E4_U+30FC 1
 62
     7
420
 16777215
370
    25
100
AcDbVertex
100
AcDb2dVertex
 10
84.65597534024614
 20
-125.0934830242821
 30
0.0
  0
SEQEND
  5
92
330
8F
100
AcDbEntity
  8
_U+30EC_U+30A4_U+30E4_U+30FC 1
 62
     7
420
 16777215
370
    25
  0
POLYLINE
  5
93
330
1F
100
AcDbEntity
  8
_U+30EC_U+30A4_U+30E4_U+30FC 1
 62
     7
420
 16777215
370
    25
100
AcDb2dPolyline
 66
     1
 10
0.0
 20
0.0
 30
0.0
  0
VERTEX
  5
94
330
93
100
AcDbEntity
  8
_U+30EC_U+30A4_U+30E4_U+30FC 1
 62
     7
420
 16777215
370
    25
100
AcDbVertex
100
AcDb2dVertex
 10
90.1555690888287
 20
-132.0939346891989
 30
0.0
  0
VERTEX
  5
95
330
93
100
AcDbEntity
  8
_U+30EC_U+30A4_U+30E4_U+30FC 1
 62
     7
420
 16777215
370
    25
100
AcDbVertex
100
AcDb2dVertex
 10
92.15631292667436
 20
-132.5934680224071
 30
0.0
  0
SEQEND
  5
96
330
93
100
AcDbEntity
  8
_U+30EC_U+30A4_U+30E4_U+30FC 1
 62
     7
420
 16777215
370
    25
  0
SPLINE
  5
97
330
1F
100
AcDbEntity
  8
_U+30EC_U+30A4_U+30E4_U+30FC 1
 62
     7
420
 16777215
370
    25
100
AcDbSpline
210
0.0
220
0.0
230
1.0
 70
     8
 71
     3
 72
     8
 73
     4
 74
     0
 42
0.0000000001
 43
0.0000000001
 12
1.0
 22
0.0
 32
0.0
 13
1.0
 23
0.0
 33
0.0
 40
0.0
 40
0.0
 40
0.0
 40
0.0
 40
1.0
 40
1.0
 40
1.0
 40
1.0
 10
79.15624048055606
 20
-120.5934849698515
 30
0.0
 10
79.15624048055606
 20
-120.3171894143651
 30
0.0
 10
78.932297152936
 20
-120.0939516366434
 30
0.0
 10
78.65600160442933
 20
-120.0939516366434
 30
0.0
  0
SPLINE
  5
98
330
1F
100
AcDbEntity
  8
_U+30EC_U+30A4_U+30E4_U+30FC 1
 62
     7
420
 16777215
370
    25
100
AcDbSpline
210
0.0
220
0.0
230
1.0
 70
     8
 71
     3
 72
     8
 73
     4
 74
     0
 42
0.0000000001
 43
0.0000000001
 12
1.0
 22
0.0
 32
0.0
 13
1.0
 23
0.0
 33
0.0
 40
0.0
 40
0.0
 40
0.0
 40
0.0
 40
1.0
 40
1.0
 40
1.0
 40
1.0
 10
102.1560457271155
 20
-138.5930891320186
 30
0.0
 10
102.1560457271155
 20
-138.3174991320871
 30
0.0
 10
101.932807955033
 20
-138.0935557988098
 30
0.0
 10
101.6565124065263
 20
-138.0935557988098
 30
0.0
  0
SPLINE
  5
99
330
1F
100
AcDbEntity
  8
_U+30EC_U+30A4_U+30E4_U+30FC 1
 62
     7
420
 16777215
370
     9
100
AcDbSpline
210
0.0
220
0.0
230
1.0
 70
    11
 71
     3
 72
    17
 73
    13
 74
     0
 42
0.0000000001
 43
0.0000000001
 12
1.0
 22
0.0
 32
0.0
 13
1.0
 23
0.0
 33
0.0
 40
0.0
 40
0.0
 40
0.0
 40
0.0
 40
1.0
 40
1.0
 40
1.0
 40
2.0
 40
2.0
 40
2.0
 40
3.0
 40
3.0
 40
3.0
 40
4.0
 40
4.0
 40
4.0
 40
4.0
 10
74.75614920392286
 20
-120.0939516366434
 30
0.0
 10
74.75614920392286
 20
-120.0381421922126
 30
0.0
 10
74.71138170506497
 20
-119.993374692224
 30
0.0
 10
74.65624442578032
 20
-119.993374692224
 30
0.0
 10
74.60078587455317
 20
-119.993374692224
 30
0.0
 10
74.55598309791841
 20
-120.0381421922126
 30
0.0
 10
74.55598309791841
 20
-120.0939516366434
 30
0.0
 10
74.55598309791841
 20
-120.1490908032961
 30
0.0
 10
74.60078587455317
 20
-120.193858303285
 30
0.0
 10
74.65624442578032
 20
-120.193858303285
 30
0.0
 10
74.71138170506497
 20
-120.193858303285
 30
0.0
 10
74.75614920392286
 20
-120.1490908032961
 30
0.0
 10
74.75614920392286
 20
-120.0939516366434
 30
0.0
  0
SPLINE
  5
9A
330
1F
100
AcDbEntity
  8
_U+30EC_U+30A4_U+30E4_U+30FC 1
 62
     7
420
 16777215
370
     9
100
AcDbSpline
210
0.0
220
0.0
230
1.0
 70
    11
 71
     3
 72
    17
 73
    13
 74
     0
 42
0.0000000001
 43
0.0000000001
 12
1.0
 22
0.0
 32
0.0
 13
1.0
 23
0.0
 33
0.0
 40
0.0
 40
0.0
 40
0.0
 40
0.0
 40
1.0
 40
1.0
 40
1.0
 40
2.0
 40
2.0
 40
2.0
 40
3.0
 40
3.0
 40
3.0
 40
4.0
 40
4.0
 40
4.0
 40
4.0
 10
79.75603324303185
 20
-116.0935221931988
 30
0.0
 10
79.75603324303185
 20
-116.038383026546
 30
0.0
 10
79.71123046639708
 20
-115.9936155265572
 30
0.0
 10
79.65577380114524
 20
-115.9936155265572
 30
0.0
 10
79.60063463588529
 20
-115.9936155265572
 30
0.0
 10
79.5558671370274
 20
-116.038383026546
 30
0.0
 10
79.5558671370274
 20
-116.0935221931988
 30
0.0
 10
79.5558671370274
 20
-116.148626082074
 30
0.0
 10
79.60063463588529
 20
-116.1934288598404
 30
0.0
 10
79.65577380114524
 20
-116.1934288598404
 30
0.0
 10
79.71123046639708
 20
-116.1934288598404
 30
0.0
 10
79.75603324303185
 20
-116.148626082074
 30
0.0
 10
79.75603324303185
 20
-116.0935221931988
 30
0.0
  0
SPLINE
  5
9B
330
1F
100
AcDbEntity
  8
_U+30EC_U+30A4_U+30E4_U+30FC 1
 62
     7
420
 16777215
370
     9
100
AcDbSpline
210
0.0
220
0.0
230
1.0
 70
    11
 71
     3
 72
    17
 73
    13
 74
     0
 42
0.0000000001
 43
0.0000000001
 12
1.0
 22
0.0
 32
0.0
 13
1.0
 23
0.0
 33
0.0
 40
0.0
 40
0.0
 40
0.0
 40
0.0
 40
1.0
 40
1.0
 40
1.0
 40
2.0
 40
2.0
 40
2.0
 40
3.0
 40
3.0
 40
3.0
 40
4.0
 40
4.0
 40
4.0
 40
4.0
 10
84.25568053449165
 20
-116.0935221931988
 30
0.0
 10
84.25568053449165
 20
-116.038383026546
 30
0.0
 10
84.21158331228045
 20
-115.9936155265572
 30
0.0
 10
84.15577174189629
 20
-115.9936155265572
 30
0.0
 10
84.10063257663633
 20
-115.9936155265572
 30
0.0
 10
84.05586507777845
 20
-116.038383026546
 30
0.0
 10
84.05586507777845
 20
-116.0935221931988
 30
0.0
 10
84.05586507777845
 20
-116.148626082074
 30
0.0
 10
84.10063257663633
 20
-116.1934288598404
 30
0.0
 10
84.15577174189629
 20
-116.1934288598404
 30
0.0
 10
84.21158331228045
 20
-116.1934288598404
 30
0.0
 10
84.25568053449165
 20
-116.148626082074
 30
0.0
 10
84.25568053449165
 20
-116.0935221931988
 30
0.0
  0
SPLINE
  5
9C
330
1F
100
AcDbEntity
  8
_U+30EC_U+30A4_U+30E4_U+30FC 1
 62
     7
420
 16777215
370
     9
100
AcDbSpline
210
0.0
220
0.0
230
1.0
 70
    11
 71
     3
 72
    17
 73
    13
 74
     0
 42
0.0000000001
 43
0.0000000001
 12
1.0
 22
0.0
 32
0.0
 13
1.0
 23
0.0
 33
0.0
 40
0.0
 40
0.0
 40
0.0
 40
0.0
 40
1.0
 40
1.0
 40
1.0
 40
2.0
 40
2.0
 40
2.0
 40
3.0
 40
3.0
 40
3.0
 40
4.0
 40
4.0
 40
4.0
 40
4.0
 10
92.2562195907922
 20
-116.0935221931988
 30
0.0
 10
92.2562195907922
 20
-116.038383026546
 30
0.0
 10
92.21141681415743
 20
-115.9936155265572
 30
0.0
 10
92.15631292667436
 20
-115.9936155265572
 30
0.0
 10
92.10117376141442
 20
-115.9936155265572
 30
0.0
 10
92.05640626255652
 20
-116.038383026546
 30
0.0
 10
92.05640626255652
 20
-116.0935221931988
 30
0.0
 10
92.05640626255652
 20
-116.148626082074
 30
0.0
 10
92.10117376141442
 20
-116.1934288598404
 30
0.0
 10
92.15631292667436
 20
-116.1934288598404
 30
0.0
 10
92.21141681415743
 20
-116.1934288598404
 30
0.0
 10
92.2562195907922
 20
-116.148626082074
 30
0.0
 10
92.2562195907922
 20
-116.0935221931988
 30
0.0
  0
SPLINE
  5
9D
330
1F
100
AcDbEntity
  8
_U+30EC_U+30A4_U+30E4_U+30FC 1
 62
     7
420
 16777215
370
     9
100
AcDbSpline
210
0.0
220
0.0
230
1.0
 70
    11
 71
     3
 72
    17
 73
    13
 74
     0
 42
0.0000000001
 43
0.0000000001
 12
1.0
 22
0.0
 32
0.0
 13
1.0
 23
0.0
 33
0.0
 40
0.0
 40
0.0
 40
0.0
 40
0.0
 40
1.0
 40
1.0
 40
1.0
 40
2.0
 40
2.0
 40
2.0
 40
3.0
 40
3.0
 40
3.0
 40
4.0
 40
4.0
 40
4.0
 40
4.0
 10
106.2563817336183
 20
-125.0934830242821
 30
0.0
 10
106.2563817336183
 20
-125.0383791354072
 30
0.0
 10
106.2116142347604
 20
-124.9935763576405
 30
0.0
 10
106.1564777512384
 20
-124.9935763576405
 30
0.0
 10
106.1013711820174
 20
-124.9935763576405
 30
0.0
 10
106.0565684053826
 20
-125.0383791354072
 30
0.0
 10
106.0565684053826
 20
-125.0934830242821
 30
0.0
 10
106.0565684053826
 20
-125.1486221909352
 30
0.0
 10
106.1013711820174
 20
-125.1933896909238
 30
0.0
 10
106.1564777512384
 20
-125.1933896909238
 30
0.0
 10
106.2116142347604
 20
-125.1933896909238
 30
0.0
 10
106.2563817336183
 20
-125.1486221909352
 30
0.0
 10
106.2563817336183
 20
-125.0934830242821
 30
0.0
  0
SPLINE
  5
9E
330
1F
100
AcDbEntity
  8
_U+30EC_U+30A4_U+30E4_U+30FC 1
 62
     7
420
 16777215
370
     9
100
AcDbSpline
210
0.0
220
0.0
230
1.0
 70
    11
 71
     3
 72
    17
 73
    13
 74
     0
 42
0.0000000001
 43
0.0000000001
 12
1.0
 22
0.0
 32
0.0
 13
1.0
 23
0.0
 33
0.0
 40
0.0
 40
0.0
 40
0.0
 40
0.0
 40
1.0
 40
1.0
 40
1.0
 40
2.0
 40
2.0
 40
2.0
 40
3.0
 40
3.0
 40
3.0
 40
4.0
 40
4.0
 40
4.0
 40
4.0
 10
106.2563817336183
 20
-133.0936716333933
 30
0.0
 10
106.2563817336183
 20
-133.0385677445184
 30
0.0
 10
106.2116142347604
 20
-132.9937649667516
 30
0.0
 10
106.1564777512384
 20
-132.9937649667516
 30
0.0
 10
106.1013711820174
 20
-132.9937649667516
 30
0.0
 10
106.0565684053826
 20
-133.0385677445184
 30
0.0
 10
106.0565684053826
 20
-133.0936716333933
 30
0.0
 10
106.0565684053826
 20
-133.1488108000463
 30
0.0
 10
106.1013711820174
 20
-133.1935783000349
 30
0.0
 10
106.1564777512384
 20
-133.1935783000349
 30
0.0
 10
106.2116142347604
 20
-133.1935783000349
 30
0.0
 10
106.2563817336183
 20
-133.1488108000463
 30
0.0
 10
106.2563817336183
 20
-133.0936716333933
 30
0.0
  0
SPLINE
  5
9F
330
1F
100
AcDbEntity
  8
_U+30EC_U+30A4_U+30E4_U+30FC 1
 62
     7
420
 16777215
370
     9
100
AcDbSpline
210
0.0
220
0.0
230
1.0
 70
    11
 71
     3
 72
    17
 73
    13
 74
     0
 42
0.0000000001
 43
0.0000000001
 12
1.0
 22
0.0
 32
0.0
 13
1.0
 23
0.0
 33
0.0
 40
0.0
 40
0.0
 40
0.0
 40
0.0
 40
1.0
 40
1.0
 40
1.0
 40
2.0
 40
2.0
 40
2.0
 40
3.0
 40
3.0
 40
3.0
 40
4.0
 40
4.0
 40
4.0
 40
4.0
 10
106.2563817336183
 20
-137.5933169100461
 30
0.0
 10
106.2563817336183
 20
-137.5382130211712
 30
0.0
 10
106.2116142347604
 20
-137.4934102434045
 30
0.0
 10
106.1564777512384
 20
-137.4934102434045
 30
0.0
 10
106.1013711820174
 20
-137.4934102434045
 30
0.0
 10
106.0565684053826
 20
-137.5382130211712
 30
0.0
 10
106.0565684053826
 20
-137.5933169100461
 30
0.0
 10
106.0565684053826
 20
-137.6484560766992
 30
0.0
 10
106.1013711820174
 20
-137.6932235766877
 30
0.0
 10
106.1564777512384
 20
-137.6932235766877
 30
0.0
 10
106.2116142347604
 20
-137.6932235766877
 30
0.0
 10
106.2563817336183
 20
-137.6484560766992
 30
0.0
 10
106.2563817336183
 20
-137.5933169100461
 30
0.0
  0
SPLINE
  5
A0
330
1F
100
AcDbEntity
  8
_U+30EC_U+30A4_U+30E4_U+30FC 1
 62
     7
420
 16777215
370
     9
100
AcDbSpline
210
0.0
220
0.0
230
1.0
 70
    11
 71
     3
 72
    17
 73
    13
 74
     0
 42
0.0000000001
 43
0.0000000001
 12
1.0
 22
0.0
 32
0.0
 13
1.0
 23
0.0
 33
0.0
 40
0.0
 40
0.0
 40
0.0
 40
0.0
 40
1.0
 40
1.0
 40
1.0
 40
2.0
 40
2.0
 40
2.0
 40
3.0
 40
3.0
 40
3.0
 40
4.0
 40
4.0
 40
4.0
 40
4.0
 10
102.256622668994
 20
-142.5935185754629
 30
0.0
 10
102.256622668994
 20
-142.5384146865873
 30
0.0
 10
102.2118551701361
 20
-142.4936119088213
 30
0.0
 10
102.1560457271155
 20
-142.4936119088213
 30
0.0
 10
102.1009065618555
 20
-142.4936119088213
 30
0.0
 10
102.0561416411525
 20
-142.5384146865873
 30
0.0
 10
102.0561416411525
 20
-142.5935185754629
 30
0.0
 10
102.0561416411525
 20
-142.6486577421153
 30
0.0
 10
102.1009065618555
 20
-142.6934605198821
 30
0.0
 10
102.1560457271155
 20
-142.6934605198821
 30
0.0
 10
102.2118551701361
 20
-142.6934605198821
 30
0.0
 10
102.256622668994
 20
-142.6486577421153
 30
0.0
 10
102.256622668994
 20
-142.5935185754629
 30
0.0
  0
SPLINE
  5
A1
330
1F
100
AcDbEntity
  8
_U+30EC_U+30A4_U+30E4_U+30FC 1
 62
     7
420
 16777215
370
     9
100
AcDbSpline
210
0.0
220
0.0
230
1.0
 70
    11
 71
     3
 72
    17
 73
    13
 74
     0
 42
0.0000000001
 43
0.0000000001
 12
1.0
 22
0.0
 32
0.0
 13
1.0
 23
0.0
 33
0.0
 40
0.0
 40
0.0
 40
0.0
 40
0.0
 40
1.0
 40
1.0
 40
1.0
 40
2.0
 40
2.0
 40
2.0
 40
3.0
 40
3.0
 40
3.0
 40
4.0
 40
4.0
 40
4.0
 40
4.0
 10
74.75614920392286
 20
-138.5930891320186
 30
0.0
 10
74.75614920392286
 20
-138.5379852431431
 30
0.0
 10
74.71138170506497
 20
-138.493182465377
 30
0.0
 10
74.65624442578032
 20
-138.493182465377
 30
0.0
 10
74.60078587455317
 20
-138.493182465377
 30
0.0
 10
74.55598309791841
 20
-138.5379852431431
 30
0.0
 10
74.55598309791841
 20
-138.5930891320186
 30
0.0
 10
74.55598309791841
 20
-138.6488985764491
 30
0.0
 10
74.60078587455317
 20
-138.6929957986603
 30
0.0
 10
74.65624442578032
 20
-138.6929957986603
 30
0.0
 10
74.71138170506497
 20
-138.6929957986603
 30
0.0
 10
74.75614920392286
 20
-138.6488985764491
 30
0.0
 10
74.75614920392286
 20
-138.5930891320186
 30
0.0
  0
SPLINE
  5
A2
330
1F
100
AcDbEntity
  8
_U+30EC_U+30A4_U+30E4_U+30FC 1
 62
     7
420
 16777215
370
     9
100
AcDbSpline
210
0.0
220
0.0
230
1.0
 70
    11
 71
     3
 72
    17
 73
    13
 74
     0
 42
0.0000000001
 43
0.0000000001
 12
1.0
 22
0.0
 32
0.0
 13
1.0
 23
0.0
 33
0.0
 40
0.0
 40
0.0
 40
0.0
 40
0.0
 40
1.0
 40
1.0
 40
1.0
 40
2.0
 40
2.0
 40
2.0
 40
3.0
 40
3.0
 40
3.0
 40
4.0
 40
4.0
 40
4.0
 40
4.0
 10
78.75590826854717
 20
-142.5935185754629
 30
0.0
 10
78.75590826854717
 20
-142.5384146865873
 30
0.0
 10
78.71114076968928
 20
-142.4936119088213
 30
0.0
 10
78.65600160442933
 20
-142.4936119088213
 30
0.0
 10
78.60089771694626
 20
-142.4936119088213
 30
0.0
 10
78.5560949403115
 20
-142.5384146865873
 30
0.0
 10
78.5560949403115
 20
-142.5935185754629
 30
0.0
 10
78.5560949403115
 20
-142.6486577421153
 30
0.0
 10
78.60089771694626
 20
-142.6934605198821
 30
0.0
 10
78.65600160442933
 20
-142.6934605198821
 30
0.0
 10
78.71114076968928
 20
-142.6934605198821
 30
0.0
 10
78.75590826854717
 20
-142.6486577421153
 30
0.0
 10
78.75590826854717
 20
-142.5935185754629
 30
0.0
  0
POLYLINE
  5
A3
330
1F
100
AcDbEntity
  8
_U+30EC_U+30A4_U+30E4_U+30FC 1
 62
     7
420
 16777215
370
     9
100
AcDb2dPolyline
 66
     1
 10
0.0
 20
0.0
 30
0.0
  0
VERTEX
  5
A4
330
A3
100
AcDbEntity
  8
_U+30EC_U+30A4_U+30E4_U+30FC 1
 62
     7
420
 16777215
370
     9
100
AcDbVertex
100
AcDb2dVertex
 10
84.15577174189629
 20
-116.0935221931988
 30
0.0
  0
VERTEX
  5
A5
330
A3
100
AcDbEntity
  8
_U+30EC_U+30A4_U+30E4_U+30FC 1
 62
     7
420
 16777215
370
     9
100
AcDbVertex
100
AcDb2dVertex
 10
92.15631292667436
 20
-116.0935221931988
 30
0.0
  0
SEQEND
  5
A6
330
A3
100
AcDbEntity
  8
_U+30EC_U+30A4_U+30E4_U+30FC 1
 62
     7
420
 16777215
370
     9
  0
POLYLINE
  5
A7
330
1F
100
AcDbEntity
  8
_U+30EC_U+30A4_U+30E4_U+30FC 1
 62
     7
420
 16777215
370
     9
100
AcDb2dPolyline
 66
     1
 10
0.0
 20
0.0
 30
0.0
  0
VERTEX
  5
A8
330
A7
100
AcDbEntity
  8
_U+30EC_U+30A4_U+30E4_U+30FC 1
 62
     7
420
 16777215
370
     9
100
AcDbVertex
100
AcDb2dVertex
 10
92.15631292667436
 20
-130.0089474674978
 30
0.0
  0
VERTEX
  5
A9
330
A7
100
AcDbEntity
  8
_U+30EC_U+30A4_U+30E4_U+30FC 1
 62
     7
420
 16777215
370
     9
100
AcDbVertex
100
AcDb2dVertex
 10
92.15631292667436
 20
-115.0937499712266
 30
0.0
  0
SEQEND
  5
AA
330
A7
100
AcDbEntity
  8
_U+30EC_U+30A4_U+30E4_U+30FC 1
 62
     7
420
 16777215
370
     9
  0
INSERT
  5
AC
330
1F
100
AcDbEntity
  8
_U+30EC_U+30A4_U+30E4_U+30FC 1
100
AcDbBlockReference
  2
block 2
 10
0.0
 20
0.0
 30
0.0
  0
POLYLINE
  5
B1
330
1F
100
AcDbEntity
  8
_U+30EC_U+30A4_U+30E4_U+30FC 1
 62
     7
420
 16777215
370
     9
100
AcDb2dPolyline
 66
     1
 10
0.0
 20
0.0
 30
0.0
  0
VERTEX
  5
B2
330
B1
100
AcDbEntity
  8
_U+30EC_U+30A4_U+30E4_U+30FC 1
 62
     7
420
 16777215
370
     9
100
AcDbVertex
100
AcDb2dVertex
 10
106.1564777512384
 20
-133.0936716333933
 30
0.0
  0
VERTEX
  5
B3
330
B1
100
AcDbEntity
  8
_U+30EC_U+30A4_U+30E4_U+30FC 1
 62
     7
420
 16777215
370
     9
100
AcDbVertex
100
AcDb2dVertex
 10
106.1564777512384
 20
-125.0934830242821
 30
0.0
  0
SEQEND
  5
B4
330
B1
100
AcDbEntity
  8
_U+30EC_U+30A4_U+30E4_U+30FC 1
 62
     7
420
 16777215
370
     9
  0
POLYLINE
  5
B5
330
1F
100
AcDbEntity
  8
_U+30EC_U+30A4_U+30E4_U+30FC 1
 62
     7
420
 16777215
370
     9
100
AcDb2dPolyline
 66
     1
 10
0.0
 20
0.0
 30
0.0
  0
VERTEX
  5
B6
330
B5
100
AcDbEntity
  8
_U+30EC_U+30A4_U+30E4_U+30FC 1
 62
     7
420
 16777215
370
     9
100
AcDbVertex
100
AcDb2dVertex
 10
87.24049582986508
 20
-125.0934830242821
 30
0.0
  0
VERTEX
  5
B7
330
B5
100
AcDbEntity
  8
_U+30EC_U+30A4_U+30E4_U+30FC 1
 62
     7
420
 16777215
370
     9
100
AcDbVertex
100
AcDb2dVertex
 10
107.1562499732109
 20
-125.0934830242821
 30
0.0
  0
SEQEND
  5
B8
330
B5
100
AcDbEntity
  8
_U+30EC_U+30A4_U+30E4_U+30FC 1
 62
     7
420
 16777215
370
     9
  0
INSERT
  5
BA
330
1F
100
AcDbEntity
  8
_U+30EC_U+30A4_U+30E4_U+30FC 1
100
AcDbBlockReference
  2
block 3
 10
0.0
 20
0.0
 30
0.0
  0
POLYLINE
  5
BF
330
1F
100
AcDbEntity
  8
_U+30EC_U+30A4_U+30E4_U+30FC 1
 62
     7
420
 16777215
370
     9
100
AcDb2dPolyline
 66
     1
 10
0.0
 20
0.0
 30
0.0
  0
VERTEX
  5
C0
330
BF
100
AcDbEntity
  8
_U+30EC_U+30A4_U+30E4_U+30FC 1
 62
     7
420
 16777215
370
     9
100
AcDbVertex
100
AcDb2dVertex
 10
79.65577380114524
 20
-116.0935221931988
 30
0.0
  0
VERTEX
  5
C1
330
BF
100
AcDbEntity
  8
_U+30EC_U+30A4_U+30E4_U+30FC 1
 62
     7
420
 16777215
370
     9
100
AcDbVertex
100
AcDb2dVertex
 10
84.15577174189629
 20
-116.0935221931988
 30
0.0
  0
SEQEND
  5
C2
330
BF
100
AcDbEntity
  8
_U+30EC_U+30A4_U+30E4_U+30FC 1
 62
     7
420
 16777215
370
     9
  0
POLYLINE
  5
C3
330
1F
100
AcDbEntity
  8
_U+30EC_U+30A4_U+30E4_U+30FC 1
 62
     7
420
 16777215
370
     9
100
AcDb2dPolyline
 66
     1
 10
0.0
 20
0.0
 30
0.0
  0
VERTEX
  5
C4
330
C3
100
AcDbEntity
  8
_U+30EC_U+30A4_U+30E4_U+30FC 1
 62
     7
420
 16777215
370
     9
100
AcDbVertex
100
AcDb2dVertex
 10
79.65577380114524
 20
-123.9276583023515
 30
0.0
  0
VERTEX
  5
C5
330
C3
100
AcDbEntity
  8
_U+30EC_U+30A4_U+30E4_U+30FC 1
 62
     7
420
 16777215
370
     9
100
AcDbVertex
100
AcDb2dVertex
 10
79.65577380114524
 20
-115.0937499712266
 30
0.0
  0
SEQEND
  5
C6
330
C3
100
AcDbEntity
  8
_U+30EC_U+30A4_U+30E4_U+30FC 1
 62
     7
420
 16777215
370
     9
  0
POLYLINE
  5
C7
330
1F
100
AcDbEntity
  8
_U+30EC_U+30A4_U+30E4_U+30FC 1
 62
     7
420
 16777215
370
     9
100
AcDb2dPolyline
 66
     1
 10
0.0
 20
0.0
 30
0.0
  0
VERTEX
  5
C8
330
C7
100
AcDbEntity
  8
_U+30EC_U+30A4_U+30E4_U+30FC 1
 62
     7
420
 16777215
370
     9
100
AcDbVertex
100
AcDb2dVertex
 10
84.15577174189629
 20
-122.5537652471393
 30
0.0
  0
VERTEX
  5
C9
330
C7
100
AcDbEntity
  8
_U+30EC_U+30A4_U+30E4_U+30FC 1
 62
     7
420
 16777215
370
     9
100
AcDbVertex
100
AcDb2dVertex
 10
84.15577174189629
 20
-115.0937499712266
 30
0.0
  0
SEQEND
  5
CA
330
C7
100
AcDbEntity
  8
_U+30EC_U+30A4_U+30E4_U+30FC 1
 62
     7
420
 16777215
370
     9
  0
SPLINE
  5
CB
330
1F
100
AcDbEntity
  8
_U+30EC_U+30A4_U+30E4_U+30FC 1
 62
     7
420
 16777215
370
     9
100
AcDbSpline
210
0.0
220
0.0
230
1.0
 70
    11
 71
     3
 72
    17
 73
    13
 74
     0
 42
0.0000000001
 43
0.0000000001
 12
1.0
 22
0.0
 32
0.0
 13
1.0
 23
0.0
 33
0.0
 40
0.0
 40
0.0
 40
0.0
 40
0.0
 40
1.0
 40
1.0
 40
1.0
 40
2.0
 40
2.0
 40
2.0
 40
3.0
 40
3.0
 40
3.0
 40
4.0
 40
4.0
 40
4.0
 40
4.0
 10
85.25612088049071
 20
-116.0935221931988
 30
0.0
 10
85.25612088049071
 20
-116.038383026546
 30
0.0
 10
85.2120236593935
 20
-115.9936155265572
 30
0.0
 10
85.15621421637287
 20
-115.9936155265572
 30
0.0
 10
85.10107505111291
 20
-115.9936155265572
 30
0.0
 10
85.05630755225503
 20
-116.038383026546
 30
0.0
 10
85.05630755225503
 20
-116.0935221931988
 30
0.0
 10
85.05630755225503
 20
-116.148626082074
 30
0.0
 10
85.10107505111291
 20
-116.1934288598404
 30
0.0
 10
85.15621421637287
 20
-116.1934288598404
 30
0.0
 10
85.2120236593935
 20
-116.1934288598404
 30
0.0
 10
85.25612088049071
 20
-116.148626082074
 30
0.0
 10
85.25612088049071
 20
-116.0935221931988
 30
0.0
  0
POLYLINE
  5
CC
330
1F
100
AcDbEntity
  8
_U+30EC_U+30A4_U+30E4_U+30FC 1
 62
     7
420
 16777215
370
     9
100
AcDb2dPolyline
 66
     1
 10
0.0
 20
0.0
 30
0.0
  0
VERTEX
  5
CD
330
CC
100
AcDbEntity
  8
_U+30EC_U+30A4_U+30E4_U+30FC 1
 62
     7
420
 16777215
370
     9
100
AcDbVertex
100
AcDb2dVertex
 10
85.15621421637287
 20
-122.5537652471393
 30
0.0
  0
VERTEX
  5
CE
330
CC
100
AcDbEntity
  8
_U+30EC_U+30A4_U+30E4_U+30FC 1
 62
     7
420
 16777215
370
     9
100
AcDbVertex
100
AcDb2dVertex
 10
85.15621421637287
 20
-115.0937499712266
 30
0.0
  0
SEQEND
  5
CF
330
CC
100
AcDbEntity
  8
_U+30EC_U+30A4_U+30E4_U+30FC 1
 62
     7
420
 16777215
370
     9
  0
INSERT
  5
D1
330
1F
100
AcDbEntity
  8
_U+30EC_U+30A4_U+30E4_U+30FC 1
100
AcDbBlockReference
  2
block 4
 10
0.0
 20
0.0
 30
0.0
  0
POLYLINE
  5
F3
330
1F
100
AcDbEntity
  8
_U+30EC_U+30A4_U+30E4_U+30FC 1
 62
     7
420
 16777215
370
     9
100
AcDb2dPolyline
 66
     1
 10
0.0
 20
0.0
 30
0.0
  0
VERTEX
  5
F4
330
F3
100
AcDbEntity
  8
_U+30EC_U+30A4_U+30E4_U+30FC 1
 62
     7
420
 16777215
370
     9
100
AcDbVertex
100
AcDb2dVertex
 10
78.65600160442933
 20
-142.5935185754629
 30
0.0
  0
VERTEX
  5
F5
330
F3
100
AcDbEntity
  8
_U+30EC_U+30A4_U+30E4_U+30FC 1
 62
     7
420
 16777215
370
     9
100
AcDbVertex
100
AcDb2dVertex
 10
102.1560457271155
 20
-142.5935185754629
 30
0.0
  0
SEQEND
  5
F6
330
F3
100
AcDbEntity
  8
_U+30EC_U+30A4_U+30E4_U+30FC 1
 62
     7
420
 16777215
370
     9
  0
POLYLINE
  5
F7
330
1F
100
AcDbEntity
  8
_U+30EC_U+30A4_U+30E4_U+30FC 1
 62
     7
420
 16777215
370
     9
100
AcDb2dPolyline
 66
     1
 10
0.0
 20
0.0
 30
0.0
  0
VERTEX
  5
F8
330
F7
100
AcDbEntity
  8
_U+30EC_U+30A4_U+30E4_U+30FC 1
 62
     7
420
 16777215
370
     9
100
AcDbVertex
100
AcDb2dVertex
 10
78.65600160442933
 20
-137.1330477434943
 30
0.0
  0
VERTEX
  5
F9
330
F7
100
AcDbEntity
  8
_U+30EC_U+30A4_U+30E4_U+30FC 1
 62
     7
420
 16777215
370
     9
100
AcDbVertex
100
AcDb2dVertex
 10
78.65600160442933
 20
-143.5932907974348
 30
0.0
  0
SEQEND
  5
FA
330
F7
100
AcDbEntity
  8
_U+30EC_U+30A4_U+30E4_U+30FC 1
 62
     7
420
 16777215
370
     9
  0
POLYLINE
  5
FB
330
1F
100
AcDbEntity
  8
_U+30EC_U+30A4_U+30E4_U+30FC 1
 62
     7
420
 16777215
370
     9
100
AcDb2dPolyline
 66
     1
 10
0.0
 20
0.0
 30
0.0
  0
VERTEX
  5
FC
330
FB
100
AcDbEntity
  8
_U+30EC_U+30A4_U+30E4_U+30FC 1
 62
     7
420
 16777215
370
     9
100
AcDbVertex
100
AcDb2dVertex
 10
102.1560457271155
 20
-141.1335124647167
 30
0.0
  0
VERTEX
  5
FD
330
FB
100
AcDbEntity
  8
_U+30EC_U+30A4_U+30E4_U+30FC 1
 62
     7
420
 16777215
370
     9
100
AcDbVertex
100
AcDb2dVertex
 10
102.1560457271155
 20
-143.5932907974348
 30
0.0
  0
SEQEND
  5
FE
330
FB
100
AcDbEntity
  8
_U+30EC_U+30A4_U+30E4_U+30FC 1
 62
     7
420
 16777215
370
     9
  0
INSERT
  5
100
330
1F
100
AcDbEntity
  8
_U+30EC_U+30A4_U+30E4_U+30FC 1
100
AcDbBlockReference
  2
block 5
 10
0.0
 20
0.0
 30
0.0
  0
POLYLINE
  5
111
330
1F
100
AcDbEntity
  8
_U+30EC_U+30A4_U+30E4_U+30FC 1
 62
     7
420
 16777215
370
     9
100
AcDb2dPolyline
 66
     1
 10
0.0
 20
0.0
 30
0.0
  0
VERTEX
  5
112
330
111
100
AcDbEntity
  8
_U+30EC_U+30A4_U+30E4_U+30FC 1
 62
     7
420
 16777215
370
     9
100
AcDbVertex
100
AcDb2dVertex
 10
106.1564777512384
 20
-137.5933169100461
 30
0.0
  0
VERTEX
  5
113
330
111
100
AcDbEntity
  8
_U+30EC_U+30A4_U+30E4_U+30FC 1
 62
     7
420
 16777215
370
     9
100
AcDbVertex
100
AcDb2dVertex
 10
106.1564777512384
 20
-133.0936716333933
 30
0.0
  0
SEQEND
  5
114
330
111
100
AcDbEntity
  8
_U+30EC_U+30A4_U+30E4_U+30FC 1
 62
     7
420
 16777215
370
     9
  0
POLYLINE
  5
115
330
1F
100
AcDbEntity
  8
_U+30EC_U+30A4_U+30E4_U+30FC 1
 62
     7
420
 16777215
370
     9
100
AcDb2dPolyline
 66
     1
 10
0.0
 20
0.0
 30
0.0
  0
VERTEX
  5
116
330
115
100
AcDbEntity
  8
_U+30EC_U+30A4_U+30E4_U+30FC 1
 62
     7
420
 16777215
370
     9
100
AcDbVertex
100
AcDb2dVertex
 10
93.32213761915392
 20
-137.5933169100461
 30
0.0
  0
VERTEX
  5
117
330
115
100
AcDbEntity
  8
_U+30EC_U+30A4_U+30E4_U+30FC 1
 62
     7
420
 16777215
370
     9
100
AcDbVertex
100
AcDb2dVertex
 10
107.1562499732109
 20
-137.5933169100461
 30
0.0
  0
SEQEND
  5
118
330
115
100
AcDbEntity
  8
_U+30EC_U+30A4_U+30E4_U+30FC 1
 62
     7
420
 16777215
370
     9
  0
POLYLINE
  5
119
330
1F
100
AcDbEntity
  8
_U+30EC_U+30A4_U+30E4_U+30FC 1
 62
     7
420
 16777215
370
     9
100
AcDb2dPolyline
 66
     1
 10
0.0
 20
0.0
 30
0.0
  0
VERTEX
  5
11A
330
119
100
AcDbEntity
  8
_U+30EC_U+30A4_U+30E4_U+30FC 1
 62
     7
420
 16777215
370
     9
100
AcDbVertex
100
AcDb2dVertex
 10
94.69603063965855
 20
-133.0936716333933
 30
0.0
  0
VERTEX
  5
11B
330
119
100
AcDbEntity
  8
_U+30EC_U+30A4_U+30E4_U+30FC 1
 62
     7
420
 16777215
370
     9
100
AcDbVertex
100
AcDb2dVertex
 10
107.1562499732109
 20
-133.0936716333933
 30
0.0
  0
SEQEND
  5
11C
330
119
100
AcDbEntity
  8
_U+30EC_U+30A4_U+30E4_U+30FC 1
 62
     7
420
 16777215
370
     9
  0
SPLINE
  5
11D
330
1F
100
AcDbEntity
  8
_U+30EC_U+30A4_U+30E4_U+30FC 1
 62
     7
420
 16777215
370
     9
100
AcDbSpline
210
0.0
220
0.0
230
1.0
 70
    11
 71
     3
 72
    17
 73
    13
 74
     0
 42
0.0000000001
 43
0.0000000001
 12
1.0
 22
0.0
 32
0.0
 13
1.0
 23
0.0
 33
0.0
 40
0.0
 40
0.0
 40
0.0
 40
0.0
 40
1.0
 40
1.0
 40
1.0
 40
2.0
 40
2.0
 40
2.0
 40
3.0
 40
3.0
 40
3.0
 40
4.0
 40
4.0
 40
4.0
 40
4.0
 10
106.2563817336183
 20
-132.0939346891989
 30
0.0
 10
106.2563817336183
 20
-132.0387955225458
 30
0.0
 10
106.2116142347604
 20
-131.9940280225572
 30
0.0
 10
106.1564777512384
 20
-131.9940280225572
 30
0.0
 10
106.1013711820174
 20
-131.9940280225572
 30
0.0
 10
106.0565684053826
 20
-132.0387955225458
 30
0.0
 10
106.0565684053826
 20
-132.0939346891989
 30
0.0
 10
106.0565684053826
 20
-132.1490385780738
 30
0.0
 10
106.1013711820174
 20
-132.1938413558405
 30
0.0
 10
106.1564777512384
 20
-132.1938413558405
 30
0.0
 10
106.2116142347604
 20
-132.1938413558405
 30
0.0
 10
106.2563817336183
 20
-132.1490385780738
 30
0.0
 10
106.2563817336183
 20
-132.0939346891989
 30
0.0
  0
POLYLINE
  5
11E
330
1F
100
AcDbEntity
  8
_U+30EC_U+30A4_U+30E4_U+30FC 1
 62
     7
420
 16777215
370
     9
100
AcDb2dPolyline
 66
     1
 10
0.0
 20
0.0
 30
0.0
  0
VERTEX
  5
11F
330
11E
100
AcDbEntity
  8
_U+30EC_U+30A4_U+30E4_U+30FC 1
 62
     7
420
 16777215
370
     9
100
AcDbVertex
100
AcDb2dVertex
 10
94.69603063965855
 20
-132.0939346891989
 30
0.0
  0
VERTEX
  5
120
330
11E
100
AcDbEntity
  8
_U+30EC_U+30A4_U+30E4_U+30FC 1
 62
     7
420
 16777215
370
     9
100
AcDbVertex
100
AcDb2dVertex
 10
107.1562499732109
 20
-132.0939346891989
 30
0.0
  0
SEQEND
  5
121
330
11E
100
AcDbEntity
  8
_U+30EC_U+30A4_U+30E4_U+30FC 1
 62
     7
420
 16777215
370
     9
  0
INSERT
  5
123
330
1F
100
AcDbEntity
  8
_U+30EC_U+30A4_U+30E4_U+30FC 1
100
AcDbBlockReference
  2
block 6
 10
0.0
 20
0.0
 30
0.0
  0
POLYLINE
  5
145
330
1F
100
AcDbEntity
  8
_U+30EC_U+30A4_U+30E4_U+30FC 1
 62
     7
420
 16777215
370
     9
100
AcDb2dPolyline
 66
     1
 10
0.0
 20
0.0
 30
0.0
  0
VERTEX
  5
146
330
145
100
AcDbEntity
  8
_U+30EC_U+30A4_U+30E4_U+30FC 1
 62
     7
420
 16777215
370
     9
100
AcDbVertex
100
AcDb2dVertex
 10
74.65624442578032
 20
-138.5930891320186
 30
0.0
  0
VERTEX
  5
147
330
145
100
AcDbEntity
  8
_U+30EC_U+30A4_U+30E4_U+30FC 1
 62
     7
420
 16777215
370
     9
100
AcDbVertex
100
AcDb2dVertex
 10
74.65624442578032
 20
-120.0939516366434
 30
0.0
  0
SEQEND
  5
148
330
145
100
AcDbEntity
  8
_U+30EC_U+30A4_U+30E4_U+30FC 1
 62
     7
420
 16777215
370
     9
  0
POLYLINE
  5
149
330
1F
100
AcDbEntity
  8
_U+30EC_U+30A4_U+30E4_U+30FC 1
 62
     7
420
 16777215
370
     9
100
AcDb2dPolyline
 66
     1
 10
0.0
 20
0.0
 30
0.0
  0
VERTEX
  5
14A
330
149
100
AcDbEntity
  8
_U+30EC_U+30A4_U+30E4_U+30FC 1
 62
     7
420
 16777215
370
     9
100
AcDbVertex
100
AcDb2dVertex
 10
80.11604295606946
 20
-138.5930891320186
 30
0.0
  0
VERTEX
  5
14B
330
149
100
AcDbEntity
  8
_U+30EC_U+30A4_U+30E4_U+30FC 1
 62
     7
420
 16777215
370
     9
100
AcDbVertex
100
AcDb2dVertex
 10
73.65580006532844
 20
-138.5930891320186
 30
0.0
  0
SEQEND
  5
14C
330
149
100
AcDbEntity
  8
_U+30EC_U+30A4_U+30E4_U+30FC 1
 62
     7
420
 16777215
370
     9
  0
POLYLINE
  5
14D
330
1F
100
AcDbEntity
  8
_U+30EC_U+30A4_U+30E4_U+30FC 1
 62
     7
420
 16777215
370
     9
100
AcDb2dPolyline
 66
     1
 10
0.0
 20
0.0
 30
0.0
  0
VERTEX
  5
14E
330
14D
100
AcDbEntity
  8
_U+30EC_U+30A4_U+30E4_U+30FC 1
 62
     7
420
 16777215
370
     9
100
AcDbVertex
100
AcDb2dVertex
 10
76.11593111367637
 20
-120.0939516366434
 30
0.0
  0
VERTEX
  5
14F
330
14D
100
AcDbEntity
  8
_U+30EC_U+30A4_U+30E4_U+30FC 1
 62
     7
420
 16777215
370
     9
100
AcDbVertex
100
AcDb2dVertex
 10
73.65580006532844
 20
-120.0939516366434
 30
0.0
  0
SEQEND
  5
150
330
14D
100
AcDbEntity
  8
_U+30EC_U+30A4_U+30E4_U+30FC 1
 62
     7
420
 16777215
370
     9
  0
INSERT
  5
152
330
1F
100
AcDbEntity
  8
_U+30EC_U+30A4_U+30E4_U+30FC 1
100
AcDbBlockReference
  2
block 7
 10
0.0
 20
0.0
 30
0.0
  0
POLYLINE
  5
165
330
1F
100
AcDbEntity
  8
_U+30EC_U+30A4_U+30E4_U+30FC 1
  6
AI-Linetype-1
 62
   251
420
  5855577
370
    25
100
AcDb2dPolyline
 66
     1
 10
0.0
 20
0.0
 30
0.0
  0
VERTEX
  5
166
330
165
100
AcDbEntity
  8
_U+30EC_U+30A4_U+30E4_U+30FC 1
  6
AI-Linetype-1
 62
   251
420
  5855577
370
    25
100
AcDbVertex
100
AcDb2dVertex
 10
84.07463285507743
 20
-124.4254630244493
 30
0.0
  0
VERTEX
  5
167
330
165
100
AcDbEntity
  8
_U+30EC_U+30A4_U+30E4_U+30FC 1
  6
AI-Linetype-1
 62
   251
420
  5855577
370
    25
100
AcDbVertex
100
AcDb2dVertex
 10
85.83852169896575
 20
-124.4254630244493
 30
0.0
  0
VERTEX
  5
168
330
165
100
AcDbEntity
  8
_U+30EC_U+30A4_U+30E4_U+30FC 1
  6
AI-Linetype-1
 62
   251
420
  5855577
370
    25
100
AcDbVertex
100
AcDb2dVertex
 10
85.83852169896575
 20
-131.4369213560298
 30
0.0
  0
VERTEX
  5
169
330
165
100
AcDbEntity
  8
_U+30EC_U+30A4_U+30E4_U+30FC 1
  6
AI-Linetype-1
 62
   251
420
  5855577
370
    25
100
AcDbVertex
100
AcDb2dVertex
 10
92.80605902120907
 20
-131.4369213560298
 30
0.0
  0
VERTEX
  5
16A
330
165
100
AcDbEntity
  8
_U+30EC_U+30A4_U+30E4_U+30FC 1
  6
AI-Linetype-1
 62
   251
420
  5855577
370
    25
100
AcDbVertex
100
AcDb2dVertex
 10
92.80605902120907
 20
-133.1126158000553
 30
0.0
  0
SEQEND
  5
16C
330
165
100
AcDbEntity
  8
_U+30EC_U+30A4_U+30E4_U+30FC 1
  6
AI-Linetype-1
 62
   251
420
  5855577
370
    25
  0
SPLINE
  5
16D
330
1F
100
AcDbEntity
  8
_U+30EC_U+30A4_U+30E4_U+30FC 1
 62
     7
420
 16777215
370
     9
100
AcDbSpline
210
0.0
220
0.0
230
1.0
 70
    11
 71
     3
 72
    17
 73
    13
 74
     0
 42
0.0000000001
 43
0.0000000001
 12
1.0
 22
0.0
 32
0.0
 13
1.0
 23
0.0
 33
0.0
 40
0.0
 40
0.0
 40
0.0
 40
0.0
 40
1.0
 40
1.0
 40
1.0
 40
2.0
 40
2.0
 40
2.0
 40
3.0
 40
3.0
 40
3.0
 40
4.0
 40
4.0
 40
4.0
 40
4.0
 10
79.7567055356165
 20
-116.0938749709765
 30
0.0
 10
79.7567055356165
 20
-116.0387358043238
 30
0.0
 10
79.71193602193465
 20
-115.9939683043349
 30
0.0
 10
79.6567968566747
 20
-115.9939683043349
 30
0.0
 10
79.60169296919162
 20
-115.9939683043349
 30
0.0
 10
79.55689019255686
 20
-116.0387358043238
 30
0.0
 10
79.55689019255686
 20
-116.0938749709765
 30
0.0
 10
79.55689019255686
 20
-116.1489788598518
 30
0.0
 10
79.60169296919162
 20
-116.1937816376182
 30
0.0
 10
79.6567968566747
 20
-116.1937816376182
 30
0.0
 10
79.71193602193465
 20
-116.1937816376182
 30
0.0
 10
79.7567055356165
 20
-116.1489788598518
 30
0.0
 10
79.7567055356165
 20
-116.0938749709765
 30
0.0
  0
POLYLINE
  5
16E
330
1F
100
AcDbEntity
  8
_U+30EC_U+30A4_U+30E4_U+30FC 1
 62
     7
420
 16777215
370
     9
100
AcDb2dPolyline
 66
     1
 10
0.0
 20
0.0
 30
0.0
  0
VERTEX
  5
16F
330
16E
100
AcDbEntity
  8
_U+30EC_U+30A4_U+30E4_U+30FC 1
 62
     7
420
 16777215
370
     9
100
AcDbVertex
100
AcDb2dVertex
 10
76.92569720412862
 20
-116.0938749709765
 30
0.0
  0
VERTEX
  5
170
330
16E
100
AcDbEntity
  8
_U+30EC_U+30A4_U+30E4_U+30FC 1
 62
     7
420
 16777215
370
     9
100
AcDbVertex
100
AcDb2dVertex
 10
79.65182269013494
 20
-116.0938749709765
 30
0.0
  0
SEQEND
  5
171
330
16E
100
AcDbEntity
  8
_U+30EC_U+30A4_U+30E4_U+30FC 1
 62
     7
420
 16777215
370
     9
  0
POLYLINE
  5
172
330
1F
100
AcDbEntity
  8
_U+30EC_U+30A4_U+30E4_U+30FC 1
 62
     7
420
 16777215
370
     9
100
AcDb2dPolyline
 66
     1
 10
0.0
 20
0.0
 30
0.0
  0
VERTEX
  5
173
330
172
100
AcDbEntity
  8
_U+30EC_U+30A4_U+30E4_U+30FC 1
 62
     7
420
 16777215
370
     9
100
AcDbVertex
100
AcDb2dVertex
 10
78.6565307710825
 20
-117.9397494149595
 30
0.0
  0
VERTEX
  5
174
330
172
100
AcDbEntity
  8
_U+30EC_U+30A4_U+30E4_U+30FC 1
 62
     7
420
 16777215
370
     9
100
AcDbVertex
100
AcDb2dVertex
 10
78.6565307710825
 20
-115.1302624712175
 30
0.0
  0
SEQEND
  5
175
330
172
100
AcDbEntity
  8
_U+30EC_U+30A4_U+30E4_U+30FC 1
 62
     7
420
 16777215
370
     9
  0
INSERT
  5
177
330
1F
100
AcDbEntity
  8
_U+30EC_U+30A4_U+30E4_U+30FC 1
100
AcDbBlockReference
  2
block 8
 10
0.0
 20
0.0
 30
0.0
  0
SPLINE
  5
17C
330
1F
100
AcDbEntity
  8
_U+30EC_U+30A4_U+30E4_U+30FC 1
 62
     7
420
 16777215
370
     9
100
AcDbSpline
210
0.0
220
0.0
230
1.0
 70
    11
 71
     3
 72
    17
 73
    13
 74
     0
 42
0.0000000001
 43
0.0000000001
 12
1.0
 22
0.0
 32
0.0
 13
1.0
 23
0.0
 33
0.0
 40
0.0
 40
0.0
 40
0.0
 40
0.0
 40
1.0
 40
1.0
 40
1.0
 40
2.0
 40
2.0
 40
2.0
 40
3.0
 40
3.0
 40
3.0
 40
4.0
 40
4.0
 40
4.0
 40
4.0
 10
78.75679021296911
 20
-116.1097146931948
 30
0.0
 10
78.75679021296911
 20
-116.054575526542
 30
0.0
 10
78.71198743633435
 20
-116.0098080265531
 30
0.0
 10
78.65688354885128
 20
-116.0098080265531
 30
0.0
 10
78.60107410583065
 20
-116.0098080265531
 30
0.0
 10
78.55627132919588
 20
-116.054575526542
 30
0.0
 10
78.55627132919588
 20
-116.1097146931948
 30
0.0
 10
78.55627132919588
 20
-116.1655241376252
 30
0.0
 10
78.60107410583065
 20
-116.2102916376141
 30
0.0
 10
78.65688354885128
 20
-116.2102916376141
 30
0.0
 10
78.71198743633435
 20
-116.2102916376141
 30
0.0
 10
78.75679021296911
 20
-116.1655241376252
 30
0.0
 10
78.75679021296911
 20
-116.1097146931948
 30
0.0
  0
ENDSEC
  0
SECTION
  2
OBJECTS
  0
DICTIONARY
  5
C
330
0
100
AcDbDictionary
281
     1
  3
ACAD_GROUP
350
D
  3
ACAD_LAYOUT
350
1A
  3
ACAD_MATERIAL
350
3B
  3
ACAD_MLEADERSTYLE
350
17E
  3
ACAD_MLINESTYLE
350
17
  3
ACAD_PLOTSETTINGS
350
19
  3
ACAD_PLOTSTYLENAME
350
E
  3
ACAD_TABLESTYLE
350
17D
  3
ACAD_VISUALSTYLE
350
2A
  0
SUN
  5
3F
330
29
100
AcDbSun
 90
        1
290
     0
 63
     7
421
 16777215
 40
1.0
291
     1
 91
  2455826
 92
 54000000
292
     0
 70
     2
 71
   256
280
     1
  0
DICTIONARY
  5
D
102
{ACAD_REACTORS
330
C
102
}
330
C
100
AcDbDictionary
281
     1
  0
DICTIONARY
  5
1A
102
{ACAD_REACTORS
330
C
102
}
330
C
100
AcDbDictionary
281
     1
  3
Layout1
350
1E
  3
Layout2
350
26
  3
Model
350
22
  0
DICTIONARY
  5
3B
102
{ACAD_REACTORS
330
C
102
}
330
C
100
AcDbDictionary
281
     1
  3
ByBlock
350
3D
  3
ByLayer
350
3C
  3
Global
350
3E
  0
DICTIONARY
  5
17E
102
{ACAD_REACTORS
330
C
102
}
330
C
100
AcDbDictionary
281
     1
  0
DICTIONARY
  5
17
102
{ACAD_REACTORS
330
C
102
}
330
C
100
AcDbDictionary
281
     1
  3
Standard
350
18
  0
DICTIONARY
  5
19
102
{ACAD_REACTORS
330
C
102
}
330
C
100
AcDbDictionary
281
     1
  0
ACDBDICTIONARYWDFLT
  5
E
102
{ACAD_REACTORS
330
C
102
}
330
C
100
AcDbDictionary
281
     1
  3
Normal
350
F
100
AcDbDictionaryWithDefault
340
F
  0
DICTIONARY
  5
17D
102
{ACAD_REACTORS
330
C
102
}
330
C
100
AcDbDictionary
281
     1
  0
DICTIONARY
  5
2A
102
{ACAD_REACTORS
330
C
102
}
330
C
100
AcDbDictionary
281
     1
  3
2dWireframe
350
2F
  3
3D Hidden
350
31
  3
3dWireframe
350
30
  3
Basic
350
32
  3
Brighten
350
36
  3
ColorChange
350
3A
  3
Conceptual
350
34
  3
Dim
350
35
  3
Facepattern
350
39
  3
Flat
350
2B
  3
FlatWithEdges
350
2C
  3
Gouraud
350
2D
  3
GouraudWithEdges
350
2E
  3
Linepattern
350
38
  3
Realistic
350
33
  3
Thicken
350
37
  0
LAYOUT
  5
1E
102
{ACAD_REACTORS
330
1A
102
}
330
1A
100
AcDbPlotSettings
  1

  2
none_device
  4

  6

 40
0.0
 41
0.0
 42
0.0
 43
0.0
 44
0.0
 45
0.0
 46
0.0
 47
0.0
 48
0.0
 49
0.0
140
0.0
141
0.0
142
1.0
143
1.0
 70
   688
 72
     0
 73
     0
 74
     5
  7

 75
    16
 76
     0
 77
     2
 78
   300
147
1.0
148
0.0
149
0.0
100
AcDbLayout
  1
Layout1
 70
     1
 71
     1
 10
0.0
 20
0.0
 11
12.0
 21
9.0
 12
0.0
 22
0.0
 32
0.0
 14
1.000000000000000E+20
 24
1.000000000000000E+20
 34
1.000000000000000E+20
 15
-1.000000000000000E+20
 25
-1.000000000000000E+20
 35
-1.000000000000000E+20
146
0.0
 13
0.0
 23
0.0
 33
0.0
 16
1.0
 26
0.0
 36
0.0
 17
0.0
 27
1.0
 37
0.0
 76
     0
330
1B
  0
LAYOUT
  5
26
102
{ACAD_REACTORS
330
1A
102
}
330
1A
100
AcDbPlotSettings
  1

  2
none_device
  4

  6

 40
0.0
 41
0.0
 42
0.0
 43
0.0
 44
0.0
 45
0.0
 46
0.0
 47
0.0
 48
0.0
 49
0.0
140
0.0
141
0.0
142
1.0
143
1.0
 70
   688
 72
     0
 73
     0
 74
     5
  7

 75
    16
 76
     0
 77
     2
 78
   300
147
1.0
148
0.0
149
0.0
100
AcDbLayout
  1
Layout2
 70
     1
 71
     2
 10
0.0
 20
0.0
 11
0.0
 21
0.0
 12
0.0
 22
0.0
 32
0.0
 14
0.0
 24
0.0
 34
0.0
 15
0.0
 25
0.0
 35
0.0
146
0.0
 13
0.0
 23
0.0
 33
0.0
 16
1.0
 26
0.0
 36
0.0
 17
0.0
 27
1.0
 37
0.0
 76
     0
330
23
  0
LAYOUT
  5
22
102
{ACAD_REACTORS
330
1A
102
}
330
1A
100
AcDbPlotSettings
  1

  2
none_device
  4

  6

 40
0.0
 41
0.0
 42
0.0
 43
0.0
 44
0.0
 45
0.0
 46
0.0
 47
0.0
 48
0.0
 49
0.0
140
0.0
141
0.0
142
1.0
143
1.0
 70
  1712
 72
     0
 73
     0
 74
     0
  7

 75
     0
 76
     0
 77
     2
 78
   300
147
1.0
148
0.0
149
0.0
100
AcDbLayout
  1
Model
 70
     1
 71
     0
 10
0.0
 20
0.0
 11
12.0
 21
9.0
 12
0.0
 22
0.0
 32
0.0
 14
1.000000000000000E+20
 24
1.000000000000000E+20
 34
1.000000000000000E+20
 15
-1.000000000000000E+20
 25
-1.000000000000000E+20
 35
-1.000000000000000E+20
146
0.0
 13
0.0
 23
0.0
 33
0.0
 16
1.0
 26
0.0
 36
0.0
 17
0.0
 27
1.0
 37
0.0
 76
     0
330
1F
331
29
  0
MATERIAL
  5
3D
102
{ACAD_REACTORS
330
3B
102
}
330
3B
100
AcDbMaterial
  1
ByBlock
 72
     1
 94
      127
  0
MATERIAL
  5
3C
102
{ACAD_REACTORS
330
3B
102
}
330
3B
100
AcDbMaterial
  1
ByLayer
 72
     1
 94
      127
  0
MATERIAL
  5
3E
102
{ACAD_REACTORS
330
3B
102
}
330
3B
100
AcDbMaterial
  1
Global
 72
     1
 94
      127
  0
MLINESTYLE
  5
18
102
{ACAD_REACTORS
330
17
102
}
330
17
100
AcDbMlineStyle
  2
Standard
 70
     0
  3

 62
   256
 51
90.0
 52
90.0
 71
     2
 49
0.5
 62
   256
  6
BYLAYER
 49
-0.5
 62
   256
  6
BYLAYER
  0
ACDBPLACEHOLDER
  5
F
102
{ACAD_REACTORS
330
E
102
}
330
E
  0
VISUALSTYLE
  5
2F
102
{ACAD_REACTORS
330
2A
102
}
330
2A
100
AcDbVisualStyle
  2
2dWireframe
 70
     4
177
     2
291
     0
 71
     0
176
     1
 72
     2
176
     1
 73
     0
176
     1
 90
        0
176
     1
 40
-0.6
176
     1
 41
-30.0
176
     1
 62
     5
 63
     7
421
 16777215
176
     1
 74
     1
176
     1
 91
        4
176
     1
 64
     7
176
     1
 65
   257
176
     1
 75
     1
176
     1
175
     1
176
     1
 42
1.0
176
     1
 92
        0
176
     1
 66
   257
176
     1
 43
1.0
176
     1
 76
     1
176
     1
 77
     6
176
     1
 78
     2
176
     1
 67
     7
176
     1
 79
     5
176
     1
170
     0
176
     1
171
     0
176
     1
290
     0
176
     1
 93
        1
176
     1
 44
0.0
176
     1
173
     0
176
     1
  0
VISUALSTYLE
  5
31
102
{ACAD_REACTORS
330
2A
102
}
330
2A
100
AcDbVisualStyle
  2
3D Hidden
 70
     6
177
     2
291
     0
 71
     1
176
     1
 72
     2
176
     1
 73
     2
176
     1
 90
        0
176
     1
 40
-0.6
176
     1
 41
-30.0
176
     1
 62
     5
 63
     7
421
 16777215
176
     1
 74
     2
176
     1
 91
        2
176
     1
 64
     7
176
     1
 65
   257
176
     1
 75
     2
176
     1
175
     1
176
     1
 42
40.0
176
     1
 92
        0
176
     1
 66
   257
176
     1
 43
1.0
176
     1
 76
     1
176
     1
 77
     6
176
     1
 78
     2
176
     1
 67
     7
176
     1
 79
     3
176
     1
170
     0
176
     1
171
     0
176
     1
290
     0
176
     1
 93
        1
176
     1
 44
0.0
176
     1
173
     0
176
     1
  0
VISUALSTYLE
  5
30
102
{ACAD_REACTORS
330
2A
102
}
330
2A
100
AcDbVisualStyle
  2
3dWireframe
 70
     5
177
     2
291
     0
 71
     0
176
     1
 72
     2
176
     1
 73
     0
176
     1
 90
        0
176
     1
 40
-0.6
176
     1
 41
-30.0
176
     1
 62
     5
 63
     7
421
 16777215
176
     1
 74
     1
176
     1
 91
        4
176
     1
 64
     7
176
     1
 65
   257
176
     1
 75
     1
176
     1
175
     1
176
     1
 42
1.0
176
     1
 92
        0
176
     1
 66
   257
176
     1
 43
1.0
176
     1
 76
     1
176
     1
 77
     6
176
     1
 78
     2
176
     1
 67
     7
176
     1
 79
     5
176
     1
170
     0
176
     1
171
     0
176
     1
290
     0
176
     1
 93
        1
176
     1
 44
0.0
176
     1
173
     0
176
     1
  0
VISUALSTYLE
  5
32
102
{ACAD_REACTORS
330
2A
102
}
330
2A
100
AcDbVisualStyle
  2
Basic
 70
     7
177
     2
291
     1
 71
     1
176
     1
 72
     0
176
     1
 73
     1
176
     1
 90
        0
176
     1
 40
-0.6
176
     1
 41
-30.0
176
     1
 62
     5
 63
     7
421
 16777215
176
     1
 74
     0
176
     1
 91
        4
176
     1
 64
     7
176
     1
 65
   257
176
     1
 75
     1
176
     1
175
     1
176
     1
 42
1.0
176
     1
 92
        8
176
     1
 66
     7
176
     1
 43
1.0
176
     1
 76
     1
176
     1
 77
     6
176
     1
 78
     2
176
     1
 67
     7
176
     1
 79
     5
176
     1
170
     0
176
     1
171
     0
176
     1
290
     0
176
     1
 93
        1
176
     1
 44
0.0
176
     1
173
     0
176
     1
  0
VISUALSTYLE
  5
36
102
{ACAD_REACTORS
330
2A
102
}
330
2A
100
AcDbVisualStyle
  2
Brighten
 70
    12
177
     2
291
     1
 71
     2
176
     1
 72
     2
176
     1
 73
     0
176
     1
 90
        0
176
     1
 40
-0.6
176
     1
 41
-30.0
176
     1
 62
     5
 63
     7
421
 16777215
176
     1
 74
     1
176
     1
 91
        4
176
     1
 64
     7
176
     1
 65
   257
176
     1
 75
     1
176
     1
175
     1
176
     1
 42
1.0
176
     1
 92
        8
176
     1
 66
     7
176
     1
 43
1.0
176
     1
 76
     1
176
     1
 77
     6
176
     1
 78
     2
176
     1
 67
     7
176
     1
 79
     5
176
     1
170
     0
176
     1
171
     0
176
     1
290
     0
176
     1
 93
        1
176
     1
 44
50.0
176
     1
173
     0
176
     1
  0
VISUALSTYLE
  5
3A
102
{ACAD_REACTORS
330
2A
102
}
330
2A
100
AcDbVisualStyle
  2
ColorChange
 70
    16
177
     2
291
     1
 71
     2
176
     1
 72
     2
176
     1
 73
     3
176
     1
 90
        0
176
     1
 40
-0.6
176
     1
 41
-30.0
176
     1
 62
     5
 63
     8
421
  8421504
176
     1
 74
     1
176
     1
 91
        4
176
     1
 64
     7
176
     1
 65
   257
176
     1
 75
     1
176
     1
175
     1
176
     1
 42
1.0
176
     1
 92
        8
176
     1
 66
     8
424
  8421504
176
     1
 43
1.0
176
     1
 76
     1
176
     1
 77
     6
176
     1
 78
     2
176
     1
 67
     7
176
     1
 79
     5
176
     1
170
     0
176
     1
171
     0
176
     1
290
     0
176
     1
 93
        1
176
     1
 44
0.0
176
     1
173
     0
176
     1
  0
VISUALSTYLE
  5
34
102
{ACAD_REACTORS
330
2A
102
}
330
2A
100
AcDbVisualStyle
  2
Conceptual
 70
     9
177
     2
291
     0
 71
     3
176
     1
 72
     2
176
     1
 73
     0
176
     1
 90
        0
176
     1
 40
-0.6
176
     1
 41
-30.0
176
     1
 62
     5
 63
     7
421
 16777215
176
     1
 74
     2
176
     1
 91
        2
176
     1
 64
     7
176
     1
 65
   257
176
     1
 75
     1
176
     1
175
     1
176
     1
 42
40.0
176
     1
 92
        8
176
     1
 66
     7
176
     1
 43
1.0
176
     1
 76
     1
176
     1
 77
     6
176
     1
 78
     2
176
     1
 67
     7
176
     1
 79
     3
176
     1
170
     0
176
     1
171
     0
176
     1
290
     0
176
     1
 93
        1
176
     1
 44
0.0
176
     1
173
     0
176
     1
  0
VISUALSTYLE
  5
35
102
{ACAD_REACTORS
330
2A
102
}
330
2A
100
AcDbVisualStyle
  2
Dim
 70
    11
177
     2
291
     1
 71
     2
176
     1
 72
     2
176
     1
 73
     0
176
     1
 90
        0
176
     1
 40
-0.6
176
     1
 41
-30.0
176
     1
 62
     5
 63
     7
421
 16777215
176
     1
 74
     1
176
     1
 91
        4
176
     1
 64
     7
176
     1
 65
   257
176
     1
 75
     1
176
     1
175
     1
176
     1
 42
1.0
176
     1
 92
        8
176
     1
 66
     7
176
     1
 43
1.0
176
     1
 76
     1
176
     1
 77
     6
176
     1
 78
     2
176
     1
 67
     7
176
     1
 79
     5
176
     1
170
     0
176
     1
171
     0
176
     1
290
     0
176
     1
 93
        1
176
     1
 44
-50.0
176
     1
173
     0
176
     1
  0
VISUALSTYLE
  5
39
102
{ACAD_REACTORS
330
2A
102
}
330
2A
100
AcDbVisualStyle
  2
Facepattern
 70
    15
177
     2
291
     1
 71
     2
176
     1
 72
     2
176
     1
 73
     0
176
     1
 90
        0
176
     1
 40
-0.6
176
     1
 41
-30.0
176
     1
 62
     5
 63
     7
421
 16777215
176
     1
 74
     1
176
     1
 91
        4
176
     1
 64
     7
176
     1
 65
   257
176
     1
 75
     1
176
     1
175
     1
176
     1
 42
1.0
176
     1
 92
        8
176
     1
 66
     7
176
     1
 43
1.0
176
     1
 76
     1
176
     1
 77
     6
176
     1
 78
     2
176
     1
 67
     7
176
     1
 79
     5
176
     1
170
     0
176
     1
171
     0
176
     1
290
     0
176
     1
 93
        1
176
     1
 44
0.0
176
     1
173
     0
176
     1
  0
VISUALSTYLE
  5
2B
102
{ACAD_REACTORS
330
2A
102
}
330
2A
100
AcDbVisualStyle
  2
Flat
 70
     0
177
     2
291
     1
 71
     2
176
     1
 72
     1
176
     1
 73
     1
176
     1
 90
        2
176
     1
 40
-0.6
176
     1
 41
30.0
176
     1
 62
     5
 63
     7
421
 16777215
176
     1
 74
     0
176
     1
 91
        4
176
     1
 64
     7
176
     1
 65
   257
176
     1
 75
     1
176
     1
175
     1
176
     1
 42
1.0
176
     1
 92
        8
176
     1
 66
     7
176
     1
 43
1.0
176
     1
 76
     1
176
     1
 77
     6
176
     1
 78
     2
176
     1
 67
     7
176
     1
 79
     5
176
     1
170
     0
176
     1
171
     0
176
     1
290
     0
176
     1
 93
       13
176
     1
 44
0.0
176
     1
173
     0
176
     1
  0
VISUALSTYLE
  5
2C
102
{ACAD_REACTORS
330
2A
102
}
330
2A
100
AcDbVisualStyle
  2
FlatWithEdges
 70
     1
177
     2
291
     1
 71
     2
176
     1
 72
     1
176
     1
 73
     1
176
     1
 90
        2
176
     1
 40
-0.6
176
     1
 41
30.0
176
     1
 62
     5
 63
     7
421
 16777215
176
     1
 74
     1
176
     1
 91
        4
176
     1
 64
     7
176
     1
 65
   257
176
     1
 75
     1
176
     1
175
     1
176
     1
 42
1.0
176
     1
 92
        0
176
     1
 66
   257
176
     1
 43
1.0
176
     1
 76
     1
176
     1
 77
     6
176
     1
 78
     2
176
     1
 67
     7
176
     1
 79
     5
176
     1
170
     0
176
     1
171
     0
176
     1
290
     0
176
     1
 93
       13
176
     1
 44
0.0
176
     1
173
     0
176
     1
  0
VISUALSTYLE
  5
2D
102
{ACAD_REACTORS
330
2A
102
}
330
2A
100
AcDbVisualStyle
  2
Gouraud
 70
     2
177
     2
291
     1
 71
     2
176
     1
 72
     2
176
     1
 73
     1
176
     1
 90
        2
176
     1
 40
-0.6
176
     1
 41
30.0
176
     1
 62
     5
 63
     7
421
 16777215
176
     1
 74
     0
176
     1
 91
        4
176
     1
 64
     7
176
     1
 65
   257
176
     1
 75
     1
176
     1
175
     1
176
     1
 42
1.0
176
     1
 92
        0
176
     1
 66
     7
176
     1
 43
1.0
176
     1
 76
     1
176
     1
 77
     6
176
     1
 78
     2
176
     1
 67
     7
176
     1
 79
     5
176
     1
170
     0
176
     1
171
     0
176
     1
290
     0
176
     1
 93
       13
176
     1
 44
0.0
176
     1
173
     0
176
     1
  0
VISUALSTYLE
  5
2E
102
{ACAD_REACTORS
330
2A
102
}
330
2A
100
AcDbVisualStyle
  2
GouraudWithEdges
 70
     3
177
     2
291
     1
 71
     2
176
     1
 72
     2
176
     1
 73
     1
176
     1
 90
        2
176
     1
 40
-0.6
176
     1
 41
30.0
176
     1
 62
     5
 63
     7
421
 16777215
176
     1
 74
     1
176
     1
 91
        4
176
     1
 64
     7
176
     1
 65
   257
176
     1
 75
     1
176
     1
175
     1
176
     1
 42
1.0
176
     1
 92
        0
176
     1
 66
   257
176
     1
 43
1.0
176
     1
 76
     1
176
     1
 77
     6
176
     1
 78
     2
176
     1
 67
     7
176
     1
 79
     5
176
     1
170
     0
176
     1
171
     0
176
     1
290
     0
176
     1
 93
       13
176
     1
 44
0.0
176
     1
173
     0
176
     1
  0
VISUALSTYLE
  5
38
102
{ACAD_REACTORS
330
2A
102
}
330
2A
100
AcDbVisualStyle
  2
Linepattern
 70
    14
177
     2
291
     1
 71
     2
176
     1
 72
     2
176
     1
 73
     0
176
     1
 90
        0
176
     1
 40
-0.6
176
     1
 41
-30.0
176
     1
 62
     5
 63
     7
421
 16777215
176
     1
 74
     1
176
     1
 91
        4
176
     1
 64
     7
176
     1
 65
   257
176
     1
 75
     7
176
     1
175
     7
176
     1
 42
1.0
176
     1
 92
        8
176
     1
 66
     7
176
     1
 43
1.0
176
     1
 76
     1
176
     1
 77
     6
176
     1
 78
     2
176
     1
 67
     7
176
     1
 79
     5
176
     1
170
     0
176
     1
171
     0
176
     1
290
     0
176
     1
 93
        1
176
     1
 44
0.0
176
     1
173
     0
176
     1
  0
VISUALSTYLE
  5
33
102
{ACAD_REACTORS
330
2A
102
}
330
2A
100
AcDbVisualStyle
  2
Realistic
 70
     8
177
     2
291
     0
 71
     2
176
     1
 72
     2
176
     1
 73
     0
176
     1
 90
        0
176
     1
 40
-0.6
176
     1
 41
-30.0
176
     1
 62
     5
 63
     7
421
 16777215
176
     1
 74
     1
176
     1
 91
        0
176
     1
 64
     7
176
     1
 65
   257
176
     1
 75
     1
176
     1
175
     1
176
     1
 42
1.0
176
     1
 92
        8
176
     1
 66
     8
424
  7895160
176
     1
 43
1.0
176
     1
 76
     1
176
     1
 77
     6
176
     1
 78
     2
176
     1
 67
     7
176
     1
 79
     5
176
     1
170
     0
176
     1
171
     0
176
     1
290
     0
176
     1
 93
       13
176
     1
 44
0.0
176
     1
173
     0
176
     1
  0
VISUALSTYLE
  5
37
102
{ACAD_REACTORS
330
2A
102
}
330
2A
100
AcDbVisualStyle
  2
Thicken
 70
    13
177
     2
291
     1
 71
     2
176
     1
 72
     2
176
     1
 73
     0
176
     1
 90
        0
176
     1
 40
-0.6
176
     1
 41
-30.0
176
     1
 62
     5
 63
     7
421
 16777215
176
     1
 74
     1
176
     1
 91
        4
176
     1
 64
     7
176
     1
 65
   257
176
     1
 75
     1
176
     1
175
     1
176
     1
 42
1.0
176
     1
 92
       12
176
     1
 66
     7
176
     1
 43
1.0
176
     1
 76
     1
176
     1
 77
     6
176
     1
 78
     2
176
     1
 67
     7
176
     1
 79
     5
176
     1
170
     0
176
     1
171
     0
176
     1
290
     0
176
     1
 93
        1
176
     1
 44
0.0
176
     1
173
     0
176
     1
  0
ENDSEC
  0
EOF
