  0
SECTION
  2
HEADER
  9
$ACADVER
  1
AC1024
  9
$ACADMAINTVER
 70
     6
  9
$DWGCODEPAGE
  3
UNDEFINED
  9
$INSBASE
 10
0.0
 20
0.0
 30
0.0
  9
$EXTMIN
 10
1.000000000000000E+20
 20
1.000000000000000E+20
 30
1.000000000000000E+20
  9
$EXTMAX
 10
-1.000000000000000E+20
 20
-1.000000000000000E+20
 30
-1.000000000000000E+20
  9
$LIMMIN
 10
0.0
 20
0.0
  9
$LIMMAX
 10
12.0
 20
9.0
  9
$ORTHOMODE
 70
     0
  9
$REGENMODE
 70
     1
  9
$FILLMODE
 70
     1
  9
$QTEXTMODE
 70
     0
  9
$MIRRTEXT
 70
     1
  9
$LTSCALE
 40
1.0
  9
$ATTMODE
 70
     1
  9
$TEXTSIZE
 40
0.2
  9
$TRACEWID
 40
0.05
  9
$TEXTSTYLE
  7
Standard
  9
$CLAYER
  8
0
  9
$CELTYPE
  6
ByLayer
  9
$CECOLOR
 62
   256
  9
$CELTSCALE
 40
1.0
  9
$DISPSILH
 70
     0
  9
$DIMSCALE
 40
1.0
  9
$DIMASZ
 40
0.18
  9
$DIMEXO
 40
0.0625
  9
$DIMDLI
 40
0.38
  9
$DIMRND
 40
0.0
  9
$DIMDLE
 40
0.0
  9
$DIMEXE
 40
0.18
  9
$DIMTP
 40
0.0
  9
$DIMTM
 40
0.0
  9
$DIMTXT
 40
0.18
  9
$DIMCEN
 40
0.09
  9
$DIMTSZ
 40
0.0
  9
$DIMTOL
 70
     0
  9
$DIMLIM
 70
     0
  9
$DIMTIH
 70
     1
  9
$DIMTOH
 70
     1
  9
$DIMSE1
 70
     0
  9
$DIMSE2
 70
     0
  9
$DIMTAD
 70
     0
  9
$DIMZIN
 70
     0
  9
$DIMBLK
  1

  9
$DIMASO
 70
     1
  9
$DIMSHO
 70
     1
  9
$DIMPOST
  1

  9
$DIMAPOST
  1

  9
$DIMALT
 70
     0
  9
$DIMALTD
 70
     2
  9
$DIMALTF
 40
25.4
  9
$DIMLFAC
 40
1.0
  9
$DIMTOFL
 70
     0
  9
$DIMTVP
 40
0.0
  9
$DIMTIX
 70
     0
  9
$DIMSOXD
 70
     0
  9
$DIMSAH
 70
     0
  9
$DIMBLK1
  1

  9
$DIMBLK2
  1

  9
$DIMSTYLE
  2
Standard
  9
$DIMCLRD
 70
     0
  9
$DIMCLRE
 70
     0
  9
$DIMCLRT
 70
     0
  9
$DIMTFAC
 40
1.0
  9
$DIMGAP
 40
0.09
  9
$DIMJUST
 70
     0
  9
$DIMSD1
 70
     0
  9
$DIMSD2
 70
     0
  9
$DIMTOLJ
 70
     1
  9
$DIMTZIN
 70
     0
  9
$DIMALTZ
 70
     0
  9
$DIMALTTZ
 70
     0
  9
$DIMUPT
 70
     0
  9
$DIMDEC
 70
     4
  9
$DIMTDEC
 70
     4
  9
$DIMALTU
 70
     2
  9
$DIMALTTD
 70
     2
  9
$DIMTXSTY
  7
Standard
  9
$DIMAUNIT
 70
     0
  9
$DIMADEC
 70
     0
  9
$DIMALTRND
 40
0.0
  9
$DIMAZIN
 70
     0
  9
$DIMDSEP
 70
    46
  9
$DIMATFIT
 70
     3
  9
$DIMFRAC
 70
     0
  9
$DIMLDRBLK
  1

  9
$DIMLUNIT
 70
     2
  9
$DIMLWD
 70
    -2
  9
$DIMLWE
 70
    -2
  9
$DIMTMOVE
 70
     0
  9
$DIMFXL
 40
1.0
  9
$DIMFXLON
 70
     0
  9
$DIMJOGANG
 40
0.7853981633974483
  9
$DIMTFILL
 70
     0
  9
$DIMTFILLCLR
 70
     0
  9
$DIMARCSYM
 70
     0
  9
$DIMLTYPE
  6

  9
$DIMLTEX1
  6

  9
$DIMLTEX2
  6

  9
$DIMTXTDIRECTION
 70
     0
  9
$LUNITS
 70
     2
  9
$LUPREC
 70
     4
  9
$SKETCHINC
 40
0.1
  9
$FILLETRAD
 40
0.5
  9
$AUNITS
 70
     0
  9
$AUPREC
 70
     0
  9
$MENU
  1
.
  9
$ELEVATION
 40
0.0
  9
$PELEVATION
 40
0.0
  9
$THICKNESS
 40
0.0
  9
$LIMCHECK
 70
     0
  9
$CHAMFERA
 40
0.5
  9
$CHAMFERB
 40
0.5
  9
$CHAMFERC
 40
1.0
  9
$CHAMFERD
 40
0.0
  9
$SKPOLY
 70
     0
  9
$TDCREATE
 40
2457917.619907408
  9
$TDUCREATE
 40
2457917.244907408
  9
$TDUPDATE
 40
2457917.619907408
  9
$TDUUPDATE
 40
2457917.244907408
  9
$TDINDWG
 40
0.0000000116
  9
$TDUSRTIMER
 40
0.0000000116
  9
$USRTIMER
 70
     1
  9
$ANGBASE
 50
0.0
  9
$ANGDIR
 70
     0
  9
$PDMODE
 70
     0
  9
$PDSIZE
 40
0.0
  9
$PLINEWID
 40
0.0
  9
$SPLFRAME
 70
     0
  9
$SPLINETYPE
 70
     6
  9
$SPLINESEGS
 70
     8
  9
$HANDSEED
  5
15E
  9
$SURFTAB1
 70
     6
  9
$SURFTAB2
 70
     6
  9
$SURFTYPE
 70
     6
  9
$SURFU
 70
     6
  9
$SURFV
 70
     6
  9
$UCSBASE
  2

  9
$UCSNAME
  2

  9
$UCSORG
 10
0.0
 20
0.0
 30
0.0
  9
$UCSXDIR
 10
1.0
 20
0.0
 30
0.0
  9
$UCSYDIR
 10
0.0
 20
1.0
 30
0.0
  9
$UCSORTHOREF
  2

  9
$UCSORTHOVIEW
 70
     0
  9
$UCSORGTOP
 10
0.0
 20
0.0
 30
0.0
  9
$UCSORGBOTTOM
 10
0.0
 20
0.0
 30
0.0
  9
$UCSORGLEFT
 10
0.0
 20
0.0
 30
0.0
  9
$UCSORGRIGHT
 10
0.0
 20
0.0
 30
0.0
  9
$UCSORGFRONT
 10
0.0
 20
0.0
 30
0.0
  9
$UCSORGBACK
 10
0.0
 20
0.0
 30
0.0
  9
$PUCSBASE
  2

  9
$PUCSNAME
  2

  9
$PUCSORG
 10
0.0
 20
0.0
 30
0.0
  9
$PUCSXDIR
 10
1.0
 20
0.0
 30
0.0
  9
$PUCSYDIR
 10
0.0
 20
1.0
 30
0.0
  9
$PUCSORTHOREF
  2

  9
$PUCSORTHOVIEW
 70
     0
  9
$PUCSORGTOP
 10
0.0
 20
0.0
 30
0.0
  9
$PUCSORGBOTTOM
 10
0.0
 20
0.0
 30
0.0
  9
$PUCSORGLEFT
 10
0.0
 20
0.0
 30
0.0
  9
$PUCSORGRIGHT
 10
0.0
 20
0.0
 30
0.0
  9
$PUCSORGFRONT
 10
0.0
 20
0.0
 30
0.0
  9
$PUCSORGBACK
 10
0.0
 20
0.0
 30
0.0
  9
$USERI1
 70
     0
  9
$USERI2
 70
     0
  9
$USERI3
 70
     0
  9
$USERI4
 70
     0
  9
$USERI5
 70
     0
  9
$USERR1
 40
0.0
  9
$USERR2
 40
0.0
  9
$USERR3
 40
0.0
  9
$USERR4
 40
0.0
  9
$USERR5
 40
0.0
  9
$WORLDVIEW
 70
     1
  9
$SHADEDGE
 70
     3
  9
$SHADEDIF
 70
    70
  9
$TILEMODE
 70
     1
  9
$MAXACTVP
 70
    64
  9
$PINSBASE
 10
0.0
 20
0.0
 30
0.0
  9
$PLIMCHECK
 70
     0
  9
$PEXTMIN
 10
1.000000000000000E+20
 20
1.000000000000000E+20
 30
1.000000000000000E+20
  9
$PEXTMAX
 10
-1.000000000000000E+20
 20
-1.000000000000000E+20
 30
-1.000000000000000E+20
  9
$PLIMMIN
 10
0.0
 20
0.0
  9
$PLIMMAX
 10
12.0
 20
9.0
  9
$UNITMODE
 70
     0
  9
$VISRETAIN
 70
     1
  9
$PLINEGEN
 70
     0
  9
$PSLTSCALE
 70
     1
  9
$TREEDEPTH
 70
  3020
  9
$CMLSTYLE
  2
Standard
  9
$CMLJUST
 70
     0
  9
$CMLSCALE
 40
1.0
  9
$PROXYGRAPHICS
 70
     1
  9
$MEASUREMENT
 70
     0
  9
$CELWEIGHT
370
    -1
  9
$ENDCAPS
280
     0
  9
$JOINSTYLE
280
     0
  9
$LWDISPLAY
290
     1
  9
$INSUNITS
 70
     1
  9
$HYPERLINKBASE
  1

  9
$STYLESHEET
  1

  9
$XEDIT
290
     1
  9
$CEPSNTYPE
380
     0
  9
$PSTYLEMODE
290
     1
  9
$FINGERPRINTGUID
  2
{13FD4305-3F46-DCF3-DDE4-F33E27767539}
  9
$VERSIONGUID
  2
{FAEB1C32-E019-11D5-929B-00C0DF256EC4}
  9
$EXTNAMES
290
     1
  9
$PSVPSCALE
 40
0.0
  9
$OLESTARTUP
290
     0
  9
$SORTENTS
280
   127
  9
$INDEXCTL
280
     0
  9
$HIDETEXT
280
     1
  9
$XCLIPFRAME
280
     2
  9
$HALOGAP
280
     0
  9
$OBSCOLOR
 70
   257
  9
$OBSLTYPE
280
     0
  9
$INTERSECTIONDISPLAY
280
     0
  9
$INTERSECTIONCOLOR
 70
   257
  9
$DIMASSOC
280
     2
  9
$PROJECTNAME
  1

  9
$CAMERADISPLAY
290
     0
  9
$LENSLENGTH
 40
50.0
  9
$CAMERAHEIGHT
 40
0.0
  9
$STEPSPERSEC
 40
2.0
  9
$STEPSIZE
 40
6.0
  9
$3DDWFPREC
 40
2.0
  9
$PSOLWIDTH
 40
0.25
  9
$PSOLHEIGHT
 40
4.0
  9
$LOFTANG1
 40
1.570796326794897
  9
$LOFTANG2
 40
1.570796326794897
  9
$LOFTMAG1
 40
0.0
  9
$LOFTMAG2
 40
0.0
  9
$LOFTPARAM
 70
     7
  9
$LOFTNORMALS
280
     1
  9
$LATITUDE
 40
37.795
  9
$LONGITUDE
 40
-122.394
  9
$NORTHDIRECTION
 40
0.0
  9
$TIMEZONE
 70
 -8000
  9
$LIGHTGLYPHDISPLAY
280
     1
  9
$TILEMODELIGHTSYNCH
280
     1
  9
$CMATERIAL
347
3C
  9
$SOLIDHIST
280
     1
  9
$SHOWHIST
280
     1
  9
$DWFFRAME
280
     2
  9
$DGNFRAME
280
     2
  9
$REALWORLDSCALE
290
     1
  9
$INTERFERECOLOR
 62
   256
  9
$CSHADOW
280
     0
  9
$SHADOWPLANELOCATION
 40
0.0
  0
ENDSEC
  0
SECTION
  2
CLASSES
  0
CLASS
  1
ACDBDICTIONARYWDFLT
  2
AcDbDictionaryWithDefault
  3
ObjectDBX Classes
 90
        0
 91
        4
280
     0
281
     0
  0
CLASS
  1
VISUALSTYLE
  2
AcDbVisualStyle
  3
ObjectDBX Classes
 90
     4095
 91
        4
280
     0
281
     0
  0
CLASS
  1
MATERIAL
  2
AcDbMaterial
  3
ObjectDBX Classes
 90
     1153
 91
        4
280
     0
281
     0
  0
CLASS
  1
SUN
  2
AcDbSun
  3
SCENEOE
 90
     1024
 91
        4
280
     0
281
     0
  0
ENDSEC
  0
SECTION
  2
TABLES
  0
TABLE
  2
VPORT
  5
8
330
0
100
AcDbSymbolTable
 70
     1
  0
VPORT
  5
29
330
8
100
AcDbSymbolTableRecord
100
AcDbViewportTableRecord
  2
*Active
 70
     0
 10
0.0
 20
0.0
 11
1.0
 21
1.0
 12
0.0
 22
0.0
 13
0.0
 23
0.0
 14
0.5
 24
0.5
 15
0.5
 25
0.5
 16
0.0
 26
0.0
 36
1.0
 17
91.00082462281999
 27
-128.4993055234307
 37
0.0
 40
256.9986110468615
 41
0.7081814508812795
 42
50.0
 43
0.0
 44
0.0
 50
0.0
 51
0.0
 71
     0
 72
   100
 73
     1
 74
     3
 75
     0
 76
     0
 77
     0
 78
     0
281
     0
 65
     1
110
0.0
120
0.0
130
0.0
111
1.0
121
0.0
131
0.0
112
0.0
122
1.0
132
0.0
 79
     0
146
0.0
 60
     3
 61
     5
292
     1
282
     1
141
0.0
142
0.0
 63
   250
361
3F
  0
ENDTAB
  0
TABLE
  2
LTYPE
  5
5
330
0
100
AcDbSymbolTable
 70
     2
  0
LTYPE
  5
14
330
5
100
AcDbSymbolTableRecord
100
AcDbLinetypeTableRecord
  2
ByBlock
 70
     0
  3

 72
    65
 73
     0
 40
0.0
  0
LTYPE
  5
15
330
5
100
AcDbSymbolTableRecord
100
AcDbLinetypeTableRecord
  2
ByLayer
 70
     0
  3

 72
    65
 73
     0
 40
0.0
  0
LTYPE
  5
16
330
5
100
AcDbSymbolTableRecord
100
AcDbLinetypeTableRecord
  2
Continuous
 70
     0
  3
Solid line
 72
    65
 73
     0
 40
0.0
  0
LTYPE
  5
147
330
5
100
AcDbSymbolTableRecord
100
AcDbLinetypeTableRecord
  2
AI-Linetype-1
 70
     0
  3
Adobe Illustrator Linetype No. 1
 72
    65
 73
     2
 40
1.411111110758333
 49
0.7055555553791667
 74
     0
 49
-0.7055555553791667
 74
     0
  0
ENDTAB
  0
TABLE
  2
LAYER
  5
2
330
0
100
AcDbSymbolTable
 70
     2
  0
LAYER
  5
10
330
2
100
AcDbSymbolTableRecord
100
AcDbLayerTableRecord
  2
0
 70
     0
 62
     7
  6
Continuous
370
    -3
390
F
347
3E
  0
LAYER
  5
40
330
2
100
AcDbSymbolTableRecord
100
AcDbLayerTableRecord
  2
_U+30EC_U+30A4_U+30E4_U+30FC 1
 70
     0
 62
     7
  6
Continuous
370
    -3
390
F
347
3E
  0
ENDTAB
  0
TABLE
  2
STYLE
  5
3
330
0
100
AcDbSymbolTable
 70
     1
  0
STYLE
  5
11
330
3
100
AcDbSymbolTableRecord
100
AcDbTextStyleTableRecord
  2
Standard
 70
     0
 40
0.0
 41
1.0
 50
0.0
 71
     0
 42
0.2
  3
txt
  4

  0
ENDTAB
  0
TABLE
  2
VIEW
  5
6
330
0
100
AcDbSymbolTable
 70
     0
  0
ENDTAB
  0
TABLE
  2
UCS
  5
7
330
0
100
AcDbSymbolTable
 70
     0
  0
ENDTAB
  0
TABLE
  2
APPID
  5
9
330
0
100
AcDbSymbolTable
 70
     1
  0
APPID
  5
12
330
9
100
AcDbSymbolTableRecord
100
AcDbRegAppTableRecord
  2
ACAD
 70
     0
  0
ENDTAB
  0
TABLE
  2
DIMSTYLE
  5
A
330
0
100
AcDbSymbolTable
 70
     1
100
AcDbDimStyleTable
  0
DIMSTYLE
105
27
330
A
100
AcDbSymbolTableRecord
100
AcDbDimStyleTableRecord
  2
Standard
 70
     0
178
     0
340
11
  0
ENDTAB
  0
TABLE
  2
BLOCK_RECORD
  5
1
330
0
100
AcDbSymbolTable
 70
    10
  0
BLOCK_RECORD
  5
1F
330
1
100
AcDbSymbolTableRecord
100
AcDbBlockTableRecord
  2
*Model_Space
340
22
 70
     0
280
     1
281
     0
  0
BLOCK_RECORD
  5
1B
330
1
100
AcDbSymbolTableRecord
100
AcDbBlockTableRecord
  2
*Paper_Space
340
1E
 70
     0
280
     1
281
     0
  0
BLOCK_RECORD
  5
23
330
1
100
AcDbSymbolTableRecord
100
AcDbBlockTableRecord
  2
*Paper_Space0
340
26
 70
     0
280
     1
281
     0
  0
BLOCK_RECORD
  5
41
330
1
100
AcDbSymbolTableRecord
100
AcDbBlockTableRecord
  2
block 2
340
0
102
{BLKREFS
331
42
102
}
 70
     0
280
     1
281
     0
  0
BLOCK_RECORD
  5
B3
330
1
100
AcDbSymbolTableRecord
100
AcDbBlockTableRecord
  2
block 3
340
0
102
{BLKREFS
331
B4
102
}
 70
     0
280
     1
281
     0
  0
BLOCK_RECORD
  5
D0
330
1
100
AcDbSymbolTableRecord
100
AcDbBlockTableRecord
  2
block 4
340
0
102
{BLKREFS
331
D1
102
}
 70
     0
280
     1
281
     0
  0
BLOCK_RECORD
  5
E2
330
1
100
AcDbSymbolTableRecord
100
AcDbBlockTableRecord
  2
block 5
340
0
102
{BLKREFS
331
E3
102
}
 70
     0
280
     1
281
     0
  0
BLOCK_RECORD
  5
105
330
1
100
AcDbSymbolTableRecord
100
AcDbBlockTableRecord
  2
block 6
340
0
102
{BLKREFS
331
106
102
}
 70
     0
280
     1
281
     0
  0
BLOCK_RECORD
  5
11D
330
1
100
AcDbSymbolTableRecord
100
AcDbBlockTableRecord
  2
block 7
340
0
102
{BLKREFS
331
11E
102
}
 70
     0
280
     1
281
     0
  0
BLOCK_RECORD
  5
12F
330
1
100
AcDbSymbolTableRecord
100
AcDbBlockTableRecord
  2
block 8
340
0
102
{BLKREFS
331
130
102
}
 70
     0
280
     1
281
     0
  0
BLOCK_RECORD
  5
14D
330
1
100
AcDbSymbolTableRecord
100
AcDbBlockTableRecord
  2
block 9
340
0
102
{BLKREFS
331
14E
102
}
 70
     0
280
     1
281
     0
  0
BLOCK_RECORD
  5
155
330
1
100
AcDbSymbolTableRecord
100
AcDbBlockTableRecord
  2
block 10
340
0
102
{BLKREFS
331
156
102
}
 70
     0
280
     1
281
     0
  0
ENDTAB
  0
ENDSEC
  0
SECTION
  2
BLOCKS
  0
BLOCK
  5
20
330
1F
100
AcDbEntity
  8
0
100
AcDbBlockBegin
  2
*Model_Space
 70
     0
 10
0.0
 20
0.0
 30
0.0
  3
*Model_Space
  1

  0
ENDBLK
  5
21
330
1F
100
AcDbEntity
  8
0
100
AcDbBlockEnd
  0
BLOCK
  5
1C
330
1B
100
AcDbEntity
 67
     1
  8
0
100
AcDbBlockBegin
  2
*Paper_Space
 70
     0
 10
0.0
 20
0.0
 30
0.0
  3
*Paper_Space
  1

  0
ENDBLK
  5
1D
330
1B
100
AcDbEntity
 67
     1
  8
0
100
AcDbBlockEnd
  0
BLOCK
  5
24
330
23
100
AcDbEntity
  8
0
100
AcDbBlockBegin
  2
*Paper_Space0
 70
     0
 10
0.0
 20
0.0
 30
0.0
  3
*Paper_Space0
  1

  0
ENDBLK
  5
25
330
23
100
AcDbEntity
  8
0
100
AcDbBlockEnd
  0
BLOCK
  5
43
330
41
100
AcDbEntity
  8
0
100
AcDbBlockBegin
  2
block 2
 70
     0
 10
0.0
 20
0.0
 30
0.0
  3
block 2
  1

  0
SPLINE
  5
45
330
41
100
AcDbEntity
  8
_U+30EC_U+30A4_U+30E4_U+30FC 1
370
     0
100
AcDbSpline
210
0.0
220
0.0
230
1.0
 70
    11
 71
     3
 72
    74
 73
    70
 74
     0
 42
0.0000000001
 43
0.0000000001
 12
1.0
 22
0.0
 32
0.0
 13
1.0
 23
0.0
 33
0.0
 40
0.0
 40
0.0
 40
0.0
 40
0.0
 40
1.0
 40
1.0
 40
1.0
 40
2.0
 40
2.0
 40
2.0
 40
3.0
 40
3.0
 40
3.0
 40
4.0
 40
4.0
 40
4.0
 40
5.0
 40
5.0
 40
5.0
 40
6.0
 40
6.0
 40
6.0
 40
7.0
 40
7.0
 40
7.0
 40
8.0
 40
8.0
 40
8.0
 40
9.0
 40
9.0
 40
9.0
 40
10.0
 40
10.0
 40
10.0
 40
11.0
 40
11.0
 40
11.0
 40
12.0
 40
12.0
 40
12.0
 40
13.0
 40
13.0
 40
13.0
 40
14.0
 40
14.0
 40
14.0
 40
15.0
 40
15.0
 40
15.0
 40
16.0
 40
16.0
 40
16.0
 40
17.0
 40
17.0
 40
17.0
 40
18.0
 40
18.0
 40
18.0
 40
19.0
 40
19.0
 40
19.0
 40
20.0
 40
20.0
 40
20.0
 40
21.0
 40
21.0
 40
21.0
 40
22.0
 40
22.0
 40
22.0
 40
23.0
 40
23.0
 40
23.0
 40
23.0
 10
101.1152833080546
 20
-137.4286402434205
 30
0.0
 10
101.1152833080546
 20
-137.4286402434205
 30
0.0
 10
92.98897429432029
 20
-137.4286402434205
 30
0.0
 10
92.98897429432029
 20
-137.4286402434205
 30
0.0
 10
92.98897429432029
 20
-137.4286402434205
 30
0.0
 10
91.61575155157634
 20
-136.9291069102124
 30
0.0
 10
91.61575155157634
 20
-136.9291069102124
 30
0.0
 10
91.61575155157634
 20
-136.9291069102124
 30
0.0
 10
83.52945009120842
 20
-136.9291069102124
 30
0.0
 10
83.52945009120842
 20
-136.9291069102124
 30
0.0
 10
83.52945009120842
 20
-136.9291069102124
 30
0.0
 10
82.24646790171779
 20
-135.6461599660883
 30
0.0
 10
82.24646790171779
 20
-135.6461599660883
 30
0.0
 10
82.24646790171779
 20
-135.6461599660883
 30
0.0
 10
84.46374673403919
 20
-133.4285635777541
 30
0.0
 10
84.46374673403919
 20
-133.4285635777541
 30
0.0
 10
84.46374673403919
 20
-133.4285635777541
 30
0.0
 10
91.61575155157634
 20
-133.4285635777541
 30
0.0
 10
91.61575155157634
 20
-133.4285635777541
 30
0.0
 10
91.61575155157634
 20
-133.4285635777541
 30
0.0
 10
91.61575155157634
 20
-132.9283246889904
 30
0.0
 10
91.61575155157634
 20
-132.9283246889904
 30
0.0
 10
91.61575155157634
 20
-132.9283246889904
 30
0.0
 10
89.61553688038384
 20
-132.4287913557815
 30
0.0
 10
89.61553688038384
 20
-132.4287913557815
 30
0.0
 10
89.61553688038384
 20
-132.4287913557815
 30
0.0
 10
84.61533534128296
 20
-132.4287913557815
 30
0.0
 10
84.61533534128296
 20
-132.4287913557815
 30
0.0
 10
84.61533534128296
 20
-132.4287913557815
 30
0.0
 10
84.61533534128296
 20
-127.4285544125872
 30
0.0
 10
84.61533534128296
 20
-127.4285544125872
 30
0.0
 10
84.61533534128296
 20
-127.4285544125872
 30
0.0
 10
84.11580202069378
 20
-125.4283396908651
 30
0.0
 10
84.11580202069378
 20
-125.4283396908651
 30
0.0
 10
84.11580202069378
 20
-125.4283396908651
 30
0.0
 10
83.61556314456705
 20
-125.4283396908651
 30
0.0
 10
83.61556314456705
 20
-125.4283396908651
 30
0.0
 10
83.61556314456705
 20
-125.4283396908651
 30
0.0
 10
83.61556314456705
 20
-132.580379966855
 30
0.0
 10
83.61556314456705
 20
-132.580379966855
 30
0.0
 10
83.61556314456705
 20
-132.580379966855
 30
0.0
 10
81.39831959002252
 20
-134.7972707996343
 30
0.0
 10
81.39831959002252
 20
-134.7972707996343
 30
0.0
 10
81.39831959002252
 20
-134.7972707996343
 30
0.0
 10
80.11533740053191
 20
-133.514676633288
 30
0.0
 10
80.11533740053191
 20
-133.514676633288
 30
0.0
 10
80.11533740053191
 20
-133.514676633288
 30
0.0
 10
80.11533740053191
 20
-125.4283396908651
 30
0.0
 10
80.11533740053191
 20
-125.4283396908651
 30
0.0
 10
80.11533740053191
 20
-125.4283396908651
 30
0.0
 10
79.61513380218206
 20
-124.0551169134306
 30
0.0
 10
79.61513380218206
 20
-124.0551169134306
 30
0.0
 10
79.61513380218206
 20
-124.0551169134306
 30
0.0
 10
79.61513380218206
 20
-120.9283769142123
 30
0.0
 10
79.61513380218206
 20
-120.9283769142123
 30
0.0
 10
79.61513380218206
 20
-120.6520813587259
 30
0.0
 10
79.391190474562
 20
-120.428808303226
 30
0.0
 10
79.115565203816
 20
-120.428808303226
 30
0.0
 10
79.115565203816
 20
-120.428808303226
 30
0.0
 10
79.115565203816
 20
-133.9287671887403
 30
0.0
 10
79.115565203816
 20
-133.9287671887403
 30
0.0
 10
79.115565203816
 20
-133.9287671887403
 30
0.0
 10
83.1153242684403
 20
-137.9288791321842
 30
0.0
 10
83.1153242684403
 20
-137.9288791321842
 30
0.0
 10
83.1153242684403
 20
-137.9288791321842
 30
0.0
 10
101.6154843520175
 20
-137.9288791321842
 30
0.0
 10
101.6154843520175
 20
-137.9288791321842
 30
0.0
 10
101.6154843520175
 20
-137.6525835766978
 30
0.0
 10
101.3915763021743
 20
-137.4286402434205
 30
0.0
 10
101.1152833080546
 20
-137.4286402434205
 30
0.0
  0
HATCH
  5
46
330
41
100
AcDbEntity
  8
_U+30EC_U+30A4_U+30E4_U+30FC 1
 62
   253
420
 11711154
100
AcDbHatch
 10
0.0
 20
0.0
 30
0.0
210
0.0
220
0.0
230
1.0
  2
SOLID
 70
     1
 71
     0
 91
        1
 92
        1
 93
        1
 72
     4
 94
        3
 73
     0
 74
     1
 95
       74
 96
       70
 40
0.0
 40
0.0
 40
0.0
 40
0.0
 40
1.0
 40
1.0
 40
1.0
 40
2.0
 40
2.0
 40
2.0
 40
3.0
 40
3.0
 40
3.0
 40
4.0
 40
4.0
 40
4.0
 40
5.0
 40
5.0
 40
5.0
 40
6.0
 40
6.0
 40
6.0
 40
7.0
 40
7.0
 40
7.0
 40
8.0
 40
8.0
 40
8.0
 40
9.0
 40
9.0
 40
9.0
 40
10.0
 40
10.0
 40
10.0
 40
11.0
 40
11.0
 40
11.0
 40
12.0
 40
12.0
 40
12.0
 40
13.0
 40
13.0
 40
13.0
 40
14.0
 40
14.0
 40
14.0
 40
15.0
 40
15.0
 40
15.0
 40
16.0
 40
16.0
 40
16.0
 40
17.0
 40
17.0
 40
17.0
 40
18.0
 40
18.0
 40
18.0
 40
19.0
 40
19.0
 40
19.0
 40
20.0
 40
20.0
 40
20.0
 40
21.0
 40
21.0
 40
21.0
 40
22.0
 40
22.0
 40
22.0
 40
23.0
 40
23.0
 40
23.0
 40
23.0
 10
101.1152833080546
 20
-137.4286402434205
 10
101.1152833080546
 20
-137.4286402434205
 10
92.98897429432029
 20
-137.4286402434205
 10
92.98897429432029
 20
-137.4286402434205
 10
92.98897429432029
 20
-137.4286402434205
 10
91.61575155157634
 20
-136.9291069102124
 10
91.61575155157634
 20
-136.9291069102124
 10
91.61575155157634
 20
-136.9291069102124
 10
83.52945009120842
 20
-136.9291069102124
 10
83.52945009120842
 20
-136.9291069102124
 10
83.52945009120842
 20
-136.9291069102124
 10
82.24646790171779
 20
-135.6461599660883
 10
82.24646790171779
 20
-135.6461599660883
 10
82.24646790171779
 20
-135.6461599660883
 10
84.46374673403919
 20
-133.4285635777541
 10
84.46374673403919
 20
-133.4285635777541
 10
84.46374673403919
 20
-133.4285635777541
 10
91.61575155157634
 20
-133.4285635777541
 10
91.61575155157634
 20
-133.4285635777541
 10
91.61575155157634
 20
-133.4285635777541
 10
91.61575155157634
 20
-132.9283246889904
 10
91.61575155157634
 20
-132.9283246889904
 10
91.61575155157634
 20
-132.9283246889904
 10
89.61553688038384
 20
-132.4287913557815
 10
89.61553688038384
 20
-132.4287913557815
 10
89.61553688038384
 20
-132.4287913557815
 10
84.61533534128296
 20
-132.4287913557815
 10
84.61533534128296
 20
-132.4287913557815
 10
84.61533534128296
 20
-132.4287913557815
 10
84.61533534128296
 20
-127.4285544125872
 10
84.61533534128296
 20
-127.4285544125872
 10
84.61533534128296
 20
-127.4285544125872
 10
84.11580202069378
 20
-125.4283396908651
 10
84.11580202069378
 20
-125.4283396908651
 10
84.11580202069378
 20
-125.4283396908651
 10
83.61556314456705
 20
-125.4283396908651
 10
83.61556314456705
 20
-125.4283396908651
 10
83.61556314456705
 20
-125.4283396908651
 10
83.61556314456705
 20
-132.580379966855
 10
83.61556314456705
 20
-132.580379966855
 10
83.61556314456705
 20
-132.580379966855
 10
81.39831959002252
 20
-134.7972707996343
 10
81.39831959002252
 20
-134.7972707996343
 10
81.39831959002252
 20
-134.7972707996343
 10
80.11533740053191
 20
-133.514676633288
 10
80.11533740053191
 20
-133.514676633288
 10
80.11533740053191
 20
-133.514676633288
 10
80.11533740053191
 20
-125.4283396908651
 10
80.11533740053191
 20
-125.4283396908651
 10
80.11533740053191
 20
-125.4283396908651
 10
79.61513380218206
 20
-124.0551169134306
 10
79.61513380218206
 20
-124.0551169134306
 10
79.61513380218206
 20
-124.0551169134306
 10
79.61513380218206
 20
-120.9283769142123
 10
79.61513380218206
 20
-120.9283769142123
 10
79.61513380218206
 20
-120.6520813587259
 10
79.391190474562
 20
-120.428808303226
 10
79.115565203816
 20
-120.428808303226
 10
79.115565203816
 20
-120.428808303226
 10
79.115565203816
 20
-133.9287671887403
 10
79.115565203816
 20
-133.9287671887403
 10
79.115565203816
 20
-133.9287671887403
 10
83.1153242684403
 20
-137.9288791321842
 10
83.1153242684403
 20
-137.9288791321842
 10
83.1153242684403
 20
-137.9288791321842
 10
101.6154843520175
 20
-137.9288791321842
 10
101.6154843520175
 20
-137.9288791321842
 10
101.6154843520175
 20
-137.6525835766978
 10
101.3915763021743
 20
-137.4286402434205
 10
101.1152833080546
 20
-137.4286402434205
 97
        0
 97
        0
 75
     2
 76
     1
 98
        0
  0
POLYLINE
  5
47
330
41
100
AcDbEntity
  8
_U+30EC_U+30A4_U+30E4_U+30FC 1
 62
     7
420
 16777215
370
    25
100
AcDb2dPolyline
 66
     1
 10
0.0
 20
0.0
 30
0.0
  0
VERTEX
  5
48
330
47
100
AcDbEntity
  8
_U+30EC_U+30A4_U+30E4_U+30FC 1
 62
     7
420
 16777215
370
    25
100
AcDbVertex
100
AcDb2dVertex
 10
79.115565203816
 20
-120.428808303226
 30
0.0
  0
VERTEX
  5
49
330
47
100
AcDbEntity
  8
_U+30EC_U+30A4_U+30E4_U+30FC 1
 62
     7
420
 16777215
370
    25
100
AcDbVertex
100
AcDb2dVertex
 10
79.115565203816
 20
-133.9287671887403
 30
0.0
  0
SEQEND
  5
4A
330
47
100
AcDbEntity
  8
_U+30EC_U+30A4_U+30E4_U+30FC 1
 62
     7
420
 16777215
370
    25
  0
POLYLINE
  5
4B
330
41
100
AcDbEntity
  8
_U+30EC_U+30A4_U+30E4_U+30FC 1
 62
     7
420
 16777215
370
    25
100
AcDb2dPolyline
 66
     1
 10
0.0
 20
0.0
 30
0.0
  0
VERTEX
  5
4C
330
4B
100
AcDbEntity
  8
_U+30EC_U+30A4_U+30E4_U+30FC 1
 62
     7
420
 16777215
370
    25
100
AcDbVertex
100
AcDb2dVertex
 10
83.1153242684403
 20
-137.9288791321842
 30
0.0
  0
VERTEX
  5
4D
330
4B
100
AcDbEntity
  8
_U+30EC_U+30A4_U+30E4_U+30FC 1
 62
     7
420
 16777215
370
    25
100
AcDbVertex
100
AcDb2dVertex
 10
101.6154843520175
 20
-137.9288791321842
 30
0.0
  0
SEQEND
  5
4E
330
4B
100
AcDbEntity
  8
_U+30EC_U+30A4_U+30E4_U+30FC 1
 62
     7
420
 16777215
370
    25
  0
POLYLINE
  5
4F
330
41
100
AcDbEntity
  8
_U+30EC_U+30A4_U+30E4_U+30FC 1
 62
     7
420
 16777215
370
    25
100
AcDb2dPolyline
 66
     1
 10
0.0
 20
0.0
 30
0.0
  0
VERTEX
  5
50
330
4F
100
AcDbEntity
  8
_U+30EC_U+30A4_U+30E4_U+30FC 1
 62
     7
420
 16777215
370
    25
100
AcDbVertex
100
AcDb2dVertex
 10
83.1153242684403
 20
-137.9288791321842
 30
0.0
  0
VERTEX
  5
51
330
4F
100
AcDbEntity
  8
_U+30EC_U+30A4_U+30E4_U+30FC 1
 62
     7
420
 16777215
370
    25
100
AcDbVertex
100
AcDb2dVertex
 10
79.115565203816
 20
-133.9287671887403
 30
0.0
  0
SEQEND
  5
52
330
4F
100
AcDbEntity
  8
_U+30EC_U+30A4_U+30E4_U+30FC 1
 62
     7
420
 16777215
370
    25
  0
POLYLINE
  5
53
330
41
100
AcDbEntity
  8
_U+30EC_U+30A4_U+30E4_U+30FC 1
 62
     7
420
 16777215
370
    25
100
AcDb2dPolyline
 66
     1
 10
0.0
 20
0.0
 30
0.0
  0
VERTEX
  5
54
330
53
100
AcDbEntity
  8
_U+30EC_U+30A4_U+30E4_U+30FC 1
 62
     7
420
 16777215
370
    25
100
AcDbVertex
100
AcDb2dVertex
 10
80.11533740053191
 20
-125.4283396908651
 30
0.0
  0
VERTEX
  5
55
330
53
100
AcDbEntity
  8
_U+30EC_U+30A4_U+30E4_U+30FC 1
 62
     7
420
 16777215
370
    25
100
AcDbVertex
100
AcDb2dVertex
 10
80.11533740053191
 20
-133.514676633288
 30
0.0
  0
SEQEND
  5
56
330
53
100
AcDbEntity
  8
_U+30EC_U+30A4_U+30E4_U+30FC 1
 62
     7
420
 16777215
370
    25
  0
POLYLINE
  5
57
330
41
100
AcDbEntity
  8
_U+30EC_U+30A4_U+30E4_U+30FC 1
 62
     7
420
 16777215
370
    25
100
AcDb2dPolyline
 66
     1
 10
0.0
 20
0.0
 30
0.0
  0
VERTEX
  5
58
330
57
100
AcDbEntity
  8
_U+30EC_U+30A4_U+30E4_U+30FC 1
 62
     7
420
 16777215
370
    25
100
AcDbVertex
100
AcDb2dVertex
 10
83.52945009120842
 20
-136.9291069102124
 30
0.0
  0
VERTEX
  5
59
330
57
100
AcDbEntity
  8
_U+30EC_U+30A4_U+30E4_U+30FC 1
 62
     7
420
 16777215
370
    25
100
AcDbVertex
100
AcDb2dVertex
 10
82.24646790171779
 20
-135.6461599660883
 30
0.0
  0
SEQEND
  5
5A
330
57
100
AcDbEntity
  8
_U+30EC_U+30A4_U+30E4_U+30FC 1
 62
     7
420
 16777215
370
    25
  0
POLYLINE
  5
5B
330
41
100
AcDbEntity
  8
_U+30EC_U+30A4_U+30E4_U+30FC 1
 62
     7
420
 16777215
370
    25
100
AcDb2dPolyline
 66
     1
 10
0.0
 20
0.0
 30
0.0
  0
VERTEX
  5
5C
330
5B
100
AcDbEntity
  8
_U+30EC_U+30A4_U+30E4_U+30FC 1
 62
     7
420
 16777215
370
    25
100
AcDbVertex
100
AcDb2dVertex
 10
83.52945009120842
 20
-136.9291069102124
 30
0.0
  0
VERTEX
  5
5D
330
5B
100
AcDbEntity
  8
_U+30EC_U+30A4_U+30E4_U+30FC 1
 62
     7
420
 16777215
370
    25
100
AcDbVertex
100
AcDb2dVertex
 10
91.61575155157634
 20
-136.9291069102124
 30
0.0
  0
SEQEND
  5
5E
330
5B
100
AcDbEntity
  8
_U+30EC_U+30A4_U+30E4_U+30FC 1
 62
     7
420
 16777215
370
    25
  0
POLYLINE
  5
5F
330
41
100
AcDbEntity
  8
_U+30EC_U+30A4_U+30E4_U+30FC 1
 62
     7
420
 16777215
370
    25
100
AcDb2dPolyline
 66
     1
 10
0.0
 20
0.0
 30
0.0
  0
VERTEX
  5
60
330
5F
100
AcDbEntity
  8
_U+30EC_U+30A4_U+30E4_U+30FC 1
 62
     7
420
 16777215
370
    25
100
AcDbVertex
100
AcDb2dVertex
 10
83.61556314456705
 20
-125.4283396908651
 30
0.0
  0
VERTEX
  5
61
330
5F
100
AcDbEntity
  8
_U+30EC_U+30A4_U+30E4_U+30FC 1
 62
     7
420
 16777215
370
    25
100
AcDbVertex
100
AcDb2dVertex
 10
83.61556314456705
 20
-132.580379966855
 30
0.0
  0
SEQEND
  5
62
330
5F
100
AcDbEntity
  8
_U+30EC_U+30A4_U+30E4_U+30FC 1
 62
     7
420
 16777215
370
    25
  0
POLYLINE
  5
63
330
41
100
AcDbEntity
  8
_U+30EC_U+30A4_U+30E4_U+30FC 1
 62
     7
420
 16777215
370
    25
100
AcDb2dPolyline
 66
     1
 10
0.0
 20
0.0
 30
0.0
  0
VERTEX
  5
64
330
63
100
AcDbEntity
  8
_U+30EC_U+30A4_U+30E4_U+30FC 1
 62
     7
420
 16777215
370
    25
100
AcDbVertex
100
AcDb2dVertex
 10
84.61533534128296
 20
-127.4285544125872
 30
0.0
  0
VERTEX
  5
65
330
63
100
AcDbEntity
  8
_U+30EC_U+30A4_U+30E4_U+30FC 1
 62
     7
420
 16777215
370
    25
100
AcDbVertex
100
AcDb2dVertex
 10
84.61533534128296
 20
-132.4287913557815
 30
0.0
  0
SEQEND
  5
66
330
63
100
AcDbEntity
  8
_U+30EC_U+30A4_U+30E4_U+30FC 1
 62
     7
420
 16777215
370
    25
  0
POLYLINE
  5
67
330
41
100
AcDbEntity
  8
_U+30EC_U+30A4_U+30E4_U+30FC 1
 62
     7
420
 16777215
370
    25
100
AcDb2dPolyline
 66
     1
 10
0.0
 20
0.0
 30
0.0
  0
VERTEX
  5
68
330
67
100
AcDbEntity
  8
_U+30EC_U+30A4_U+30E4_U+30FC 1
 62
     7
420
 16777215
370
    25
100
AcDbVertex
100
AcDb2dVertex
 10
84.46374673403919
 20
-133.4285635777541
 30
0.0
  0
VERTEX
  5
69
330
67
100
AcDbEntity
  8
_U+30EC_U+30A4_U+30E4_U+30FC 1
 62
     7
420
 16777215
370
    25
100
AcDbVertex
100
AcDb2dVertex
 10
91.61575155157634
 20
-133.4285635777541
 30
0.0
  0
SEQEND
  5
6A
330
67
100
AcDbEntity
  8
_U+30EC_U+30A4_U+30E4_U+30FC 1
 62
     7
420
 16777215
370
    25
  0
POLYLINE
  5
6B
330
41
100
AcDbEntity
  8
_U+30EC_U+30A4_U+30E4_U+30FC 1
 62
     7
420
 16777215
370
    25
100
AcDb2dPolyline
 66
     1
 10
0.0
 20
0.0
 30
0.0
  0
VERTEX
  5
6C
330
6B
100
AcDbEntity
  8
_U+30EC_U+30A4_U+30E4_U+30FC 1
 62
     7
420
 16777215
370
    25
100
AcDbVertex
100
AcDb2dVertex
 10
84.61533534128296
 20
-132.4287913557815
 30
0.0
  0
VERTEX
  5
6D
330
6B
100
AcDbEntity
  8
_U+30EC_U+30A4_U+30E4_U+30FC 1
 62
     7
420
 16777215
370
    25
100
AcDbVertex
100
AcDb2dVertex
 10
89.61553688038384
 20
-132.4287913557815
 30
0.0
  0
SEQEND
  5
6E
330
6B
100
AcDbEntity
  8
_U+30EC_U+30A4_U+30E4_U+30FC 1
 62
     7
420
 16777215
370
    25
  0
POLYLINE
  5
6F
330
41
100
AcDbEntity
  8
_U+30EC_U+30A4_U+30E4_U+30FC 1
 62
     7
420
 16777215
370
    25
100
AcDb2dPolyline
 66
     1
 10
0.0
 20
0.0
 30
0.0
  0
VERTEX
  5
70
330
6F
100
AcDbEntity
  8
_U+30EC_U+30A4_U+30E4_U+30FC 1
 62
     7
420
 16777215
370
    25
100
AcDbVertex
100
AcDb2dVertex
 10
81.39831959002252
 20
-134.7972707996343
 30
0.0
  0
VERTEX
  5
71
330
6F
100
AcDbEntity
  8
_U+30EC_U+30A4_U+30E4_U+30FC 1
 62
     7
420
 16777215
370
    25
100
AcDbVertex
100
AcDb2dVertex
 10
80.11533740053191
 20
-133.514676633288
 30
0.0
  0
SEQEND
  5
72
330
6F
100
AcDbEntity
  8
_U+30EC_U+30A4_U+30E4_U+30FC 1
 62
     7
420
 16777215
370
    25
  0
POLYLINE
  5
73
330
41
100
AcDbEntity
  8
_U+30EC_U+30A4_U+30E4_U+30FC 1
 62
     7
420
 16777215
370
    25
100
AcDb2dPolyline
 66
     1
 10
0.0
 20
0.0
 30
0.0
  0
VERTEX
  5
74
330
73
100
AcDbEntity
  8
_U+30EC_U+30A4_U+30E4_U+30FC 1
 62
     7
420
 16777215
370
    25
100
AcDbVertex
100
AcDb2dVertex
 10
83.61556314456705
 20
-125.4283396908651
 30
0.0
  0
VERTEX
  5
75
330
73
100
AcDbEntity
  8
_U+30EC_U+30A4_U+30E4_U+30FC 1
 62
     7
420
 16777215
370
    25
100
AcDbVertex
100
AcDb2dVertex
 10
84.11580202069378
 20
-125.4283396908651
 30
0.0
  0
SEQEND
  5
76
330
73
100
AcDbEntity
  8
_U+30EC_U+30A4_U+30E4_U+30FC 1
 62
     7
420
 16777215
370
    25
  0
POLYLINE
  5
77
330
41
100
AcDbEntity
  8
_U+30EC_U+30A4_U+30E4_U+30FC 1
 62
     7
420
 16777215
370
    25
100
AcDb2dPolyline
 66
     1
 10
0.0
 20
0.0
 30
0.0
  0
VERTEX
  5
78
330
77
100
AcDbEntity
  8
_U+30EC_U+30A4_U+30E4_U+30FC 1
 62
     7
420
 16777215
370
    25
100
AcDbVertex
100
AcDb2dVertex
 10
91.61575155157634
 20
-132.9283246889904
 30
0.0
  0
VERTEX
  5
79
330
77
100
AcDbEntity
  8
_U+30EC_U+30A4_U+30E4_U+30FC 1
 62
     7
420
 16777215
370
    25
100
AcDbVertex
100
AcDb2dVertex
 10
91.61575155157634
 20
-133.4285635777541
 30
0.0
  0
SEQEND
  5
7A
330
77
100
AcDbEntity
  8
_U+30EC_U+30A4_U+30E4_U+30FC 1
 62
     7
420
 16777215
370
    25
  0
POLYLINE
  5
7B
330
41
100
AcDbEntity
  8
_U+30EC_U+30A4_U+30E4_U+30FC 1
 62
     7
420
 16777215
370
    25
100
AcDb2dPolyline
 66
     1
 10
0.0
 20
0.0
 30
0.0
  0
VERTEX
  5
7C
330
7B
100
AcDbEntity
  8
_U+30EC_U+30A4_U+30E4_U+30FC 1
 62
     7
420
 16777215
370
    25
100
AcDbVertex
100
AcDb2dVertex
 10
79.61513380218206
 20
-120.9283769142123
 30
0.0
  0
VERTEX
  5
7D
330
7B
100
AcDbEntity
  8
_U+30EC_U+30A4_U+30E4_U+30FC 1
 62
     7
420
 16777215
370
    25
100
AcDbVertex
100
AcDb2dVertex
 10
79.61513380218206
 20
-124.0551169134306
 30
0.0
  0
SEQEND
  5
7E
330
7B
100
AcDbEntity
  8
_U+30EC_U+30A4_U+30E4_U+30FC 1
 62
     7
420
 16777215
370
    25
  0
POLYLINE
  5
7F
330
41
100
AcDbEntity
  8
_U+30EC_U+30A4_U+30E4_U+30FC 1
 62
     7
420
 16777215
370
    25
100
AcDb2dPolyline
 66
     1
 10
0.0
 20
0.0
 30
0.0
  0
VERTEX
  5
80
330
7F
100
AcDbEntity
  8
_U+30EC_U+30A4_U+30E4_U+30FC 1
 62
     7
420
 16777215
370
    25
100
AcDbVertex
100
AcDb2dVertex
 10
80.11533740053191
 20
-125.4283396908651
 30
0.0
  0
VERTEX
  5
81
330
7F
100
AcDbEntity
  8
_U+30EC_U+30A4_U+30E4_U+30FC 1
 62
     7
420
 16777215
370
    25
100
AcDbVertex
100
AcDb2dVertex
 10
79.61513380218206
 20
-124.0551169134306
 30
0.0
  0
SEQEND
  5
82
330
7F
100
AcDbEntity
  8
_U+30EC_U+30A4_U+30E4_U+30FC 1
 62
     7
420
 16777215
370
    25
  0
POLYLINE
  5
83
330
41
100
AcDbEntity
  8
_U+30EC_U+30A4_U+30E4_U+30FC 1
 62
     7
420
 16777215
370
    25
100
AcDb2dPolyline
 66
     1
 10
0.0
 20
0.0
 30
0.0
  0
VERTEX
  5
84
330
83
100
AcDbEntity
  8
_U+30EC_U+30A4_U+30E4_U+30FC 1
 62
     7
420
 16777215
370
    25
100
AcDbVertex
100
AcDb2dVertex
 10
92.98897429432029
 20
-137.4286402434205
 30
0.0
  0
VERTEX
  5
85
330
83
100
AcDbEntity
  8
_U+30EC_U+30A4_U+30E4_U+30FC 1
 62
     7
420
 16777215
370
    25
100
AcDbVertex
100
AcDb2dVertex
 10
101.1152833080546
 20
-137.4286402434205
 30
0.0
  0
SEQEND
  5
86
330
83
100
AcDbEntity
  8
_U+30EC_U+30A4_U+30E4_U+30FC 1
 62
     7
420
 16777215
370
    25
  0
POLYLINE
  5
87
330
41
100
AcDbEntity
  8
_U+30EC_U+30A4_U+30E4_U+30FC 1
 62
     7
420
 16777215
370
    25
100
AcDb2dPolyline
 66
     1
 10
0.0
 20
0.0
 30
0.0
  0
VERTEX
  5
88
330
87
100
AcDbEntity
  8
_U+30EC_U+30A4_U+30E4_U+30FC 1
 62
     7
420
 16777215
370
    25
100
AcDbVertex
100
AcDb2dVertex
 10
91.61575155157634
 20
-136.9291069102124
 30
0.0
  0
VERTEX
  5
89
330
87
100
AcDbEntity
  8
_U+30EC_U+30A4_U+30E4_U+30FC 1
 62
     7
420
 16777215
370
    25
100
AcDbVertex
100
AcDb2dVertex
 10
92.98897429432029
 20
-137.4286402434205
 30
0.0
  0
SEQEND
  5
8A
330
87
100
AcDbEntity
  8
_U+30EC_U+30A4_U+30E4_U+30FC 1
 62
     7
420
 16777215
370
    25
  0
POLYLINE
  5
8B
330
41
100
AcDbEntity
  8
_U+30EC_U+30A4_U+30E4_U+30FC 1
 62
     7
420
 16777215
370
    25
100
AcDb2dPolyline
 66
     1
 10
0.0
 20
0.0
 30
0.0
  0
VERTEX
  5
8C
330
8B
100
AcDbEntity
  8
_U+30EC_U+30A4_U+30E4_U+30FC 1
 62
     7
420
 16777215
370
    25
100
AcDbVertex
100
AcDb2dVertex
 10
82.24646790171779
 20
-135.6461599660883
 30
0.0
  0
VERTEX
  5
8D
330
8B
100
AcDbEntity
  8
_U+30EC_U+30A4_U+30E4_U+30FC 1
 62
     7
420
 16777215
370
    25
100
AcDbVertex
100
AcDb2dVertex
 10
84.46374673403919
 20
-133.4285635777541
 30
0.0
  0
SEQEND
  5
8E
330
8B
100
AcDbEntity
  8
_U+30EC_U+30A4_U+30E4_U+30FC 1
 62
     7
420
 16777215
370
    25
  0
POLYLINE
  5
8F
330
41
100
AcDbEntity
  8
_U+30EC_U+30A4_U+30E4_U+30FC 1
 62
     7
420
 16777215
370
    25
100
AcDb2dPolyline
 66
     1
 10
0.0
 20
0.0
 30
0.0
  0
VERTEX
  5
90
330
8F
100
AcDbEntity
  8
_U+30EC_U+30A4_U+30E4_U+30FC 1
 62
     7
420
 16777215
370
    25
100
AcDbVertex
100
AcDb2dVertex
 10
81.39831959002252
 20
-134.7972707996343
 30
0.0
  0
VERTEX
  5
91
330
8F
100
AcDbEntity
  8
_U+30EC_U+30A4_U+30E4_U+30FC 1
 62
     7
420
 16777215
370
    25
100
AcDbVertex
100
AcDb2dVertex
 10
83.61556314456705
 20
-132.580379966855
 30
0.0
  0
SEQEND
  5
92
330
8F
100
AcDbEntity
  8
_U+30EC_U+30A4_U+30E4_U+30FC 1
 62
     7
420
 16777215
370
    25
  0
POLYLINE
  5
93
330
41
100
AcDbEntity
  8
_U+30EC_U+30A4_U+30E4_U+30FC 1
 62
     7
420
 16777215
370
    25
100
AcDb2dPolyline
 66
     1
 10
0.0
 20
0.0
 30
0.0
  0
VERTEX
  5
94
330
93
100
AcDbEntity
  8
_U+30EC_U+30A4_U+30E4_U+30FC 1
 62
     7
420
 16777215
370
    25
100
AcDbVertex
100
AcDb2dVertex
 10
84.61533534128296
 20
-127.4285544125872
 30
0.0
  0
VERTEX
  5
95
330
93
100
AcDbEntity
  8
_U+30EC_U+30A4_U+30E4_U+30FC 1
 62
     7
420
 16777215
370
    25
100
AcDbVertex
100
AcDb2dVertex
 10
84.11580202069378
 20
-125.4283396908651
 30
0.0
  0
SEQEND
  5
96
330
93
100
AcDbEntity
  8
_U+30EC_U+30A4_U+30E4_U+30FC 1
 62
     7
420
 16777215
370
    25
  0
POLYLINE
  5
97
330
41
100
AcDbEntity
  8
_U+30EC_U+30A4_U+30E4_U+30FC 1
 62
     7
420
 16777215
370
    25
100
AcDb2dPolyline
 66
     1
 10
0.0
 20
0.0
 30
0.0
  0
VERTEX
  5
98
330
97
100
AcDbEntity
  8
_U+30EC_U+30A4_U+30E4_U+30FC 1
 62
     7
420
 16777215
370
    25
100
AcDbVertex
100
AcDb2dVertex
 10
89.61553688038384
 20
-132.4287913557815
 30
0.0
  0
VERTEX
  5
99
330
97
100
AcDbEntity
  8
_U+30EC_U+30A4_U+30E4_U+30FC 1
 62
     7
420
 16777215
370
    25
100
AcDbVertex
100
AcDb2dVertex
 10
91.61575155157634
 20
-132.9283246889904
 30
0.0
  0
SEQEND
  5
9A
330
97
100
AcDbEntity
  8
_U+30EC_U+30A4_U+30E4_U+30FC 1
 62
     7
420
 16777215
370
    25
  0
SPLINE
  5
9B
330
41
100
AcDbEntity
  8
_U+30EC_U+30A4_U+30E4_U+30FC 1
 62
     7
420
 16777215
370
    25
100
AcDbSpline
210
0.0
220
0.0
230
1.0
 70
     8
 71
     3
 72
     8
 73
     4
 74
     0
 42
0.0000000001
 43
0.0000000001
 12
1.0
 22
0.0
 32
0.0
 13
1.0
 23
0.0
 33
0.0
 40
0.0
 40
0.0
 40
0.0
 40
0.0
 40
1.0
 40
1.0
 40
1.0
 40
1.0
 10
79.61513380218206
 20
-120.9283769142123
 30
0.0
 10
79.61513380218206
 20
-120.6520813587259
 30
0.0
 10
79.391190474562
 20
-120.428808303226
 30
0.0
 10
79.115565203816
 20
-120.428808303226
 30
0.0
  0
SPLINE
  5
9C
330
41
100
AcDbEntity
  8
_U+30EC_U+30A4_U+30E4_U+30FC 1
 62
     7
420
 16777215
370
    25
100
AcDbSpline
210
0.0
220
0.0
230
1.0
 70
     8
 71
     3
 72
     8
 73
     4
 74
     0
 42
0.0000000001
 43
0.0000000001
 12
1.0
 22
0.0
 32
0.0
 13
1.0
 23
0.0
 33
0.0
 40
0.0
 40
0.0
 40
0.0
 40
0.0
 40
1.0
 40
1.0
 40
1.0
 40
1.0
 10
101.6154843520175
 20
-137.9288791321842
 30
0.0
 10
101.6154843520175
 20
-137.6525835766978
 30
0.0
 10
101.3915763021743
 20
-137.4286402434205
 30
0.0
 10
101.1152833080546
 20
-137.4286402434205
 30
0.0
  0
SPLINE
  5
9D
330
41
100
AcDbEntity
  8
_U+30EC_U+30A4_U+30E4_U+30FC 1
 62
     7
420
 16777215
370
     9
100
AcDbSpline
210
0.0
220
0.0
230
1.0
 70
    11
 71
     3
 72
    17
 73
    13
 74
     0
 42
0.0000000001
 43
0.0000000001
 12
1.0
 22
0.0
 32
0.0
 13
1.0
 23
0.0
 33
0.0
 40
0.0
 40
0.0
 40
0.0
 40
0.0
 40
1.0
 40
1.0
 40
1.0
 40
2.0
 40
2.0
 40
2.0
 40
3.0
 40
3.0
 40
3.0
 40
4.0
 40
4.0
 40
4.0
 40
4.0
 10
75.21504442564056
 20
-120.428808303226
 30
0.0
 10
75.21504442564056
 20
-120.3729988587956
 30
0.0
 10
75.17094720342936
 20
-120.328231358807
 30
0.0
 10
75.11513586143101
 20
-120.328231358807
 30
0.0
 10
75.06003197394794
 20
-120.328231358807
 30
0.0
 10
75.01522919731318
 20
-120.3729988587956
 30
0.0
 10
75.01522919731318
 20
-120.428808303226
 30
0.0
 10
75.01522919731318
 20
-120.4839474698791
 30
0.0
 10
75.06003197394794
 20
-120.5287502476455
 30
0.0
 10
75.11513586143101
 20
-120.5287502476455
 30
0.0
 10
75.17094720342936
 20
-120.5287502476455
 30
0.0
 10
75.21504442564056
 20
-120.4839474698791
 30
0.0
 10
75.21504442564056
 20
-120.428808303226
 30
0.0
  0
SPLINE
  5
9E
330
41
100
AcDbEntity
  8
_U+30EC_U+30A4_U+30E4_U+30FC 1
 62
     7
420
 16777215
370
     9
100
AcDbSpline
210
0.0
220
0.0
230
1.0
 70
    11
 71
     3
 72
    17
 73
    13
 74
     0
 42
0.0000000001
 43
0.0000000001
 12
1.0
 22
0.0
 32
0.0
 13
1.0
 23
0.0
 33
0.0
 40
0.0
 40
0.0
 40
0.0
 40
0.0
 40
1.0
 40
1.0
 40
1.0
 40
2.0
 40
2.0
 40
2.0
 40
3.0
 40
3.0
 40
3.0
 40
4.0
 40
4.0
 40
4.0
 40
4.0
 10
80.21524406464974
 20
-116.4283788597817
 30
0.0
 10
80.21524406464974
 20
-116.3732749709068
 30
0.0
 10
80.17047656579186
 20
-116.3284721931401
 30
0.0
 10
80.11533740053191
 20
-116.3284721931401
 30
0.0
 10
80.06023351304884
 20
-116.3284721931401
 30
0.0
 10
80.01543073641407
 20
-116.3732749709068
 30
0.0
 10
80.01543073641407
 20
-116.4283788597817
 30
0.0
 10
80.01543073641407
 20
-116.4835180264348
 30
0.0
 10
80.06023351304884
 20
-116.5282855264234
 30
0.0
 10
80.11533740053191
 20
-116.5282855264234
 30
0.0
 10
80.17047656579186
 20
-116.5282855264234
 30
0.0
 10
80.21524406464974
 20
-116.4835180264348
 30
0.0
 10
80.21524406464974
 20
-116.4283788597817
 30
0.0
  0
SPLINE
  5
9F
330
41
100
AcDbEntity
  8
_U+30EC_U+30A4_U+30E4_U+30FC 1
 62
     7
420
 16777215
370
     9
100
AcDbSpline
210
0.0
220
0.0
230
1.0
 70
    11
 71
     3
 72
    17
 73
    13
 74
     0
 42
0.0000000001
 43
0.0000000001
 12
1.0
 22
0.0
 32
0.0
 13
1.0
 23
0.0
 33
0.0
 40
0.0
 40
0.0
 40
0.0
 40
0.0
 40
1.0
 40
1.0
 40
1.0
 40
2.0
 40
2.0
 40
2.0
 40
3.0
 40
3.0
 40
3.0
 40
4.0
 40
4.0
 40
4.0
 40
4.0
 10
83.71546980868487
 20
-116.4283788597817
 30
0.0
 10
83.71546980868487
 20
-116.3732749709068
 30
0.0
 10
83.67070230982699
 20
-116.3284721931401
 30
0.0
 10
83.61556314456705
 20
-116.3284721931401
 30
0.0
 10
83.56045925708398
 20
-116.3284721931401
 30
0.0
 10
83.51565648044921
 20
-116.3732749709068
 30
0.0
 10
83.51565648044921
 20
-116.4283788597817
 30
0.0
 10
83.51565648044921
 20
-116.4835180264348
 30
0.0
 10
83.56045925708398
 20
-116.5282855264234
 30
0.0
 10
83.61556314456705
 20
-116.5282855264234
 30
0.0
 10
83.67070230982699
 20
-116.5282855264234
 30
0.0
 10
83.71546980868487
 20
-116.4835180264348
 30
0.0
 10
83.71546980868487
 20
-116.4283788597817
 30
0.0
  0
SPLINE
  5
A0
330
41
100
AcDbEntity
  8
_U+30EC_U+30A4_U+30E4_U+30FC 1
 62
     7
420
 16777215
370
     9
100
AcDbSpline
210
0.0
220
0.0
230
1.0
 70
    11
 71
     3
 72
    17
 73
    13
 74
     0
 42
0.0000000001
 43
0.0000000001
 12
1.0
 22
0.0
 32
0.0
 13
1.0
 23
0.0
 33
0.0
 40
0.0
 40
0.0
 40
0.0
 40
0.0
 40
1.0
 40
1.0
 40
1.0
 40
2.0
 40
2.0
 40
2.0
 40
3.0
 40
3.0
 40
3.0
 40
4.0
 40
4.0
 40
4.0
 40
4.0
 10
91.71565821569418
 20
-116.4283788597817
 30
0.0
 10
91.71565821569418
 20
-116.3732749709068
 30
0.0
 10
91.6708907168363
 20
-116.3284721931401
 30
0.0
 10
91.61575155157634
 20
-116.3284721931401
 30
0.0
 10
91.55994442155477
 20
-116.3284721931401
 30
0.0
 10
91.51517460969784
 20
-116.3732749709068
 30
0.0
 10
91.51517460969784
 20
-116.4283788597817
 30
0.0
 10
91.51517460969784
 20
-116.4835180264348
 30
0.0
 10
91.55994442155477
 20
-116.5282855264234
 30
0.0
 10
91.61575155157634
 20
-116.5282855264234
 30
0.0
 10
91.6708907168363
 20
-116.5282855264234
 30
0.0
 10
91.71565821569418
 20
-116.4835180264348
 30
0.0
 10
91.71565821569418
 20
-116.4283788597817
 30
0.0
  0
SPLINE
  5
A1
330
41
100
AcDbEntity
  8
_U+30EC_U+30A4_U+30E4_U+30FC 1
 62
     7
420
 16777215
370
     9
100
AcDbSpline
210
0.0
220
0.0
230
1.0
 70
    11
 71
     3
 72
    17
 73
    13
 74
     0
 42
0.0000000001
 43
0.0000000001
 12
1.0
 22
0.0
 32
0.0
 13
1.0
 23
0.0
 33
0.0
 40
0.0
 40
0.0
 40
0.0
 40
0.0
 40
1.0
 40
1.0
 40
1.0
 40
2.0
 40
2.0
 40
2.0
 40
3.0
 40
3.0
 40
3.0
 40
4.0
 40
4.0
 40
4.0
 40
4.0
 10
105.7151527513493
 20
-125.4283396908651
 30
0.0
 10
105.7151527513493
 20
-125.3732358019902
 30
0.0
 10
105.6703825819017
 20
-125.3284330242235
 30
0.0
 10
105.6152434166418
 20
-125.3284330242235
 30
0.0
 10
105.5601395291587
 20
-125.3284330242235
 30
0.0
 10
105.5153367525239
 20
-125.3732358019902
 30
0.0
 10
105.5153367525239
 20
-125.4283396908651
 30
0.0
 10
105.5153367525239
 20
-125.4834788575182
 30
0.0
 10
105.5601395291587
 20
-125.5282463575067
 30
0.0
 10
105.6152434166418
 20
-125.5282463575067
 30
0.0
 10
105.6703825819017
 20
-125.5282463575067
 30
0.0
 10
105.7151527513493
 20
-125.4834788575182
 30
0.0
 10
105.7151527513493
 20
-125.4283396908651
 30
0.0
  0
SPLINE
  5
A2
330
41
100
AcDbEntity
  8
_U+30EC_U+30A4_U+30E4_U+30FC 1
 62
     7
420
 16777215
370
     9
100
AcDbSpline
210
0.0
220
0.0
230
1.0
 70
    11
 71
     3
 72
    17
 73
    13
 74
     0
 42
0.0000000001
 43
0.0000000001
 12
1.0
 22
0.0
 32
0.0
 13
1.0
 23
0.0
 33
0.0
 40
0.0
 40
0.0
 40
0.0
 40
0.0
 40
1.0
 40
1.0
 40
1.0
 40
2.0
 40
2.0
 40
2.0
 40
3.0
 40
3.0
 40
3.0
 40
4.0
 40
4.0
 40
4.0
 40
4.0
 10
105.7151527513493
 20
-133.4285635777541
 30
0.0
 10
105.7151527513493
 20
-133.373424411101
 30
0.0
 10
105.6703825819017
 20
-133.3286569111124
 30
0.0
 10
105.6152434166418
 20
-133.3286569111124
 30
0.0
 10
105.5601395291587
 20
-133.3286569111124
 30
0.0
 10
105.5153367525239
 20
-133.373424411101
 30
0.0
 10
105.5153367525239
 20
-133.4285635777541
 30
0.0
 10
105.5153367525239
 20
-133.483667466629
 30
0.0
 10
105.5601395291587
 20
-133.5284702443957
 30
0.0
 10
105.6152434166418
 20
-133.5284702443957
 30
0.0
 10
105.6703825819017
 20
-133.5284702443957
 30
0.0
 10
105.7151527513493
 20
-133.483667466629
 30
0.0
 10
105.7151527513493
 20
-133.4285635777541
 30
0.0
  0
SPLINE
  5
A3
330
41
100
AcDbEntity
  8
_U+30EC_U+30A4_U+30E4_U+30FC 1
 62
     7
420
 16777215
370
     9
100
AcDbSpline
210
0.0
220
0.0
230
1.0
 70
    11
 71
     3
 72
    17
 73
    13
 74
     0
 42
0.0000000001
 43
0.0000000001
 12
1.0
 22
0.0
 32
0.0
 13
1.0
 23
0.0
 33
0.0
 40
0.0
 40
0.0
 40
0.0
 40
0.0
 40
1.0
 40
1.0
 40
1.0
 40
2.0
 40
2.0
 40
2.0
 40
3.0
 40
3.0
 40
3.0
 40
4.0
 40
4.0
 40
4.0
 40
4.0
 10
105.7151527513493
 20
-136.9291069102124
 30
0.0
 10
105.7151527513493
 20
-136.8740030213368
 30
0.0
 10
105.6703825819017
 20
-136.8292002435707
 30
0.0
 10
105.6152434166418
 20
-136.8292002435707
 30
0.0
 10
105.5601395291587
 20
-136.8292002435707
 30
0.0
 10
105.5153367525239
 20
-136.8740030213368
 30
0.0
 10
105.5153367525239
 20
-136.9291069102124
 30
0.0
 10
105.5153367525239
 20
-136.9842460768648
 30
0.0
 10
105.5601395291587
 20
-137.029013576854
 30
0.0
 10
105.6152434166418
 20
-137.029013576854
 30
0.0
 10
105.6703825819017
 20
-137.029013576854
 30
0.0
 10
105.7151527513493
 20
-136.9842460768648
 30
0.0
 10
105.7151527513493
 20
-136.9291069102124
 30
0.0
  0
SPLINE
  5
A4
330
41
100
AcDbEntity
  8
_U+30EC_U+30A4_U+30E4_U+30FC 1
 62
     7
420
 16777215
370
     9
100
AcDbSpline
210
0.0
220
0.0
230
1.0
 70
    11
 71
     3
 72
    17
 73
    13
 74
     0
 42
0.0000000001
 43
0.0000000001
 12
1.0
 22
0.0
 32
0.0
 13
1.0
 23
0.0
 33
0.0
 40
0.0
 40
0.0
 40
0.0
 40
0.0
 40
1.0
 40
1.0
 40
1.0
 40
2.0
 40
2.0
 40
2.0
 40
3.0
 40
3.0
 40
3.0
 40
4.0
 40
4.0
 40
4.0
 40
4.0
 10
101.7153910161353
 20
-141.9286382978511
 30
0.0
 10
101.7153910161353
 20
-141.8734991311981
 30
0.0
 10
101.6706235172774
 20
-141.8287316312095
 30
0.0
 10
101.6154843520175
 20
-141.8287316312095
 30
0.0
 10
101.5603804645344
 20
-141.8287316312095
 30
0.0
 10
101.5155776878996
 20
-141.8734991311981
 30
0.0
 10
101.5155776878996
 20
-141.9286382978511
 30
0.0
 10
101.5155776878996
 20
-141.9844477422816
 30
0.0
 10
101.5603804645344
 20
-142.0292152422708
 30
0.0
 10
101.6154843520175
 20
-142.0292152422708
 30
0.0
 10
101.6706235172774
 20
-142.0292152422708
 30
0.0
 10
101.7153910161353
 20
-141.9844477422816
 30
0.0
 10
101.7153910161353
 20
-141.9286382978511
 30
0.0
  0
SPLINE
  5
A5
330
41
100
AcDbEntity
  8
_U+30EC_U+30A4_U+30E4_U+30FC 1
 62
     7
420
 16777215
370
     9
100
AcDbSpline
210
0.0
220
0.0
230
1.0
 70
    11
 71
     3
 72
    17
 73
    13
 74
     0
 42
0.0000000001
 43
0.0000000001
 12
1.0
 22
0.0
 32
0.0
 13
1.0
 23
0.0
 33
0.0
 40
0.0
 40
0.0
 40
0.0
 40
0.0
 40
1.0
 40
1.0
 40
1.0
 40
2.0
 40
2.0
 40
2.0
 40
3.0
 40
3.0
 40
3.0
 40
4.0
 40
4.0
 40
4.0
 40
4.0
 10
79.21550714571072
 20
-141.9286382978511
 30
0.0
 10
79.21550714571072
 20
-141.8734991311981
 30
0.0
 10
79.17070436907595
 20
-141.8287316312095
 30
0.0
 10
79.115565203816
 20
-141.8287316312095
 30
0.0
 10
79.06046131633293
 20
-141.8287316312095
 30
0.0
 10
79.01565853969817
 20
-141.8734991311981
 30
0.0
 10
79.01565853969817
 20
-141.9286382978511
 30
0.0
 10
79.01565853969817
 20
-141.9844477422816
 30
0.0
 10
79.06046131633293
 20
-142.0292152422708
 30
0.0
 10
79.115565203816
 20
-142.0292152422708
 30
0.0
 10
79.17070436907595
 20
-142.0292152422708
 30
0.0
 10
79.21550714571072
 20
-141.9844477422816
 30
0.0
 10
79.21550714571072
 20
-141.9286382978511
 30
0.0
  0
SPLINE
  5
A6
330
41
100
AcDbEntity
  8
_U+30EC_U+30A4_U+30E4_U+30FC 1
 62
     7
420
 16777215
370
     9
100
AcDbSpline
210
0.0
220
0.0
230
1.0
 70
    11
 71
     3
 72
    17
 73
    13
 74
     0
 42
0.0000000001
 43
0.0000000001
 12
1.0
 22
0.0
 32
0.0
 13
1.0
 23
0.0
 33
0.0
 40
0.0
 40
0.0
 40
0.0
 40
0.0
 40
1.0
 40
1.0
 40
1.0
 40
2.0
 40
2.0
 40
2.0
 40
3.0
 40
3.0
 40
3.0
 40
4.0
 40
4.0
 40
4.0
 40
4.0
 10
75.21504442564056
 20
-137.9288791321842
 30
0.0
 10
75.21504442564056
 20
-137.8737399655318
 30
0.0
 10
75.17094720342936
 20
-137.8289724655426
 30
0.0
 10
75.11513586143101
 20
-137.8289724655426
 30
0.0
 10
75.06003197394794
 20
-137.8289724655426
 30
0.0
 10
75.01522919731318
 20
-137.8737399655318
 30
0.0
 10
75.01522919731318
 20
-137.9288791321842
 30
0.0
 10
75.01522919731318
 20
-137.9839830210598
 30
0.0
 10
75.06003197394794
 20
-138.0287857988259
 30
0.0
 10
75.11513586143101
 20
-138.0287857988259
 30
0.0
 10
75.17094720342936
 20
-138.0287857988259
 30
0.0
 10
75.21504442564056
 20
-137.9839830210598
 30
0.0
 10
75.21504442564056
 20
-137.9288791321842
 30
0.0
  0
POLYLINE
  5
A7
330
41
100
AcDbEntity
  8
_U+30EC_U+30A4_U+30E4_U+30FC 1
 62
     7
420
 16777215
370
     9
100
AcDb2dPolyline
 66
     1
 10
0.0
 20
0.0
 30
0.0
  0
VERTEX
  5
A8
330
A7
100
AcDbEntity
  8
_U+30EC_U+30A4_U+30E4_U+30FC 1
 62
     7
420
 16777215
370
     9
100
AcDbVertex
100
AcDb2dVertex
 10
80.11533740053191
 20
-116.4283788597817
 30
0.0
  0
VERTEX
  5
A9
330
A7
100
AcDbEntity
  8
_U+30EC_U+30A4_U+30E4_U+30FC 1
 62
     7
420
 16777215
370
     9
100
AcDbVertex
100
AcDb2dVertex
 10
83.61556314456705
 20
-116.4283788597817
 30
0.0
  0
SEQEND
  5
AA
330
A7
100
AcDbEntity
  8
_U+30EC_U+30A4_U+30E4_U+30FC 1
 62
     7
420
 16777215
370
     9
  0
POLYLINE
  5
AB
330
41
100
AcDbEntity
  8
_U+30EC_U+30A4_U+30E4_U+30FC 1
 62
     7
420
 16777215
370
     9
100
AcDb2dPolyline
 66
     1
 10
0.0
 20
0.0
 30
0.0
  0
VERTEX
  5
AC
330
AB
100
AcDbEntity
  8
_U+30EC_U+30A4_U+30E4_U+30FC 1
 62
     7
420
 16777215
370
     9
100
AcDbVertex
100
AcDb2dVertex
 10
80.11533740053191
 20
-122.8886219137222
 30
0.0
  0
VERTEX
  5
AD
330
AB
100
AcDbEntity
  8
_U+30EC_U+30A4_U+30E4_U+30FC 1
 62
     7
420
 16777215
370
     9
100
AcDbVertex
100
AcDb2dVertex
 10
80.11533740053191
 20
-115.4286066378095
 30
0.0
  0
SEQEND
  5
AE
330
AB
100
AcDbEntity
  8
_U+30EC_U+30A4_U+30E4_U+30FC 1
 62
     7
420
 16777215
370
     9
  0
POLYLINE
  5
AF
330
41
100
AcDbEntity
  8
_U+30EC_U+30A4_U+30E4_U+30FC 1
 62
     7
420
 16777215
370
     9
100
AcDb2dPolyline
 66
     1
 10
0.0
 20
0.0
 30
0.0
  0
VERTEX
  5
B0
330
AF
100
AcDbEntity
  8
_U+30EC_U+30A4_U+30E4_U+30FC 1
 62
     7
420
 16777215
370
     9
100
AcDbVertex
100
AcDb2dVertex
 10
83.61556314456705
 20
-122.8886219137222
 30
0.0
  0
VERTEX
  5
B1
330
AF
100
AcDbEntity
  8
_U+30EC_U+30A4_U+30E4_U+30FC 1
 62
     7
420
 16777215
370
     9
100
AcDbVertex
100
AcDb2dVertex
 10
83.61556314456705
 20
-115.4286066378095
 30
0.0
  0
SEQEND
  5
B2
330
AF
100
AcDbEntity
  8
_U+30EC_U+30A4_U+30E4_U+30FC 1
 62
     7
420
 16777215
370
     9
  0
INSERT
  5
B4
330
41
100
AcDbEntity
  8
_U+30EC_U+30A4_U+30E4_U+30FC 1
100
AcDbBlockReference
  2
block 3
 10
0.0
 20
0.0
 30
0.0
  0
POLYLINE
  5
C3
330
41
100
AcDbEntity
  8
_U+30EC_U+30A4_U+30E4_U+30FC 1
 62
     7
420
 16777215
370
     9
100
AcDb2dPolyline
 66
     1
 10
0.0
 20
0.0
 30
0.0
  0
VERTEX
  5
C4
330
C3
100
AcDbEntity
  8
_U+30EC_U+30A4_U+30E4_U+30FC 1
 62
     7
420
 16777215
370
     9
100
AcDbVertex
100
AcDb2dVertex
 10
83.61556314456705
 20
-116.4283788597817
 30
0.0
  0
VERTEX
  5
C5
330
C3
100
AcDbEntity
  8
_U+30EC_U+30A4_U+30E4_U+30FC 1
 62
     7
420
 16777215
370
     9
100
AcDbVertex
100
AcDb2dVertex
 10
91.61575155157634
 20
-116.4283788597817
 30
0.0
  0
SEQEND
  5
C6
330
C3
100
AcDbEntity
  8
_U+30EC_U+30A4_U+30E4_U+30FC 1
 62
     7
420
 16777215
370
     9
  0
POLYLINE
  5
C7
330
41
100
AcDbEntity
  8
_U+30EC_U+30A4_U+30E4_U+30FC 1
 62
     7
420
 16777215
370
     9
100
AcDb2dPolyline
 66
     1
 10
0.0
 20
0.0
 30
0.0
  0
VERTEX
  5
C8
330
C7
100
AcDbEntity
  8
_U+30EC_U+30A4_U+30E4_U+30FC 1
 62
     7
420
 16777215
370
     9
100
AcDbVertex
100
AcDb2dVertex
 10
91.61575155157634
 20
-130.3438041340805
 30
0.0
  0
VERTEX
  5
C9
330
C7
100
AcDbEntity
  8
_U+30EC_U+30A4_U+30E4_U+30FC 1
 62
     7
420
 16777215
370
     9
100
AcDbVertex
100
AcDb2dVertex
 10
91.61575155157634
 20
-115.4286066378095
 30
0.0
  0
SEQEND
  5
CA
330
C7
100
AcDbEntity
  8
_U+30EC_U+30A4_U+30E4_U+30FC 1
 62
     7
420
 16777215
370
     9
  0
SPLINE
  5
CB
330
41
100
AcDbEntity
  8
_U+30EC_U+30A4_U+30E4_U+30FC 1
 62
     7
420
 16777215
370
     9
100
AcDbSpline
210
0.0
220
0.0
230
1.0
 70
    11
 71
     3
 72
    17
 73
    13
 74
     0
 42
0.0000000001
 43
0.0000000001
 12
1.0
 22
0.0
 32
0.0
 13
1.0
 23
0.0
 33
0.0
 40
0.0
 40
0.0
 40
0.0
 40
0.0
 40
1.0
 40
1.0
 40
1.0
 40
2.0
 40
2.0
 40
2.0
 40
3.0
 40
3.0
 40
3.0
 40
4.0
 40
4.0
 40
4.0
 40
4.0
 10
84.81634811393246
 20
-116.4283788597817
 30
0.0
 10
84.81634811393246
 20
-116.3732749709068
 30
0.0
 10
84.77158061507458
 20
-116.3284721931401
 30
0.0
 10
84.71644144981462
 20
-116.3284721931401
 30
0.0
 10
84.660632006794
 20
-116.3284721931401
 30
0.0
 10
84.61586664551263
 20
-116.3732749709068
 30
0.0
 10
84.61586664551263
 20
-116.4283788597817
 30
0.0
 10
84.61586664551263
 20
-116.4835180264348
 30
0.0
 10
84.660632006794
 20
-116.5282855264234
 30
0.0
 10
84.71644144981462
 20
-116.5282855264234
 30
0.0
 10
84.77158061507458
 20
-116.5282855264234
 30
0.0
 10
84.81634811393246
 20
-116.4835180264348
 30
0.0
 10
84.81634811393246
 20
-116.4283788597817
 30
0.0
  0
POLYLINE
  5
CC
330
41
100
AcDbEntity
  8
_U+30EC_U+30A4_U+30E4_U+30FC 1
 62
     7
420
 16777215
370
     9
100
AcDb2dPolyline
 66
     1
 10
0.0
 20
0.0
 30
0.0
  0
VERTEX
  5
CD
330
CC
100
AcDbEntity
  8
_U+30EC_U+30A4_U+30E4_U+30FC 1
 62
     7
420
 16777215
370
     9
100
AcDbVertex
100
AcDb2dVertex
 10
84.71644144981462
 20
-122.8886219137222
 30
0.0
  0
VERTEX
  5
CE
330
CC
100
AcDbEntity
  8
_U+30EC_U+30A4_U+30E4_U+30FC 1
 62
     7
420
 16777215
370
     9
100
AcDbVertex
100
AcDb2dVertex
 10
84.71644144981462
 20
-115.4286066378095
 30
0.0
  0
SEQEND
  5
CF
330
CC
100
AcDbEntity
  8
_U+30EC_U+30A4_U+30E4_U+30FC 1
 62
     7
420
 16777215
370
     9
  0
INSERT
  5
D1
330
41
100
AcDbEntity
  8
_U+30EC_U+30A4_U+30E4_U+30FC 1
100
AcDbBlockReference
  2
block 4
 10
0.0
 20
0.0
 30
0.0
  0
POLYLINE
  5
D6
330
41
100
AcDbEntity
  8
_U+30EC_U+30A4_U+30E4_U+30FC 1
 62
     7
420
 16777215
370
     9
100
AcDb2dPolyline
 66
     1
 10
0.0
 20
0.0
 30
0.0
  0
VERTEX
  5
D7
330
D6
100
AcDbEntity
  8
_U+30EC_U+30A4_U+30E4_U+30FC 1
 62
     7
420
 16777215
370
     9
100
AcDbVertex
100
AcDb2dVertex
 10
75.11513586143101
 20
-137.9288791321842
 30
0.0
  0
VERTEX
  5
D8
330
D6
100
AcDbEntity
  8
_U+30EC_U+30A4_U+30E4_U+30FC 1
 62
     7
420
 16777215
370
     9
100
AcDbVertex
100
AcDb2dVertex
 10
75.11513586143101
 20
-120.428808303226
 30
0.0
  0
SEQEND
  5
D9
330
D6
100
AcDbEntity
  8
_U+30EC_U+30A4_U+30E4_U+30FC 1
 62
     7
420
 16777215
370
     9
  0
POLYLINE
  5
DA
330
41
100
AcDbEntity
  8
_U+30EC_U+30A4_U+30E4_U+30FC 1
 62
     7
420
 16777215
370
     9
100
AcDb2dPolyline
 66
     1
 10
0.0
 20
0.0
 30
0.0
  0
VERTEX
  5
DB
330
DA
100
AcDbEntity
  8
_U+30EC_U+30A4_U+30E4_U+30FC 1
 62
     7
420
 16777215
370
     9
100
AcDbVertex
100
AcDb2dVertex
 10
80.57560655545613
 20
-137.9288791321842
 30
0.0
  0
VERTEX
  5
DC
330
DA
100
AcDbEntity
  8
_U+30EC_U+30A4_U+30E4_U+30FC 1
 62
     7
420
 16777215
370
     9
100
AcDbVertex
100
AcDb2dVertex
 10
74.1153636647151
 20
-137.9288791321842
 30
0.0
  0
SEQEND
  5
DD
330
DA
100
AcDbEntity
  8
_U+30EC_U+30A4_U+30E4_U+30FC 1
 62
     7
420
 16777215
370
     9
  0
POLYLINE
  5
DE
330
41
100
AcDbEntity
  8
_U+30EC_U+30A4_U+30E4_U+30FC 1
 62
     7
420
 16777215
370
     9
100
AcDb2dPolyline
 66
     1
 10
0.0
 20
0.0
 30
0.0
  0
VERTEX
  5
DF
330
DE
100
AcDbEntity
  8
_U+30EC_U+30A4_U+30E4_U+30FC 1
 62
     7
420
 16777215
370
     9
100
AcDbVertex
100
AcDb2dVertex
 10
76.57517721307114
 20
-120.428808303226
 30
0.0
  0
VERTEX
  5
E0
330
DE
100
AcDbEntity
  8
_U+30EC_U+30A4_U+30E4_U+30FC 1
 62
     7
420
 16777215
370
     9
100
AcDbVertex
100
AcDb2dVertex
 10
74.1153636647151
 20
-120.428808303226
 30
0.0
  0
SEQEND
  5
E1
330
DE
100
AcDbEntity
  8
_U+30EC_U+30A4_U+30E4_U+30FC 1
 62
     7
420
 16777215
370
     9
  0
INSERT
  5
E3
330
41
100
AcDbEntity
  8
_U+30EC_U+30A4_U+30E4_U+30FC 1
100
AcDbBlockReference
  2
block 5
 10
0.0
 20
0.0
 30
0.0
  0
POLYLINE
  5
F4
330
41
100
AcDbEntity
  8
_U+30EC_U+30A4_U+30E4_U+30FC 1
 62
     7
420
 16777215
370
     9
100
AcDb2dPolyline
 66
     1
 10
0.0
 20
0.0
 30
0.0
  0
VERTEX
  5
F5
330
F4
100
AcDbEntity
  8
_U+30EC_U+30A4_U+30E4_U+30FC 1
 62
     7
420
 16777215
370
     9
100
AcDbVertex
100
AcDb2dVertex
 10
105.6152434166418
 20
-136.9291069102124
 30
0.0
  0
VERTEX
  5
F6
330
F4
100
AcDbEntity
  8
_U+30EC_U+30A4_U+30E4_U+30FC 1
 62
     7
420
 16777215
370
     9
100
AcDbVertex
100
AcDb2dVertex
 10
105.6152434166418
 20
-133.4285635777541
 30
0.0
  0
SEQEND
  5
F7
330
F4
100
AcDbEntity
  8
_U+30EC_U+30A4_U+30E4_U+30FC 1
 62
     7
420
 16777215
370
     9
  0
POLYLINE
  5
F8
330
41
100
AcDbEntity
  8
_U+30EC_U+30A4_U+30E4_U+30FC 1
 62
     7
420
 16777215
370
     9
100
AcDb2dPolyline
 66
     1
 10
0.0
 20
0.0
 30
0.0
  0
VERTEX
  5
F9
330
F8
100
AcDbEntity
  8
_U+30EC_U+30A4_U+30E4_U+30FC 1
 62
     7
420
 16777215
370
     9
100
AcDbVertex
100
AcDb2dVertex
 10
94.1555045423374
 20
-136.9291069102124
 30
0.0
  0
VERTEX
  5
FA
330
F8
100
AcDbEntity
  8
_U+30EC_U+30A4_U+30E4_U+30FC 1
 62
     7
420
 16777215
370
     9
100
AcDbVertex
100
AcDb2dVertex
 10
106.6157211688952
 20
-136.9291069102124
 30
0.0
  0
SEQEND
  5
FB
330
F8
100
AcDbEntity
  8
_U+30EC_U+30A4_U+30E4_U+30FC 1
 62
     7
420
 16777215
370
     9
  0
POLYLINE
  5
FC
330
41
100
AcDbEntity
  8
_U+30EC_U+30A4_U+30E4_U+30FC 1
 62
     7
420
 16777215
370
     9
100
AcDb2dPolyline
 66
     1
 10
0.0
 20
0.0
 30
0.0
  0
VERTEX
  5
FD
330
FC
100
AcDbEntity
  8
_U+30EC_U+30A4_U+30E4_U+30FC 1
 62
     7
420
 16777215
370
     9
100
AcDbVertex
100
AcDb2dVertex
 10
94.1555045423374
 20
-133.4285635777541
 30
0.0
  0
VERTEX
  5
FE
330
FC
100
AcDbEntity
  8
_U+30EC_U+30A4_U+30E4_U+30FC 1
 62
     7
420
 16777215
370
     9
100
AcDbVertex
100
AcDb2dVertex
 10
106.6157211688952
 20
-133.4285635777541
 30
0.0
  0
SEQEND
  5
FF
330
FC
100
AcDbEntity
  8
_U+30EC_U+30A4_U+30E4_U+30FC 1
 62
     7
420
 16777215
370
     9
  0
SPLINE
  5
100
330
41
100
AcDbEntity
  8
_U+30EC_U+30A4_U+30E4_U+30FC 1
 62
     7
420
 16777215
370
     9
100
AcDbSpline
210
0.0
220
0.0
230
1.0
 70
    11
 71
     3
 72
    17
 73
    13
 74
     0
 42
0.0000000001
 43
0.0000000001
 12
1.0
 22
0.0
 32
0.0
 13
1.0
 23
0.0
 33
0.0
 40
0.0
 40
0.0
 40
0.0
 40
0.0
 40
1.0
 40
1.0
 40
1.0
 40
2.0
 40
2.0
 40
2.0
 40
3.0
 40
3.0
 40
3.0
 40
4.0
 40
4.0
 40
4.0
 40
4.0
 10
105.7151527513493
 20
-132.4284385780038
 30
0.0
 10
105.7151527513493
 20
-132.3732994113513
 30
0.0
 10
105.6703825819017
 20
-132.3285319113621
 30
0.0
 10
105.6152434166418
 20
-132.3285319113621
 30
0.0
 10
105.5601395291587
 20
-132.3285319113621
 30
0.0
 10
105.5153367525239
 20
-132.3732994113513
 30
0.0
 10
105.5153367525239
 20
-132.4284385780038
 30
0.0
 10
105.5153367525239
 20
-132.4835424668793
 30
0.0
 10
105.5601395291587
 20
-132.5283452446454
 30
0.0
 10
105.6152434166418
 20
-132.5283452446454
 30
0.0
 10
105.6703825819017
 20
-132.5283452446454
 30
0.0
 10
105.7151527513493
 20
-132.4835424668793
 30
0.0
 10
105.7151527513493
 20
-132.4284385780038
 30
0.0
  0
POLYLINE
  5
101
330
41
100
AcDbEntity
  8
_U+30EC_U+30A4_U+30E4_U+30FC 1
 62
     7
420
 16777215
370
     9
100
AcDb2dPolyline
 66
     1
 10
0.0
 20
0.0
 30
0.0
  0
VERTEX
  5
102
330
101
100
AcDbEntity
  8
_U+30EC_U+30A4_U+30E4_U+30FC 1
 62
     7
420
 16777215
370
     9
100
AcDbVertex
100
AcDb2dVertex
 10
94.1555045423374
 20
-132.4284385780038
 30
0.0
  0
VERTEX
  5
103
330
101
100
AcDbEntity
  8
_U+30EC_U+30A4_U+30E4_U+30FC 1
 62
     7
420
 16777215
370
     9
100
AcDbVertex
100
AcDb2dVertex
 10
106.6157211688952
 20
-132.4284385780038
 30
0.0
  0
SEQEND
  5
104
330
101
100
AcDbEntity
  8
_U+30EC_U+30A4_U+30E4_U+30FC 1
 62
     7
420
 16777215
370
     9
  0
INSERT
  5
106
330
41
100
AcDbEntity
  8
_U+30EC_U+30A4_U+30E4_U+30FC 1
100
AcDbBlockReference
  2
block 6
 10
0.0
 20
0.0
 30
0.0
  0
POLYLINE
  5
115
330
41
100
AcDbEntity
  8
_U+30EC_U+30A4_U+30E4_U+30FC 1
 62
     7
420
 16777215
370
     9
100
AcDb2dPolyline
 66
     1
 10
0.0
 20
0.0
 30
0.0
  0
VERTEX
  5
116
330
115
100
AcDbEntity
  8
_U+30EC_U+30A4_U+30E4_U+30FC 1
 62
     7
420
 16777215
370
     9
100
AcDbVertex
100
AcDb2dVertex
 10
105.6152434166418
 20
-133.4285635777541
 30
0.0
  0
VERTEX
  5
117
330
115
100
AcDbEntity
  8
_U+30EC_U+30A4_U+30E4_U+30FC 1
 62
     7
420
 16777215
370
     9
100
AcDbVertex
100
AcDb2dVertex
 10
105.6152434166418
 20
-125.4283396908651
 30
0.0
  0
SEQEND
  5
118
330
115
100
AcDbEntity
  8
_U+30EC_U+30A4_U+30E4_U+30FC 1
 62
     7
420
 16777215
370
     9
  0
POLYLINE
  5
119
330
41
100
AcDbEntity
  8
_U+30EC_U+30A4_U+30E4_U+30FC 1
 62
     7
420
 16777215
370
     9
100
AcDb2dPolyline
 66
     1
 10
0.0
 20
0.0
 30
0.0
  0
VERTEX
  5
11A
330
119
100
AcDbEntity
  8
_U+30EC_U+30A4_U+30E4_U+30FC 1
 62
     7
420
 16777215
370
     9
100
AcDbVertex
100
AcDb2dVertex
 10
86.69961695477517
 20
-125.4283396908651
 30
0.0
  0
VERTEX
  5
11B
330
119
100
AcDbEntity
  8
_U+30EC_U+30A4_U+30E4_U+30FC 1
 62
     7
420
 16777215
370
     9
100
AcDbVertex
100
AcDb2dVertex
 10
106.6157211688952
 20
-125.4283396908651
 30
0.0
  0
SEQEND
  5
11C
330
119
100
AcDbEntity
  8
_U+30EC_U+30A4_U+30E4_U+30FC 1
 62
     7
420
 16777215
370
     9
  0
INSERT
  5
11E
330
41
100
AcDbEntity
  8
_U+30EC_U+30A4_U+30E4_U+30FC 1
100
AcDbBlockReference
  2
block 7
 10
0.0
 20
0.0
 30
0.0
  0
POLYLINE
  5
123
330
41
100
AcDbEntity
  8
_U+30EC_U+30A4_U+30E4_U+30FC 1
 62
     7
420
 16777215
370
     9
100
AcDb2dPolyline
 66
     1
 10
0.0
 20
0.0
 30
0.0
  0
VERTEX
  5
124
330
123
100
AcDbEntity
  8
_U+30EC_U+30A4_U+30E4_U+30FC 1
 62
     7
420
 16777215
370
     9
100
AcDbVertex
100
AcDb2dVertex
 10
79.115565203816
 20
-141.9286382978511
 30
0.0
  0
VERTEX
  5
125
330
123
100
AcDbEntity
  8
_U+30EC_U+30A4_U+30E4_U+30FC 1
 62
     7
420
 16777215
370
     9
100
AcDbVertex
100
AcDb2dVertex
 10
101.6154843520175
 20
-141.9286382978511
 30
0.0
  0
SEQEND
  5
126
330
123
100
AcDbEntity
  8
_U+30EC_U+30A4_U+30E4_U+30FC 1
 62
     7
420
 16777215
370
     9
  0
POLYLINE
  5
127
330
41
100
AcDbEntity
  8
_U+30EC_U+30A4_U+30E4_U+30FC 1
 62
     7
420
 16777215
370
     9
100
AcDb2dPolyline
 66
     1
 10
0.0
 20
0.0
 30
0.0
  0
VERTEX
  5
128
330
127
100
AcDbEntity
  8
_U+30EC_U+30A4_U+30E4_U+30FC 1
 62
     7
420
 16777215
370
     9
100
AcDbVertex
100
AcDb2dVertex
 10
79.115565203816
 20
-136.4688377436605
 30
0.0
  0
VERTEX
  5
129
330
127
100
AcDbEntity
  8
_U+30EC_U+30A4_U+30E4_U+30FC 1
 62
     7
420
 16777215
370
     9
100
AcDbVertex
100
AcDb2dVertex
 10
79.115565203816
 20
-142.929080797601
 30
0.0
  0
SEQEND
  5
12A
330
127
100
AcDbEntity
  8
_U+30EC_U+30A4_U+30E4_U+30FC 1
 62
     7
420
 16777215
370
     9
  0
POLYLINE
  5
12B
330
41
100
AcDbEntity
  8
_U+30EC_U+30A4_U+30E4_U+30FC 1
 62
     7
420
 16777215
370
     9
100
AcDb2dPolyline
 66
     1
 10
0.0
 20
0.0
 30
0.0
  0
VERTEX
  5
12C
330
12B
100
AcDbEntity
  8
_U+30EC_U+30A4_U+30E4_U+30FC 1
 62
     7
420
 16777215
370
     9
100
AcDbVertex
100
AcDb2dVertex
 10
101.6154843520175
 20
-140.4685969093274
 30
0.0
  0
VERTEX
  5
12D
330
12B
100
AcDbEntity
  8
_U+30EC_U+30A4_U+30E4_U+30FC 1
 62
     7
420
 16777215
370
     9
100
AcDbVertex
100
AcDb2dVertex
 10
101.6154843520175
 20
-142.929080797601
 30
0.0
  0
SEQEND
  5
12E
330
12B
100
AcDbEntity
  8
_U+30EC_U+30A4_U+30E4_U+30FC 1
 62
     7
420
 16777215
370
     9
  0
INSERT
  5
130
330
41
100
AcDbEntity
  8
_U+30EC_U+30A4_U+30E4_U+30FC 1
100
AcDbBlockReference
  2
block 8
 10
0.0
 20
0.0
 30
0.0
  0
POLYLINE
  5
141
330
41
100
AcDbEntity
  8
_U+30EC_U+30A4_U+30E4_U+30FC 1
  6
AI-Linetype-1
 62
   251
420
  5855577
370
    25
100
AcDb2dPolyline
 66
     1
 10
0.0
 20
0.0
 30
0.0
  0
VERTEX
  5
142
330
141
100
AcDbEntity
  8
_U+30EC_U+30A4_U+30E4_U+30FC 1
  6
AI-Linetype-1
 62
   251
420
  5855577
370
    25
100
AcDbVertex
100
AcDb2dVertex
 10
83.3812834283218
 20
-124.8192688576841
 30
0.0
  0
VERTEX
  5
143
330
141
100
AcDbEntity
  8
_U+30EC_U+30A4_U+30E4_U+30FC 1
  6
AI-Linetype-1
 62
   251
420
  5855577
370
    25
100
AcDbVertex
100
AcDb2dVertex
 10
85.14517227221013
 20
-124.8192688576841
 30
0.0
  0
VERTEX
  5
144
330
141
100
AcDbEntity
  8
_U+30EC_U+30A4_U+30E4_U+30FC 1
  6
AI-Linetype-1
 62
   251
420
  5855577
370
    25
100
AcDbVertex
100
AcDb2dVertex
 10
85.14517227221013
 20
-131.8307271892646
 30
0.0
  0
VERTEX
  5
145
330
141
100
AcDbEntity
  8
_U+30EC_U+30A4_U+30E4_U+30FC 1
  6
AI-Linetype-1
 62
   251
420
  5855577
370
    25
100
AcDbVertex
100
AcDb2dVertex
 10
92.11253320556905
 20
-131.8307271892646
 30
0.0
  0
VERTEX
  5
146
330
141
100
AcDbEntity
  8
_U+30EC_U+30A4_U+30E4_U+30FC 1
  6
AI-Linetype-1
 62
   251
420
  5855577
370
    25
100
AcDbVertex
100
AcDb2dVertex
 10
92.11253320556905
 20
-133.5064216332901
 30
0.0
  0
SEQEND
  5
148
330
141
100
AcDbEntity
  8
_U+30EC_U+30A4_U+30E4_U+30FC 1
  6
AI-Linetype-1
 62
   251
420
  5855577
370
    25
  0
ENDBLK
  5
44
330
41
100
AcDbEntity
  8
0
100
AcDbBlockEnd
  0
BLOCK
  5
B5
330
B3
100
AcDbEntity
  8
0
100
AcDbBlockBegin
  2
block 3
 70
     0
 10
0.0
 20
0.0
 30
0.0
  3
block 3
  1

  0
SPLINE
  5
B7
330
B3
100
AcDbEntity
  8
_U+30EC_U+30A4_U+30E4_U+30FC 1
370
     0
100
AcDbSpline
210
0.0
220
0.0
230
1.0
 70
    11
 71
     3
 72
    62
 73
    58
 74
     0
 42
0.0000000001
 43
0.0000000001
 12
1.0
 22
0.0
 32
0.0
 13
1.0
 23
0.0
 33
0.0
 40
0.0
 40
0.0
 40
0.0
 40
0.0
 40
1.0
 40
1.0
 40
1.0
 40
2.0
 40
2.0
 40
2.0
 40
3.0
 40
3.0
 40
3.0
 40
4.0
 40
4.0
 40
4.0
 40
5.0
 40
5.0
 40
5.0
 40
6.0
 40
6.0
 40
6.0
 40
7.0
 40
7.0
 40
7.0
 40
8.0
 40
8.0
 40
8.0
 40
9.0
 40
9.0
 40
9.0
 40
10.0
 40
10.0
 40
10.0
 40
11.0
 40
11.0
 40
11.0
 40
12.0
 40
12.0
 40
12.0
 40
13.0
 40
13.0
 40
13.0
 40
14.0
 40
14.0
 40
14.0
 40
15.0
 40
15.0
 40
15.0
 40
16.0
 40
16.0
 40
16.0
 40
17.0
 40
17.0
 40
17.0
 40
18.0
 40
18.0
 40
18.0
 40
19.0
 40
19.0
 40
19.0
 40
19.0
 10
80.93407794200607
 20
-115.8830213468973
 30
0.0
 10
80.8324476251912
 20
-115.8830213468973
 30
0.0
 10
80.5995591703883
 20
-115.861834009663
 30
0.0
 10
80.46606172033488
 20
-115.6756265986853
 30
0.0
 10
80.38699677894839
 20
-115.5634887406404
 30
0.0
 10
80.38251815481757
 20
-115.4640977358909
 30
0.0
 10
80.37803953068675
 20
-115.379520641728
 30
0.0
 10
80.37803953068675
 20
-115.379520641728
 30
0.0
 10
80.61299504278078
 20
-115.379520641728
 30
0.0
 10
80.61299504278078
 20
-115.379520641728
 30
0.0
 10
80.61540660962046
 20
-115.4535901946609
 30
0.0
 10
80.62660316994751
 20
-115.6883734519807
 30
0.0
 10
80.92959931787524
 20
-115.6883734519807
 30
0.0
 10
81.07653264032115
 20
-115.6883734519807
 30
0.0
 10
81.2393134019992
 20
-115.6186102684044
 30
0.0
 10
81.2393134019992
 20
-115.390028182958
 30
0.0
 10
81.2393134019992
 20
-115.2737562103309
 30
0.0
 10
81.19866127527325
 20
-115.2250081092146
 30
0.0
 10
81.16472708474355
 20
-115.1933132307503
 30
0.0
 10
81.08566214335706
 20
-115.1192436778174
 30
0.0
 10
80.96129419633954
 20
-115.1066690792963
 30
0.0
 10
80.90238306354176
 20
-115.1066690792963
 30
0.0
 10
80.88205700017879
 20
-115.1066690792963
 30
0.0
 10
80.84364418551826
 20
-115.1087361365874
 30
0.0
 10
80.81436087389363
 20
-115.1128702511697
 30
0.0
 10
80.81436087389363
 20
-115.1128702511697
 30
0.0
 10
80.81436087389363
 20
-114.9183946110274
 30
0.0
 10
80.81436087389363
 20
-114.9183946110274
 30
0.0
 10
80.85501300061958
 20
-114.9245957829008
 30
0.0
 10
80.90014375147636
 20
-114.9268350949662
 30
0.0
 10
80.90703394244686
 20
-114.9268350949662
 30
0.0
 10
80.97714163557168
 20
-114.9268350949662
 30
0.0
 10
81.18953177223734
 20
-114.9056477577319
 30
0.0
 10
81.18953177223734
 20
-114.6686251883467
 30
0.0
 10
81.18953177223734
 20
-114.4910305160821
 30
0.0
 10
81.04948864076194
 20
-114.4359089883181
 30
0.0
 10
80.93183862994066
 20
-114.4359089883181
 30
0.0
 10
80.6491685453759
 20
-114.4359089883181
 30
0.0
 10
80.64021129711426
 20
-114.6686251883467
 30
0.0
 10
80.63573267298344
 20
-114.7406276839885
 30
0.0
 10
80.63573267298344
 20
-114.7406276839885
 30
0.0
 10
80.4186916574127
 20
-114.7406276839885
 30
0.0
 10
80.4186916574127
 20
-114.7406276839885
 30
0.0
 10
80.42764890567435
 20
-114.6157429726481
 30
0.0
 10
80.45710447207323
 20
-114.2391940361103
 30
0.0
 10
80.94544675710739
 20
-114.2391940361103
 30
0.0
 10
81.18505314810652
 20
-114.2391940361103
 30
0.0
 10
81.4427462904032
 20
-114.3661458047418
 30
0.0
 10
81.4427462904032
 20
-114.662251761699
 30
0.0
 10
81.4427462904032
 20
-114.8484591726768
 30
0.0
 10
81.34111597358833
 20
-114.9309692095485
 30
0.0
 10
81.23483477786837
 20
-114.992291909186
 30
0.0
 10
81.30029159208813
 20
-115.019852673068
 30
0.0
 10
81.49476723223047
 20
-115.1002956526485
 30
0.0
 10
81.49476723223047
 20
-115.3774535844369
 30
0.0
 10
81.49476723223047
 20
-115.7159342158627
 30
0.0
 10
81.23035615373756
 20
-115.8830213468973
 30
0.0
 10
80.93407794200607
 20
-115.8830213468973
 30
0.0
  0
HATCH
  5
B8
330
B3
100
AcDbEntity
  8
_U+30EC_U+30A4_U+30E4_U+30FC 1
 62
     7
420
 16777215
100
AcDbHatch
 10
0.0
 20
0.0
 30
0.0
210
0.0
220
0.0
230
1.0
  2
SOLID
 70
     1
 71
     0
 91
        1
 92
        1
 93
        1
 72
     4
 94
        3
 73
     0
 74
     1
 95
       62
 96
       58
 40
0.0
 40
0.0
 40
0.0
 40
0.0
 40
1.0
 40
1.0
 40
1.0
 40
2.0
 40
2.0
 40
2.0
 40
3.0
 40
3.0
 40
3.0
 40
4.0
 40
4.0
 40
4.0
 40
5.0
 40
5.0
 40
5.0
 40
6.0
 40
6.0
 40
6.0
 40
7.0
 40
7.0
 40
7.0
 40
8.0
 40
8.0
 40
8.0
 40
9.0
 40
9.0
 40
9.0
 40
10.0
 40
10.0
 40
10.0
 40
11.0
 40
11.0
 40
11.0
 40
12.0
 40
12.0
 40
12.0
 40
13.0
 40
13.0
 40
13.0
 40
14.0
 40
14.0
 40
14.0
 40
15.0
 40
15.0
 40
15.0
 40
16.0
 40
16.0
 40
16.0
 40
17.0
 40
17.0
 40
17.0
 40
18.0
 40
18.0
 40
18.0
 40
19.0
 40
19.0
 40
19.0
 40
19.0
 10
80.93407794200607
 20
-115.8830213468973
 10
80.8324476251912
 20
-115.8830213468973
 10
80.5995591703883
 20
-115.861834009663
 10
80.46606172033488
 20
-115.6756265986853
 10
80.38699677894839
 20
-115.5634887406404
 10
80.38251815481757
 20
-115.4640977358909
 10
80.37803953068675
 20
-115.379520641728
 10
80.37803953068675
 20
-115.379520641728
 10
80.61299504278078
 20
-115.379520641728
 10
80.61299504278078
 20
-115.379520641728
 10
80.61540660962046
 20
-115.4535901946609
 10
80.62660316994751
 20
-115.6883734519807
 10
80.92959931787524
 20
-115.6883734519807
 10
81.07653264032115
 20
-115.6883734519807
 10
81.2393134019992
 20
-115.6186102684044
 10
81.2393134019992
 20
-115.390028182958
 10
81.2393134019992
 20
-115.2737562103309
 10
81.19866127527325
 20
-115.2250081092146
 10
81.16472708474355
 20
-115.1933132307503
 10
81.08566214335706
 20
-115.1192436778174
 10
80.96129419633954
 20
-115.1066690792963
 10
80.90238306354176
 20
-115.1066690792963
 10
80.88205700017879
 20
-115.1066690792963
 10
80.84364418551826
 20
-115.1087361365874
 10
80.81436087389363
 20
-115.1128702511697
 10
80.81436087389363
 20
-115.1128702511697
 10
80.81436087389363
 20
-114.9183946110274
 10
80.81436087389363
 20
-114.9183946110274
 10
80.85501300061958
 20
-114.9245957829008
 10
80.90014375147636
 20
-114.9268350949662
 10
80.90703394244686
 20
-114.9268350949662
 10
80.97714163557168
 20
-114.9268350949662
 10
81.18953177223734
 20
-114.9056477577319
 10
81.18953177223734
 20
-114.6686251883467
 10
81.18953177223734
 20
-114.4910305160821
 10
81.04948864076194
 20
-114.4359089883181
 10
80.93183862994066
 20
-114.4359089883181
 10
80.6491685453759
 20
-114.4359089883181
 10
80.64021129711426
 20
-114.6686251883467
 10
80.63573267298344
 20
-114.7406276839885
 10
80.63573267298344
 20
-114.7406276839885
 10
80.4186916574127
 20
-114.7406276839885
 10
80.4186916574127
 20
-114.7406276839885
 10
80.42764890567435
 20
-114.6157429726481
 10
80.45710447207323
 20
-114.2391940361103
 10
80.94544675710739
 20
-114.2391940361103
 10
81.18505314810652
 20
-114.2391940361103
 10
81.4427462904032
 20
-114.3661458047418
 10
81.4427462904032
 20
-114.662251761699
 10
81.4427462904032
 20
-114.8484591726768
 10
81.34111597358833
 20
-114.9309692095485
 10
81.23483477786837
 20
-114.992291909186
 10
81.30029159208813
 20
-115.019852673068
 10
81.49476723223047
 20
-115.1002956526485
 10
81.49476723223047
 20
-115.3774535844369
 10
81.49476723223047
 20
-115.7159342158627
 10
81.23035615373756
 20
-115.8830213468973
 10
80.93407794200607
 20
-115.8830213468973
 97
        0
 97
        0
 75
     2
 76
     1
 98
        0
  0
POLYLINE
  5
B9
330
B3
100
AcDbEntity
  8
_U+30EC_U+30A4_U+30E4_U+30FC 1
370
     0
100
AcDb2dPolyline
 66
     1
 10
0.0
 20
0.0
 30
0.0
  0
VERTEX
  5
BA
330
B9
100
AcDbEntity
  8
_U+30EC_U+30A4_U+30E4_U+30FC 1
370
     0
100
AcDbVertex
100
AcDb2dVertex
 10
81.7307562729701
 20
-115.8322061884899
 30
0.0
  0
VERTEX
  5
BB
330
B9
100
AcDbEntity
  8
_U+30EC_U+30A4_U+30E4_U+30FC 1
370
     0
100
AcDbVertex
100
AcDb2dVertex
 10
81.7307562729701
 20
-115.5805419632924
 30
0.0
  0
VERTEX
  5
BC
330
B9
100
AcDbEntity
  8
_U+30EC_U+30A4_U+30E4_U+30FC 1
370
     0
100
AcDbVertex
100
AcDb2dVertex
 10
81.9998182303681
 20
-115.5805419632924
 30
0.0
  0
VERTEX
  5
BD
330
B9
100
AcDbEntity
  8
_U+30EC_U+30A4_U+30E4_U+30FC 1
370
     0
100
AcDbVertex
100
AcDb2dVertex
 10
81.9998182303681
 20
-115.8322061884899
 30
0.0
  0
VERTEX
  5
BE
330
B9
100
AcDbEntity
  8
_U+30EC_U+30A4_U+30E4_U+30FC 1
370
     0
100
AcDbVertex
100
AcDb2dVertex
 10
81.7307562729701
 20
-115.8322061884899
 30
0.0
  0
SEQEND
  5
BF
330
B9
100
AcDbEntity
  8
_U+30EC_U+30A4_U+30E4_U+30FC 1
370
     0
  0
HATCH
  5
C0
330
B3
100
AcDbEntity
  8
_U+30EC_U+30A4_U+30E4_U+30FC 1
 62
     7
420
 16777215
100
AcDbHatch
 10
0.0
 20
0.0
 30
0.0
210
0.0
220
0.0
230
1.0
  2
SOLID
 70
     1
 71
     0
 91
        1
 92
        1
 93
        4
 72
     1
 10
81.7307562729701
 20
-115.8322061884899
 11
81.7307562729701
 21
-115.5805419632924
 72
     1
 10
81.7307562729701
 20
-115.5805419632924
 11
81.9998182303681
 21
-115.5805419632924
 72
     1
 10
81.9998182303681
 20
-115.5805419632924
 11
81.9998182303681
 21
-115.8322061884899
 72
     1
 10
81.9998182303681
 20
-115.8322061884899
 11
81.7307562729701
 21
-115.8322061884899
 97
        0
 75
     2
 76
     1
 98
        0
  0
SPLINE
  5
C1
330
B3
100
AcDbEntity
  8
_U+30EC_U+30A4_U+30E4_U+30FC 1
370
     0
100
AcDbSpline
210
0.0
220
0.0
230
1.0
 70
    11
 71
     3
 72
    53
 73
    49
 74
     0
 42
0.0000000001
 43
0.0000000001
 12
1.0
 22
0.0
 32
0.0
 13
1.0
 23
0.0
 33
0.0
 40
0.0
 40
0.0
 40
0.0
 40
0.0
 40
1.0
 40
1.0
 40
1.0
 40
2.0
 40
2.0
 40
2.0
 40
3.0
 40
3.0
 40
3.0
 40
4.0
 40
4.0
 40
4.0
 40
5.0
 40
5.0
 40
5.0
 40
6.0
 40
6.0
 40
6.0
 40
7.0
 40
7.0
 40
7.0
 40
8.0
 40
8.0
 40
8.0
 40
9.0
 40
9.0
 40
9.0
 40
10.0
 40
10.0
 40
10.0
 40
11.0
 40
11.0
 40
11.0
 40
12.0
 40
12.0
 40
12.0
 40
13.0
 40
13.0
 40
13.0
 40
14.0
 40
14.0
 40
14.0
 40
15.0
 40
15.0
 40
15.0
 40
16.0
 40
16.0
 40
16.0
 40
16.0
 10
82.76652423061046
 20
-115.8830213468973
 30
0.0
 10
82.68280841031888
 20
-115.8830213468973
 30
0.0
 10
82.57428790253351
 20
-115.8661403790196
 30
0.0
 10
82.46576739474814
 20
-115.8025783673167
 30
0.0
 10
82.2804212576417
 20
-115.692507566563
 30
0.0
 10
82.25768362743905
 20
-115.5614216833492
 30
0.0
 10
82.23735756407608
 20
-115.4535901946609
 30
0.0
 10
82.23735756407608
 20
-115.4535901946609
 30
0.0
 10
82.4747246430098
 20
-115.4535901946609
 30
0.0
 10
82.4747246430098
 20
-115.4535901946609
 30
0.0
 10
82.53363577580757
 20
-115.6523722041598
 30
0.0
 10
82.66920028315215
 20
-115.682000025333
 30
0.0
 10
82.76876354267587
 20
-115.682000025333
 30
0.0
 10
82.91793617718719
 20
-115.682000025333
 30
0.0
 10
83.08071693886524
 20
-115.5826090205835
 30
0.0
 10
83.08071693886524
 20
-115.3498928205549
 30
0.0
 10
83.08071693886524
 20
-115.0939222260008
 30
0.0
 10
82.8884806107883
 20
-115.0241590424245
 30
0.0
 10
82.75963403963996
 20
-115.0241590424245
 30
0.0
 10
82.72569984911024
 20
-115.0241590424245
 30
0.0
 10
82.57428790253351
 20
-115.0241590424245
 30
0.0
 10
82.47937552191489
 20
-115.1531778683471
 30
0.0
 10
82.47937552191489
 20
-115.1531778683471
 30
0.0
 10
82.29161781796877
 20
-115.134057588404
 30
0.0
 10
82.29161781796877
 20
-115.134057588404
 30
0.0
 10
82.29161781796877
 20
-115.134057588404
 30
0.0
 10
82.42063664389137
 20
-114.2879421372266
 30
0.0
 10
82.42063664389137
 20
-114.2879421372266
 30
0.0
 10
82.42063664389137
 20
-114.2879421372266
 30
0.0
 10
83.25262720357921
 20
-114.2879421372266
 30
0.0
 10
83.25262720357921
 20
-114.2879421372266
 30
0.0
 10
83.25262720357921
 20
-114.2879421372266
 30
0.0
 10
83.25262720357921
 20
-114.4825900321432
 30
0.0
 10
83.25262720357921
 20
-114.4825900321432
 30
0.0
 10
83.25262720357921
 20
-114.4825900321432
 30
0.0
 10
82.59461396589649
 20
-114.4825900321432
 30
0.0
 10
82.59461396589649
 20
-114.4825900321432
 30
0.0
 10
82.59461396589649
 20
-114.4825900321432
 30
0.0
 10
82.52450627277166
 20
-114.9056477577319
 30
0.0
 10
82.52450627277166
 20
-114.9056477577319
 30
0.0
 10
82.59013534176566
 20
-114.8717135672022
 30
0.0
 10
82.67832978618806
 20
-114.8315782047991
 30
0.0
 10
82.80493704527099
 20
-114.8315782047991
 30
0.0
 10
83.07623831473441
 20
-114.8315782047991
 30
0.0
 10
83.32945283290027
 20
-115.0177856157768
 30
0.0
 10
83.32945283290027
 20
-115.3307725406118
 30
0.0
 10
83.32945283290027
 20
-115.6482380895775
 30
0.0
 10
83.08967418712689
 20
-115.8830213468973
 30
0.0
 10
82.76652423061046
 20
-115.8830213468973
 30
0.0
  0
HATCH
  5
C2
330
B3
100
AcDbEntity
  8
_U+30EC_U+30A4_U+30E4_U+30FC 1
 62
     7
420
 16777215
100
AcDbHatch
 10
0.0
 20
0.0
 30
0.0
210
0.0
220
0.0
230
1.0
  2
SOLID
 70
     1
 71
     0
 91
        1
 92
        1
 93
        1
 72
     4
 94
        3
 73
     0
 74
     1
 95
       53
 96
       49
 40
0.0
 40
0.0
 40
0.0
 40
0.0
 40
1.0
 40
1.0
 40
1.0
 40
2.0
 40
2.0
 40
2.0
 40
3.0
 40
3.0
 40
3.0
 40
4.0
 40
4.0
 40
4.0
 40
5.0
 40
5.0
 40
5.0
 40
6.0
 40
6.0
 40
6.0
 40
7.0
 40
7.0
 40
7.0
 40
8.0
 40
8.0
 40
8.0
 40
9.0
 40
9.0
 40
9.0
 40
10.0
 40
10.0
 40
10.0
 40
11.0
 40
11.0
 40
11.0
 40
12.0
 40
12.0
 40
12.0
 40
13.0
 40
13.0
 40
13.0
 40
14.0
 40
14.0
 40
14.0
 40
15.0
 40
15.0
 40
15.0
 40
16.0
 40
16.0
 40
16.0
 40
16.0
 10
82.76652423061046
 20
-115.8830213468973
 10
82.68280841031888
 20
-115.8830213468973
 10
82.57428790253351
 20
-115.8661403790196
 10
82.46576739474814
 20
-115.8025783673167
 10
82.2804212576417
 20
-115.692507566563
 10
82.25768362743905
 20
-115.5614216833492
 10
82.23735756407608
 20
-115.4535901946609
 10
82.23735756407608
 20
-115.4535901946609
 10
82.4747246430098
 20
-115.4535901946609
 10
82.4747246430098
 20
-115.4535901946609
 10
82.53363577580757
 20
-115.6523722041598
 10
82.66920028315215
 20
-115.682000025333
 10
82.76876354267587
 20
-115.682000025333
 10
82.91793617718719
 20
-115.682000025333
 10
83.08071693886524
 20
-115.5826090205835
 10
83.08071693886524
 20
-115.3498928205549
 10
83.08071693886524
 20
-115.0939222260008
 10
82.8884806107883
 20
-115.0241590424245
 10
82.75963403963996
 20
-115.0241590424245
 10
82.72569984911024
 20
-115.0241590424245
 10
82.57428790253351
 20
-115.0241590424245
 10
82.47937552191489
 20
-115.1531778683471
 10
82.47937552191489
 20
-115.1531778683471
 10
82.29161781796877
 20
-115.134057588404
 10
82.29161781796877
 20
-115.134057588404
 10
82.29161781796877
 20
-115.134057588404
 10
82.42063664389137
 20
-114.2879421372266
 10
82.42063664389137
 20
-114.2879421372266
 10
82.42063664389137
 20
-114.2879421372266
 10
83.25262720357921
 20
-114.2879421372266
 10
83.25262720357921
 20
-114.2879421372266
 10
83.25262720357921
 20
-114.2879421372266
 10
83.25262720357921
 20
-114.4825900321432
 10
83.25262720357921
 20
-114.4825900321432
 10
83.25262720357921
 20
-114.4825900321432
 10
82.59461396589649
 20
-114.4825900321432
 10
82.59461396589649
 20
-114.4825900321432
 10
82.59461396589649
 20
-114.4825900321432
 10
82.52450627277166
 20
-114.9056477577319
 10
82.52450627277166
 20
-114.9056477577319
 10
82.59013534176566
 20
-114.8717135672022
 10
82.67832978618806
 20
-114.8315782047991
 10
82.80493704527099
 20
-114.8315782047991
 10
83.07623831473441
 20
-114.8315782047991
 10
83.32945283290027
 20
-115.0177856157768
 10
83.32945283290027
 20
-115.3307725406118
 10
83.32945283290027
 20
-115.6482380895775
 10
83.08967418712689
 20
-115.8830213468973
 10
82.76652423061046
 20
-115.8830213468973
 97
        0
 97
        0
 75
     2
 76
     1
 98
        0
  0
ENDBLK
  5
B6
330
B3
100
AcDbEntity
  8
0
100
AcDbBlockEnd
  0
BLOCK
  5
D2
330
D0
100
AcDbEntity
  8
0
100
AcDbBlockBegin
  2
block 4
 70
     0
 10
0.0
 20
0.0
 30
0.0
  3
block 4
  1

  0
SPLINE
  5
D4
330
D0
100
AcDbEntity
  8
_U+30EC_U+30A4_U+30E4_U+30FC 1
370
     0
100
AcDbSpline
210
0.0
220
0.0
230
1.0
 70
    11
 71
     3
 72
    26
 73
    22
 74
     0
 42
0.0000000001
 43
0.0000000001
 12
1.0
 22
0.0
 32
0.0
 13
1.0
 23
0.0
 33
0.0
 40
0.0
 40
0.0
 40
0.0
 40
0.0
 40
1.0
 40
1.0
 40
1.0
 40
2.0
 40
2.0
 40
2.0
 40
3.0
 40
3.0
 40
3.0
 40
4.0
 40
4.0
 40
4.0
 40
5.0
 40
5.0
 40
5.0
 40
6.0
 40
6.0
 40
6.0
 40
7.0
 40
7.0
 40
7.0
 40
7.0
 10
88.02046710039072
 20
-115.8323784432641
 30
0.0
 10
88.02046710039072
 20
-115.8323784432641
 30
0.0
 10
87.76725258222486
 20
-115.8323784432641
 30
0.0
 10
87.76725258222486
 20
-115.8323784432641
 30
0.0
 10
87.79446883655834
 20
-115.5235256330115
 30
0.0
 10
88.00014103702775
 20
-115.0052110172556
 30
0.0
 10
88.43422306816923
 20
-114.4996432547952
 30
0.0
 10
88.43422306816923
 20
-114.4996432547952
 30
0.0
 10
87.53901500632706
 20
-114.4996432547952
 30
0.0
 10
87.53901500632706
 20
-114.4996432547952
 30
0.0
 10
87.53901500632706
 20
-114.4996432547952
 30
0.0
 10
87.53901500632706
 20
-114.2881143920009
 30
0.0
 10
87.53901500632706
 20
-114.2881143920009
 30
0.0
 10
87.53901500632706
 20
-114.2881143920009
 30
0.0
 10
88.6874375863351
 20
-114.2881143920009
 30
0.0
 10
88.6874375863351
 20
-114.2881143920009
 30
0.0
 10
88.6874375863351
 20
-114.2881143920009
 30
0.0
 10
88.6874375863351
 20
-114.4996432547952
 30
0.0
 10
88.6874375863351
 20
-114.4996432547952
 30
0.0
 10
88.341549999616
 20
-114.7893757851047
 30
0.0
 10
88.05664060298584
 20
-115.3817599537934
 30
0.0
 10
88.02046710039072
 20
-115.8323784432641
 30
0.0
  0
HATCH
  5
D5
330
D0
100
AcDbEntity
  8
_U+30EC_U+30A4_U+30E4_U+30FC 1
 62
     7
420
 16777215
100
AcDbHatch
 10
0.0
 20
0.0
 30
0.0
210
0.0
220
0.0
230
1.0
  2
SOLID
 70
     1
 71
     0
 91
        1
 92
        1
 93
        1
 72
     4
 94
        3
 73
     0
 74
     1
 95
       26
 96
       22
 40
0.0
 40
0.0
 40
0.0
 40
0.0
 40
1.0
 40
1.0
 40
1.0
 40
2.0
 40
2.0
 40
2.0
 40
3.0
 40
3.0
 40
3.0
 40
4.0
 40
4.0
 40
4.0
 40
5.0
 40
5.0
 40
5.0
 40
6.0
 40
6.0
 40
6.0
 40
7.0
 40
7.0
 40
7.0
 40
7.0
 10
88.02046710039072
 20
-115.8323784432641
 10
88.02046710039072
 20
-115.8323784432641
 10
87.76725258222486
 20
-115.8323784432641
 10
87.76725258222486
 20
-115.8323784432641
 10
87.79446883655834
 20
-115.5235256330115
 10
88.00014103702775
 20
-115.0052110172556
 10
88.43422306816923
 20
-114.4996432547952
 10
88.43422306816923
 20
-114.4996432547952
 10
87.53901500632706
 20
-114.4996432547952
 10
87.53901500632706
 20
-114.4996432547952
 10
87.53901500632706
 20
-114.4996432547952
 10
87.53901500632706
 20
-114.2881143920009
 10
87.53901500632706
 20
-114.2881143920009
 10
87.53901500632706
 20
-114.2881143920009
 10
88.6874375863351
 20
-114.2881143920009
 10
88.6874375863351
 20
-114.2881143920009
 10
88.6874375863351
 20
-114.2881143920009
 10
88.6874375863351
 20
-114.4996432547952
 10
88.6874375863351
 20
-114.4996432547952
 10
88.341549999616
 20
-114.7893757851047
 10
88.05664060298584
 20
-115.3817599537934
 10
88.02046710039072
 20
-115.8323784432641
 97
        0
 97
        0
 75
     2
 76
     1
 98
        0
  0
ENDBLK
  5
D3
330
D0
100
AcDbEntity
  8
0
100
AcDbBlockEnd
  0
BLOCK
  5
E4
330
E2
100
AcDbEntity
  8
0
100
AcDbBlockBegin
  2
block 5
 70
     0
 10
0.0
 20
0.0
 30
0.0
  3
block 5
  1

  0
SPLINE
  5
E6
330
E2
100
AcDbEntity
  8
_U+30EC_U+30A4_U+30E4_U+30FC 1
370
     0
100
AcDbSpline
210
0.0
220
0.0
230
1.0
 70
    11
 71
     3
 72
    26
 73
    22
 74
     0
 42
0.0000000001
 43
0.0000000001
 12
1.0
 22
0.0
 32
0.0
 13
1.0
 23
0.0
 33
0.0
 40
0.0
 40
0.0
 40
0.0
 40
0.0
 40
1.0
 40
1.0
 40
1.0
 40
2.0
 40
2.0
 40
2.0
 40
3.0
 40
3.0
 40
3.0
 40
4.0
 40
4.0
 40
4.0
 40
5.0
 40
5.0
 40
5.0
 40
6.0
 40
6.0
 40
6.0
 40
7.0
 40
7.0
 40
7.0
 40
7.0
 10
74.51862112937383
 20
-130.5229546114665
 30
0.0
 10
74.51862112937383
 20
-130.5229546114665
 30
0.0
 10
73.41429577157699
 20
-130.5229546114665
 30
0.0
 10
73.41429577157699
 20
-130.5229546114665
 30
0.0
 10
73.41429577157699
 20
-130.5229546114665
 30
0.0
 10
73.41429577157699
 20
-130.8753878796076
 30
0.0
 10
73.41429577157699
 20
-130.8753878796076
 30
0.0
 10
73.41429577157699
 20
-130.8753878796076
 30
0.0
 10
73.2663289204855
 20
-130.8753878796076
 30
0.0
 10
73.2663289204855
 20
-130.8753878796076
 30
0.0
 10
73.25151500989892
 20
-130.5205430446268
 30
0.0
 10
73.08856199344662
 20
-130.4709336696392
 30
0.0
 10
72.97435707811059
 20
-130.4392387911749
 30
0.0
 10
72.97435707811059
 20
-130.4392387911749
 30
0.0
 10
72.97435707811059
 20
-130.2831759656931
 30
0.0
 10
72.97435707811059
 20
-130.2831759656931
 30
0.0
 10
72.97435707811059
 20
-130.2831759656931
 30
0.0
 10
74.51862112937383
 20
-130.2831759656931
 30
0.0
 10
74.51862112937383
 20
-130.2831759656931
 30
0.0
 10
74.51862112937383
 20
-130.2831759656931
 30
0.0
 10
74.51862112937383
 20
-130.5229546114665
 30
0.0
 10
74.51862112937383
 20
-130.5229546114665
 30
0.0
  0
HATCH
  5
E7
330
E2
100
AcDbEntity
  8
_U+30EC_U+30A4_U+30E4_U+30FC 1
 62
     7
420
 16777215
100
AcDbHatch
 10
0.0
 20
0.0
 30
0.0
210
0.0
220
0.0
230
1.0
  2
SOLID
 70
     1
 71
     0
 91
        1
 92
        1
 93
        1
 72
     4
 94
        3
 73
     0
 74
     1
 95
       26
 96
       22
 40
0.0
 40
0.0
 40
0.0
 40
0.0
 40
1.0
 40
1.0
 40
1.0
 40
2.0
 40
2.0
 40
2.0
 40
3.0
 40
3.0
 40
3.0
 40
4.0
 40
4.0
 40
4.0
 40
5.0
 40
5.0
 40
5.0
 40
6.0
 40
6.0
 40
6.0
 40
7.0
 40
7.0
 40
7.0
 40
7.0
 10
74.51862112937383
 20
-130.5229546114665
 10
74.51862112937383
 20
-130.5229546114665
 10
73.41429577157699
 20
-130.5229546114665
 10
73.41429577157699
 20
-130.5229546114665
 10
73.41429577157699
 20
-130.5229546114665
 10
73.41429577157699
 20
-130.8753878796076
 10
73.41429577157699
 20
-130.8753878796076
 10
73.41429577157699
 20
-130.8753878796076
 10
73.2663289204855
 20
-130.8753878796076
 10
73.2663289204855
 20
-130.8753878796076
 10
73.25151500989892
 20
-130.5205430446268
 10
73.08856199344662
 20
-130.4709336696392
 10
72.97435707811059
 20
-130.4392387911749
 10
72.97435707811059
 20
-130.4392387911749
 10
72.97435707811059
 20
-130.2831759656931
 10
72.97435707811059
 20
-130.2831759656931
 10
72.97435707811059
 20
-130.2831759656931
 10
74.51862112937383
 20
-130.2831759656931
 10
74.51862112937383
 20
-130.2831759656931
 10
74.51862112937383
 20
-130.2831759656931
 10
74.51862112937383
 20
-130.5229546114665
 10
74.51862112937383
 20
-130.5229546114665
 97
        0
 97
        0
 75
     2
 76
     1
 98
        0
  0
SPLINE
  5
E8
330
E2
100
AcDbEntity
  8
_U+30EC_U+30A4_U+30E4_U+30FC 1
370
     0
100
AcDbSpline
210
0.0
220
0.0
230
1.0
 70
    11
 71
     3
 72
    26
 73
    22
 74
     0
 42
0.0000000001
 43
0.0000000001
 12
1.0
 22
0.0
 32
0.0
 13
1.0
 23
0.0
 33
0.0
 40
0.0
 40
0.0
 40
0.0
 40
0.0
 40
1.0
 40
1.0
 40
1.0
 40
2.0
 40
2.0
 40
2.0
 40
3.0
 40
3.0
 40
3.0
 40
4.0
 40
4.0
 40
4.0
 40
5.0
 40
5.0
 40
5.0
 40
6.0
 40
6.0
 40
6.0
 40
7.0
 40
7.0
 40
7.0
 40
7.0
 10
74.51862112937383
 20
-129.3078694338189
 30
0.0
 10
74.51862112937383
 20
-129.3078694338189
 30
0.0
 10
74.51862112937383
 20
-129.5610839519847
 30
0.0
 10
74.51862112937383
 20
-129.5610839519847
 30
0.0
 10
74.20976831912117
 20
-129.5342122071998
 30
0.0
 10
73.69145370336534
 20
-129.3281954971818
 30
0.0
 10
73.18588594090492
 20
-128.8941134660404
 30
0.0
 10
73.18588594090492
 20
-128.8941134660404
 30
0.0
 10
73.18588594090492
 20
-129.7894937826568
 30
0.0
 10
73.18588594090492
 20
-129.7894937826568
 30
0.0
 10
73.18588594090492
 20
-129.7894937826568
 30
0.0
 10
72.97435707811059
 20
-129.7894937826568
 30
0.0
 10
72.97435707811059
 20
-129.7894937826568
 30
0.0
 10
72.97435707811059
 20
-129.7894937826568
 30
0.0
 10
72.97435707811059
 20
-128.6408989478745
 30
0.0
 10
72.97435707811059
 20
-128.6408989478745
 30
0.0
 10
72.97435707811059
 20
-128.6408989478745
 30
0.0
 10
73.18588594090492
 20
-128.6408989478745
 30
0.0
 10
73.18588594090492
 20
-128.6408989478745
 30
0.0
 10
73.47561847121443
 20
-128.9867865345936
 30
0.0
 10
74.06800263990314
 20
-129.2716959312237
 30
0.0
 10
74.51862112937383
 20
-129.3078694338189
 30
0.0
  0
HATCH
  5
E9
330
E2
100
AcDbEntity
  8
_U+30EC_U+30A4_U+30E4_U+30FC 1
 62
     7
420
 16777215
100
AcDbHatch
 10
0.0
 20
0.0
 30
0.0
210
0.0
220
0.0
230
1.0
  2
SOLID
 70
     1
 71
     0
 91
        1
 92
        1
 93
        1
 72
     4
 94
        3
 73
     0
 74
     1
 95
       26
 96
       22
 40
0.0
 40
0.0
 40
0.0
 40
0.0
 40
1.0
 40
1.0
 40
1.0
 40
2.0
 40
2.0
 40
2.0
 40
3.0
 40
3.0
 40
3.0
 40
4.0
 40
4.0
 40
4.0
 40
5.0
 40
5.0
 40
5.0
 40
6.0
 40
6.0
 40
6.0
 40
7.0
 40
7.0
 40
7.0
 40
7.0
 10
74.51862112937383
 20
-129.3078694338189
 10
74.51862112937383
 20
-129.3078694338189
 10
74.51862112937383
 20
-129.5610839519847
 10
74.51862112937383
 20
-129.5610839519847
 10
74.20976831912117
 20
-129.5342122071998
 10
73.69145370336534
 20
-129.3281954971818
 10
73.18588594090492
 20
-128.8941134660404
 10
73.18588594090492
 20
-128.8941134660404
 10
73.18588594090492
 20
-129.7894937826568
 10
73.18588594090492
 20
-129.7894937826568
 10
73.18588594090492
 20
-129.7894937826568
 10
72.97435707811059
 20
-129.7894937826568
 10
72.97435707811059
 20
-129.7894937826568
 10
72.97435707811059
 20
-129.7894937826568
 10
72.97435707811059
 20
-128.6408989478745
 10
72.97435707811059
 20
-128.6408989478745
 10
72.97435707811059
 20
-128.6408989478745
 10
73.18588594090492
 20
-128.6408989478745
 10
73.18588594090492
 20
-128.6408989478745
 10
73.47561847121443
 20
-128.9867865345936
 10
74.06800263990314
 20
-129.2716959312237
 10
74.51862112937383
 20
-129.3078694338189
 97
        0
 97
        0
 75
     2
 76
     1
 98
        0
  0
POLYLINE
  5
EA
330
E2
100
AcDbEntity
  8
_U+30EC_U+30A4_U+30E4_U+30FC 1
370
     0
100
AcDb2dPolyline
 66
     1
 10
0.0
 20
0.0
 30
0.0
  0
VERTEX
  5
EB
330
EA
100
AcDbEntity
  8
_U+30EC_U+30A4_U+30E4_U+30FC 1
370
     0
100
AcDbVertex
100
AcDb2dVertex
 10
74.51862112937383
 20
-128.4255804800464
 30
0.0
  0
VERTEX
  5
EC
330
EA
100
AcDbEntity
  8
_U+30EC_U+30A4_U+30E4_U+30FC 1
370
     0
100
AcDbVertex
100
AcDb2dVertex
 10
74.26695690417633
 20
-128.4255804800464
 30
0.0
  0
VERTEX
  5
ED
330
EA
100
AcDbEntity
  8
_U+30EC_U+30A4_U+30E4_U+30FC 1
370
     0
100
AcDbVertex
100
AcDb2dVertex
 10
74.26695690417633
 20
-128.1565185226484
 30
0.0
  0
VERTEX
  5
EE
330
EA
100
AcDbEntity
  8
_U+30EC_U+30A4_U+30E4_U+30FC 1
370
     0
100
AcDbVertex
100
AcDb2dVertex
 10
74.51862112937383
 20
-128.1565185226484
 30
0.0
  0
VERTEX
  5
EF
330
EA
100
AcDbEntity
  8
_U+30EC_U+30A4_U+30E4_U+30FC 1
370
     0
100
AcDbVertex
100
AcDb2dVertex
 10
74.51862112937383
 20
-128.4255804800464
 30
0.0
  0
SEQEND
  5
F0
330
EA
100
AcDbEntity
  8
_U+30EC_U+30A4_U+30E4_U+30FC 1
370
     0
  0
HATCH
  5
F1
330
E2
100
AcDbEntity
  8
_U+30EC_U+30A4_U+30E4_U+30FC 1
 62
     7
420
 16777215
100
AcDbHatch
 10
0.0
 20
0.0
 30
0.0
210
0.0
220
0.0
230
1.0
  2
SOLID
 70
     1
 71
     0
 91
        1
 92
        1
 93
        4
 72
     1
 10
74.51862112937383
 20
-128.4255804800464
 11
74.26695690417633
 21
-128.4255804800464
 72
     1
 10
74.26695690417633
 20
-128.4255804800464
 11
74.26695690417633
 21
-128.1565185226484
 72
     1
 10
74.26695690417633
 20
-128.1565185226484
 11
74.51862112937383
 21
-128.1565185226484
 72
     1
 10
74.51862112937383
 20
-128.1565185226484
 11
74.51862112937383
 21
-128.4255804800464
 97
        0
 75
     2
 76
     1
 98
        0
  0
SPLINE
  5
F2
330
E2
100
AcDbEntity
  8
_U+30EC_U+30A4_U+30E4_U+30FC 1
370
     0
100
AcDbSpline
210
0.0
220
0.0
230
1.0
 70
    11
 71
     3
 72
    53
 73
    49
 74
     0
 42
0.0000000001
 43
0.0000000001
 12
1.0
 22
0.0
 32
0.0
 13
1.0
 23
0.0
 33
0.0
 40
0.0
 40
0.0
 40
0.0
 40
0.0
 40
1.0
 40
1.0
 40
1.0
 40
2.0
 40
2.0
 40
2.0
 40
3.0
 40
3.0
 40
3.0
 40
4.0
 40
4.0
 40
4.0
 40
5.0
 40
5.0
 40
5.0
 40
6.0
 40
6.0
 40
6.0
 40
7.0
 40
7.0
 40
7.0
 40
8.0
 40
8.0
 40
8.0
 40
9.0
 40
9.0
 40
9.0
 40
10.0
 40
10.0
 40
10.0
 40
11.0
 40
11.0
 40
11.0
 40
12.0
 40
12.0
 40
12.0
 40
13.0
 40
13.0
 40
13.0
 40
14.0
 40
14.0
 40
14.0
 40
15.0
 40
15.0
 40
15.0
 40
16.0
 40
16.0
 40
16.0
 40
16.0
 10
74.56943628778126
 20
-127.389812522406
 30
0.0
 10
74.56943628778126
 20
-127.4735283426976
 30
0.0
 10
74.55238306512926
 20
-127.582048850483
 30
0.0
 10
74.48899330820068
 20
-127.6905693582683
 30
0.0
 10
74.37892250744694
 20
-127.876087750149
 30
0.0
 10
74.24783662423319
 20
-127.8984808708032
 30
0.0
 10
74.14000513554487
 20
-127.9188069341661
 30
0.0
 10
74.14000513554487
 20
-127.9188069341661
 30
0.0
 10
74.14000513554487
 20
-127.6814398552324
 30
0.0
 10
74.14000513554487
 20
-127.6814398552324
 30
0.0
 10
74.33878714504378
 20
-127.6227009772089
 30
0.0
 10
74.36841496621693
 20
-127.4871364698643
 30
0.0
 10
74.36841496621693
 20
-127.3875732103406
 30
0.0
 10
74.36841496621693
 20
-127.2384005758293
 30
0.0
 10
74.26902396146747
 20
-127.0756198141512
 30
0.0
 10
74.03630776143885
 20
-127.0756198141512
 30
0.0
 10
73.78033716688478
 20
-127.0756198141512
 30
0.0
 10
73.71057398330846
 20
-127.2678561422282
 30
0.0
 10
73.71057398330846
 20
-127.3967027133765
 30
0.0
 10
73.71057398330846
 20
-127.4306369039062
 30
0.0
 10
73.71057398330846
 20
-127.582048850483
 30
0.0
 10
73.83959280923108
 20
-127.6769612311016
 30
0.0
 10
73.83959280923108
 20
-127.6769612311016
 30
0.0
 10
73.82047252928794
 20
-127.8647189350477
 30
0.0
 10
73.82047252928794
 20
-127.8647189350477
 30
0.0
 10
73.82047252928794
 20
-127.8647189350477
 30
0.0
 10
72.97435707811059
 20
-127.7358723638994
 30
0.0
 10
72.97435707811059
 20
-127.7358723638994
 30
0.0
 10
72.97435707811059
 20
-127.7358723638994
 30
0.0
 10
72.97435707811059
 20
-126.9038818042115
 30
0.0
 10
72.97435707811059
 20
-126.9038818042115
 30
0.0
 10
72.97435707811059
 20
-126.9038818042115
 30
0.0
 10
73.1690049730272
 20
-126.9038818042115
 30
0.0
 10
73.1690049730272
 20
-126.9038818042115
 30
0.0
 10
73.1690049730272
 20
-126.9038818042115
 30
0.0
 10
73.1690049730272
 20
-127.56172278712
 30
0.0
 10
73.1690049730272
 20
-127.56172278712
 30
0.0
 10
73.1690049730272
 20
-127.56172278712
 30
0.0
 10
73.59206269861588
 20
-127.6318304802448
 30
0.0
 10
73.59206269861588
 20
-127.6318304802448
 30
0.0
 10
73.55812850808617
 20
-127.5662014112508
 30
0.0
 10
73.51799314568301
 20
-127.4780069668284
 30
0.0
 10
73.51799314568301
 20
-127.3513997077455
 30
0.0
 10
73.51799314568301
 20
-127.0800984382821
 30
0.0
 10
73.70420055666077
 20
-126.8268839201162
 30
0.0
 10
74.01718748149571
 20
-126.8268839201162
 30
0.0
 10
74.33465303046148
 20
-126.8268839201162
 30
0.0
 10
74.56943628778126
 20
-127.0664903111153
 30
0.0
 10
74.56943628778126
 20
-127.389812522406
 30
0.0
  0
HATCH
  5
F3
330
E2
100
AcDbEntity
  8
_U+30EC_U+30A4_U+30E4_U+30FC 1
 62
     7
420
 16777215
100
AcDbHatch
 10
0.0
 20
0.0
 30
0.0
210
0.0
220
0.0
230
1.0
  2
SOLID
 70
     1
 71
     0
 91
        1
 92
        1
 93
        1
 72
     4
 94
        3
 73
     0
 74
     1
 95
       53
 96
       49
 40
0.0
 40
0.0
 40
0.0
 40
0.0
 40
1.0
 40
1.0
 40
1.0
 40
2.0
 40
2.0
 40
2.0
 40
3.0
 40
3.0
 40
3.0
 40
4.0
 40
4.0
 40
4.0
 40
5.0
 40
5.0
 40
5.0
 40
6.0
 40
6.0
 40
6.0
 40
7.0
 40
7.0
 40
7.0
 40
8.0
 40
8.0
 40
8.0
 40
9.0
 40
9.0
 40
9.0
 40
10.0
 40
10.0
 40
10.0
 40
11.0
 40
11.0
 40
11.0
 40
12.0
 40
12.0
 40
12.0
 40
13.0
 40
13.0
 40
13.0
 40
14.0
 40
14.0
 40
14.0
 40
15.0
 40
15.0
 40
15.0
 40
16.0
 40
16.0
 40
16.0
 40
16.0
 10
74.56943628778126
 20
-127.389812522406
 10
74.56943628778126
 20
-127.4735283426976
 10
74.55238306512926
 20
-127.582048850483
 10
74.48899330820068
 20
-127.6905693582683
 10
74.37892250744694
 20
-127.876087750149
 10
74.24783662423319
 20
-127.8984808708032
 10
74.14000513554487
 20
-127.9188069341661
 10
74.14000513554487
 20
-127.9188069341661
 10
74.14000513554487
 20
-127.6814398552324
 10
74.14000513554487
 20
-127.6814398552324
 10
74.33878714504378
 20
-127.6227009772089
 10
74.36841496621693
 20
-127.4871364698643
 10
74.36841496621693
 20
-127.3875732103406
 10
74.36841496621693
 20
-127.2384005758293
 10
74.26902396146747
 20
-127.0756198141512
 10
74.03630776143885
 20
-127.0756198141512
 10
73.78033716688478
 20
-127.0756198141512
 10
73.71057398330846
 20
-127.2678561422282
 10
73.71057398330846
 20
-127.3967027133765
 10
73.71057398330846
 20
-127.4306369039062
 10
73.71057398330846
 20
-127.582048850483
 10
73.83959280923108
 20
-127.6769612311016
 10
73.83959280923108
 20
-127.6769612311016
 10
73.82047252928794
 20
-127.8647189350477
 10
73.82047252928794
 20
-127.8647189350477
 10
73.82047252928794
 20
-127.8647189350477
 10
72.97435707811059
 20
-127.7358723638994
 10
72.97435707811059
 20
-127.7358723638994
 10
72.97435707811059
 20
-127.7358723638994
 10
72.97435707811059
 20
-126.9038818042115
 10
72.97435707811059
 20
-126.9038818042115
 10
72.97435707811059
 20
-126.9038818042115
 10
73.1690049730272
 20
-126.9038818042115
 10
73.1690049730272
 20
-126.9038818042115
 10
73.1690049730272
 20
-126.9038818042115
 10
73.1690049730272
 20
-127.56172278712
 10
73.1690049730272
 20
-127.56172278712
 10
73.1690049730272
 20
-127.56172278712
 10
73.59206269861588
 20
-127.6318304802448
 10
73.59206269861588
 20
-127.6318304802448
 10
73.55812850808617
 20
-127.5662014112508
 10
73.51799314568301
 20
-127.4780069668284
 10
73.51799314568301
 20
-127.3513997077455
 10
73.51799314568301
 20
-127.0800984382821
 10
73.70420055666077
 20
-126.8268839201162
 10
74.01718748149571
 20
-126.8268839201162
 10
74.33465303046148
 20
-126.8268839201162
 10
74.56943628778126
 20
-127.0664903111153
 10
74.56943628778126
 20
-127.389812522406
 97
        0
 97
        0
 75
     2
 76
     1
 98
        0
  0
ENDBLK
  5
E5
330
E2
100
AcDbEntity
  8
0
100
AcDbBlockEnd
  0
BLOCK
  5
107
330
105
100
AcDbEntity
  8
0
100
AcDbBlockBegin
  2
block 6
 70
     0
 10
0.0
 20
0.0
 30
0.0
  3
block 6
  1

  0
SPLINE
  5
109
330
105
100
AcDbEntity
  8
_U+30EC_U+30A4_U+30E4_U+30FC 1
370
     0
100
AcDbSpline
210
0.0
220
0.0
230
1.0
 70
    11
 71
     3
 72
    62
 73
    58
 74
     0
 42
0.0000000001
 43
0.0000000001
 12
1.0
 22
0.0
 32
0.0
 13
1.0
 23
0.0
 33
0.0
 40
0.0
 40
0.0
 40
0.0
 40
0.0
 40
1.0
 40
1.0
 40
1.0
 40
2.0
 40
2.0
 40
2.0
 40
3.0
 40
3.0
 40
3.0
 40
4.0
 40
4.0
 40
4.0
 40
5.0
 40
5.0
 40
5.0
 40
6.0
 40
6.0
 40
6.0
 40
7.0
 40
7.0
 40
7.0
 40
8.0
 40
8.0
 40
8.0
 40
9.0
 40
9.0
 40
9.0
 40
10.0
 40
10.0
 40
10.0
 40
11.0
 40
11.0
 40
11.0
 40
12.0
 40
12.0
 40
12.0
 40
13.0
 40
13.0
 40
13.0
 40
14.0
 40
14.0
 40
14.0
 40
15.0
 40
15.0
 40
15.0
 40
16.0
 40
16.0
 40
16.0
 40
17.0
 40
17.0
 40
17.0
 40
18.0
 40
18.0
 40
18.0
 40
19.0
 40
19.0
 40
19.0
 40
19.0
 10
108.9501111923805
 20
-136.2431911551753
 30
0.0
 10
108.9501111923805
 20
-136.3448214719902
 30
0.0
 10
108.9290961099205
 20
-136.5777099267931
 30
0.0
 10
108.743060953717
 20
-136.7110351220722
 30
0.0
 10
108.6307508408979
 20
-136.790272318233
 30
0.0
 10
108.5315320909227
 20
-136.7947509423638
 30
0.0
 10
108.4467827419855
 20
-136.7992295664946
 30
0.0
 10
108.4467827419855
 20
-136.7992295664946
 30
0.0
 10
108.4467827419855
 20
-136.5642740544006
 30
0.0
 10
108.4467827419855
 20
-136.5642740544006
 30
0.0
 10
108.5208522949184
 20
-136.5618624875609
 30
0.0
 10
108.7554632974639
 20
-136.5504936724596
 30
0.0
 10
108.7554632974639
 20
-136.2476697793061
 30
0.0
 10
108.7554632974639
 20
-136.100564202086
 30
0.0
 10
108.6858723686619
 20
-135.9379556951822
 30
0.0
 10
108.4574625379898
 20
-135.9379556951822
 30
0.0
 10
108.3410183105884
 20
-135.9379556951822
 30
0.0
 10
108.2924424642463
 20
-135.9786078219081
 30
0.0
 10
108.260747585782
 20
-136.0123697576636
 30
0.0
 10
108.1866780328492
 20
-136.0916069538243
 30
0.0
 10
108.1739311795537
 20
-136.2159749008418
 30
0.0
 10
108.1739311795537
 20
-136.2748860336396
 30
0.0
 10
108.1739311795537
 20
-136.2952120970026
 30
0.0
 10
108.1759982368449
 20
-136.3334526568889
 30
0.0
 10
108.1801323514272
 20
-136.363080478062
 30
0.0
 10
108.1801323514272
 20
-136.363080478062
 30
0.0
 10
107.9854844565106
 20
-136.363080478062
 30
0.0
 10
107.9854844565106
 20
-136.363080478062
 30
0.0
 10
107.9920301379326
 20
-136.3224283513361
 30
0.0
 10
107.9940971952237
 20
-136.2769530909308
 30
0.0
 10
107.9940971952237
 20
-136.2704074095088
 30
0.0
 10
107.9940971952237
 20
-136.2001274616097
 30
0.0
 10
107.9727376032152
 20
-135.9875650701698
 30
0.0
 10
107.7360595433785
 20
-135.9875650701698
 30
0.0
 10
107.5582926163396
 20
-135.9875650701698
 30
0.0
 10
107.5031710885756
 20
-136.1277804564195
 30
0.0
 10
107.5031710885756
 20
-136.2452582124665
 30
0.0
 10
107.5031710885756
 20
-136.5281005518055
 30
0.0
 10
107.7360595433785
 20
-136.5370578000671
 30
0.0
 10
107.8077175294717
 20
-136.5415364241979
 30
0.0
 10
107.8077175294717
 20
-136.5415364241979
 30
0.0
 10
107.8077175294717
 20
-136.7585774397687
 30
0.0
 10
107.8077175294717
 20
-136.7585774397687
 30
0.0
 10
107.6830050729056
 20
-136.749620191507
 30
0.0
 10
107.3064561363678
 20
-136.7203368798824
 30
0.0
 10
107.3064561363678
 20
-136.231822340074
 30
0.0
 10
107.3064561363678
 20
-135.9920436943006
 30
0.0
 10
107.4335801597736
 20
-135.7343505520039
 30
0.0
 10
107.7295138619565
 20
-135.7343505520039
 30
0.0
 10
107.9158935277085
 20
-135.7343505520039
 30
0.0
 10
107.998231309806
 20
-135.8363253783673
 30
0.0
 10
108.0595540094434
 20
-135.942434319313
 30
0.0
 10
108.0871147733255
 20
-135.8769775050933
 30
0.0
 10
108.1673854981318
 20
-135.6823296101767
 30
0.0
 10
108.4447156846944
 20
-135.6823296101767
 30
0.0
 10
108.7830240613459
 20
-135.6823296101767
 30
0.0
 10
108.9501111923805
 20
-135.9469129434438
 30
0.0
 10
108.9501111923805
 20
-136.2431911551753
 30
0.0
  0
HATCH
  5
10A
330
105
100
AcDbEntity
  8
_U+30EC_U+30A4_U+30E4_U+30FC 1
 62
     7
420
 16777215
100
AcDbHatch
 10
0.0
 20
0.0
 30
0.0
210
0.0
220
0.0
230
1.0
  2
SOLID
 70
     1
 71
     0
 91
        1
 92
        1
 93
        1
 72
     4
 94
        3
 73
     0
 74
     1
 95
       62
 96
       58
 40
0.0
 40
0.0
 40
0.0
 40
0.0
 40
1.0
 40
1.0
 40
1.0
 40
2.0
 40
2.0
 40
2.0
 40
3.0
 40
3.0
 40
3.0
 40
4.0
 40
4.0
 40
4.0
 40
5.0
 40
5.0
 40
5.0
 40
6.0
 40
6.0
 40
6.0
 40
7.0
 40
7.0
 40
7.0
 40
8.0
 40
8.0
 40
8.0
 40
9.0
 40
9.0
 40
9.0
 40
10.0
 40
10.0
 40
10.0
 40
11.0
 40
11.0
 40
11.0
 40
12.0
 40
12.0
 40
12.0
 40
13.0
 40
13.0
 40
13.0
 40
14.0
 40
14.0
 40
14.0
 40
15.0
 40
15.0
 40
15.0
 40
16.0
 40
16.0
 40
16.0
 40
17.0
 40
17.0
 40
17.0
 40
18.0
 40
18.0
 40
18.0
 40
19.0
 40
19.0
 40
19.0
 40
19.0
 10
108.9501111923805
 20
-136.2431911551753
 10
108.9501111923805
 20
-136.3448214719902
 10
108.9290961099205
 20
-136.5777099267931
 10
108.743060953717
 20
-136.7110351220722
 10
108.6307508408979
 20
-136.790272318233
 10
108.5315320909227
 20
-136.7947509423638
 10
108.4467827419855
 20
-136.7992295664946
 10
108.4467827419855
 20
-136.7992295664946
 10
108.4467827419855
 20
-136.5642740544006
 10
108.4467827419855
 20
-136.5642740544006
 10
108.5208522949184
 20
-136.5618624875609
 10
108.7554632974639
 20
-136.5504936724596
 10
108.7554632974639
 20
-136.2476697793061
 10
108.7554632974639
 20
-136.100564202086
 10
108.6858723686619
 20
-135.9379556951822
 10
108.4574625379898
 20
-135.9379556951822
 10
108.3410183105884
 20
-135.9379556951822
 10
108.2924424642463
 20
-135.9786078219081
 10
108.260747585782
 20
-136.0123697576636
 10
108.1866780328492
 20
-136.0916069538243
 10
108.1739311795537
 20
-136.2159749008418
 10
108.1739311795537
 20
-136.2748860336396
 10
108.1739311795537
 20
-136.2952120970026
 10
108.1759982368449
 20
-136.3334526568889
 10
108.1801323514272
 20
-136.363080478062
 10
108.1801323514272
 20
-136.363080478062
 10
107.9854844565106
 20
-136.363080478062
 10
107.9854844565106
 20
-136.363080478062
 10
107.9920301379326
 20
-136.3224283513361
 10
107.9940971952237
 20
-136.2769530909308
 10
107.9940971952237
 20
-136.2704074095088
 10
107.9940971952237
 20
-136.2001274616097
 10
107.9727376032152
 20
-135.9875650701698
 10
107.7360595433785
 20
-135.9875650701698
 10
107.5582926163396
 20
-135.9875650701698
 10
107.5031710885756
 20
-136.1277804564195
 10
107.5031710885756
 20
-136.2452582124665
 10
107.5031710885756
 20
-136.5281005518055
 10
107.7360595433785
 20
-136.5370578000671
 10
107.8077175294717
 20
-136.5415364241979
 10
107.8077175294717
 20
-136.5415364241979
 10
107.8077175294717
 20
-136.7585774397687
 10
107.8077175294717
 20
-136.7585774397687
 10
107.6830050729056
 20
-136.749620191507
 10
107.3064561363678
 20
-136.7203368798824
 10
107.3064561363678
 20
-136.231822340074
 10
107.3064561363678
 20
-135.9920436943006
 10
107.4335801597736
 20
-135.7343505520039
 10
107.7295138619565
 20
-135.7343505520039
 10
107.9158935277085
 20
-135.7343505520039
 10
107.998231309806
 20
-135.8363253783673
 10
108.0595540094434
 20
-135.942434319313
 10
108.0871147733255
 20
-135.8769775050933
 10
108.1673854981318
 20
-135.6823296101767
 10
108.4447156846944
 20
-135.6823296101767
 10
108.7830240613459
 20
-135.6823296101767
 10
108.9501111923805
 20
-135.9469129434438
 10
108.9501111923805
 20
-136.2431911551753
 97
        0
 97
        0
 75
     2
 76
     1
 98
        0
  0
POLYLINE
  5
10B
330
105
100
AcDbEntity
  8
_U+30EC_U+30A4_U+30E4_U+30FC 1
370
     0
100
AcDb2dPolyline
 66
     1
 10
0.0
 20
0.0
 30
0.0
  0
VERTEX
  5
10C
330
10B
100
AcDbEntity
  8
_U+30EC_U+30A4_U+30E4_U+30FC 1
370
     0
100
AcDbVertex
100
AcDb2dVertex
 10
108.8994682887474
 20
-135.4466850789856
 30
0.0
  0
VERTEX
  5
10D
330
10B
100
AcDbEntity
  8
_U+30EC_U+30A4_U+30E4_U+30FC 1
370
     0
100
AcDbVertex
100
AcDb2dVertex
 10
108.6476318087756
 20
-135.4466850789856
 30
0.0
  0
VERTEX
  5
10E
330
10B
100
AcDbEntity
  8
_U+30EC_U+30A4_U+30E4_U+30FC 1
370
     0
100
AcDbVertex
100
AcDb2dVertex
 10
108.6476318087756
 20
-135.1776231215875
 30
0.0
  0
VERTEX
  5
10F
330
10B
100
AcDbEntity
  8
_U+30EC_U+30A4_U+30E4_U+30FC 1
370
     0
100
AcDbVertex
100
AcDb2dVertex
 10
108.8994682887474
 20
-135.1776231215875
 30
0.0
  0
VERTEX
  5
110
330
10B
100
AcDbEntity
  8
_U+30EC_U+30A4_U+30E4_U+30FC 1
370
     0
100
AcDbVertex
100
AcDb2dVertex
 10
108.8994682887474
 20
-135.4466850789856
 30
0.0
  0
SEQEND
  5
111
330
10B
100
AcDbEntity
  8
_U+30EC_U+30A4_U+30E4_U+30FC 1
370
     0
  0
HATCH
  5
112
330
105
100
AcDbEntity
  8
_U+30EC_U+30A4_U+30E4_U+30FC 1
 62
     7
420
 16777215
100
AcDbHatch
 10
0.0
 20
0.0
 30
0.0
210
0.0
220
0.0
230
1.0
  2
SOLID
 70
     1
 71
     0
 91
        1
 92
        1
 93
        4
 72
     1
 10
108.8994682887474
 20
-135.4466850789856
 11
108.6476318087756
 21
-135.4466850789856
 72
     1
 10
108.6476318087756
 20
-135.4466850789856
 11
108.6476318087756
 21
-135.1776231215875
 72
     1
 10
108.6476318087756
 20
-135.1776231215875
 11
108.8994682887474
 21
-135.1776231215875
 72
     1
 10
108.8994682887474
 20
-135.1776231215875
 11
108.8994682887474
 21
-135.4466850789856
 97
        0
 75
     2
 76
     1
 98
        0
  0
SPLINE
  5
113
330
105
100
AcDbEntity
  8
_U+30EC_U+30A4_U+30E4_U+30FC 1
370
     0
100
AcDbSpline
210
0.0
220
0.0
230
1.0
 70
    11
 71
     3
 72
    53
 73
    49
 74
     0
 42
0.0000000001
 43
0.0000000001
 12
1.0
 22
0.0
 32
0.0
 13
1.0
 23
0.0
 33
0.0
 40
0.0
 40
0.0
 40
0.0
 40
0.0
 40
1.0
 40
1.0
 40
1.0
 40
2.0
 40
2.0
 40
2.0
 40
3.0
 40
3.0
 40
3.0
 40
4.0
 40
4.0
 40
4.0
 40
5.0
 40
5.0
 40
5.0
 40
6.0
 40
6.0
 40
6.0
 40
7.0
 40
7.0
 40
7.0
 40
8.0
 40
8.0
 40
8.0
 40
9.0
 40
9.0
 40
9.0
 40
10.0
 40
10.0
 40
10.0
 40
11.0
 40
11.0
 40
11.0
 40
12.0
 40
12.0
 40
12.0
 40
13.0
 40
13.0
 40
13.0
 40
14.0
 40
14.0
 40
14.0
 40
15.0
 40
15.0
 40
15.0
 40
16.0
 40
16.0
 40
16.0
 40
16.0
 10
108.9501111923805
 20
-134.4107448665709
 30
0.0
 10
108.9501111923805
 20
-134.4944606868625
 30
0.0
 10
108.9332302245028
 20
-134.6026366850994
 30
0.0
 10
108.8698404675742
 20
-134.7115017024333
 30
0.0
 10
108.7599419215947
 20
-134.8968478395397
 30
0.0
 10
108.6286837836067
 20
-134.9192409601938
 30
0.0
 10
108.5208522949184
 20
-134.9395670235568
 30
0.0
 10
108.5208522949184
 20
-134.9395670235568
 30
0.0
 10
108.5208522949184
 20
-134.7021999446231
 30
0.0
 10
108.5208522949184
 20
-134.7021999446231
 30
0.0
 10
108.7196343044173
 20
-134.6436333213738
 30
0.0
 10
108.7492621255905
 20
-134.507896559255
 30
0.0
 10
108.7492621255905
 20
-134.4083332997313
 30
0.0
 10
108.7492621255905
 20
-134.25916066522
 30
0.0
 10
108.6496988660667
 20
-134.0962076487676
 30
0.0
 10
108.4171549208124
 20
-134.0962076487676
 30
0.0
 10
108.1611843262583
 20
-134.0962076487676
 30
0.0
 10
108.0912488879078
 20
-134.2884439768446
 30
0.0
 10
108.0912488879078
 20
-134.4172905479929
 30
0.0
 10
108.0912488879078
 20
-134.4513969932969
 30
0.0
 10
108.0912488879078
 20
-134.6026366850994
 30
0.0
 10
108.2204399686046
 20
-134.6977213204922
 30
0.0
 10
108.2204399686046
 20
-134.6977213204922
 30
0.0
 10
108.2014919434357
 20
-134.8854790244384
 30
0.0
 10
108.2014919434357
 20
-134.8854790244384
 30
0.0
 10
108.2014919434357
 20
-134.8854790244384
 30
0.0
 10
107.3550319827099
 20
-134.75663245329
 30
0.0
 10
107.3550319827099
 20
-134.75663245329
 30
0.0
 10
107.3550319827099
 20
-134.75663245329
 30
0.0
 10
107.3550319827099
 20
-133.9246418936022
 30
0.0
 10
107.3550319827099
 20
-133.9246418936022
 30
0.0
 10
107.3550319827099
 20
-133.9246418936022
 30
0.0
 10
107.5496798776265
 20
-133.9246418936022
 30
0.0
 10
107.5496798776265
 20
-133.9246418936022
 30
0.0
 10
107.5496798776265
 20
-133.9246418936022
 30
0.0
 10
107.5496798776265
 20
-134.5823106217364
 30
0.0
 10
107.5496798776265
 20
-134.5823106217364
 30
0.0
 10
107.5496798776265
 20
-134.5823106217364
 30
0.0
 10
107.9727376032152
 20
-134.6525905696355
 30
0.0
 10
107.9727376032152
 20
-134.6525905696355
 30
0.0
 10
107.9389756674597
 20
-134.5871337554157
 30
0.0
 10
107.8986680502823
 20
-134.4989393109933
 30
0.0
 10
107.8986680502823
 20
-134.3721597971361
 30
0.0
 10
107.8986680502823
 20
-134.101030782447
 30
0.0
 10
108.0850477160343
 20
-133.8478162642811
 30
0.0
 10
108.3982068956435
 20
-133.8478162642811
 30
0.0
 10
108.715500189835
 20
-133.8478162642811
 30
0.0
 10
108.9501111923805
 20
-134.087250400506
 30
0.0
 10
108.9501111923805
 20
-134.4107448665709
 30
0.0
  0
HATCH
  5
114
330
105
100
AcDbEntity
  8
_U+30EC_U+30A4_U+30E4_U+30FC 1
 62
     7
420
 16777215
100
AcDbHatch
 10
0.0
 20
0.0
 30
0.0
210
0.0
220
0.0
230
1.0
  2
SOLID
 70
     1
 71
     0
 91
        1
 92
        1
 93
        1
 72
     4
 94
        3
 73
     0
 74
     1
 95
       53
 96
       49
 40
0.0
 40
0.0
 40
0.0
 40
0.0
 40
1.0
 40
1.0
 40
1.0
 40
2.0
 40
2.0
 40
2.0
 40
3.0
 40
3.0
 40
3.0
 40
4.0
 40
4.0
 40
4.0
 40
5.0
 40
5.0
 40
5.0
 40
6.0
 40
6.0
 40
6.0
 40
7.0
 40
7.0
 40
7.0
 40
8.0
 40
8.0
 40
8.0
 40
9.0
 40
9.0
 40
9.0
 40
10.0
 40
10.0
 40
10.0
 40
11.0
 40
11.0
 40
11.0
 40
12.0
 40
12.0
 40
12.0
 40
13.0
 40
13.0
 40
13.0
 40
14.0
 40
14.0
 40
14.0
 40
15.0
 40
15.0
 40
15.0
 40
16.0
 40
16.0
 40
16.0
 40
16.0
 10
108.9501111923805
 20
-134.4107448665709
 10
108.9501111923805
 20
-134.4944606868625
 10
108.9332302245028
 20
-134.6026366850994
 10
108.8698404675742
 20
-134.7115017024333
 10
108.7599419215947
 20
-134.8968478395397
 10
108.6286837836067
 20
-134.9192409601938
 10
108.5208522949184
 20
-134.9395670235568
 10
108.5208522949184
 20
-134.9395670235568
 10
108.5208522949184
 20
-134.7021999446231
 10
108.5208522949184
 20
-134.7021999446231
 10
108.7196343044173
 20
-134.6436333213738
 10
108.7492621255905
 20
-134.507896559255
 10
108.7492621255905
 20
-134.4083332997313
 10
108.7492621255905
 20
-134.25916066522
 10
108.6496988660667
 20
-134.0962076487676
 10
108.4171549208124
 20
-134.0962076487676
 10
108.1611843262583
 20
-134.0962076487676
 10
108.0912488879078
 20
-134.2884439768446
 10
108.0912488879078
 20
-134.4172905479929
 10
108.0912488879078
 20
-134.4513969932969
 10
108.0912488879078
 20
-134.6026366850994
 10
108.2204399686046
 20
-134.6977213204922
 10
108.2204399686046
 20
-134.6977213204922
 10
108.2014919434357
 20
-134.8854790244384
 10
108.2014919434357
 20
-134.8854790244384
 10
108.2014919434357
 20
-134.8854790244384
 10
107.3550319827099
 20
-134.75663245329
 10
107.3550319827099
 20
-134.75663245329
 10
107.3550319827099
 20
-134.75663245329
 10
107.3550319827099
 20
-133.9246418936022
 10
107.3550319827099
 20
-133.9246418936022
 10
107.3550319827099
 20
-133.9246418936022
 10
107.5496798776265
 20
-133.9246418936022
 10
107.5496798776265
 20
-133.9246418936022
 10
107.5496798776265
 20
-133.9246418936022
 10
107.5496798776265
 20
-134.5823106217364
 10
107.5496798776265
 20
-134.5823106217364
 10
107.5496798776265
 20
-134.5823106217364
 10
107.9727376032152
 20
-134.6525905696355
 10
107.9727376032152
 20
-134.6525905696355
 10
107.9389756674597
 20
-134.5871337554157
 10
107.8986680502823
 20
-134.4989393109933
 10
107.8986680502823
 20
-134.3721597971361
 10
107.8986680502823
 20
-134.101030782447
 10
108.0850477160343
 20
-133.8478162642811
 10
108.3982068956435
 20
-133.8478162642811
 10
108.715500189835
 20
-133.8478162642811
 10
108.9501111923805
 20
-134.087250400506
 10
108.9501111923805
 20
-134.4107448665709
 97
        0
 97
        0
 75
     2
 76
     1
 98
        0
  0
ENDBLK
  5
108
330
105
100
AcDbEntity
  8
0
100
AcDbBlockEnd
  0
BLOCK
  5
11F
330
11D
100
AcDbEntity
  8
0
100
AcDbBlockBegin
  2
block 7
 70
     0
 10
0.0
 20
0.0
 30
0.0
  3
block 7
  1

  0
SPLINE
  5
121
330
11D
100
AcDbEntity
  8
_U+30EC_U+30A4_U+30E4_U+30FC 1
370
     0
100
AcDbSpline
210
0.0
220
0.0
230
1.0
 70
    11
 71
     3
 72
    26
 73
    22
 74
     0
 42
0.0000000001
 43
0.0000000001
 12
1.0
 22
0.0
 32
0.0
 13
1.0
 23
0.0
 33
0.0
 40
0.0
 40
0.0
 40
0.0
 40
0.0
 40
1.0
 40
1.0
 40
1.0
 40
2.0
 40
2.0
 40
2.0
 40
3.0
 40
3.0
 40
3.0
 40
4.0
 40
4.0
 40
4.0
 40
5.0
 40
5.0
 40
5.0
 40
6.0
 40
6.0
 40
6.0
 40
7.0
 40
7.0
 40
7.0
 40
7.0
 10
105.0192572437105
 20
-129.0233045467372
 30
0.0
 10
105.0192572437105
 20
-129.0233045467372
 30
0.0
 10
105.0192572437105
 20
-129.2765190649031
 30
0.0
 10
105.0192572437105
 20
-129.2765190649031
 30
0.0
 10
104.7102321786836
 20
-129.2496473201182
 30
0.0
 10
104.192089817702
 20
-129.0436306101002
 30
0.0
 10
103.6863498004673
 20
-128.609720833733
 30
0.0
 10
103.6863498004673
 20
-128.609720833733
 30
0.0
 10
103.6863498004673
 20
-129.5049288955752
 30
0.0
 10
103.6863498004673
 20
-129.5049288955752
 30
0.0
 10
103.6863498004673
 20
-129.5049288955752
 30
0.0
 10
103.474820937673
 20
-129.5049288955752
 30
0.0
 10
103.474820937673
 20
-129.5049288955752
 30
0.0
 10
103.474820937673
 20
-129.5049288955752
 30
0.0
 10
103.474820937673
 20
-128.3565063155671
 30
0.0
 10
103.474820937673
 20
-128.3565063155671
 30
0.0
 10
103.474820937673
 20
-128.3565063155671
 30
0.0
 10
103.6863498004673
 20
-128.3565063155671
 30
0.0
 10
103.6863498004673
 20
-128.3565063155671
 30
0.0
 10
103.9764268403253
 20
-128.7023939022862
 30
0.0
 10
104.5686387542398
 20
-128.9871310441421
 30
0.0
 10
105.0192572437105
 20
-129.0233045467372
 30
0.0
  0
HATCH
  5
122
330
11D
100
AcDbEntity
  8
_U+30EC_U+30A4_U+30E4_U+30FC 1
 62
     7
420
 16777215
100
AcDbHatch
 10
0.0
 20
0.0
 30
0.0
210
0.0
220
0.0
230
1.0
  2
SOLID
 70
     1
 71
     0
 91
        1
 92
        1
 93
        1
 72
     4
 94
        3
 73
     0
 74
     1
 95
       26
 96
       22
 40
0.0
 40
0.0
 40
0.0
 40
0.0
 40
1.0
 40
1.0
 40
1.0
 40
2.0
 40
2.0
 40
2.0
 40
3.0
 40
3.0
 40
3.0
 40
4.0
 40
4.0
 40
4.0
 40
5.0
 40
5.0
 40
5.0
 40
6.0
 40
6.0
 40
6.0
 40
7.0
 40
7.0
 40
7.0
 40
7.0
 10
105.0192572437105
 20
-129.0233045467372
 10
105.0192572437105
 20
-129.0233045467372
 10
105.0192572437105
 20
-129.2765190649031
 10
105.0192572437105
 20
-129.2765190649031
 10
104.7102321786836
 20
-129.2496473201182
 10
104.192089817702
 20
-129.0436306101002
 10
103.6863498004673
 20
-128.609720833733
 10
103.6863498004673
 20
-128.609720833733
 10
103.6863498004673
 20
-129.5049288955752
 10
103.6863498004673
 20
-129.5049288955752
 10
103.6863498004673
 20
-129.5049288955752
 10
103.474820937673
 20
-129.5049288955752
 10
103.474820937673
 20
-129.5049288955752
 10
103.474820937673
 20
-129.5049288955752
 10
103.474820937673
 20
-128.3565063155671
 10
103.474820937673
 20
-128.3565063155671
 10
103.474820937673
 20
-128.3565063155671
 10
103.6863498004673
 20
-128.3565063155671
 10
103.6863498004673
 20
-128.3565063155671
 10
103.9764268403253
 20
-128.7023939022862
 10
104.5686387542398
 20
-128.9871310441421
 10
105.0192572437105
 20
-129.0233045467372
 97
        0
 97
        0
 75
     2
 76
     1
 98
        0
  0
ENDBLK
  5
120
330
11D
100
AcDbEntity
  8
0
100
AcDbBlockEnd
  0
BLOCK
  5
131
330
12F
100
AcDbEntity
  8
0
100
AcDbBlockBegin
  2
block 8
 70
     0
 10
0.0
 20
0.0
 30
0.0
  3
block 8
  1

  0
SPLINE
  5
133
330
12F
100
AcDbEntity
  8
_U+30EC_U+30A4_U+30E4_U+30FC 1
370
     0
100
AcDbSpline
210
0.0
220
0.0
230
1.0
 70
    11
 71
     3
 72
    44
 73
    40
 74
     0
 42
0.0000000001
 43
0.0000000001
 12
1.0
 22
0.0
 32
0.0
 13
1.0
 23
0.0
 33
0.0
 40
0.0
 40
0.0
 40
0.0
 40
0.0
 40
1.0
 40
1.0
 40
1.0
 40
2.0
 40
2.0
 40
2.0
 40
3.0
 40
3.0
 40
3.0
 40
4.0
 40
4.0
 40
4.0
 40
5.0
 40
5.0
 40
5.0
 40
6.0
 40
6.0
 40
6.0
 40
7.0
 40
7.0
 40
7.0
 40
8.0
 40
8.0
 40
8.0
 40
9.0
 40
9.0
 40
9.0
 40
10.0
 40
10.0
 40
10.0
 40
11.0
 40
11.0
 40
11.0
 40
12.0
 40
12.0
 40
12.0
 40
13.0
 40
13.0
 40
13.0
 40
13.0
 10
89.17199026633548
 20
-140.7504095785277
 30
0.0
 10
88.9391018115326
 20
-140.9092284803977
 30
0.0
 10
88.83971080678313
 20
-140.9832980333306
 30
0.0
 10
88.78768986495587
 20
-141.1269585150655
 30
0.0
 10
88.78768986495587
 20
-141.1269585150655
 30
0.0
 10
89.61985267941796
 20
-141.1269585150655
 30
0.0
 10
89.61985267941796
 20
-141.1269585150655
 30
0.0
 10
89.61985267941796
 20
-141.1269585150655
 30
0.0
 10
89.61985267941796
 20
-141.3322862059864
 30
0.0
 10
89.61985267941796
 20
-141.3322862059864
 30
0.0
 10
89.61985267941796
 20
-141.3322862059864
 30
0.0
 10
88.52086721962326
 20
-141.3322862059864
 30
0.0
 10
88.52086721962326
 20
-141.3322862059864
 30
0.0
 10
88.55480141015298
 20
-140.9746852946174
 30
0.0
 10
88.6249091032778
 20
-140.8964816271023
 30
0.0
 10
89.0364257589909
 20
-140.5981363580796
 30
0.0
 10
89.30996634051974
 20
-140.3993543485807
 30
0.0
 10
89.38007403364458
 20
-140.3314859675213
 30
0.0
 10
89.38007403364458
 20
-140.1940266576598
 30
0.0
 10
89.38007403364458
 20
-140.0755153729672
 30
0.0
 10
89.3032484043235
 20
-139.9446017445277
 30
0.0
 10
89.092925324949
 20
-139.9446017445277
 30
0.0
 10
88.81473386451508
 20
-139.9446017445277
 30
0.0
 10
88.80577661625343
 20
-140.175078632491
 30
0.0
 10
88.8012979921226
 20
-140.2915228598924
 30
0.0
 10
88.8012979921226
 20
-140.2915228598924
 30
0.0
 10
88.5615193463492
 20
-140.2915228598924
 30
0.0
 10
88.5615193463492
 20
-140.2915228598924
 30
0.0
 10
88.57064884938512
 20
-140.1643988364867
 30
0.0
 10
88.58201766448644
 20
-140.0524332332161
 30
0.0
 10
88.66780054206916
 20
-139.9339219485235
 30
0.0
 10
88.78545055289045
 20
-139.7730359893623
 30
0.0
 10
88.98440481716362
 20
-139.7392740536069
 30
0.0
 10
89.10877276418114
 20
-139.7392740536069
 30
0.0
 10
89.40487872113837
 20
-139.7392740536069
 30
0.0
 10
89.62639836083993
 20
-139.9232421525192
 30
0.0
 10
89.62639836083993
 20
-140.196093714951
 30
0.0
 10
89.62639836083993
 20
-140.4248480551716
 30
0.0
 10
89.50203041382241
 20
-140.5240668051468
 30
0.0
 10
89.17199026633548
 20
-140.7504095785277
 30
0.0
  0
HATCH
  5
134
330
12F
100
AcDbEntity
  8
_U+30EC_U+30A4_U+30E4_U+30FC 1
 62
     7
420
 16777215
100
AcDbHatch
 10
0.0
 20
0.0
 30
0.0
210
0.0
220
0.0
230
1.0
  2
SOLID
 70
     1
 71
     0
 91
        1
 92
        1
 93
        1
 72
     4
 94
        3
 73
     0
 74
     1
 95
       44
 96
       40
 40
0.0
 40
0.0
 40
0.0
 40
0.0
 40
1.0
 40
1.0
 40
1.0
 40
2.0
 40
2.0
 40
2.0
 40
3.0
 40
3.0
 40
3.0
 40
4.0
 40
4.0
 40
4.0
 40
5.0
 40
5.0
 40
5.0
 40
6.0
 40
6.0
 40
6.0
 40
7.0
 40
7.0
 40
7.0
 40
8.0
 40
8.0
 40
8.0
 40
9.0
 40
9.0
 40
9.0
 40
10.0
 40
10.0
 40
10.0
 40
11.0
 40
11.0
 40
11.0
 40
12.0
 40
12.0
 40
12.0
 40
13.0
 40
13.0
 40
13.0
 40
13.0
 10
89.17199026633548
 20
-140.7504095785277
 10
88.9391018115326
 20
-140.9092284803977
 10
88.83971080678313
 20
-140.9832980333306
 10
88.78768986495587
 20
-141.1269585150655
 10
88.78768986495587
 20
-141.1269585150655
 10
89.61985267941796
 20
-141.1269585150655
 10
89.61985267941796
 20
-141.1269585150655
 10
89.61985267941796
 20
-141.1269585150655
 10
89.61985267941796
 20
-141.3322862059864
 10
89.61985267941796
 20
-141.3322862059864
 10
89.61985267941796
 20
-141.3322862059864
 10
88.52086721962326
 20
-141.3322862059864
 10
88.52086721962326
 20
-141.3322862059864
 10
88.55480141015298
 20
-140.9746852946174
 10
88.6249091032778
 20
-140.8964816271023
 10
89.0364257589909
 20
-140.5981363580796
 10
89.30996634051974
 20
-140.3993543485807
 10
89.38007403364458
 20
-140.3314859675213
 10
89.38007403364458
 20
-140.1940266576598
 10
89.38007403364458
 20
-140.0755153729672
 10
89.3032484043235
 20
-139.9446017445277
 10
89.092925324949
 20
-139.9446017445277
 10
88.81473386451508
 20
-139.9446017445277
 10
88.80577661625343
 20
-140.175078632491
 10
88.8012979921226
 20
-140.2915228598924
 10
88.8012979921226
 20
-140.2915228598924
 10
88.5615193463492
 20
-140.2915228598924
 10
88.5615193463492
 20
-140.2915228598924
 10
88.57064884938512
 20
-140.1643988364867
 10
88.58201766448644
 20
-140.0524332332161
 10
88.66780054206916
 20
-139.9339219485235
 10
88.78545055289045
 20
-139.7730359893623
 10
88.98440481716362
 20
-139.7392740536069
 10
89.10877276418114
 20
-139.7392740536069
 10
89.40487872113837
 20
-139.7392740536069
 10
89.62639836083993
 20
-139.9232421525192
 10
89.62639836083993
 20
-140.196093714951
 10
89.62639836083993
 20
-140.4248480551716
 10
89.50203041382241
 20
-140.5240668051468
 10
89.17199026633548
 20
-140.7504095785277
 97
        0
 97
        0
 75
     2
 76
     1
 98
        0
  0
SPLINE
  5
135
330
12F
100
AcDbEntity
  8
_U+30EC_U+30A4_U+30E4_U+30FC 1
370
     0
100
AcDbSpline
210
0.0
220
0.0
230
1.0
 70
    11
 71
     3
 72
    44
 73
    40
 74
     0
 42
0.0000000001
 43
0.0000000001
 12
1.0
 22
0.0
 32
0.0
 13
1.0
 23
0.0
 33
0.0
 40
0.0
 40
0.0
 40
0.0
 40
0.0
 40
1.0
 40
1.0
 40
1.0
 40
2.0
 40
2.0
 40
2.0
 40
3.0
 40
3.0
 40
3.0
 40
4.0
 40
4.0
 40
4.0
 40
5.0
 40
5.0
 40
5.0
 40
6.0
 40
6.0
 40
6.0
 40
7.0
 40
7.0
 40
7.0
 40
8.0
 40
8.0
 40
8.0
 40
9.0
 40
9.0
 40
9.0
 40
10.0
 40
10.0
 40
10.0
 40
11.0
 40
11.0
 40
11.0
 40
12.0
 40
12.0
 40
12.0
 40
13.0
 40
13.0
 40
13.0
 40
13.0
 10
90.4297946280002
 20
-140.7504095785277
 30
0.0
 10
90.1969061731973
 20
-140.9092284803977
 30
0.0
 10
90.09734291367359
 20
-140.9832980333306
 30
0.0
 10
90.04566648139483
 20
-141.1269585150655
 30
0.0
 10
90.04566648139483
 20
-141.1269585150655
 30
0.0
 10
90.87731253153414
 20
-141.1269585150655
 30
0.0
 10
90.87731253153414
 20
-141.1269585150655
 30
0.0
 10
90.87731253153414
 20
-141.1269585150655
 30
0.0
 10
90.87731253153414
 20
-141.3322862059864
 30
0.0
 10
90.87731253153414
 20
-141.3322862059864
 30
0.0
 10
90.87731253153414
 20
-141.3322862059864
 30
0.0
 10
89.77867158128798
 20
-141.3322862059864
 30
0.0
 10
89.77867158128798
 20
-141.3322862059864
 30
0.0
 10
89.81277802659194
 20
-140.9746852946174
 30
0.0
 10
89.88271346494253
 20
-140.8964816271023
 30
0.0
 10
90.29405786588136
 20
-140.5981363580796
 30
0.0
 10
90.56759844741019
 20
-140.3993543485807
 30
0.0
 10
90.63787839530929
 20
-140.3314859675213
 30
0.0
 10
90.63787839530929
 20
-140.1940266576598
 30
0.0
 10
90.63787839530929
 20
-140.0755153729672
 30
0.0
 10
90.56105276598821
 20
-139.9446017445277
 30
0.0
 10
90.35055743183945
 20
-139.9446017445277
 30
0.0
 10
90.07253822617979
 20
-139.9446017445277
 30
0.0
 10
90.06358097791814
 20
-140.175078632491
 30
0.0
 10
90.05910235378731
 20
-140.2915228598924
 30
0.0
 10
90.05910235378731
 20
-140.2915228598924
 30
0.0
 10
89.81932370801393
 20
-140.2915228598924
 30
0.0
 10
89.81932370801393
 20
-140.2915228598924
 30
0.0
 10
89.8286254658241
 20
-140.1643988364867
 30
0.0
 10
89.8396497713769
 20
-140.0524332332161
 30
0.0
 10
89.92577715850814
 20
-139.9339219485235
 30
0.0
 10
90.04325491455516
 20
-139.7730359893623
 30
0.0
 10
90.24203692405408
 20
-139.7392740536069
 30
0.0
 10
90.3664048710716
 20
-139.7392740536069
 30
0.0
 10
90.66268308280308
 20
-139.7392740536069
 30
0.0
 10
90.88420272250465
 20
-139.9232421525192
 30
0.0
 10
90.88420272250465
 20
-140.196093714951
 30
0.0
 10
90.88420272250465
 20
-140.4248480551716
 30
0.0
 10
90.75983477548714
 20
-140.5240668051468
 30
0.0
 10
90.4297946280002
 20
-140.7504095785277
 30
0.0
  0
HATCH
  5
136
330
12F
100
AcDbEntity
  8
_U+30EC_U+30A4_U+30E4_U+30FC 1
 62
     7
420
 16777215
100
AcDbHatch
 10
0.0
 20
0.0
 30
0.0
210
0.0
220
0.0
230
1.0
  2
SOLID
 70
     1
 71
     0
 91
        1
 92
        1
 93
        1
 72
     4
 94
        3
 73
     0
 74
     1
 95
       44
 96
       40
 40
0.0
 40
0.0
 40
0.0
 40
0.0
 40
1.0
 40
1.0
 40
1.0
 40
2.0
 40
2.0
 40
2.0
 40
3.0
 40
3.0
 40
3.0
 40
4.0
 40
4.0
 40
4.0
 40
5.0
 40
5.0
 40
5.0
 40
6.0
 40
6.0
 40
6.0
 40
7.0
 40
7.0
 40
7.0
 40
8.0
 40
8.0
 40
8.0
 40
9.0
 40
9.0
 40
9.0
 40
10.0
 40
10.0
 40
10.0
 40
11.0
 40
11.0
 40
11.0
 40
12.0
 40
12.0
 40
12.0
 40
13.0
 40
13.0
 40
13.0
 40
13.0
 10
90.4297946280002
 20
-140.7504095785277
 10
90.1969061731973
 20
-140.9092284803977
 10
90.09734291367359
 20
-140.9832980333306
 10
90.04566648139483
 20
-141.1269585150655
 10
90.04566648139483
 20
-141.1269585150655
 10
90.87731253153414
 20
-141.1269585150655
 10
90.87731253153414
 20
-141.1269585150655
 10
90.87731253153414
 20
-141.1269585150655
 10
90.87731253153414
 20
-141.3322862059864
 10
90.87731253153414
 20
-141.3322862059864
 10
90.87731253153414
 20
-141.3322862059864
 10
89.77867158128798
 20
-141.3322862059864
 10
89.77867158128798
 20
-141.3322862059864
 10
89.81277802659194
 20
-140.9746852946174
 10
89.88271346494253
 20
-140.8964816271023
 10
90.29405786588136
 20
-140.5981363580796
 10
90.56759844741019
 20
-140.3993543485807
 10
90.63787839530929
 20
-140.3314859675213
 10
90.63787839530929
 20
-140.1940266576598
 10
90.63787839530929
 20
-140.0755153729672
 10
90.56105276598821
 20
-139.9446017445277
 10
90.35055743183945
 20
-139.9446017445277
 10
90.07253822617979
 20
-139.9446017445277
 10
90.06358097791814
 20
-140.175078632491
 10
90.05910235378731
 20
-140.2915228598924
 10
90.05910235378731
 20
-140.2915228598924
 10
89.81932370801393
 20
-140.2915228598924
 10
89.81932370801393
 20
-140.2915228598924
 10
89.8286254658241
 20
-140.1643988364867
 10
89.8396497713769
 20
-140.0524332332161
 10
89.92577715850814
 20
-139.9339219485235
 10
90.04325491455516
 20
-139.7730359893623
 10
90.24203692405408
 20
-139.7392740536069
 10
90.3664048710716
 20
-139.7392740536069
 10
90.66268308280308
 20
-139.7392740536069
 10
90.88420272250465
 20
-139.9232421525192
 10
90.88420272250465
 20
-140.196093714951
 10
90.88420272250465
 20
-140.4248480551716
 10
90.75983477548714
 20
-140.5240668051468
 10
90.4297946280002
 20
-140.7504095785277
 97
        0
 97
        0
 75
     2
 76
     1
 98
        0
  0
POLYLINE
  5
137
330
12F
100
AcDbEntity
  8
_U+30EC_U+30A4_U+30E4_U+30FC 1
370
     0
100
AcDb2dPolyline
 66
     1
 10
0.0
 20
0.0
 30
0.0
  0
VERTEX
  5
138
330
137
100
AcDbEntity
  8
_U+30EC_U+30A4_U+30E4_U+30FC 1
370
     0
100
AcDbVertex
100
AcDb2dVertex
 10
91.11778019640458
 20
-141.3322862059864
 30
0.0
  0
VERTEX
  5
139
330
137
100
AcDbEntity
  8
_U+30EC_U+30A4_U+30E4_U+30FC 1
370
     0
100
AcDbVertex
100
AcDb2dVertex
 10
91.11778019640458
 20
-141.0804497260146
 30
0.0
  0
VERTEX
  5
13A
330
137
100
AcDbEntity
  8
_U+30EC_U+30A4_U+30E4_U+30FC 1
370
     0
100
AcDbVertex
100
AcDb2dVertex
 10
91.38701440857686
 20
-141.0804497260146
 30
0.0
  0
VERTEX
  5
13B
330
137
100
AcDbEntity
  8
_U+30EC_U+30A4_U+30E4_U+30FC 1
370
     0
100
AcDbVertex
100
AcDb2dVertex
 10
91.38701440857686
 20
-141.3322862059864
 30
0.0
  0
VERTEX
  5
13C
330
137
100
AcDbEntity
  8
_U+30EC_U+30A4_U+30E4_U+30FC 1
370
     0
100
AcDbVertex
100
AcDb2dVertex
 10
91.11778019640458
 20
-141.3322862059864
 30
0.0
  0
SEQEND
  5
13D
330
137
100
AcDbEntity
  8
_U+30EC_U+30A4_U+30E4_U+30FC 1
370
     0
  0
HATCH
  5
13E
330
12F
100
AcDbEntity
  8
_U+30EC_U+30A4_U+30E4_U+30FC 1
 62
     7
420
 16777215
100
AcDbHatch
 10
0.0
 20
0.0
 30
0.0
210
0.0
220
0.0
230
1.0
  2
SOLID
 70
     1
 71
     0
 91
        1
 92
        1
 93
        4
 72
     1
 10
91.11778019640458
 20
-141.3322862059864
 11
91.11778019640458
 21
-141.0804497260146
 72
     1
 10
91.11778019640458
 20
-141.0804497260146
 11
91.38701440857686
 21
-141.0804497260146
 72
     1
 10
91.38701440857686
 20
-141.0804497260146
 11
91.38701440857686
 21
-141.3322862059864
 72
     1
 10
91.38701440857686
 20
-141.3322862059864
 11
91.11778019640458
 21
-141.3322862059864
 97
        0
 75
     2
 76
     1
 98
        0
  0
SPLINE
  5
13F
330
12F
100
AcDbEntity
  8
_U+30EC_U+30A4_U+30E4_U+30FC 1
370
     0
100
AcDbSpline
210
0.0
220
0.0
230
1.0
 70
    11
 71
     3
 72
    53
 73
    49
 74
     0
 42
0.0000000001
 43
0.0000000001
 12
1.0
 22
0.0
 32
0.0
 13
1.0
 23
0.0
 33
0.0
 40
0.0
 40
0.0
 40
0.0
 40
0.0
 40
1.0
 40
1.0
 40
1.0
 40
2.0
 40
2.0
 40
2.0
 40
3.0
 40
3.0
 40
3.0
 40
4.0
 40
4.0
 40
4.0
 40
5.0
 40
5.0
 40
5.0
 40
6.0
 40
6.0
 40
6.0
 40
7.0
 40
7.0
 40
7.0
 40
8.0
 40
8.0
 40
8.0
 40
9.0
 40
9.0
 40
9.0
 40
10.0
 40
10.0
 40
10.0
 40
11.0
 40
11.0
 40
11.0
 40
12.0
 40
12.0
 40
12.0
 40
13.0
 40
13.0
 40
13.0
 40
14.0
 40
14.0
 40
14.0
 40
15.0
 40
15.0
 40
15.0
 40
16.0
 40
16.0
 40
16.0
 40
16.0
 10
92.15354815404496
 20
-141.3829291096195
 30
0.0
 10
92.07017684330191
 20
-141.3829291096195
 30
0.0
 10
91.96131182596801
 20
-141.3660481417418
 30
0.0
 10
91.85313582773117
 20
-141.3026583848132
 30
0.0
 10
91.6674451810762
 20
-141.1927598388338
 30
0.0
 10
91.64505206042207
 20
-141.0615017008458
 30
0.0
 10
91.6247259970591
 20
-140.9536702121574
 30
0.0
 10
91.6247259970591
 20
-140.9536702121574
 30
0.0
 10
91.86209307599282
 20
-140.9536702121574
 30
0.0
 10
91.86209307599282
 20
-140.9536702121574
 30
0.0
 10
91.92065969924207
 20
-141.1524522216563
 30
0.0
 10
92.0563964613609
 20
-141.1820800428295
 30
0.0
 10
92.15595972088462
 20
-141.1820800428295
 30
0.0
 10
92.30513235539594
 20
-141.1820800428295
 30
0.0
 10
92.46774086229973
 20
-141.0825167833058
 30
0.0
 10
92.46774086229973
 20
-140.8499728380514
 30
0.0
 10
92.46774086229973
 20
-140.5940022434973
 30
0.0
 10
92.27584904377132
 20
-140.5240668051468
 30
0.0
 10
92.14700247262297
 20
-140.5240668051468
 30
0.0
 10
92.112896027319
 20
-140.5240668051468
 30
0.0
 10
91.96131182596801
 20
-140.5240668051468
 30
0.0
 10
91.86657170012364
 20
-140.6532578858436
 30
0.0
 10
91.86657170012364
 20
-140.6532578858436
 30
0.0
 10
91.67881399617752
 20
-140.6343098606748
 30
0.0
 10
91.67881399617752
 20
-140.6343098606748
 30
0.0
 10
91.67881399617752
 20
-140.6343098606748
 30
0.0
 10
91.80766056732587
 20
-139.7878498999489
 30
0.0
 10
91.80766056732587
 20
-139.7878498999489
 30
0.0
 10
91.80766056732587
 20
-139.7878498999489
 30
0.0
 10
92.6396511270137
 20
-139.7878498999489
 30
0.0
 10
92.6396511270137
 20
-139.7878498999489
 30
0.0
 10
92.6396511270137
 20
-139.7878498999489
 30
0.0
 10
92.6396511270137
 20
-139.9824977948655
 30
0.0
 10
92.6396511270137
 20
-139.9824977948655
 30
0.0
 10
92.6396511270137
 20
-139.9824977948655
 30
0.0
 10
91.98198239887951
 20
-139.9824977948655
 30
0.0
 10
91.98198239887951
 20
-139.9824977948655
 30
0.0
 10
91.98198239887951
 20
-139.9824977948655
 30
0.0
 10
91.91170245098041
 20
-140.4055555204542
 30
0.0
 10
91.91170245098041
 20
-140.4055555204542
 30
0.0
 10
91.97715926520016
 20
-140.3717935846987
 30
0.0
 10
92.06535370962256
 20
-140.3314859675213
 30
0.0
 10
92.19213322347974
 20
-140.3314859675213
 30
0.0
 10
92.46326223816891
 20
-140.3314859675213
 30
0.0
 10
92.71647675633477
 20
-140.5178656332733
 30
0.0
 10
92.71647675633477
 20
-140.8310248128825
 30
0.0
 10
92.71647675633477
 20
-141.148318107074
 30
0.0
 10
92.47704262010991
 20
-141.3829291096195
 30
0.0
 10
92.15354815404496
 20
-141.3829291096195
 30
0.0
  0
HATCH
  5
140
330
12F
100
AcDbEntity
  8
_U+30EC_U+30A4_U+30E4_U+30FC 1
 62
     7
420
 16777215
100
AcDbHatch
 10
0.0
 20
0.0
 30
0.0
210
0.0
220
0.0
230
1.0
  2
SOLID
 70
     1
 71
     0
 91
        1
 92
        1
 93
        1
 72
     4
 94
        3
 73
     0
 74
     1
 95
       53
 96
       49
 40
0.0
 40
0.0
 40
0.0
 40
0.0
 40
1.0
 40
1.0
 40
1.0
 40
2.0
 40
2.0
 40
2.0
 40
3.0
 40
3.0
 40
3.0
 40
4.0
 40
4.0
 40
4.0
 40
5.0
 40
5.0
 40
5.0
 40
6.0
 40
6.0
 40
6.0
 40
7.0
 40
7.0
 40
7.0
 40
8.0
 40
8.0
 40
8.0
 40
9.0
 40
9.0
 40
9.0
 40
10.0
 40
10.0
 40
10.0
 40
11.0
 40
11.0
 40
11.0
 40
12.0
 40
12.0
 40
12.0
 40
13.0
 40
13.0
 40
13.0
 40
14.0
 40
14.0
 40
14.0
 40
15.0
 40
15.0
 40
15.0
 40
16.0
 40
16.0
 40
16.0
 40
16.0
 10
92.15354815404496
 20
-141.3829291096195
 10
92.07017684330191
 20
-141.3829291096195
 10
91.96131182596801
 20
-141.3660481417418
 10
91.85313582773117
 20
-141.3026583848132
 10
91.6674451810762
 20
-141.1927598388338
 10
91.64505206042207
 20
-141.0615017008458
 10
91.6247259970591
 20
-140.9536702121574
 10
91.6247259970591
 20
-140.9536702121574
 10
91.86209307599282
 20
-140.9536702121574
 10
91.86209307599282
 20
-140.9536702121574
 10
91.92065969924207
 20
-141.1524522216563
 10
92.0563964613609
 20
-141.1820800428295
 10
92.15595972088462
 20
-141.1820800428295
 10
92.30513235539594
 20
-141.1820800428295
 10
92.46774086229973
 20
-141.0825167833058
 10
92.46774086229973
 20
-140.8499728380514
 10
92.46774086229973
 20
-140.5940022434973
 10
92.27584904377132
 20
-140.5240668051468
 10
92.14700247262297
 20
-140.5240668051468
 10
92.112896027319
 20
-140.5240668051468
 10
91.96131182596801
 20
-140.5240668051468
 10
91.86657170012364
 20
-140.6532578858436
 10
91.86657170012364
 20
-140.6532578858436
 10
91.67881399617752
 20
-140.6343098606748
 10
91.67881399617752
 20
-140.6343098606748
 10
91.67881399617752
 20
-140.6343098606748
 10
91.80766056732587
 20
-139.7878498999489
 10
91.80766056732587
 20
-139.7878498999489
 10
91.80766056732587
 20
-139.7878498999489
 10
92.6396511270137
 20
-139.7878498999489
 10
92.6396511270137
 20
-139.7878498999489
 10
92.6396511270137
 20
-139.7878498999489
 10
92.6396511270137
 20
-139.9824977948655
 10
92.6396511270137
 20
-139.9824977948655
 10
92.6396511270137
 20
-139.9824977948655
 10
91.98198239887951
 20
-139.9824977948655
 10
91.98198239887951
 20
-139.9824977948655
 10
91.98198239887951
 20
-139.9824977948655
 10
91.91170245098041
 20
-140.4055555204542
 10
91.91170245098041
 20
-140.4055555204542
 10
91.97715926520016
 20
-140.3717935846987
 10
92.06535370962256
 20
-140.3314859675213
 10
92.19213322347974
 20
-140.3314859675213
 10
92.46326223816891
 20
-140.3314859675213
 10
92.71647675633477
 20
-140.5178656332733
 10
92.71647675633477
 20
-140.8310248128825
 10
92.71647675633477
 20
-141.148318107074
 10
92.47704262010991
 20
-141.3829291096195
 10
92.15354815404496
 20
-141.3829291096195
 97
        0
 97
        0
 75
     2
 76
     1
 98
        0
  0
ENDBLK
  5
132
330
12F
100
AcDbEntity
  8
0
100
AcDbBlockEnd
  0
BLOCK
  5
14F
330
14D
100
AcDbEntity
  8
0
100
AcDbBlockBegin
  2
block 9
 70
     0
 10
0.0
 20
0.0
 30
0.0
  3
block 9
  1

  0
POLYLINE
  5
151
330
14D
100
AcDbEntity
  8
_U+30EC_U+30A4_U+30E4_U+30FC 1
 62
     7
420
 16777215
370
     9
100
AcDb2dPolyline
 66
     1
 10
0.0
 20
0.0
 30
0.0
  0
VERTEX
  5
152
330
151
100
AcDbEntity
  8
_U+30EC_U+30A4_U+30E4_U+30FC 1
 62
     7
420
 16777215
370
     9
100
AcDbVertex
100
AcDb2dVertex
 10
79.11507131493971
 20
-118.2742533037647
 30
0.0
  0
VERTEX
  5
153
330
151
100
AcDbEntity
  8
_U+30EC_U+30A4_U+30E4_U+30FC 1
 62
     7
420
 16777215
370
     9
100
AcDbVertex
100
AcDb2dVertex
 10
79.11507131493971
 20
-115.4648016378005
 30
0.0
  0
SEQEND
  5
154
330
151
100
AcDbEntity
  8
_U+30EC_U+30A4_U+30E4_U+30FC 1
 62
     7
420
 16777215
370
     9
  0
INSERT
  5
156
330
14D
100
AcDbEntity
  8
_U+30EC_U+30A4_U+30E4_U+30FC 1
100
AcDbBlockReference
  2
block 10
 10
0.0
 20
0.0
 30
0.0
  0
SPLINE
  5
15B
330
14D
100
AcDbEntity
  8
_U+30EC_U+30A4_U+30E4_U+30FC 1
 62
     7
420
 16777215
370
     9
100
AcDbSpline
210
0.0
220
0.0
230
1.0
 70
    11
 71
     3
 72
    17
 73
    13
 74
     0
 42
0.0000000001
 43
0.0000000001
 12
1.0
 22
0.0
 32
0.0
 13
1.0
 23
0.0
 33
0.0
 40
0.0
 40
0.0
 40
0.0
 40
0.0
 40
1.0
 40
1.0
 40
1.0
 40
2.0
 40
2.0
 40
2.0
 40
3.0
 40
3.0
 40
3.0
 40
4.0
 40
4.0
 40
4.0
 40
4.0
 10
79.21533075682632
 20
-116.444218582
 30
0.0
 10
79.21533075682632
 20
-116.3891146931251
 30
0.0
 10
79.17052798019157
 20
-116.3443119153583
 30
0.0
 10
79.1154240927085
 20
-116.3443119153583
 30
0.0
 10
79.05961664690169
 20
-116.3443119153583
 30
0.0
 10
79.01481386913528
 20
-116.3891146931251
 30
0.0
 10
79.01481386913528
 20
-116.444218582
 30
0.0
 10
79.01481386913528
 20
-116.4997105264305
 30
0.0
 10
79.05961664690169
 20
-116.5444780264194
 30
0.0
 10
79.1154240927085
 20
-116.5444780264194
 30
0.0
 10
79.17052798019157
 20
-116.5444780264194
 30
0.0
 10
79.21533075682632
 20
-116.4997105264305
 30
0.0
 10
79.21533075682632
 20
-116.444218582
 30
0.0
  0
ENDBLK
  5
150
330
14D
100
AcDbEntity
  8
0
100
AcDbBlockEnd
  0
BLOCK
  5
157
330
155
100
AcDbEntity
  8
0
100
AcDbBlockBegin
  2
block 10
 70
     0
 10
0.0
 20
0.0
 30
0.0
  3
block 10
  1

  0
SPLINE
  5
159
330
155
100
AcDbEntity
  8
_U+30EC_U+30A4_U+30E4_U+30FC 1
370
     0
100
AcDbSpline
210
0.0
220
0.0
230
1.0
 70
    11
 71
     3
 72
    26
 73
    22
 74
     0
 42
0.0000000001
 43
0.0000000001
 12
1.0
 22
0.0
 32
0.0
 13
1.0
 23
0.0
 33
0.0
 40
0.0
 40
0.0
 40
0.0
 40
0.0
 40
1.0
 40
1.0
 40
1.0
 40
2.0
 40
2.0
 40
2.0
 40
3.0
 40
3.0
 40
3.0
 40
4.0
 40
4.0
 40
4.0
 40
5.0
 40
5.0
 40
5.0
 40
6.0
 40
6.0
 40
6.0
 40
7.0
 40
7.0
 40
7.0
 40
7.0
 10
78.05604517362835
 20
-115.848053627722
 30
0.0
 10
78.05604517362835
 20
-115.848053627722
 30
0.0
 10
78.05604517362835
 20
-114.7437282699252
 30
0.0
 10
78.05604517362835
 20
-114.7437282699252
 30
0.0
 10
78.05604517362835
 20
-114.7437282699252
 30
0.0
 10
77.70326739593877
 20
-114.7437282699252
 30
0.0
 10
77.70326739593877
 20
-114.7437282699252
 30
0.0
 10
77.70326739593877
 20
-114.7437282699252
 30
0.0
 10
77.70326739593877
 20
-114.5955891640594
 30
0.0
 10
77.70326739593877
 20
-114.5955891640594
 30
0.0
 10
78.05828448569376
 20
-114.5809475082471
 30
0.0
 10
78.10806611545563
 20
-114.4179944917948
 30
0.0
 10
78.13958873914567
 20
-114.3037895764588
 30
0.0
 10
78.13958873914567
 20
-114.3037895764588
 30
0.0
 10
78.29565156462748
 20
-114.3037895764588
 30
0.0
 10
78.29565156462748
 20
-114.3037895764588
 30
0.0
 10
78.29565156462748
 20
-114.3037895764588
 30
0.0
 10
78.29565156462748
 20
-115.848053627722
 30
0.0
 10
78.29565156462748
 20
-115.848053627722
 30
0.0
 10
78.29565156462748
 20
-115.848053627722
 30
0.0
 10
78.05604517362835
 20
-115.848053627722
 30
0.0
 10
78.05604517362835
 20
-115.848053627722
 30
0.0
  0
HATCH
  5
15A
330
155
100
AcDbEntity
  8
_U+30EC_U+30A4_U+30E4_U+30FC 1
 62
     7
420
 16777215
100
AcDbHatch
 10
0.0
 20
0.0
 30
0.0
210
0.0
220
0.0
230
1.0
  2
SOLID
 70
     1
 71
     0
 91
        1
 92
        1
 93
        1
 72
     4
 94
        3
 73
     0
 74
     1
 95
       26
 96
       22
 40
0.0
 40
0.0
 40
0.0
 40
0.0
 40
1.0
 40
1.0
 40
1.0
 40
2.0
 40
2.0
 40
2.0
 40
3.0
 40
3.0
 40
3.0
 40
4.0
 40
4.0
 40
4.0
 40
5.0
 40
5.0
 40
5.0
 40
6.0
 40
6.0
 40
6.0
 40
7.0
 40
7.0
 40
7.0
 40
7.0
 10
78.05604517362835
 20
-115.848053627722
 10
78.05604517362835
 20
-115.848053627722
 10
78.05604517362835
 20
-114.7437282699252
 10
78.05604517362835
 20
-114.7437282699252
 10
78.05604517362835
 20
-114.7437282699252
 10
77.70326739593877
 20
-114.7437282699252
 10
77.70326739593877
 20
-114.7437282699252
 10
77.70326739593877
 20
-114.7437282699252
 10
77.70326739593877
 20
-114.5955891640594
 10
77.70326739593877
 20
-114.5955891640594
 10
78.05828448569376
 20
-114.5809475082471
 10
78.10806611545563
 20
-114.4179944917948
 10
78.13958873914567
 20
-114.3037895764588
 10
78.13958873914567
 20
-114.3037895764588
 10
78.29565156462748
 20
-114.3037895764588
 10
78.29565156462748
 20
-114.3037895764588
 10
78.29565156462748
 20
-114.3037895764588
 10
78.29565156462748
 20
-115.848053627722
 10
78.29565156462748
 20
-115.848053627722
 10
78.29565156462748
 20
-115.848053627722
 10
78.05604517362835
 20
-115.848053627722
 10
78.05604517362835
 20
-115.848053627722
 97
        0
 97
        0
 75
     2
 76
     1
 98
        0
  0
ENDBLK
  5
158
330
155
100
AcDbEntity
  8
0
100
AcDbBlockEnd
  0
ENDSEC
  0
SECTION
  2
ENTITIES
  0
INSERT
  5
42
330
1F
100
AcDbEntity
  8
_U+30EC_U+30A4_U+30E4_U+30FC 1
100
AcDbBlockReference
  2
block 2
 10
0.0
 20
0.0
 30
0.0
  0
POLYLINE
  5
149
330
1F
100
AcDbEntity
  8
_U+30EC_U+30A4_U+30E4_U+30FC 1
 62
     7
420
 16777215
370
     9
100
AcDb2dPolyline
 66
     1
 10
0.0
 20
0.0
 30
0.0
  0
VERTEX
  5
14A
330
149
100
AcDbEntity
  8
_U+30EC_U+30A4_U+30E4_U+30FC 1
 62
     7
420
 16777215
370
     9
100
AcDbVertex
100
AcDb2dVertex
 10
77.38423774798584
 20
-116.4283788597817
 30
0.0
  0
VERTEX
  5
14B
330
149
100
AcDbEntity
  8
_U+30EC_U+30A4_U+30E4_U+30FC 1
 62
     7
420
 16777215
370
     9
100
AcDbVertex
100
AcDb2dVertex
 10
84.62394311884113
 20
-116.4283788597817
 30
0.0
  0
SEQEND
  5
14C
330
149
100
AcDbEntity
  8
_U+30EC_U+30A4_U+30E4_U+30FC 1
 62
     7
420
 16777215
370
     9
  0
INSERT
  5
14E
330
1F
100
AcDbEntity
  8
_U+30EC_U+30A4_U+30E4_U+30FC 1
100
AcDbBlockReference
  2
block 9
 10
0.0
 20
0.0
 30
0.0
  0
ENDSEC
  0
SECTION
  2
OBJECTS
  0
DICTIONARY
  5
C
330
0
100
AcDbDictionary
281
     1
  3
ACAD_GROUP
350
D
  3
ACAD_LAYOUT
350
1A
  3
ACAD_MATERIAL
350
3B
  3
ACAD_MLEADERSTYLE
350
15D
  3
ACAD_MLINESTYLE
350
17
  3
ACAD_PLOTSETTINGS
350
19
  3
ACAD_PLOTSTYLENAME
350
E
  3
ACAD_TABLESTYLE
350
15C
  3
ACAD_VISUALSTYLE
350
2A
  0
SUN
  5
3F
330
29
100
AcDbSun
 90
        1
290
     0
 63
     7
421
 16777215
 40
1.0
291
     1
 91
  2455826
 92
 54000000
292
     0
 70
     2
 71
   256
280
     1
  0
DICTIONARY
  5
D
102
{ACAD_REACTORS
330
C
102
}
330
C
100
AcDbDictionary
281
     1
  0
DICTIONARY
  5
1A
102
{ACAD_REACTORS
330
C
102
}
330
C
100
AcDbDictionary
281
     1
  3
Layout1
350
1E
  3
Layout2
350
26
  3
Model
350
22
  0
DICTIONARY
  5
3B
102
{ACAD_REACTORS
330
C
102
}
330
C
100
AcDbDictionary
281
     1
  3
ByBlock
350
3D
  3
ByLayer
350
3C
  3
Global
350
3E
  0
DICTIONARY
  5
15D
102
{ACAD_REACTORS
330
C
102
}
330
C
100
AcDbDictionary
281
     1
  0
DICTIONARY
  5
17
102
{ACAD_REACTORS
330
C
102
}
330
C
100
AcDbDictionary
281
     1
  3
Standard
350
18
  0
DICTIONARY
  5
19
102
{ACAD_REACTORS
330
C
102
}
330
C
100
AcDbDictionary
281
     1
  0
ACDBDICTIONARYWDFLT
  5
E
102
{ACAD_REACTORS
330
C
102
}
330
C
100
AcDbDictionary
281
     1
  3
Normal
350
F
100
AcDbDictionaryWithDefault
340
F
  0
DICTIONARY
  5
15C
102
{ACAD_REACTORS
330
C
102
}
330
C
100
AcDbDictionary
281
     1
  0
DICTIONARY
  5
2A
102
{ACAD_REACTORS
330
C
102
}
330
C
100
AcDbDictionary
281
     1
  3
2dWireframe
350
2F
  3
3D Hidden
350
31
  3
3dWireframe
350
30
  3
Basic
350
32
  3
Brighten
350
36
  3
ColorChange
350
3A
  3
Conceptual
350
34
  3
Dim
350
35
  3
Facepattern
350
39
  3
Flat
350
2B
  3
FlatWithEdges
350
2C
  3
Gouraud
350
2D
  3
GouraudWithEdges
350
2E
  3
Linepattern
350
38
  3
Realistic
350
33
  3
Thicken
350
37
  0
LAYOUT
  5
1E
102
{ACAD_REACTORS
330
1A
102
}
330
1A
100
AcDbPlotSettings
  1

  2
none_device
  4

  6

 40
0.0
 41
0.0
 42
0.0
 43
0.0
 44
0.0
 45
0.0
 46
0.0
 47
0.0
 48
0.0
 49
0.0
140
0.0
141
0.0
142
1.0
143
1.0
 70
   688
 72
     0
 73
     0
 74
     5
  7

 75
    16
 76
     0
 77
     2
 78
   300
147
1.0
148
0.0
149
0.0
100
AcDbLayout
  1
Layout1
 70
     1
 71
     1
 10
0.0
 20
0.0
 11
12.0
 21
9.0
 12
0.0
 22
0.0
 32
0.0
 14
1.000000000000000E+20
 24
1.000000000000000E+20
 34
1.000000000000000E+20
 15
-1.000000000000000E+20
 25
-1.000000000000000E+20
 35
-1.000000000000000E+20
146
0.0
 13
0.0
 23
0.0
 33
0.0
 16
1.0
 26
0.0
 36
0.0
 17
0.0
 27
1.0
 37
0.0
 76
     0
330
1B
  0
LAYOUT
  5
26
102
{ACAD_REACTORS
330
1A
102
}
330
1A
100
AcDbPlotSettings
  1

  2
none_device
  4

  6

 40
0.0
 41
0.0
 42
0.0
 43
0.0
 44
0.0
 45
0.0
 46
0.0
 47
0.0
 48
0.0
 49
0.0
140
0.0
141
0.0
142
1.0
143
1.0
 70
   688
 72
     0
 73
     0
 74
     5
  7

 75
    16
 76
     0
 77
     2
 78
   300
147
1.0
148
0.0
149
0.0
100
AcDbLayout
  1
Layout2
 70
     1
 71
     2
 10
0.0
 20
0.0
 11
0.0
 21
0.0
 12
0.0
 22
0.0
 32
0.0
 14
0.0
 24
0.0
 34
0.0
 15
0.0
 25
0.0
 35
0.0
146
0.0
 13
0.0
 23
0.0
 33
0.0
 16
1.0
 26
0.0
 36
0.0
 17
0.0
 27
1.0
 37
0.0
 76
     0
330
23
  0
LAYOUT
  5
22
102
{ACAD_REACTORS
330
1A
102
}
330
1A
100
AcDbPlotSettings
  1

  2
none_device
  4

  6

 40
0.0
 41
0.0
 42
0.0
 43
0.0
 44
0.0
 45
0.0
 46
0.0
 47
0.0
 48
0.0
 49
0.0
140
0.0
141
0.0
142
1.0
143
1.0
 70
  1712
 72
     0
 73
     0
 74
     0
  7

 75
     0
 76
     0
 77
     2
 78
   300
147
1.0
148
0.0
149
0.0
100
AcDbLayout
  1
Model
 70
     1
 71
     0
 10
0.0
 20
0.0
 11
12.0
 21
9.0
 12
0.0
 22
0.0
 32
0.0
 14
1.000000000000000E+20
 24
1.000000000000000E+20
 34
1.000000000000000E+20
 15
-1.000000000000000E+20
 25
-1.000000000000000E+20
 35
-1.000000000000000E+20
146
0.0
 13
0.0
 23
0.0
 33
0.0
 16
1.0
 26
0.0
 36
0.0
 17
0.0
 27
1.0
 37
0.0
 76
     0
330
1F
331
29
  0
MATERIAL
  5
3D
102
{ACAD_REACTORS
330
3B
102
}
330
3B
100
AcDbMaterial
  1
ByBlock
 72
     1
 94
      127
  0
MATERIAL
  5
3C
102
{ACAD_REACTORS
330
3B
102
}
330
3B
100
AcDbMaterial
  1
ByLayer
 72
     1
 94
      127
  0
MATERIAL
  5
3E
102
{ACAD_REACTORS
330
3B
102
}
330
3B
100
AcDbMaterial
  1
Global
 72
     1
 94
      127
  0
MLINESTYLE
  5
18
102
{ACAD_REACTORS
330
17
102
}
330
17
100
AcDbMlineStyle
  2
Standard
 70
     0
  3

 62
   256
 51
90.0
 52
90.0
 71
     2
 49
0.5
 62
   256
  6
BYLAYER
 49
-0.5
 62
   256
  6
BYLAYER
  0
ACDBPLACEHOLDER
  5
F
102
{ACAD_REACTORS
330
E
102
}
330
E
  0
VISUALSTYLE
  5
2F
102
{ACAD_REACTORS
330
2A
102
}
330
2A
100
AcDbVisualStyle
  2
2dWireframe
 70
     4
177
     2
291
     0
 71
     0
176
     1
 72
     2
176
     1
 73
     0
176
     1
 90
        0
176
     1
 40
-0.6
176
     1
 41
-30.0
176
     1
 62
     5
 63
     7
421
 16777215
176
     1
 74
     1
176
     1
 91
        4
176
     1
 64
     7
176
     1
 65
   257
176
     1
 75
     1
176
     1
175
     1
176
     1
 42
1.0
176
     1
 92
        0
176
     1
 66
   257
176
     1
 43
1.0
176
     1
 76
     1
176
     1
 77
     6
176
     1
 78
     2
176
     1
 67
     7
176
     1
 79
     5
176
     1
170
     0
176
     1
171
     0
176
     1
290
     0
176
     1
 93
        1
176
     1
 44
0.0
176
     1
173
     0
176
     1
  0
VISUALSTYLE
  5
31
102
{ACAD_REACTORS
330
2A
102
}
330
2A
100
AcDbVisualStyle
  2
3D Hidden
 70
     6
177
     2
291
     0
 71
     1
176
     1
 72
     2
176
     1
 73
     2
176
     1
 90
        0
176
     1
 40
-0.6
176
     1
 41
-30.0
176
     1
 62
     5
 63
     7
421
 16777215
176
     1
 74
     2
176
     1
 91
        2
176
     1
 64
     7
176
     1
 65
   257
176
     1
 75
     2
176
     1
175
     1
176
     1
 42
40.0
176
     1
 92
        0
176
     1
 66
   257
176
     1
 43
1.0
176
     1
 76
     1
176
     1
 77
     6
176
     1
 78
     2
176
     1
 67
     7
176
     1
 79
     3
176
     1
170
     0
176
     1
171
     0
176
     1
290
     0
176
     1
 93
        1
176
     1
 44
0.0
176
     1
173
     0
176
     1
  0
VISUALSTYLE
  5
30
102
{ACAD_REACTORS
330
2A
102
}
330
2A
100
AcDbVisualStyle
  2
3dWireframe
 70
     5
177
     2
291
     0
 71
     0
176
     1
 72
     2
176
     1
 73
     0
176
     1
 90
        0
176
     1
 40
-0.6
176
     1
 41
-30.0
176
     1
 62
     5
 63
     7
421
 16777215
176
     1
 74
     1
176
     1
 91
        4
176
     1
 64
     7
176
     1
 65
   257
176
     1
 75
     1
176
     1
175
     1
176
     1
 42
1.0
176
     1
 92
        0
176
     1
 66
   257
176
     1
 43
1.0
176
     1
 76
     1
176
     1
 77
     6
176
     1
 78
     2
176
     1
 67
     7
176
     1
 79
     5
176
     1
170
     0
176
     1
171
     0
176
     1
290
     0
176
     1
 93
        1
176
     1
 44
0.0
176
     1
173
     0
176
     1
  0
VISUALSTYLE
  5
32
102
{ACAD_REACTORS
330
2A
102
}
330
2A
100
AcDbVisualStyle
  2
Basic
 70
     7
177
     2
291
     1
 71
     1
176
     1
 72
     0
176
     1
 73
     1
176
     1
 90
        0
176
     1
 40
-0.6
176
     1
 41
-30.0
176
     1
 62
     5
 63
     7
421
 16777215
176
     1
 74
     0
176
     1
 91
        4
176
     1
 64
     7
176
     1
 65
   257
176
     1
 75
     1
176
     1
175
     1
176
     1
 42
1.0
176
     1
 92
        8
176
     1
 66
     7
176
     1
 43
1.0
176
     1
 76
     1
176
     1
 77
     6
176
     1
 78
     2
176
     1
 67
     7
176
     1
 79
     5
176
     1
170
     0
176
     1
171
     0
176
     1
290
     0
176
     1
 93
        1
176
     1
 44
0.0
176
     1
173
     0
176
     1
  0
VISUALSTYLE
  5
36
102
{ACAD_REACTORS
330
2A
102
}
330
2A
100
AcDbVisualStyle
  2
Brighten
 70
    12
177
     2
291
     1
 71
     2
176
     1
 72
     2
176
     1
 73
     0
176
     1
 90
        0
176
     1
 40
-0.6
176
     1
 41
-30.0
176
     1
 62
     5
 63
     7
421
 16777215
176
     1
 74
     1
176
     1
 91
        4
176
     1
 64
     7
176
     1
 65
   257
176
     1
 75
     1
176
     1
175
     1
176
     1
 42
1.0
176
     1
 92
        8
176
     1
 66
     7
176
     1
 43
1.0
176
     1
 76
     1
176
     1
 77
     6
176
     1
 78
     2
176
     1
 67
     7
176
     1
 79
     5
176
     1
170
     0
176
     1
171
     0
176
     1
290
     0
176
     1
 93
        1
176
     1
 44
50.0
176
     1
173
     0
176
     1
  0
VISUALSTYLE
  5
3A
102
{ACAD_REACTORS
330
2A
102
}
330
2A
100
AcDbVisualStyle
  2
ColorChange
 70
    16
177
     2
291
     1
 71
     2
176
     1
 72
     2
176
     1
 73
     3
176
     1
 90
        0
176
     1
 40
-0.6
176
     1
 41
-30.0
176
     1
 62
     5
 63
     8
421
  8421504
176
     1
 74
     1
176
     1
 91
        4
176
     1
 64
     7
176
     1
 65
   257
176
     1
 75
     1
176
     1
175
     1
176
     1
 42
1.0
176
     1
 92
        8
176
     1
 66
     8
424
  8421504
176
     1
 43
1.0
176
     1
 76
     1
176
     1
 77
     6
176
     1
 78
     2
176
     1
 67
     7
176
     1
 79
     5
176
     1
170
     0
176
     1
171
     0
176
     1
290
     0
176
     1
 93
        1
176
     1
 44
0.0
176
     1
173
     0
176
     1
  0
VISUALSTYLE
  5
34
102
{ACAD_REACTORS
330
2A
102
}
330
2A
100
AcDbVisualStyle
  2
Conceptual
 70
     9
177
     2
291
     0
 71
     3
176
     1
 72
     2
176
     1
 73
     0
176
     1
 90
        0
176
     1
 40
-0.6
176
     1
 41
-30.0
176
     1
 62
     5
 63
     7
421
 16777215
176
     1
 74
     2
176
     1
 91
        2
176
     1
 64
     7
176
     1
 65
   257
176
     1
 75
     1
176
     1
175
     1
176
     1
 42
40.0
176
     1
 92
        8
176
     1
 66
     7
176
     1
 43
1.0
176
     1
 76
     1
176
     1
 77
     6
176
     1
 78
     2
176
     1
 67
     7
176
     1
 79
     3
176
     1
170
     0
176
     1
171
     0
176
     1
290
     0
176
     1
 93
        1
176
     1
 44
0.0
176
     1
173
     0
176
     1
  0
VISUALSTYLE
  5
35
102
{ACAD_REACTORS
330
2A
102
}
330
2A
100
AcDbVisualStyle
  2
Dim
 70
    11
177
     2
291
     1
 71
     2
176
     1
 72
     2
176
     1
 73
     0
176
     1
 90
        0
176
     1
 40
-0.6
176
     1
 41
-30.0
176
     1
 62
     5
 63
     7
421
 16777215
176
     1
 74
     1
176
     1
 91
        4
176
     1
 64
     7
176
     1
 65
   257
176
     1
 75
     1
176
     1
175
     1
176
     1
 42
1.0
176
     1
 92
        8
176
     1
 66
     7
176
     1
 43
1.0
176
     1
 76
     1
176
     1
 77
     6
176
     1
 78
     2
176
     1
 67
     7
176
     1
 79
     5
176
     1
170
     0
176
     1
171
     0
176
     1
290
     0
176
     1
 93
        1
176
     1
 44
-50.0
176
     1
173
     0
176
     1
  0
VISUALSTYLE
  5
39
102
{ACAD_REACTORS
330
2A
102
}
330
2A
100
AcDbVisualStyle
  2
Facepattern
 70
    15
177
     2
291
     1
 71
     2
176
     1
 72
     2
176
     1
 73
     0
176
     1
 90
        0
176
     1
 40
-0.6
176
     1
 41
-30.0
176
     1
 62
     5
 63
     7
421
 16777215
176
     1
 74
     1
176
     1
 91
        4
176
     1
 64
     7
176
     1
 65
   257
176
     1
 75
     1
176
     1
175
     1
176
     1
 42
1.0
176
     1
 92
        8
176
     1
 66
     7
176
     1
 43
1.0
176
     1
 76
     1
176
     1
 77
     6
176
     1
 78
     2
176
     1
 67
     7
176
     1
 79
     5
176
     1
170
     0
176
     1
171
     0
176
     1
290
     0
176
     1
 93
        1
176
     1
 44
0.0
176
     1
173
     0
176
     1
  0
VISUALSTYLE
  5
2B
102
{ACAD_REACTORS
330
2A
102
}
330
2A
100
AcDbVisualStyle
  2
Flat
 70
     0
177
     2
291
     1
 71
     2
176
     1
 72
     1
176
     1
 73
     1
176
     1
 90
        2
176
     1
 40
-0.6
176
     1
 41
30.0
176
     1
 62
     5
 63
     7
421
 16777215
176
     1
 74
     0
176
     1
 91
        4
176
     1
 64
     7
176
     1
 65
   257
176
     1
 75
     1
176
     1
175
     1
176
     1
 42
1.0
176
     1
 92
        8
176
     1
 66
     7
176
     1
 43
1.0
176
     1
 76
     1
176
     1
 77
     6
176
     1
 78
     2
176
     1
 67
     7
176
     1
 79
     5
176
     1
170
     0
176
     1
171
     0
176
     1
290
     0
176
     1
 93
       13
176
     1
 44
0.0
176
     1
173
     0
176
     1
  0
VISUALSTYLE
  5
2C
102
{ACAD_REACTORS
330
2A
102
}
330
2A
100
AcDbVisualStyle
  2
FlatWithEdges
 70
     1
177
     2
291
     1
 71
     2
176
     1
 72
     1
176
     1
 73
     1
176
     1
 90
        2
176
     1
 40
-0.6
176
     1
 41
30.0
176
     1
 62
     5
 63
     7
421
 16777215
176
     1
 74
     1
176
     1
 91
        4
176
     1
 64
     7
176
     1
 65
   257
176
     1
 75
     1
176
     1
175
     1
176
     1
 42
1.0
176
     1
 92
        0
176
     1
 66
   257
176
     1
 43
1.0
176
     1
 76
     1
176
     1
 77
     6
176
     1
 78
     2
176
     1
 67
     7
176
     1
 79
     5
176
     1
170
     0
176
     1
171
     0
176
     1
290
     0
176
     1
 93
       13
176
     1
 44
0.0
176
     1
173
     0
176
     1
  0
VISUALSTYLE
  5
2D
102
{ACAD_REACTORS
330
2A
102
}
330
2A
100
AcDbVisualStyle
  2
Gouraud
 70
     2
177
     2
291
     1
 71
     2
176
     1
 72
     2
176
     1
 73
     1
176
     1
 90
        2
176
     1
 40
-0.6
176
     1
 41
30.0
176
     1
 62
     5
 63
     7
421
 16777215
176
     1
 74
     0
176
     1
 91
        4
176
     1
 64
     7
176
     1
 65
   257
176
     1
 75
     1
176
     1
175
     1
176
     1
 42
1.0
176
     1
 92
        0
176
     1
 66
     7
176
     1
 43
1.0
176
     1
 76
     1
176
     1
 77
     6
176
     1
 78
     2
176
     1
 67
     7
176
     1
 79
     5
176
     1
170
     0
176
     1
171
     0
176
     1
290
     0
176
     1
 93
       13
176
     1
 44
0.0
176
     1
173
     0
176
     1
  0
VISUALSTYLE
  5
2E
102
{ACAD_REACTORS
330
2A
102
}
330
2A
100
AcDbVisualStyle
  2
GouraudWithEdges
 70
     3
177
     2
291
     1
 71
     2
176
     1
 72
     2
176
     1
 73
     1
176
     1
 90
        2
176
     1
 40
-0.6
176
     1
 41
30.0
176
     1
 62
     5
 63
     7
421
 16777215
176
     1
 74
     1
176
     1
 91
        4
176
     1
 64
     7
176
     1
 65
   257
176
     1
 75
     1
176
     1
175
     1
176
     1
 42
1.0
176
     1
 92
        0
176
     1
 66
   257
176
     1
 43
1.0
176
     1
 76
     1
176
     1
 77
     6
176
     1
 78
     2
176
     1
 67
     7
176
     1
 79
     5
176
     1
170
     0
176
     1
171
     0
176
     1
290
     0
176
     1
 93
       13
176
     1
 44
0.0
176
     1
173
     0
176
     1
  0
VISUALSTYLE
  5
38
102
{ACAD_REACTORS
330
2A
102
}
330
2A
100
AcDbVisualStyle
  2
Linepattern
 70
    14
177
     2
291
     1
 71
     2
176
     1
 72
     2
176
     1
 73
     0
176
     1
 90
        0
176
     1
 40
-0.6
176
     1
 41
-30.0
176
     1
 62
     5
 63
     7
421
 16777215
176
     1
 74
     1
176
     1
 91
        4
176
     1
 64
     7
176
     1
 65
   257
176
     1
 75
     7
176
     1
175
     7
176
     1
 42
1.0
176
     1
 92
        8
176
     1
 66
     7
176
     1
 43
1.0
176
     1
 76
     1
176
     1
 77
     6
176
     1
 78
     2
176
     1
 67
     7
176
     1
 79
     5
176
     1
170
     0
176
     1
171
     0
176
     1
290
     0
176
     1
 93
        1
176
     1
 44
0.0
176
     1
173
     0
176
     1
  0
VISUALSTYLE
  5
33
102
{ACAD_REACTORS
330
2A
102
}
330
2A
100
AcDbVisualStyle
  2
Realistic
 70
     8
177
     2
291
     0
 71
     2
176
     1
 72
     2
176
     1
 73
     0
176
     1
 90
        0
176
     1
 40
-0.6
176
     1
 41
-30.0
176
     1
 62
     5
 63
     7
421
 16777215
176
     1
 74
     1
176
     1
 91
        0
176
     1
 64
     7
176
     1
 65
   257
176
     1
 75
     1
176
     1
175
     1
176
     1
 42
1.0
176
     1
 92
        8
176
     1
 66
     8
424
  7895160
176
     1
 43
1.0
176
     1
 76
     1
176
     1
 77
     6
176
     1
 78
     2
176
     1
 67
     7
176
     1
 79
     5
176
     1
170
     0
176
     1
171
     0
176
     1
290
     0
176
     1
 93
       13
176
     1
 44
0.0
176
     1
173
     0
176
     1
  0
VISUALSTYLE
  5
37
102
{ACAD_REACTORS
330
2A
102
}
330
2A
100
AcDbVisualStyle
  2
Thicken
 70
    13
177
     2
291
     1
 71
     2
176
     1
 72
     2
176
     1
 73
     0
176
     1
 90
        0
176
     1
 40
-0.6
176
     1
 41
-30.0
176
     1
 62
     5
 63
     7
421
 16777215
176
     1
 74
     1
176
     1
 91
        4
176
     1
 64
     7
176
     1
 65
   257
176
     1
 75
     1
176
     1
175
     1
176
     1
 42
1.0
176
     1
 92
       12
176
     1
 66
     7
176
     1
 43
1.0
176
     1
 76
     1
176
     1
 77
     6
176
     1
 78
     2
176
     1
 67
     7
176
     1
 79
     5
176
     1
170
     0
176
     1
171
     0
176
     1
290
     0
176
     1
 93
        1
176
     1
 44
0.0
176
     1
173
     0
176
     1
  0
ENDSEC
  0
EOF
