  0
SECTION
  2
HEADER
  9
$ACADVER
  1
AC1024
  9
$ACADMAINTVER
 70
     6
  9
$DWGCODEPAGE
  3
UNDEFINED
  9
$INSBASE
 10
0.0
 20
0.0
 30
0.0
  9
$EXTMIN
 10
1.000000000000000E+20
 20
1.000000000000000E+20
 30
1.000000000000000E+20
  9
$EXTMAX
 10
-1.000000000000000E+20
 20
-1.000000000000000E+20
 30
-1.000000000000000E+20
  9
$LIMMIN
 10
0.0
 20
0.0
  9
$LIMMAX
 10
12.0
 20
9.0
  9
$ORTHOMODE
 70
     0
  9
$REGENMODE
 70
     1
  9
$FILLMODE
 70
     1
  9
$QTEXTMODE
 70
     0
  9
$MIRRTEXT
 70
     1
  9
$LTSCALE
 40
1.0
  9
$ATTMODE
 70
     1
  9
$TEXTSIZE
 40
0.2
  9
$TRACEWID
 40
0.05
  9
$TEXTSTYLE
  7
Standard
  9
$CLAYER
  8
0
  9
$CELTYPE
  6
ByLayer
  9
$CECOLOR
 62
   256
  9
$CELTSCALE
 40
1.0
  9
$DISPSILH
 70
     0
  9
$DIMSCALE
 40
1.0
  9
$DIMASZ
 40
0.18
  9
$DIMEXO
 40
0.0625
  9
$DIMDLI
 40
0.38
  9
$DIMRND
 40
0.0
  9
$DIMDLE
 40
0.0
  9
$DIMEXE
 40
0.18
  9
$DIMTP
 40
0.0
  9
$DIMTM
 40
0.0
  9
$DIMTXT
 40
0.18
  9
$DIMCEN
 40
0.09
  9
$DIMTSZ
 40
0.0
  9
$DIMTOL
 70
     0
  9
$DIMLIM
 70
     0
  9
$DIMTIH
 70
     1
  9
$DIMTOH
 70
     1
  9
$DIMSE1
 70
     0
  9
$DIMSE2
 70
     0
  9
$DIMTAD
 70
     0
  9
$DIMZIN
 70
     0
  9
$DIMBLK
  1

  9
$DIMASO
 70
     1
  9
$DIMSHO
 70
     1
  9
$DIMPOST
  1

  9
$DIMAPOST
  1

  9
$DIMALT
 70
     0
  9
$DIMALTD
 70
     2
  9
$DIMALTF
 40
25.4
  9
$DIMLFAC
 40
1.0
  9
$DIMTOFL
 70
     0
  9
$DIMTVP
 40
0.0
  9
$DIMTIX
 70
     0
  9
$DIMSOXD
 70
     0
  9
$DIMSAH
 70
     0
  9
$DIMBLK1
  1

  9
$DIMBLK2
  1

  9
$DIMSTYLE
  2
Standard
  9
$DIMCLRD
 70
     0
  9
$DIMCLRE
 70
     0
  9
$DIMCLRT
 70
     0
  9
$DIMTFAC
 40
1.0
  9
$DIMGAP
 40
0.09
  9
$DIMJUST
 70
     0
  9
$DIMSD1
 70
     0
  9
$DIMSD2
 70
     0
  9
$DIMTOLJ
 70
     1
  9
$DIMTZIN
 70
     0
  9
$DIMALTZ
 70
     0
  9
$DIMALTTZ
 70
     0
  9
$DIMUPT
 70
     0
  9
$DIMDEC
 70
     4
  9
$DIMTDEC
 70
     4
  9
$DIMALTU
 70
     2
  9
$DIMALTTD
 70
     2
  9
$DIMTXSTY
  7
Standard
  9
$DIMAUNIT
 70
     0
  9
$DIMADEC
 70
     0
  9
$DIMALTRND
 40
0.0
  9
$DIMAZIN
 70
     0
  9
$DIMDSEP
 70
    46
  9
$DIMATFIT
 70
     3
  9
$DIMFRAC
 70
     0
  9
$DIMLDRBLK
  1

  9
$DIMLUNIT
 70
     2
  9
$DIMLWD
 70
    -2
  9
$DIMLWE
 70
    -2
  9
$DIMTMOVE
 70
     0
  9
$DIMFXL
 40
1.0
  9
$DIMFXLON
 70
     0
  9
$DIMJOGANG
 40
0.7853981633974483
  9
$DIMTFILL
 70
     0
  9
$DIMTFILLCLR
 70
     0
  9
$DIMARCSYM
 70
     0
  9
$DIMLTYPE
  6

  9
$DIMLTEX1
  6

  9
$DIMLTEX2
  6

  9
$DIMTXTDIRECTION
 70
     0
  9
$LUNITS
 70
     2
  9
$LUPREC
 70
     4
  9
$SKETCHINC
 40
0.1
  9
$FILLETRAD
 40
0.5
  9
$AUNITS
 70
     0
  9
$AUPREC
 70
     0
  9
$MENU
  1
.
  9
$ELEVATION
 40
0.0
  9
$PELEVATION
 40
0.0
  9
$THICKNESS
 40
0.0
  9
$LIMCHECK
 70
     0
  9
$CHAMFERA
 40
0.5
  9
$CHAMFERB
 40
0.5
  9
$CHAMFERC
 40
1.0
  9
$CHAMFERD
 40
0.0
  9
$SKPOLY
 70
     0
  9
$TDCREATE
 40
2457917.619861099
  9
$TDUCREATE
 40
2457917.244861111
  9
$TDUPDATE
 40
2457917.619861099
  9
$TDUUPDATE
 40
2457917.244861111
  9
$TDINDWG
 40
0.0000000116
  9
$TDUSRTIMER
 40
0.0000000116
  9
$USRTIMER
 70
     1
  9
$ANGBASE
 50
0.0
  9
$ANGDIR
 70
     0
  9
$PDMODE
 70
     0
  9
$PDSIZE
 40
0.0
  9
$PLINEWID
 40
0.0
  9
$SPLFRAME
 70
     0
  9
$SPLINETYPE
 70
     6
  9
$SPLINESEGS
 70
     8
  9
$HANDSEED
  5
C2
  9
$SURFTAB1
 70
     6
  9
$SURFTAB2
 70
     6
  9
$SURFTYPE
 70
     6
  9
$SURFU
 70
     6
  9
$SURFV
 70
     6
  9
$UCSBASE
  2

  9
$UCSNAME
  2

  9
$UCSORG
 10
0.0
 20
0.0
 30
0.0
  9
$UCSXDIR
 10
1.0
 20
0.0
 30
0.0
  9
$UCSYDIR
 10
0.0
 20
1.0
 30
0.0
  9
$UCSORTHOREF
  2

  9
$UCSORTHOVIEW
 70
     0
  9
$UCSORGTOP
 10
0.0
 20
0.0
 30
0.0
  9
$UCSORGBOTTOM
 10
0.0
 20
0.0
 30
0.0
  9
$UCSORGLEFT
 10
0.0
 20
0.0
 30
0.0
  9
$UCSORGRIGHT
 10
0.0
 20
0.0
 30
0.0
  9
$UCSORGFRONT
 10
0.0
 20
0.0
 30
0.0
  9
$UCSORGBACK
 10
0.0
 20
0.0
 30
0.0
  9
$PUCSBASE
  2

  9
$PUCSNAME
  2

  9
$PUCSORG
 10
0.0
 20
0.0
 30
0.0
  9
$PUCSXDIR
 10
1.0
 20
0.0
 30
0.0
  9
$PUCSYDIR
 10
0.0
 20
1.0
 30
0.0
  9
$PUCSORTHOREF
  2

  9
$PUCSORTHOVIEW
 70
     0
  9
$PUCSORGTOP
 10
0.0
 20
0.0
 30
0.0
  9
$PUCSORGBOTTOM
 10
0.0
 20
0.0
 30
0.0
  9
$PUCSORGLEFT
 10
0.0
 20
0.0
 30
0.0
  9
$PUCSORGRIGHT
 10
0.0
 20
0.0
 30
0.0
  9
$PUCSORGFRONT
 10
0.0
 20
0.0
 30
0.0
  9
$PUCSORGBACK
 10
0.0
 20
0.0
 30
0.0
  9
$USERI1
 70
     0
  9
$USERI2
 70
     0
  9
$USERI3
 70
     0
  9
$USERI4
 70
     0
  9
$USERI5
 70
     0
  9
$USERR1
 40
0.0
  9
$USERR2
 40
0.0
  9
$USERR3
 40
0.0
  9
$USERR4
 40
0.0
  9
$USERR5
 40
0.0
  9
$WORLDVIEW
 70
     1
  9
$SHADEDGE
 70
     3
  9
$SHADEDIF
 70
    70
  9
$TILEMODE
 70
     1
  9
$MAXACTVP
 70
    64
  9
$PINSBASE
 10
0.0
 20
0.0
 30
0.0
  9
$PLIMCHECK
 70
     0
  9
$PEXTMIN
 10
1.000000000000000E+20
 20
1.000000000000000E+20
 30
1.000000000000000E+20
  9
$PEXTMAX
 10
-1.000000000000000E+20
 20
-1.000000000000000E+20
 30
-1.000000000000000E+20
  9
$PLIMMIN
 10
0.0
 20
0.0
  9
$PLIMMAX
 10
12.0
 20
9.0
  9
$UNITMODE
 70
     0
  9
$VISRETAIN
 70
     1
  9
$PLINEGEN
 70
     0
  9
$PSLTSCALE
 70
     1
  9
$TREEDEPTH
 70
  3020
  9
$CMLSTYLE
  2
Standard
  9
$CMLJUST
 70
     0
  9
$CMLSCALE
 40
1.0
  9
$PROXYGRAPHICS
 70
     1
  9
$MEASUREMENT
 70
     0
  9
$CELWEIGHT
370
    -1
  9
$ENDCAPS
280
     0
  9
$JOINSTYLE
280
     0
  9
$LWDISPLAY
290
     1
  9
$INSUNITS
 70
     1
  9
$HYPERLINKBASE
  1

  9
$STYLESHEET
  1

  9
$XEDIT
290
     1
  9
$CEPSNTYPE
380
     0
  9
$PSTYLEMODE
290
     1
  9
$FINGERPRINTGUID
  2
{20843850-A0C5-3B3E-4C82-4D23D739AFF3}
  9
$VERSIONGUID
  2
{FAEB1C32-E019-11D5-929B-00C0DF256EC4}
  9
$EXTNAMES
290
     1
  9
$PSVPSCALE
 40
0.0
  9
$OLESTARTUP
290
     0
  9
$SORTENTS
280
   127
  9
$INDEXCTL
280
     0
  9
$HIDETEXT
280
     1
  9
$XCLIPFRAME
280
     2
  9
$HALOGAP
280
     0
  9
$OBSCOLOR
 70
   257
  9
$OBSLTYPE
280
     0
  9
$INTERSECTIONDISPLAY
280
     0
  9
$INTERSECTIONCOLOR
 70
   257
  9
$DIMASSOC
280
     2
  9
$PROJECTNAME
  1

  9
$CAMERADISPLAY
290
     0
  9
$LENSLENGTH
 40
50.0
  9
$CAMERAHEIGHT
 40
0.0
  9
$STEPSPERSEC
 40
2.0
  9
$STEPSIZE
 40
6.0
  9
$3DDWFPREC
 40
2.0
  9
$PSOLWIDTH
 40
0.25
  9
$PSOLHEIGHT
 40
4.0
  9
$LOFTANG1
 40
1.570796326794897
  9
$LOFTANG2
 40
1.570796326794897
  9
$LOFTMAG1
 40
0.0
  9
$LOFTMAG2
 40
0.0
  9
$LOFTPARAM
 70
     7
  9
$LOFTNORMALS
280
     1
  9
$LATITUDE
 40
37.795
  9
$LONGITUDE
 40
-122.394
  9
$NORTHDIRECTION
 40
0.0
  9
$TIMEZONE
 70
 -8000
  9
$LIGHTGLYPHDISPLAY
280
     1
  9
$TILEMODELIGHTSYNCH
280
     1
  9
$CMATERIAL
347
3C
  9
$SOLIDHIST
280
     1
  9
$SHOWHIST
280
     1
  9
$DWFFRAME
280
     2
  9
$DGNFRAME
280
     2
  9
$REALWORLDSCALE
290
     1
  9
$INTERFERECOLOR
 62
   256
  9
$CSHADOW
280
     0
  9
$SHADOWPLANELOCATION
 40
0.0
  0
ENDSEC
  0
SECTION
  2
CLASSES
  0
CLASS
  1
ACDBDICTIONARYWDFLT
  2
AcDbDictionaryWithDefault
  3
ObjectDBX Classes
 90
        0
 91
        4
280
     0
281
     0
  0
CLASS
  1
VISUALSTYLE
  2
AcDbVisualStyle
  3
ObjectDBX Classes
 90
     4095
 91
        4
280
     0
281
     0
  0
CLASS
  1
MATERIAL
  2
AcDbMaterial
  3
ObjectDBX Classes
 90
     1153
 91
        4
280
     0
281
     0
  0
CLASS
  1
SUN
  2
AcDbSun
  3
SCENEOE
 90
     1024
 91
        4
280
     0
281
     0
  0
ENDSEC
  0
SECTION
  2
TABLES
  0
TABLE
  2
VPORT
  5
8
330
0
100
AcDbSymbolTable
 70
     1
  0
VPORT
  5
29
330
8
100
AcDbSymbolTableRecord
100
AcDbViewportTableRecord
  2
*Active
 70
     0
 10
0.0
 20
0.0
 11
1.0
 21
1.0
 12
0.0
 22
0.0
 13
0.0
 23
0.0
 14
0.5
 24
0.5
 15
0.5
 25
0.5
 16
0.0
 26
0.0
 36
1.0
 17
91.00082462281999
 27
-128.4993055234307
 37
0.0
 40
256.9986110468615
 41
0.7081814508812795
 42
50.0
 43
0.0
 44
0.0
 50
0.0
 51
0.0
 71
     0
 72
   100
 73
     1
 74
     3
 75
     0
 76
     0
 77
     0
 78
     0
281
     0
 65
     1
110
0.0
120
0.0
130
0.0
111
1.0
121
0.0
131
0.0
112
0.0
122
1.0
132
0.0
 79
     0
146
0.0
 60
     3
 61
     5
292
     1
282
     1
141
0.0
142
0.0
 63
   250
361
3F
  0
ENDTAB
  0
TABLE
  2
LTYPE
  5
5
330
0
100
AcDbSymbolTable
 70
     1
  0
LTYPE
  5
14
330
5
100
AcDbSymbolTableRecord
100
AcDbLinetypeTableRecord
  2
ByBlock
 70
     0
  3

 72
    65
 73
     0
 40
0.0
  0
LTYPE
  5
15
330
5
100
AcDbSymbolTableRecord
100
AcDbLinetypeTableRecord
  2
ByLayer
 70
     0
  3

 72
    65
 73
     0
 40
0.0
  0
LTYPE
  5
16
330
5
100
AcDbSymbolTableRecord
100
AcDbLinetypeTableRecord
  2
Continuous
 70
     0
  3
Solid line
 72
    65
 73
     0
 40
0.0
  0
ENDTAB
  0
TABLE
  2
LAYER
  5
2
330
0
100
AcDbSymbolTable
 70
     2
  0
LAYER
  5
10
330
2
100
AcDbSymbolTableRecord
100
AcDbLayerTableRecord
  2
0
 70
     0
 62
     7
  6
Continuous
370
    -3
390
F
347
3E
  0
LAYER
  5
40
330
2
100
AcDbSymbolTableRecord
100
AcDbLayerTableRecord
  2
_U+30EC_U+30A4_U+30E4_U+30FC 1
 70
     0
 62
     7
  6
Continuous
370
    -3
390
F
347
3E
  0
ENDTAB
  0
TABLE
  2
STYLE
  5
3
330
0
100
AcDbSymbolTable
 70
     1
  0
STYLE
  5
11
330
3
100
AcDbSymbolTableRecord
100
AcDbTextStyleTableRecord
  2
Standard
 70
     0
 40
0.0
 41
1.0
 50
0.0
 71
     0
 42
0.2
  3
txt
  4

  0
ENDTAB
  0
TABLE
  2
VIEW
  5
6
330
0
100
AcDbSymbolTable
 70
     0
  0
ENDTAB
  0
TABLE
  2
UCS
  5
7
330
0
100
AcDbSymbolTable
 70
     0
  0
ENDTAB
  0
TABLE
  2
APPID
  5
9
330
0
100
AcDbSymbolTable
 70
     1
  0
APPID
  5
12
330
9
100
AcDbSymbolTableRecord
100
AcDbRegAppTableRecord
  2
ACAD
 70
     0
  0
ENDTAB
  0
TABLE
  2
DIMSTYLE
  5
A
330
0
100
AcDbSymbolTable
 70
     1
100
AcDbDimStyleTable
  0
DIMSTYLE
105
27
330
A
100
AcDbSymbolTableRecord
100
AcDbDimStyleTableRecord
  2
Standard
 70
     0
178
     0
340
11
  0
ENDTAB
  0
TABLE
  2
BLOCK_RECORD
  5
1
330
0
100
AcDbSymbolTable
 70
     6
  0
BLOCK_RECORD
  5
1F
330
1
100
AcDbSymbolTableRecord
100
AcDbBlockTableRecord
  2
*Model_Space
340
22
 70
     0
280
     1
281
     0
  0
BLOCK_RECORD
  5
1B
330
1
100
AcDbSymbolTableRecord
100
AcDbBlockTableRecord
  2
*Paper_Space
340
1E
 70
     0
280
     1
281
     0
  0
BLOCK_RECORD
  5
23
330
1
100
AcDbSymbolTableRecord
100
AcDbBlockTableRecord
  2
*Paper_Space0
340
26
 70
     0
280
     1
281
     0
  0
BLOCK_RECORD
  5
5B
330
1
100
AcDbSymbolTableRecord
100
AcDbBlockTableRecord
  2
block 2
340
0
102
{BLKREFS
331
5C
102
}
 70
     0
280
     1
281
     0
  0
BLOCK_RECORD
  5
7B
330
1
100
AcDbSymbolTableRecord
100
AcDbBlockTableRecord
  2
block 3
340
0
102
{BLKREFS
331
7C
102
}
 70
     0
280
     1
281
     0
  0
BLOCK_RECORD
  5
91
330
1
100
AcDbSymbolTableRecord
100
AcDbBlockTableRecord
  2
block 4
340
0
102
{BLKREFS
331
92
102
}
 70
     0
280
     1
281
     0
  0
BLOCK_RECORD
  5
A7
330
1
100
AcDbSymbolTableRecord
100
AcDbBlockTableRecord
  2
block 5
340
0
102
{BLKREFS
331
A8
102
}
 70
     0
280
     1
281
     0
  0
BLOCK_RECORD
  5
BA
330
1
100
AcDbSymbolTableRecord
100
AcDbBlockTableRecord
  2
block 6
340
0
102
{BLKREFS
331
BB
102
}
 70
     0
280
     1
281
     0
  0
ENDTAB
  0
ENDSEC
  0
SECTION
  2
BLOCKS
  0
BLOCK
  5
20
330
1F
100
AcDbEntity
  8
0
100
AcDbBlockBegin
  2
*Model_Space
 70
     0
 10
0.0
 20
0.0
 30
0.0
  3
*Model_Space
  1

  0
ENDBLK
  5
21
330
1F
100
AcDbEntity
  8
0
100
AcDbBlockEnd
  0
BLOCK
  5
1C
330
1B
100
AcDbEntity
 67
     1
  8
0
100
AcDbBlockBegin
  2
*Paper_Space
 70
     0
 10
0.0
 20
0.0
 30
0.0
  3
*Paper_Space
  1

  0
ENDBLK
  5
1D
330
1B
100
AcDbEntity
 67
     1
  8
0
100
AcDbBlockEnd
  0
BLOCK
  5
24
330
23
100
AcDbEntity
  8
0
100
AcDbBlockBegin
  2
*Paper_Space0
 70
     0
 10
0.0
 20
0.0
 30
0.0
  3
*Paper_Space0
  1

  0
ENDBLK
  5
25
330
23
100
AcDbEntity
  8
0
100
AcDbBlockEnd
  0
BLOCK
  5
5D
330
5B
100
AcDbEntity
  8
0
100
AcDbBlockBegin
  2
block 2
 70
     0
 10
0.0
 20
0.0
 30
0.0
  3
block 2
  1

  0
SPLINE
  5
5F
330
5B
100
AcDbEntity
  8
_U+30EC_U+30A4_U+30E4_U+30FC 1
370
     0
100
AcDbSpline
210
0.0
220
0.0
230
1.0
 70
    11
 71
     3
 72
    29
 73
    25
 74
     0
 42
0.0000000001
 43
0.0000000001
 12
1.0
 22
0.0
 32
0.0
 13
1.0
 23
0.0
 33
0.0
 40
0.0
 40
0.0
 40
0.0
 40
0.0
 40
1.0
 40
1.0
 40
1.0
 40
2.0
 40
2.0
 40
2.0
 40
3.0
 40
3.0
 40
3.0
 40
4.0
 40
4.0
 40
4.0
 40
5.0
 40
5.0
 40
5.0
 40
6.0
 40
6.0
 40
6.0
 40
7.0
 40
7.0
 40
7.0
 40
8.0
 40
8.0
 40
8.0
 40
8.0
 10
103.3259928127102
 20
-130.7086452581215
 30
0.0
 10
103.3259928127102
 20
-130.9752956486798
 30
0.0
 10
103.1885335028487
 20
-131.2291991859427
 30
0.0
 10
102.8395453301929
 20
-131.2291991859427
 30
0.0
 10
102.5835747356388
 20
-131.2291991859427
 30
0.0
 10
102.4884901002459
 20
-131.0872612519504
 30
0.0
 10
102.4271674006085
 20
-130.9814968205532
 30
0.0
 10
102.3679117582622
 20
-131.1062092771193
 30
0.0
 10
102.2535345881519
 20
-131.1823458873433
 30
0.0
 10
102.0926486289907
 20
-131.1823458873433
 30
0.0
 10
101.8177300092678
 20
-131.1823458873433
 30
0.0
 10
101.6823377566975
 20
-130.9835638778444
 30
0.0
 10
101.6823377566975
 20
-130.7086452581215
 30
0.0
 10
101.6823377566975
 20
-130.4251138996854
 30
0.0
 10
101.8263427479809
 20
-130.2346001193511
 30
0.0
 10
102.0926486289907
 20
-130.2346001193511
 30
0.0
 10
102.2535345881519
 20
-130.2346001193511
 30
0.0
 10
102.3679117582622
 20
-130.3131482964148
 30
0.0
 10
102.4271674006085
 20
-130.4378607529808
 30
0.0
 10
102.4778103042417
 20
-130.3489772894614
 30
0.0
 10
102.5728949396346
 20
-130.1901583875914
 30
0.0
 10
102.8354112156106
 20
-130.1901583875914
 30
0.0
 10
103.2098930948573
 20
-130.1901583875914
 30
0.0
 10
103.3259928127102
 20
-130.4695556314451
 30
0.0
 10
103.3259928127102
 20
-130.7086452581215
 30
0.0
  0
SPLINE
  5
60
330
5B
100
AcDbEntity
  8
_U+30EC_U+30A4_U+30E4_U+30FC 1
370
     0
100
AcDbSpline
210
0.0
220
0.0
230
1.0
 70
    11
 71
     3
 72
    17
 73
    13
 74
     0
 42
0.0000000001
 43
0.0000000001
 12
1.0
 22
0.0
 32
0.0
 13
1.0
 23
0.0
 33
0.0
 40
0.0
 40
0.0
 40
0.0
 40
0.0
 40
1.0
 40
1.0
 40
1.0
 40
2.0
 40
2.0
 40
2.0
 40
3.0
 40
3.0
 40
3.0
 40
4.0
 40
4.0
 40
4.0
 40
4.0
 10
101.8749185943229
 20
-130.7086452581215
 30
0.0
 10
101.8749185943229
 20
-130.8736653318649
 30
0.0
 10
101.9700032297158
 20
-130.9584146808021
 30
0.0
 10
102.1053954822862
 20
-130.9584146808021
 30
0.0
 10
102.2280408815611
 20
-130.9584146808021
 30
0.0
 10
102.3465521662536
 20
-130.8864121851603
 30
0.0
 10
102.3465521662536
 20
-130.7086452581215
 30
0.0
 10
102.3465521662536
 20
-130.5308783310826
 30
0.0
 10
102.2280408815611
 20
-130.4588758354408
 30
0.0
 10
102.1053954822862
 20
-130.4588758354408
 30
0.0
 10
101.9700032297158
 20
-130.4588758354408
 30
0.0
 10
101.8749185943229
 20
-130.5456922416691
 30
0.0
 10
101.8749185943229
 20
-130.7086452581215
 30
0.0
  0
SPLINE
  5
61
330
5B
100
AcDbEntity
  8
_U+30EC_U+30A4_U+30E4_U+30FC 1
370
     0
100
AcDbSpline
210
0.0
220
0.0
230
1.0
 70
    11
 71
     3
 72
    17
 73
    13
 74
     0
 42
0.0000000001
 43
0.0000000001
 12
1.0
 22
0.0
 32
0.0
 13
1.0
 23
0.0
 33
0.0
 40
0.0
 40
0.0
 40
0.0
 40
0.0
 40
1.0
 40
1.0
 40
1.0
 40
2.0
 40
2.0
 40
2.0
 40
3.0
 40
3.0
 40
3.0
 40
4.0
 40
4.0
 40
4.0
 40
4.0
 10
102.5349988892968
 20
-130.7086452581215
 30
0.0
 10
102.5349988892968
 20
-130.8523057398564
 30
0.0
 10
102.6218152955251
 20
-131.0049234698529
 30
0.0
 10
102.8247314196063
 20
-131.0049234698529
 30
0.0
 10
103.0300591105272
 20
-131.0049234698529
 30
0.0
 10
103.1313449177936
 20
-130.8777994464472
 30
0.0
 10
103.1313449177936
 20
-130.7086452581215
 30
0.0
 10
103.1313449177936
 20
-130.522610101918
 30
0.0
 10
103.0086995185187
 20
-130.41236704639
 30
0.0
 10
102.8309325914798
 20
-130.41236704639
 30
0.0
 10
102.6090684422297
 20
-130.41236704639
 30
0.0
 10
102.5349988892968
 20
-130.5753200628423
 30
0.0
 10
102.5349988892968
 20
-130.7086452581215
 30
0.0
  0
HATCH
  5
62
330
5B
100
AcDbEntity
  8
_U+30EC_U+30A4_U+30E4_U+30FC 1
 62
   179
420
  2234388
100
AcDbHatch
 10
0.0
 20
0.0
 30
0.0
210
0.0
220
0.0
230
1.0
  2
SOLID
 70
     1
 71
     0
 91
        3
 92
        1
 93
        1
 72
     4
 94
        3
 73
     0
 74
     1
 95
       29
 96
       25
 40
0.0
 40
0.0
 40
0.0
 40
0.0
 40
1.0
 40
1.0
 40
1.0
 40
2.0
 40
2.0
 40
2.0
 40
3.0
 40
3.0
 40
3.0
 40
4.0
 40
4.0
 40
4.0
 40
5.0
 40
5.0
 40
5.0
 40
6.0
 40
6.0
 40
6.0
 40
7.0
 40
7.0
 40
7.0
 40
8.0
 40
8.0
 40
8.0
 40
8.0
 10
103.3259928127102
 20
-130.7086452581215
 10
103.3259928127102
 20
-130.9752956486798
 10
103.1885335028487
 20
-131.2291991859427
 10
102.8395453301929
 20
-131.2291991859427
 10
102.5835747356388
 20
-131.2291991859427
 10
102.4884901002459
 20
-131.0872612519504
 10
102.4271674006085
 20
-130.9814968205532
 10
102.3679117582622
 20
-131.1062092771193
 10
102.2535345881519
 20
-131.1823458873433
 10
102.0926486289907
 20
-131.1823458873433
 10
101.8177300092678
 20
-131.1823458873433
 10
101.6823377566975
 20
-130.9835638778444
 10
101.6823377566975
 20
-130.7086452581215
 10
101.6823377566975
 20
-130.4251138996854
 10
101.8263427479809
 20
-130.2346001193511
 10
102.0926486289907
 20
-130.2346001193511
 10
102.2535345881519
 20
-130.2346001193511
 10
102.3679117582622
 20
-130.3131482964148
 10
102.4271674006085
 20
-130.4378607529808
 10
102.4778103042417
 20
-130.3489772894614
 10
102.5728949396346
 20
-130.1901583875914
 10
102.8354112156106
 20
-130.1901583875914
 10
103.2098930948573
 20
-130.1901583875914
 10
103.3259928127102
 20
-130.4695556314451
 10
103.3259928127102
 20
-130.7086452581215
 97
        0
 97
        0
 92
        1
 93
        1
 72
     4
 94
        3
 73
     0
 74
     1
 95
       17
 96
       13
 40
0.0
 40
0.0
 40
0.0
 40
0.0
 40
1.0
 40
1.0
 40
1.0
 40
2.0
 40
2.0
 40
2.0
 40
3.0
 40
3.0
 40
3.0
 40
4.0
 40
4.0
 40
4.0
 40
4.0
 10
101.8749185943229
 20
-130.7086452581215
 10
101.8749185943229
 20
-130.8736653318649
 10
101.9700032297158
 20
-130.9584146808021
 10
102.1053954822862
 20
-130.9584146808021
 10
102.2280408815611
 20
-130.9584146808021
 10
102.3465521662536
 20
-130.8864121851603
 10
102.3465521662536
 20
-130.7086452581215
 10
102.3465521662536
 20
-130.5308783310826
 10
102.2280408815611
 20
-130.4588758354408
 10
102.1053954822862
 20
-130.4588758354408
 10
101.9700032297158
 20
-130.4588758354408
 10
101.8749185943229
 20
-130.5456922416691
 10
101.8749185943229
 20
-130.7086452581215
 97
        0
 97
        0
 92
        1
 93
        1
 72
     4
 94
        3
 73
     0
 74
     1
 95
       17
 96
       13
 40
0.0
 40
0.0
 40
0.0
 40
0.0
 40
1.0
 40
1.0
 40
1.0
 40
2.0
 40
2.0
 40
2.0
 40
3.0
 40
3.0
 40
3.0
 40
4.0
 40
4.0
 40
4.0
 40
4.0
 10
102.5349988892968
 20
-130.7086452581215
 10
102.5349988892968
 20
-130.8523057398564
 10
102.6218152955251
 20
-131.0049234698529
 10
102.8247314196063
 20
-131.0049234698529
 10
103.0300591105272
 20
-131.0049234698529
 10
103.1313449177936
 20
-130.8777994464472
 10
103.1313449177936
 20
-130.7086452581215
 10
103.1313449177936
 20
-130.522610101918
 10
103.0086995185187
 20
-130.41236704639
 10
102.8309325914798
 20
-130.41236704639
 10
102.6090684422297
 20
-130.41236704639
 10
102.5349988892968
 20
-130.5753200628423
 10
102.5349988892968
 20
-130.7086452581215
 97
        0
 97
        0
 75
     2
 76
     1
 98
        0
  0
POLYLINE
  5
63
330
5B
100
AcDbEntity
  8
_U+30EC_U+30A4_U+30E4_U+30FC 1
370
     0
100
AcDb2dPolyline
 66
     1
 10
0.0
 20
0.0
 30
0.0
  0
VERTEX
  5
64
330
63
100
AcDbEntity
  8
_U+30EC_U+30A4_U+30E4_U+30FC 1
370
     0
100
AcDbVertex
100
AcDb2dVertex
 10
103.275349909077
 20
-129.9717393338265
 30
0.0
  0
VERTEX
  5
65
330
63
100
AcDbEntity
  8
_U+30EC_U+30A4_U+30E4_U+30FC 1
370
     0
100
AcDbVertex
100
AcDb2dVertex
 10
103.0235134291052
 20
-129.9717393338265
 30
0.0
  0
VERTEX
  5
66
330
63
100
AcDbEntity
  8
_U+30EC_U+30A4_U+30E4_U+30FC 1
370
     0
100
AcDbVertex
100
AcDb2dVertex
 10
103.0235134291052
 20
-129.7199028538548
 30
0.0
  0
VERTEX
  5
67
330
63
100
AcDbEntity
  8
_U+30EC_U+30A4_U+30E4_U+30FC 1
370
     0
100
AcDbVertex
100
AcDb2dVertex
 10
103.275349909077
 20
-129.7199028538548
 30
0.0
  0
VERTEX
  5
68
330
63
100
AcDbEntity
  8
_U+30EC_U+30A4_U+30E4_U+30FC 1
370
     0
100
AcDbVertex
100
AcDb2dVertex
 10
103.275349909077
 20
-129.9717393338265
 30
0.0
  0
SEQEND
  5
69
330
63
100
AcDbEntity
  8
_U+30EC_U+30A4_U+30E4_U+30FC 1
370
     0
  0
HATCH
  5
6A
330
5B
100
AcDbEntity
  8
_U+30EC_U+30A4_U+30E4_U+30FC 1
 62
   179
420
  2234388
100
AcDbHatch
 10
0.0
 20
0.0
 30
0.0
210
0.0
220
0.0
230
1.0
  2
SOLID
 70
     1
 71
     0
 91
        1
 92
        1
 93
        4
 72
     1
 10
103.275349909077
 20
-129.9717393338265
 11
103.0235134291052
 21
-129.9717393338265
 72
     1
 10
103.0235134291052
 20
-129.9717393338265
 11
103.0235134291052
 21
-129.7199028538548
 72
     1
 10
103.0235134291052
 20
-129.7199028538548
 11
103.275349909077
 21
-129.7199028538548
 72
     1
 10
103.275349909077
 20
-129.7199028538548
 11
103.275349909077
 21
-129.9717393338265
 97
        0
 75
     2
 76
     1
 98
        0
  0
SPLINE
  5
6B
330
5B
100
AcDbEntity
  8
_U+30EC_U+30A4_U+30E4_U+30FC 1
370
     0
100
AcDbSpline
210
0.0
220
0.0
230
1.0
 70
    11
 71
     3
 72
    53
 73
    49
 74
     0
 42
0.0000000001
 43
0.0000000001
 12
1.0
 22
0.0
 32
0.0
 13
1.0
 23
0.0
 33
0.0
 40
0.0
 40
0.0
 40
0.0
 40
0.0
 40
1.0
 40
1.0
 40
1.0
 40
2.0
 40
2.0
 40
2.0
 40
3.0
 40
3.0
 40
3.0
 40
4.0
 40
4.0
 40
4.0
 40
5.0
 40
5.0
 40
5.0
 40
6.0
 40
6.0
 40
6.0
 40
7.0
 40
7.0
 40
7.0
 40
8.0
 40
8.0
 40
8.0
 40
9.0
 40
9.0
 40
9.0
 40
10.0
 40
10.0
 40
10.0
 40
11.0
 40
11.0
 40
11.0
 40
12.0
 40
12.0
 40
12.0
 40
13.0
 40
13.0
 40
13.0
 40
14.0
 40
14.0
 40
14.0
 40
15.0
 40
15.0
 40
15.0
 40
16.0
 40
16.0
 40
16.0
 40
16.0
 10
103.3259928127102
 20
-129.0026339738257
 30
0.0
 10
103.3259928127102
 20
-129.0808376413409
 30
0.0
 10
103.3091118448324
 20
-129.1824679581558
 30
0.0
 10
103.2457220879039
 20
-129.2840982749707
 30
0.0
 10
103.1358235419244
 20
-129.4573865778787
 30
0.0
 10
103.0045654039364
 20
-129.4787461698873
 30
0.0
 10
102.896733915248
 20
-129.4976941950561
 30
0.0
 10
102.896733915248
 20
-129.4976941950561
 30
0.0
 10
102.896733915248
 20
-129.2754855362575
 30
0.0
 10
102.896733915248
 20
-129.2754855362575
 30
0.0
 10
103.095515924747
 20
-129.220708518042
 30
0.0
 10
103.1251437459201
 20
-129.0935844946363
 30
0.0
 10
103.1251437459201
 20
-129.0005669165346
 30
0.0
 10
103.1251437459201
 20
-128.861040549382
 30
0.0
 10
103.0255804863964
 20
-128.7087673289339
 30
0.0
 10
102.793036541142
 20
-128.7087673289339
 30
0.0
 10
102.537065946588
 20
-128.7087673289339
 30
0.0
 10
102.4671305082374
 20
-128.888601313264
 30
0.0
 10
102.4671305082374
 20
-129.0091796552477
 30
0.0
 10
102.4671305082374
 20
-129.040874533712
 30
0.0
 10
102.4671305082374
 20
-129.1824679581558
 30
0.0
 10
102.5963215889343
 20
-129.2713514216752
 30
0.0
 10
102.5963215889343
 20
-129.2713514216752
 30
0.0
 10
102.5773735637654
 20
-129.447051291423
 30
0.0
 10
102.5773735637654
 20
-129.447051291423
 30
0.0
 10
102.5773735637654
 20
-129.447051291423
 30
0.0
 10
101.7309136030395
 20
-129.3264729494392
 30
0.0
 10
101.7309136030395
 20
-129.3264729494392
 30
0.0
 10
101.7309136030395
 20
-129.3264729494392
 30
0.0
 10
101.7309136030395
 20
-128.5478813697728
 30
0.0
 10
101.7309136030395
 20
-128.5478813697728
 30
0.0
 10
101.7309136030395
 20
-128.5478813697728
 30
0.0
 10
101.9255614979561
 20
-128.5478813697728
 30
0.0
 10
101.9255614979561
 20
-128.5478813697728
 30
0.0
 10
101.9255614979561
 20
-128.5478813697728
 30
0.0
 10
101.9255614979561
 20
-129.1635199329869
 30
0.0
 10
101.9255614979561
 20
-129.1635199329869
 30
0.0
 10
101.9255614979561
 20
-129.1635199329869
 30
0.0
 10
102.3486192235448
 20
-129.2289767472066
 30
0.0
 10
102.3486192235448
 20
-129.2289767472066
 30
0.0
 10
102.3148572877894
 20
-129.1676540475692
 30
0.0
 10
102.2745496706119
 20
-129.0853162654717
 30
0.0
 10
102.2745496706119
 20
-128.9668049807791
 30
0.0
 10
102.2745496706119
 20
-128.7129014435162
 30
0.0
 10
102.4609293363639
 20
-128.475878874131
 30
0.0
 10
102.7740885159731
 20
-128.475878874131
 30
0.0
 10
103.0913818101647
 20
-128.475878874131
 30
0.0
 10
103.3259928127102
 20
-128.7001545902208
 30
0.0
 10
103.3259928127102
 20
-129.0026339738257
 30
0.0
  0
HATCH
  5
6C
330
5B
100
AcDbEntity
  8
_U+30EC_U+30A4_U+30E4_U+30FC 1
 62
   179
420
  2234388
100
AcDbHatch
 10
0.0
 20
0.0
 30
0.0
210
0.0
220
0.0
230
1.0
  2
SOLID
 70
     1
 71
     0
 91
        1
 92
        1
 93
        1
 72
     4
 94
        3
 73
     0
 74
     1
 95
       53
 96
       49
 40
0.0
 40
0.0
 40
0.0
 40
0.0
 40
1.0
 40
1.0
 40
1.0
 40
2.0
 40
2.0
 40
2.0
 40
3.0
 40
3.0
 40
3.0
 40
4.0
 40
4.0
 40
4.0
 40
5.0
 40
5.0
 40
5.0
 40
6.0
 40
6.0
 40
6.0
 40
7.0
 40
7.0
 40
7.0
 40
8.0
 40
8.0
 40
8.0
 40
9.0
 40
9.0
 40
9.0
 40
10.0
 40
10.0
 40
10.0
 40
11.0
 40
11.0
 40
11.0
 40
12.0
 40
12.0
 40
12.0
 40
13.0
 40
13.0
 40
13.0
 40
14.0
 40
14.0
 40
14.0
 40
15.0
 40
15.0
 40
15.0
 40
16.0
 40
16.0
 40
16.0
 40
16.0
 10
103.3259928127102
 20
-129.0026339738257
 10
103.3259928127102
 20
-129.0808376413409
 10
103.3091118448324
 20
-129.1824679581558
 10
103.2457220879039
 20
-129.2840982749707
 10
103.1358235419244
 20
-129.4573865778787
 10
103.0045654039364
 20
-129.4787461698873
 10
102.896733915248
 20
-129.4976941950561
 10
102.896733915248
 20
-129.4976941950561
 10
102.896733915248
 20
-129.2754855362575
 10
102.896733915248
 20
-129.2754855362575
 10
103.095515924747
 20
-129.220708518042
 10
103.1251437459201
 20
-129.0935844946363
 10
103.1251437459201
 20
-129.0005669165346
 10
103.1251437459201
 20
-128.861040549382
 10
103.0255804863964
 20
-128.7087673289339
 10
102.793036541142
 20
-128.7087673289339
 10
102.537065946588
 20
-128.7087673289339
 10
102.4671305082374
 20
-128.888601313264
 10
102.4671305082374
 20
-129.0091796552477
 10
102.4671305082374
 20
-129.040874533712
 10
102.4671305082374
 20
-129.1824679581558
 10
102.5963215889343
 20
-129.2713514216752
 10
102.5963215889343
 20
-129.2713514216752
 10
102.5773735637654
 20
-129.447051291423
 10
102.5773735637654
 20
-129.447051291423
 10
102.5773735637654
 20
-129.447051291423
 10
101.7309136030395
 20
-129.3264729494392
 10
101.7309136030395
 20
-129.3264729494392
 10
101.7309136030395
 20
-129.3264729494392
 10
101.7309136030395
 20
-128.5478813697728
 10
101.7309136030395
 20
-128.5478813697728
 10
101.7309136030395
 20
-128.5478813697728
 10
101.9255614979561
 20
-128.5478813697728
 10
101.9255614979561
 20
-128.5478813697728
 10
101.9255614979561
 20
-128.5478813697728
 10
101.9255614979561
 20
-129.1635199329869
 10
101.9255614979561
 20
-129.1635199329869
 10
101.9255614979561
 20
-129.1635199329869
 10
102.3486192235448
 20
-129.2289767472066
 10
102.3486192235448
 20
-129.2289767472066
 10
102.3148572877894
 20
-129.1676540475692
 10
102.2745496706119
 20
-129.0853162654717
 10
102.2745496706119
 20
-128.9668049807791
 10
102.2745496706119
 20
-128.7129014435162
 10
102.4609293363639
 20
-128.475878874131
 10
102.7740885159731
 20
-128.475878874131
 10
103.0913818101647
 20
-128.475878874131
 10
103.3259928127102
 20
-128.7001545902208
 10
103.3259928127102
 20
-129.0026339738257
 97
        0
 97
        0
 75
     2
 76
     1
 98
        0
  0
ENDBLK
  5
5E
330
5B
100
AcDbEntity
  8
0
100
AcDbBlockEnd
  0
BLOCK
  5
7D
330
7B
100
AcDbEntity
  8
0
100
AcDbBlockBegin
  2
block 3
 70
     0
 10
0.0
 20
0.0
 30
0.0
  3
block 3
  1

  0
SPLINE
  5
7F
330
7B
100
AcDbEntity
  8
_U+30EC_U+30A4_U+30E4_U+30FC 1
370
     0
100
AcDbSpline
210
0.0
220
0.0
230
1.0
 70
    11
 71
     3
 72
    26
 73
    22
 74
     0
 42
0.0000000001
 43
0.0000000001
 12
1.0
 22
0.0
 32
0.0
 13
1.0
 23
0.0
 33
0.0
 40
0.0
 40
0.0
 40
0.0
 40
0.0
 40
1.0
 40
1.0
 40
1.0
 40
2.0
 40
2.0
 40
2.0
 40
3.0
 40
3.0
 40
3.0
 40
4.0
 40
4.0
 40
4.0
 40
5.0
 40
5.0
 40
5.0
 40
6.0
 40
6.0
 40
6.0
 40
7.0
 40
7.0
 40
7.0
 40
7.0
 10
91.00667586700528
 20
-138.555539244875
 30
0.0
 10
91.00667586700528
 20
-138.555539244875
 30
0.0
 10
91.00667586700528
 20
-137.4513861418524
 30
0.0
 10
91.00667586700528
 20
-137.4513861418524
 30
0.0
 10
91.00667586700528
 20
-137.4513861418524
 30
0.0
 10
90.67663571951834
 20
-137.4513861418524
 30
0.0
 10
90.67663571951834
 20
-137.4513861418524
 30
0.0
 10
90.67663571951834
 20
-137.4513861418524
 30
0.0
 10
90.67663571951834
 20
-137.3032470359867
 30
0.0
 10
90.67663571951834
 20
-137.3032470359867
 30
0.0
 10
91.00874292429643
 20
-137.2884331254001
 30
0.0
 10
91.0552517133473
 20
-137.1254801089478
 30
0.0
 10
91.08487953452045
 20
-137.0111029388375
 30
0.0
 10
91.08487953452045
 20
-137.0111029388375
 30
0.0
 10
91.23095158309505
 20
-137.0111029388375
 30
0.0
 10
91.23095158309505
 20
-137.0111029388375
 30
0.0
 10
91.23095158309505
 20
-137.0111029388375
 30
0.0
 10
91.23095158309505
 20
-138.555539244875
 30
0.0
 10
91.23095158309505
 20
-138.555539244875
 30
0.0
 10
91.23095158309505
 20
-138.555539244875
 30
0.0
 10
91.00667586700528
 20
-138.555539244875
 30
0.0
 10
91.00667586700528
 20
-138.555539244875
 30
0.0
  0
HATCH
  5
80
330
7B
100
AcDbEntity
  8
_U+30EC_U+30A4_U+30E4_U+30FC 1
 62
   179
420
  2234388
100
AcDbHatch
 10
0.0
 20
0.0
 30
0.0
210
0.0
220
0.0
230
1.0
  2
SOLID
 70
     1
 71
     0
 91
        1
 92
        1
 93
        1
 72
     4
 94
        3
 73
     0
 74
     1
 95
       26
 96
       22
 40
0.0
 40
0.0
 40
0.0
 40
0.0
 40
1.0
 40
1.0
 40
1.0
 40
2.0
 40
2.0
 40
2.0
 40
3.0
 40
3.0
 40
3.0
 40
4.0
 40
4.0
 40
4.0
 40
5.0
 40
5.0
 40
5.0
 40
6.0
 40
6.0
 40
6.0
 40
7.0
 40
7.0
 40
7.0
 40
7.0
 10
91.00667586700528
 20
-138.555539244875
 10
91.00667586700528
 20
-138.555539244875
 10
91.00667586700528
 20
-137.4513861418524
 10
91.00667586700528
 20
-137.4513861418524
 10
91.00667586700528
 20
-137.4513861418524
 10
90.67663571951834
 20
-137.4513861418524
 10
90.67663571951834
 20
-137.4513861418524
 10
90.67663571951834
 20
-137.4513861418524
 10
90.67663571951834
 20
-137.3032470359867
 10
90.67663571951834
 20
-137.3032470359867
 10
91.00874292429643
 20
-137.2884331254001
 10
91.0552517133473
 20
-137.1254801089478
 10
91.08487953452045
 20
-137.0111029388375
 10
91.08487953452045
 20
-137.0111029388375
 10
91.23095158309505
 20
-137.0111029388375
 10
91.23095158309505
 20
-137.0111029388375
 10
91.23095158309505
 20
-137.0111029388375
 10
91.23095158309505
 20
-138.555539244875
 10
91.23095158309505
 20
-138.555539244875
 10
91.23095158309505
 20
-138.555539244875
 10
91.00667586700528
 20
-138.555539244875
 10
91.00667586700528
 20
-138.555539244875
 97
        0
 97
        0
 75
     2
 76
     1
 98
        0
  0
SPLINE
  5
81
330
7B
100
AcDbEntity
  8
_U+30EC_U+30A4_U+30E4_U+30FC 1
370
     0
100
AcDbSpline
210
0.0
220
0.0
230
1.0
 70
    11
 71
     3
 72
    53
 73
    49
 74
     0
 42
0.0000000001
 43
0.0000000001
 12
1.0
 22
0.0
 32
0.0
 13
1.0
 23
0.0
 33
0.0
 40
0.0
 40
0.0
 40
0.0
 40
0.0
 40
1.0
 40
1.0
 40
1.0
 40
2.0
 40
2.0
 40
2.0
 40
3.0
 40
3.0
 40
3.0
 40
4.0
 40
4.0
 40
4.0
 40
5.0
 40
5.0
 40
5.0
 40
6.0
 40
6.0
 40
6.0
 40
7.0
 40
7.0
 40
7.0
 40
8.0
 40
8.0
 40
8.0
 40
9.0
 40
9.0
 40
9.0
 40
10.0
 40
10.0
 40
10.0
 40
11.0
 40
11.0
 40
11.0
 40
12.0
 40
12.0
 40
12.0
 40
13.0
 40
13.0
 40
13.0
 40
14.0
 40
14.0
 40
14.0
 40
15.0
 40
15.0
 40
15.0
 40
16.0
 40
16.0
 40
16.0
 40
16.0
 10
92.21314830593977
 20
-138.6061821485082
 30
0.0
 10
92.1349446384246
 20
-138.6061821485082
 30
0.0
 10
92.03331432160974
 20
-138.5893011806305
 30
0.0
 10
91.93168400479486
 20
-138.5259114237019
 30
0.0
 10
91.7583957018868
 20
-138.4160128777224
 30
0.0
 10
91.73703610987825
 20
-138.2847547397344
 30
0.0
 10
91.71808808470936
 20
-138.176923251046
 30
0.0
 10
91.71808808470936
 20
-138.176923251046
 30
0.0
 10
91.94029674350799
 20
-138.176923251046
 30
0.0
 10
91.94029674350799
 20
-138.176923251046
 30
0.0
 10
91.99507376172346
 20
-138.375705260545
 30
0.0
 10
92.12219778512917
 20
-138.4053330817181
 30
0.0
 10
92.21521536323093
 20
-138.4053330817181
 30
0.0
 10
92.35474173038354
 20
-138.4053330817181
 30
0.0
 10
92.50701495083159
 20
-138.3057698221944
 30
0.0
 10
92.50701495083159
 20
-138.07322587694
 30
0.0
 10
92.50701495083159
 20
-137.817255282386
 30
0.0
 10
92.32718096650154
 20
-137.7473198440354
 30
0.0
 10
92.2066026245178
 20
-137.7473198440354
 30
0.0
 10
92.1749077460535
 20
-137.7473198440354
 30
0.0
 10
92.03331432160974
 20
-137.7473198440354
 30
0.0
 10
91.94443085809029
 20
-137.8765109247323
 30
0.0
 10
91.94443085809029
 20
-137.8765109247323
 30
0.0
 10
91.76873098834254
 20
-137.8575628995634
 30
0.0
 10
91.76873098834254
 20
-137.8575628995634
 30
0.0
 10
91.76873098834254
 20
-137.8575628995634
 30
0.0
 10
91.88930933032628
 20
-137.0111029388375
 30
0.0
 10
91.88930933032628
 20
-137.0111029388375
 30
0.0
 10
91.88930933032628
 20
-137.0111029388375
 30
0.0
 10
92.66790090999275
 20
-137.0111029388375
 30
0.0
 10
92.66790090999275
 20
-137.0111029388375
 30
0.0
 10
92.66790090999275
 20
-137.0111029388375
 30
0.0
 10
92.66790090999275
 20
-137.2057508337541
 30
0.0
 10
92.66790090999275
 20
-137.2057508337541
 30
0.0
 10
92.66790090999275
 20
-137.2057508337541
 30
0.0
 10
92.0522623467786
 20
-137.2057508337541
 30
0.0
 10
92.0522623467786
 20
-137.2057508337541
 30
0.0
 10
92.0522623467786
 20
-137.2057508337541
 30
0.0
 10
91.98680553255886
 20
-137.6288085593428
 30
0.0
 10
91.98680553255886
 20
-137.6288085593428
 30
0.0
 10
92.0481282321963
 20
-137.5950466235874
 30
0.0
 10
92.13046601429377
 20
-137.5547390064099
 30
0.0
 10
92.24897729898638
 20
-137.5547390064099
 30
0.0
 10
92.50288083624929
 20
-137.5547390064099
 30
0.0
 10
92.73990340563448
 20
-137.7411186721619
 30
0.0
 10
92.73990340563448
 20
-138.0542778517712
 30
0.0
 10
92.73990340563448
 20
-138.3715711459627
 30
0.0
 10
92.51562768954471
 20
-138.6061821485082
 30
0.0
 10
92.21314830593977
 20
-138.6061821485082
 30
0.0
  0
HATCH
  5
82
330
7B
100
AcDbEntity
  8
_U+30EC_U+30A4_U+30E4_U+30FC 1
 62
   179
420
  2234388
100
AcDbHatch
 10
0.0
 20
0.0
 30
0.0
210
0.0
220
0.0
230
1.0
  2
SOLID
 70
     1
 71
     0
 91
        1
 92
        1
 93
        1
 72
     4
 94
        3
 73
     0
 74
     1
 95
       53
 96
       49
 40
0.0
 40
0.0
 40
0.0
 40
0.0
 40
1.0
 40
1.0
 40
1.0
 40
2.0
 40
2.0
 40
2.0
 40
3.0
 40
3.0
 40
3.0
 40
4.0
 40
4.0
 40
4.0
 40
5.0
 40
5.0
 40
5.0
 40
6.0
 40
6.0
 40
6.0
 40
7.0
 40
7.0
 40
7.0
 40
8.0
 40
8.0
 40
8.0
 40
9.0
 40
9.0
 40
9.0
 40
10.0
 40
10.0
 40
10.0
 40
11.0
 40
11.0
 40
11.0
 40
12.0
 40
12.0
 40
12.0
 40
13.0
 40
13.0
 40
13.0
 40
14.0
 40
14.0
 40
14.0
 40
15.0
 40
15.0
 40
15.0
 40
16.0
 40
16.0
 40
16.0
 40
16.0
 10
92.21314830593977
 20
-138.6061821485082
 10
92.1349446384246
 20
-138.6061821485082
 10
92.03331432160974
 20
-138.5893011806305
 10
91.93168400479486
 20
-138.5259114237019
 10
91.7583957018868
 20
-138.4160128777224
 10
91.73703610987825
 20
-138.2847547397344
 10
91.71808808470936
 20
-138.176923251046
 10
91.71808808470936
 20
-138.176923251046
 10
91.94029674350799
 20
-138.176923251046
 10
91.94029674350799
 20
-138.176923251046
 10
91.99507376172346
 20
-138.375705260545
 10
92.12219778512917
 20
-138.4053330817181
 10
92.21521536323093
 20
-138.4053330817181
 10
92.35474173038354
 20
-138.4053330817181
 10
92.50701495083159
 20
-138.3057698221944
 10
92.50701495083159
 20
-138.07322587694
 10
92.50701495083159
 20
-137.817255282386
 10
92.32718096650154
 20
-137.7473198440354
 10
92.2066026245178
 20
-137.7473198440354
 10
92.1749077460535
 20
-137.7473198440354
 10
92.03331432160974
 20
-137.7473198440354
 10
91.94443085809029
 20
-137.8765109247323
 10
91.94443085809029
 20
-137.8765109247323
 10
91.76873098834254
 20
-137.8575628995634
 10
91.76873098834254
 20
-137.8575628995634
 10
91.76873098834254
 20
-137.8575628995634
 10
91.88930933032628
 20
-137.0111029388375
 10
91.88930933032628
 20
-137.0111029388375
 10
91.88930933032628
 20
-137.0111029388375
 10
92.66790090999275
 20
-137.0111029388375
 10
92.66790090999275
 20
-137.0111029388375
 10
92.66790090999275
 20
-137.0111029388375
 10
92.66790090999275
 20
-137.2057508337541
 10
92.66790090999275
 20
-137.2057508337541
 10
92.66790090999275
 20
-137.2057508337541
 10
92.0522623467786
 20
-137.2057508337541
 10
92.0522623467786
 20
-137.2057508337541
 10
92.0522623467786
 20
-137.2057508337541
 10
91.98680553255886
 20
-137.6288085593428
 10
91.98680553255886
 20
-137.6288085593428
 10
92.0481282321963
 20
-137.5950466235874
 10
92.13046601429377
 20
-137.5547390064099
 10
92.24897729898638
 20
-137.5547390064099
 10
92.50288083624929
 20
-137.5547390064099
 10
92.73990340563448
 20
-137.7411186721619
 10
92.73990340563448
 20
-138.0542778517712
 10
92.73990340563448
 20
-138.3715711459627
 10
92.51562768954471
 20
-138.6061821485082
 10
92.21314830593977
 20
-138.6061821485082
 97
        0
 97
        0
 75
     2
 76
     1
 98
        0
  0
ENDBLK
  5
7E
330
7B
100
AcDbEntity
  8
0
100
AcDbBlockEnd
  0
BLOCK
  5
93
330
91
100
AcDbEntity
  8
0
100
AcDbBlockBegin
  2
block 4
 70
     0
 10
0.0
 20
0.0
 30
0.0
  3
block 4
  1

  0
SPLINE
  5
95
330
91
100
AcDbEntity
  8
_U+30EC_U+30A4_U+30E4_U+30FC 1
370
     0
100
AcDbSpline
210
0.0
220
0.0
230
1.0
 70
    11
 71
     3
 72
    26
 73
    22
 74
     0
 42
0.0000000001
 43
0.0000000001
 12
1.0
 22
0.0
 32
0.0
 13
1.0
 23
0.0
 33
0.0
 40
0.0
 40
0.0
 40
0.0
 40
0.0
 40
1.0
 40
1.0
 40
1.0
 40
2.0
 40
2.0
 40
2.0
 40
3.0
 40
3.0
 40
3.0
 40
4.0
 40
4.0
 40
4.0
 40
5.0
 40
5.0
 40
5.0
 40
6.0
 40
6.0
 40
6.0
 40
7.0
 40
7.0
 40
7.0
 40
7.0
 10
79.72691648397452
 20
-127.1781114048374
 30
0.0
 10
79.72691648397452
 20
-127.1781114048374
 30
0.0
 10
78.6225911261777
 20
-127.1781114048374
 30
0.0
 10
78.6225911261777
 20
-127.1781114048374
 30
0.0
 10
78.6225911261777
 20
-127.1781114048374
 30
0.0
 10
78.6225911261777
 20
-127.5081515523244
 30
0.0
 10
78.6225911261777
 20
-127.5081515523244
 30
0.0
 10
78.6225911261777
 20
-127.5081515523244
 30
0.0
 10
78.47445202031194
 20
-127.5081515523244
 30
0.0
 10
78.47445202031194
 20
-127.5081515523244
 30
0.0
 10
78.45981036449963
 20
-127.1760443475463
 30
0.0
 10
78.29685734804731
 20
-127.1295355584954
 30
0.0
 10
78.18265243271128
 20
-127.0999077373223
 30
0.0
 10
78.18265243271128
 20
-127.0999077373223
 30
0.0
 10
78.18265243271128
 20
-126.9538356887477
 30
0.0
 10
78.18265243271128
 20
-126.9538356887477
 30
0.0
 10
78.18265243271128
 20
-126.9538356887477
 30
0.0
 10
79.72691648397452
 20
-126.9538356887477
 30
0.0
 10
79.72691648397452
 20
-126.9538356887477
 30
0.0
 10
79.72691648397452
 20
-126.9538356887477
 30
0.0
 10
79.72691648397452
 20
-127.1781114048374
 30
0.0
 10
79.72691648397452
 20
-127.1781114048374
 30
0.0
  0
HATCH
  5
96
330
91
100
AcDbEntity
  8
_U+30EC_U+30A4_U+30E4_U+30FC 1
 62
     7
420
 16777215
100
AcDbHatch
 10
0.0
 20
0.0
 30
0.0
210
0.0
220
0.0
230
1.0
  2
SOLID
 70
     1
 71
     0
 91
        1
 92
        1
 93
        1
 72
     4
 94
        3
 73
     0
 74
     1
 95
       26
 96
       22
 40
0.0
 40
0.0
 40
0.0
 40
0.0
 40
1.0
 40
1.0
 40
1.0
 40
2.0
 40
2.0
 40
2.0
 40
3.0
 40
3.0
 40
3.0
 40
4.0
 40
4.0
 40
4.0
 40
5.0
 40
5.0
 40
5.0
 40
6.0
 40
6.0
 40
6.0
 40
7.0
 40
7.0
 40
7.0
 40
7.0
 10
79.72691648397452
 20
-127.1781114048374
 10
79.72691648397452
 20
-127.1781114048374
 10
78.6225911261777
 20
-127.1781114048374
 10
78.6225911261777
 20
-127.1781114048374
 10
78.6225911261777
 20
-127.1781114048374
 10
78.6225911261777
 20
-127.5081515523244
 10
78.6225911261777
 20
-127.5081515523244
 10
78.6225911261777
 20
-127.5081515523244
 10
78.47445202031194
 20
-127.5081515523244
 10
78.47445202031194
 20
-127.5081515523244
 10
78.45981036449963
 20
-127.1760443475463
 10
78.29685734804731
 20
-127.1295355584954
 10
78.18265243271128
 20
-127.0999077373223
 10
78.18265243271128
 20
-127.0999077373223
 10
78.18265243271128
 20
-126.9538356887477
 10
78.18265243271128
 20
-126.9538356887477
 10
78.18265243271128
 20
-126.9538356887477
 10
79.72691648397452
 20
-126.9538356887477
 10
79.72691648397452
 20
-126.9538356887477
 10
79.72691648397452
 20
-126.9538356887477
 10
79.72691648397452
 20
-127.1781114048374
 10
79.72691648397452
 20
-127.1781114048374
 97
        0
 97
        0
 75
     2
 76
     1
 98
        0
  0
SPLINE
  5
97
330
91
100
AcDbEntity
  8
_U+30EC_U+30A4_U+30E4_U+30FC 1
370
     0
100
AcDbSpline
210
0.0
220
0.0
230
1.0
 70
    11
 71
     3
 72
    53
 73
    49
 74
     0
 42
0.0000000001
 43
0.0000000001
 12
1.0
 22
0.0
 32
0.0
 13
1.0
 23
0.0
 33
0.0
 40
0.0
 40
0.0
 40
0.0
 40
0.0
 40
1.0
 40
1.0
 40
1.0
 40
2.0
 40
2.0
 40
2.0
 40
3.0
 40
3.0
 40
3.0
 40
4.0
 40
4.0
 40
4.0
 40
5.0
 40
5.0
 40
5.0
 40
6.0
 40
6.0
 40
6.0
 40
7.0
 40
7.0
 40
7.0
 40
8.0
 40
8.0
 40
8.0
 40
9.0
 40
9.0
 40
9.0
 40
10.0
 40
10.0
 40
10.0
 40
11.0
 40
11.0
 40
11.0
 40
12.0
 40
12.0
 40
12.0
 40
13.0
 40
13.0
 40
13.0
 40
14.0
 40
14.0
 40
14.0
 40
15.0
 40
15.0
 40
15.0
 40
16.0
 40
16.0
 40
16.0
 40
16.0
 10
79.77773164238197
 20
-125.9716389659029
 30
0.0
 10
79.77773164238197
 20
-126.0500148881924
 30
0.0
 10
79.76085067450424
 20
-126.151472950233
 30
0.0
 10
79.69728866280137
 20
-126.2531032670478
 30
0.0
 10
79.58721786204764
 20
-126.4265638247302
 30
0.0
 10
79.45613197883388
 20
-126.4477511619645
 30
0.0
 10
79.34830049014556
 20
-126.4666991871333
 30
0.0
 10
79.34830049014556
 20
-126.4666991871333
 30
0.0
 10
79.34830049014556
 20
-126.244662783109
 30
0.0
 10
79.34830049014556
 20
-126.244662783109
 30
0.0
 10
79.54708249964449
 20
-126.189541255345
 30
0.0
 10
79.57671032081763
 20
-126.0625894867135
 30
0.0
 10
79.57671032081763
 20
-125.9695719086118
 30
0.0
 10
79.57671032081763
 20
-125.8300455414592
 30
0.0
 10
79.47731931606818
 20
-125.6776000662368
 30
0.0
 10
79.24460311603954
 20
-125.6776000662368
 30
0.0
 10
78.98863252148548
 20
-125.6776000662368
 30
0.0
 10
78.91886933790917
 20
-125.8574340505669
 30
0.0
 10
78.91886933790917
 20
-125.9780123925506
 30
0.0
 10
78.91886933790917
 20
-126.0097072710149
 30
0.0
 10
78.91886933790917
 20
-126.151472950233
 30
0.0
 10
79.04788816383179
 20
-126.2403564137524
 30
0.0
 10
79.04788816383179
 20
-126.2403564137524
 30
0.0
 10
79.02876788388865
 20
-126.4158840287259
 30
0.0
 10
79.02876788388865
 20
-126.4158840287259
 30
0.0
 10
79.02876788388865
 20
-126.4158840287259
 30
0.0
 10
78.18265243271128
 20
-126.2953056867422
 30
0.0
 10
78.18265243271128
 20
-126.2953056867422
 30
0.0
 10
78.18265243271128
 20
-126.2953056867422
 30
0.0
 10
78.18265243271128
 20
-125.51688636185
 30
0.0
 10
78.18265243271128
 20
-125.51688636185
 30
0.0
 10
78.18265243271128
 20
-125.51688636185
 30
0.0
 10
78.3773003276279
 20
-125.51688636185
 30
0.0
 10
78.3773003276279
 20
-125.51688636185
 30
0.0
 10
78.3773003276279
 20
-125.51688636185
 30
0.0
 10
78.3773003276279
 20
-126.1325249250641
 30
0.0
 10
78.3773003276279
 20
-126.1325249250641
 30
0.0
 10
78.3773003276279
 20
-126.1325249250641
 30
0.0
 10
78.80035805321658
 20
-126.1979817392838
 30
0.0
 10
78.80035805321658
 20
-126.1979817392838
 30
0.0
 10
78.76642386268686
 20
-126.1366590396464
 30
0.0
 10
78.72628850028372
 20
-126.0541490027747
 30
0.0
 10
78.72628850028372
 20
-125.9358099728563
 30
0.0
 10
78.72628850028372
 20
-125.6819064355934
 30
0.0
 10
78.91249591126146
 20
-125.4448838662082
 30
0.0
 10
79.2254828360964
 20
-125.4448838662082
 30
0.0
 10
79.54294838506219
 20
-125.4448838662082
 30
0.0
 10
79.77773164238197
 20
-125.669159582298
 30
0.0
 10
79.77773164238197
 20
-125.9716389659029
 30
0.0
  0
HATCH
  5
98
330
91
100
AcDbEntity
  8
_U+30EC_U+30A4_U+30E4_U+30FC 1
 62
     7
420
 16777215
100
AcDbHatch
 10
0.0
 20
0.0
 30
0.0
210
0.0
220
0.0
230
1.0
  2
SOLID
 70
     1
 71
     0
 91
        1
 92
        1
 93
        1
 72
     4
 94
        3
 73
     0
 74
     1
 95
       53
 96
       49
 40
0.0
 40
0.0
 40
0.0
 40
0.0
 40
1.0
 40
1.0
 40
1.0
 40
2.0
 40
2.0
 40
2.0
 40
3.0
 40
3.0
 40
3.0
 40
4.0
 40
4.0
 40
4.0
 40
5.0
 40
5.0
 40
5.0
 40
6.0
 40
6.0
 40
6.0
 40
7.0
 40
7.0
 40
7.0
 40
8.0
 40
8.0
 40
8.0
 40
9.0
 40
9.0
 40
9.0
 40
10.0
 40
10.0
 40
10.0
 40
11.0
 40
11.0
 40
11.0
 40
12.0
 40
12.0
 40
12.0
 40
13.0
 40
13.0
 40
13.0
 40
14.0
 40
14.0
 40
14.0
 40
15.0
 40
15.0
 40
15.0
 40
16.0
 40
16.0
 40
16.0
 40
16.0
 10
79.77773164238197
 20
-125.9716389659029
 10
79.77773164238197
 20
-126.0500148881924
 10
79.76085067450424
 20
-126.151472950233
 10
79.69728866280137
 20
-126.2531032670478
 10
79.58721786204764
 20
-126.4265638247302
 10
79.45613197883388
 20
-126.4477511619645
 10
79.34830049014556
 20
-126.4666991871333
 10
79.34830049014556
 20
-126.4666991871333
 10
79.34830049014556
 20
-126.244662783109
 10
79.34830049014556
 20
-126.244662783109
 10
79.54708249964449
 20
-126.189541255345
 10
79.57671032081763
 20
-126.0625894867135
 10
79.57671032081763
 20
-125.9695719086118
 10
79.57671032081763
 20
-125.8300455414592
 10
79.47731931606818
 20
-125.6776000662368
 10
79.24460311603954
 20
-125.6776000662368
 10
78.98863252148548
 20
-125.6776000662368
 10
78.91886933790917
 20
-125.8574340505669
 10
78.91886933790917
 20
-125.9780123925506
 10
78.91886933790917
 20
-126.0097072710149
 10
78.91886933790917
 20
-126.151472950233
 10
79.04788816383179
 20
-126.2403564137524
 10
79.04788816383179
 20
-126.2403564137524
 10
79.02876788388865
 20
-126.4158840287259
 10
79.02876788388865
 20
-126.4158840287259
 10
79.02876788388865
 20
-126.4158840287259
 10
78.18265243271128
 20
-126.2953056867422
 10
78.18265243271128
 20
-126.2953056867422
 10
78.18265243271128
 20
-126.2953056867422
 10
78.18265243271128
 20
-125.51688636185
 10
78.18265243271128
 20
-125.51688636185
 10
78.18265243271128
 20
-125.51688636185
 10
78.3773003276279
 20
-125.51688636185
 10
78.3773003276279
 20
-125.51688636185
 10
78.3773003276279
 20
-125.51688636185
 10
78.3773003276279
 20
-126.1325249250641
 10
78.3773003276279
 20
-126.1325249250641
 10
78.3773003276279
 20
-126.1325249250641
 10
78.80035805321658
 20
-126.1979817392838
 10
78.80035805321658
 20
-126.1979817392838
 10
78.76642386268686
 20
-126.1366590396464
 10
78.72628850028372
 20
-126.0541490027747
 10
78.72628850028372
 20
-125.9358099728563
 10
78.72628850028372
 20
-125.6819064355934
 10
78.91249591126146
 20
-125.4448838662082
 10
79.2254828360964
 20
-125.4448838662082
 10
79.54294838506219
 20
-125.4448838662082
 10
79.77773164238197
 20
-125.669159582298
 10
79.77773164238197
 20
-125.9716389659029
 97
        0
 97
        0
 75
     2
 76
     1
 98
        0
  0
ENDBLK
  5
94
330
91
100
AcDbEntity
  8
0
100
AcDbBlockEnd
  0
BLOCK
  5
A9
330
A7
100
AcDbEntity
  8
0
100
AcDbBlockBegin
  2
block 5
 70
     0
 10
0.0
 20
0.0
 30
0.0
  3
block 5
  1

  0
SPLINE
  5
AB
330
A7
100
AcDbEntity
  8
_U+30EC_U+30A4_U+30E4_U+30FC 1
370
     0
100
AcDbSpline
210
0.0
220
0.0
230
1.0
 70
    11
 71
     3
 72
    29
 73
    25
 74
     0
 42
0.0000000001
 43
0.0000000001
 12
1.0
 22
0.0
 32
0.0
 13
1.0
 23
0.0
 33
0.0
 40
0.0
 40
0.0
 40
0.0
 40
0.0
 40
1.0
 40
1.0
 40
1.0
 40
2.0
 40
2.0
 40
2.0
 40
3.0
 40
3.0
 40
3.0
 40
4.0
 40
4.0
 40
4.0
 40
5.0
 40
5.0
 40
5.0
 40
6.0
 40
6.0
 40
6.0
 40
7.0
 40
7.0
 40
7.0
 40
8.0
 40
8.0
 40
8.0
 40
8.0
 10
89.77953285515929
 20
-120.1101535072989
 30
0.0
 10
89.58591848888824
 20
-119.9272189370321
 30
0.0
 10
89.49600149672322
 20
-119.6523003173092
 30
0.0
 10
89.73578014249661
 20
-119.3987412895948
 30
0.0
 10
89.91165226701862
 20
-119.2127061333913
 30
0.0
 10
90.08011743624733
 20
-119.2409559163703
 30
0.0
 10
90.19914548526272
 20
-119.2692056993494
 30
0.0
 10
90.14901934595234
 20
-119.140359128201
 30
0.0
 10
90.17227374047776
 20
-119.0049668756307
 30
0.0
 10
90.28268905078002
 20
-118.8881781386807
 30
0.0
 10
90.47165253814597
 20
-118.6883626005363
 30
0.0
 10
90.70919187185396
 20
-118.726947669971
 30
0.0
 10
90.90900740999845
 20
-118.9157389025627
 30
0.0
 10
91.11502412001639
 20
-119.1107313070279
 30
0.0
 10
91.1544704633225
 20
-119.3456868191219
 30
0.0
 10
90.97136363828147
 20
-119.539301185393
 30
0.0
 10
90.86094832797922
 20
-119.6564344318915
 30
0.0
 10
90.72555607540889
 20
-119.6853732339676
 30
0.0
 10
90.5941256826466
 20
-119.6426540499505
 30
0.0
 10
90.62375350381976
 20
-119.7404947617316
 30
0.0
 10
90.67353513358162
 20
-119.9189507078675
 30
0.0
 10
90.49335663970305
 20
-120.1094644882018
 30
0.0
 10
90.23618026172916
 20
-120.381282521988
 30
0.0
 10
89.95316566761588
 20
-120.2744845619453
 30
0.0
 10
89.77953285515929
 20
-120.1101535072989
 30
0.0
  0
SPLINE
  5
AC
330
A7
100
AcDbEntity
  8
_U+30EC_U+30A4_U+30E4_U+30FC 1
370
     0
100
AcDbSpline
210
0.0
220
0.0
230
1.0
 70
    11
 71
     3
 72
    17
 73
    13
 74
     0
 42
0.0000000001
 43
0.0000000001
 12
1.0
 22
0.0
 32
0.0
 13
1.0
 23
0.0
 33
0.0
 40
0.0
 40
0.0
 40
0.0
 40
0.0
 40
1.0
 40
1.0
 40
1.0
 40
2.0
 40
2.0
 40
2.0
 40
3.0
 40
3.0
 40
3.0
 40
4.0
 40
4.0
 40
4.0
 40
4.0
 10
90.32316892273171
 20
-119.5351670708107
 30
0.0
 10
90.21861027475438
 20
-119.436292830384
 30
0.0
 10
90.04842255778304
 20
-119.3946071750125
 30
0.0
 10
89.90889619063041
 20
-119.5424017713297
 30
0.0
 10
89.7679917852837
 20
-119.691574405841
 30
0.0
 10
89.79038490593783
 20
-119.8524603650022
 30
0.0
 10
89.91337481476124
 20
-119.9685600828551
 30
0.0
 10
90.0485948125573
 20
-120.0967176349064
 30
0.0
 10
90.21275361242945
 20
-120.0829372529654
 30
0.0
 10
90.33488224738156
 20
-119.9537461722685
 30
0.0
 10
90.48749997737814
 20
-119.7921711940103
 30
0.0
 10
90.41997610586724
 20
-119.6268066107183
 30
0.0
 10
90.32316892273171
 20
-119.5351670708107
 30
0.0
  0
SPLINE
  5
AD
330
A7
100
AcDbEntity
  8
_U+30EC_U+30A4_U+30E4_U+30FC 1
370
     0
100
AcDbSpline
210
0.0
220
0.0
230
1.0
 70
    11
 71
     3
 72
    17
 73
    13
 74
     0
 42
0.0000000001
 43
0.0000000001
 12
1.0
 22
0.0
 32
0.0
 13
1.0
 23
0.0
 33
0.0
 40
0.0
 40
0.0
 40
0.0
 40
0.0
 40
1.0
 40
1.0
 40
1.0
 40
2.0
 40
2.0
 40
2.0
 40
3.0
 40
3.0
 40
3.0
 40
4.0
 40
4.0
 40
4.0
 40
4.0
 10
90.77671574336485
 20
-119.0556097792639
 30
0.0
 10
90.65682642047815
 20
-118.9419216282506
 30
0.0
 10
90.53004690662097
 20
-118.9529459338034
 30
0.0
 10
90.43702932851922
 20
-119.0514756646816
 30
0.0
 10
90.3526244891306
 20
-119.1407036377496
 30
0.0
 10
90.32351343228024
 20
-119.2760958903199
 30
0.0
 10
90.45253225820284
 20
-119.3983967800462
 30
0.0
 10
90.5817233388997
 20
-119.5206976697726
 30
0.0
 10
90.7153930437274
 20
-119.4834906385319
 30
0.0
 10
90.79979788311603
 20
-119.3946071750125
 30
0.0
 10
90.89281546121778
 20
-119.2960774441343
 30
0.0
 10
90.89505477328318
 20
-119.1675753825345
 30
0.0
 10
90.77671574336485
 20
-119.0556097792639
 30
0.0
  0
HATCH
  5
AE
330
A7
100
AcDbEntity
  8
_U+30EC_U+30A4_U+30E4_U+30FC 1
 62
   179
420
  2234388
100
AcDbHatch
 10
0.0
 20
0.0
 30
0.0
210
0.0
220
0.0
230
1.0
  2
SOLID
 70
     1
 71
     0
 91
        3
 92
        1
 93
        1
 72
     4
 94
        3
 73
     0
 74
     1
 95
       29
 96
       25
 40
0.0
 40
0.0
 40
0.0
 40
0.0
 40
1.0
 40
1.0
 40
1.0
 40
2.0
 40
2.0
 40
2.0
 40
3.0
 40
3.0
 40
3.0
 40
4.0
 40
4.0
 40
4.0
 40
5.0
 40
5.0
 40
5.0
 40
6.0
 40
6.0
 40
6.0
 40
7.0
 40
7.0
 40
7.0
 40
8.0
 40
8.0
 40
8.0
 40
8.0
 10
89.77953285515929
 20
-120.1101535072989
 10
89.58591848888824
 20
-119.9272189370321
 10
89.49600149672322
 20
-119.6523003173092
 10
89.73578014249661
 20
-119.3987412895948
 10
89.91165226701862
 20
-119.2127061333913
 10
90.08011743624733
 20
-119.2409559163703
 10
90.19914548526272
 20
-119.2692056993494
 10
90.14901934595234
 20
-119.140359128201
 10
90.17227374047776
 20
-119.0049668756307
 10
90.28268905078002
 20
-118.8881781386807
 10
90.47165253814597
 20
-118.6883626005363
 10
90.70919187185396
 20
-118.726947669971
 10
90.90900740999845
 20
-118.9157389025627
 10
91.11502412001639
 20
-119.1107313070279
 10
91.1544704633225
 20
-119.3456868191219
 10
90.97136363828147
 20
-119.539301185393
 10
90.86094832797922
 20
-119.6564344318915
 10
90.72555607540889
 20
-119.6853732339676
 10
90.5941256826466
 20
-119.6426540499505
 10
90.62375350381976
 20
-119.7404947617316
 10
90.67353513358162
 20
-119.9189507078675
 10
90.49335663970305
 20
-120.1094644882018
 10
90.23618026172916
 20
-120.381282521988
 10
89.95316566761588
 20
-120.2744845619453
 10
89.77953285515929
 20
-120.1101535072989
 97
        0
 97
        0
 92
        1
 93
        1
 72
     4
 94
        3
 73
     0
 74
     1
 95
       17
 96
       13
 40
0.0
 40
0.0
 40
0.0
 40
0.0
 40
1.0
 40
1.0
 40
1.0
 40
2.0
 40
2.0
 40
2.0
 40
3.0
 40
3.0
 40
3.0
 40
4.0
 40
4.0
 40
4.0
 40
4.0
 10
90.32316892273171
 20
-119.5351670708107
 10
90.21861027475438
 20
-119.436292830384
 10
90.04842255778304
 20
-119.3946071750125
 10
89.90889619063041
 20
-119.5424017713297
 10
89.7679917852837
 20
-119.691574405841
 10
89.79038490593783
 20
-119.8524603650022
 10
89.91337481476124
 20
-119.9685600828551
 10
90.0485948125573
 20
-120.0967176349064
 10
90.21275361242945
 20
-120.0829372529654
 10
90.33488224738156
 20
-119.9537461722685
 10
90.48749997737814
 20
-119.7921711940103
 10
90.41997610586724
 20
-119.6268066107183
 10
90.32316892273171
 20
-119.5351670708107
 97
        0
 97
        0
 92
        1
 93
        1
 72
     4
 94
        3
 73
     0
 74
     1
 95
       17
 96
       13
 40
0.0
 40
0.0
 40
0.0
 40
0.0
 40
1.0
 40
1.0
 40
1.0
 40
2.0
 40
2.0
 40
2.0
 40
3.0
 40
3.0
 40
3.0
 40
4.0
 40
4.0
 40
4.0
 40
4.0
 10
90.77671574336485
 20
-119.0556097792639
 10
90.65682642047815
 20
-118.9419216282506
 10
90.53004690662097
 20
-118.9529459338034
 10
90.43702932851922
 20
-119.0514756646816
 10
90.3526244891306
 20
-119.1407036377496
 10
90.32351343228024
 20
-119.2760958903199
 10
90.45253225820284
 20
-119.3983967800462
 10
90.5817233388997
 20
-119.5206976697726
 10
90.7153930437274
 20
-119.4834906385319
 10
90.79979788311603
 20
-119.3946071750125
 10
90.89281546121778
 20
-119.2960774441343
 10
90.89505477328318
 20
-119.1675753825345
 10
90.77671574336485
 20
-119.0556097792639
 97
        0
 97
        0
 75
     2
 76
     1
 98
        0
  0
ENDBLK
  5
AA
330
A7
100
AcDbEntity
  8
0
100
AcDbBlockEnd
  0
BLOCK
  5
BC
330
BA
100
AcDbEntity
  8
0
100
AcDbBlockBegin
  2
block 6
 70
     0
 10
0.0
 20
0.0
 30
0.0
  3
block 6
  1

  0
SPLINE
  5
BE
330
BA
100
AcDbEntity
  8
_U+30EC_U+30A4_U+30E4_U+30FC 1
370
     0
100
AcDbSpline
210
0.0
220
0.0
230
1.0
 70
    11
 71
     3
 72
    26
 73
    22
 74
     0
 42
0.0000000001
 43
0.0000000001
 12
1.0
 22
0.0
 32
0.0
 13
1.0
 23
0.0
 33
0.0
 40
0.0
 40
0.0
 40
0.0
 40
0.0
 40
1.0
 40
1.0
 40
1.0
 40
2.0
 40
2.0
 40
2.0
 40
3.0
 40
3.0
 40
3.0
 40
4.0
 40
4.0
 40
4.0
 40
5.0
 40
5.0
 40
5.0
 40
6.0
 40
6.0
 40
6.0
 40
7.0
 40
7.0
 40
7.0
 40
7.0
 10
101.6179144711233
 20
-136.1704996404366
 30
0.0
 10
101.6179144711233
 20
-136.1704996404366
 30
0.0
 10
100.5134168585522
 20
-136.1704996404366
 30
0.0
 10
100.5134168585522
 20
-136.1704996404366
 30
0.0
 10
100.5134168585522
 20
-136.1704996404366
 30
0.0
 10
100.5134168585522
 20
-136.5229329085776
 30
0.0
 10
100.5134168585522
 20
-136.5229329085776
 30
0.0
 10
100.5134168585522
 20
-136.5229329085776
 30
0.0
 10
100.3652777526865
 20
-136.5229329085776
 30
0.0
 10
100.3652777526865
 20
-136.5229329085776
 30
0.0
 10
100.3504638420999
 20
-136.1680880735969
 30
0.0
 10
100.1878553351961
 20
-136.1184786986093
 30
0.0
 10
100.0734781650858
 20
-136.086783820145
 30
0.0
 10
100.0734781650858
 20
-136.086783820145
 30
0.0
 10
100.0734781650858
 20
-135.9307209946631
 30
0.0
 10
100.0734781650858
 20
-135.9307209946631
 30
0.0
 10
100.0734781650858
 20
-135.9307209946631
 30
0.0
 10
101.6179144711233
 20
-135.9307209946631
 30
0.0
 10
101.6179144711233
 20
-135.9307209946631
 30
0.0
 10
101.6179144711233
 20
-135.9307209946631
 30
0.0
 10
101.6179144711233
 20
-136.1704996404366
 30
0.0
 10
101.6179144711233
 20
-136.1704996404366
 30
0.0
  0
HATCH
  5
BF
330
BA
100
AcDbEntity
  8
_U+30EC_U+30A4_U+30E4_U+30FC 1
 62
   179
420
  2234388
100
AcDbHatch
 10
0.0
 20
0.0
 30
0.0
210
0.0
220
0.0
230
1.0
  2
SOLID
 70
     1
 71
     0
 91
        1
 92
        1
 93
        1
 72
     4
 94
        3
 73
     0
 74
     1
 95
       26
 96
       22
 40
0.0
 40
0.0
 40
0.0
 40
0.0
 40
1.0
 40
1.0
 40
1.0
 40
2.0
 40
2.0
 40
2.0
 40
3.0
 40
3.0
 40
3.0
 40
4.0
 40
4.0
 40
4.0
 40
5.0
 40
5.0
 40
5.0
 40
6.0
 40
6.0
 40
6.0
 40
7.0
 40
7.0
 40
7.0
 40
7.0
 10
101.6179144711233
 20
-136.1704996404366
 10
101.6179144711233
 20
-136.1704996404366
 10
100.5134168585522
 20
-136.1704996404366
 10
100.5134168585522
 20
-136.1704996404366
 10
100.5134168585522
 20
-136.1704996404366
 10
100.5134168585522
 20
-136.5229329085776
 10
100.5134168585522
 20
-136.5229329085776
 10
100.5134168585522
 20
-136.5229329085776
 10
100.3652777526865
 20
-136.5229329085776
 10
100.3652777526865
 20
-136.5229329085776
 10
100.3504638420999
 20
-136.1680880735969
 10
100.1878553351961
 20
-136.1184786986093
 10
100.0734781650858
 20
-136.086783820145
 10
100.0734781650858
 20
-136.086783820145
 10
100.0734781650858
 20
-135.9307209946631
 10
100.0734781650858
 20
-135.9307209946631
 10
100.0734781650858
 20
-135.9307209946631
 10
101.6179144711233
 20
-135.9307209946631
 10
101.6179144711233
 20
-135.9307209946631
 10
101.6179144711233
 20
-135.9307209946631
 10
101.6179144711233
 20
-136.1704996404366
 10
101.6179144711233
 20
-136.1704996404366
 97
        0
 97
        0
 75
     2
 76
     1
 98
        0
  0
ENDBLK
  5
BD
330
BA
100
AcDbEntity
  8
0
100
AcDbBlockEnd
  0
ENDSEC
  0
SECTION
  2
ENTITIES
  0
POLYLINE
  5
41
330
1F
100
AcDbEntity
  8
_U+30EC_U+30A4_U+30E4_U+30FC 1
 62
   179
420
  2234388
370
    25
100
AcDb2dPolyline
 66
     1
 10
0.0
 20
0.0
 30
0.0
  0
VERTEX
  5
42
330
41
100
AcDbEntity
  8
_U+30EC_U+30A4_U+30E4_U+30FC 1
 62
   179
420
  2234388
370
    25
100
AcDbVertex
100
AcDb2dVertex
 10
98.25792193767602
 20
-134.1513346886847
 30
0.0
  0
VERTEX
  5
43
330
41
100
AcDbEntity
  8
_U+30EC_U+30A4_U+30E4_U+30FC 1
 62
   179
420
  2234388
370
    25
100
AcDbVertex
100
AcDb2dVertex
 10
85.25784949155772
 20
-134.1513346886847
 30
0.0
  0
VERTEX
  5
44
330
41
100
AcDbEntity
  8
_U+30EC_U+30A4_U+30E4_U+30FC 1
 62
   179
420
  2234388
370
    25
100
AcDbVertex
100
AcDb2dVertex
 10
85.25784949155772
 20
-122.4755544138255
 30
0.0
  0
VERTEX
  5
45
330
41
100
AcDbEntity
  8
_U+30EC_U+30A4_U+30E4_U+30FC 1
 62
   179
420
  2234388
370
    25
100
AcDbVertex
100
AcDb2dVertex
 10
88.61301301707148
 20
-125.6515774685872
 30
0.0
  0
VERTEX
  5
46
330
41
100
AcDbEntity
  8
_U+30EC_U+30A4_U+30E4_U+30FC 1
 62
   179
420
  2234388
370
    25
100
AcDbVertex
100
AcDb2dVertex
 10
90.06755103551868
 20
-125.6515774685872
 30
0.0
  0
VERTEX
  5
47
330
41
100
AcDbEntity
  8
_U+30EC_U+30A4_U+30E4_U+30FC 1
 62
   179
420
  2234388
370
    25
100
AcDbVertex
100
AcDb2dVertex
 10
84.25772451707303
 20
-120.1514896921844
 30
0.0
  0
VERTEX
  5
48
330
41
100
AcDbEntity
  8
_U+30EC_U+30A4_U+30E4_U+30FC 1
 62
   179
420
  2234388
370
    25
100
AcDbVertex
100
AcDb2dVertex
 10
84.25772451707303
 20
-135.1514244106568
 30
0.0
  0
VERTEX
  5
49
330
41
100
AcDbEntity
  8
_U+30EC_U+30A4_U+30E4_U+30FC 1
 62
   179
420
  2234388
370
    25
100
AcDbVertex
100
AcDb2dVertex
 10
99.25769413439193
 20
-135.1514244106568
 30
0.0
  0
VERTEX
  5
4A
330
41
100
AcDbEntity
  8
_U+30EC_U+30A4_U+30E4_U+30FC 1
 62
   179
420
  2234388
370
    25
100
AcDbVertex
100
AcDb2dVertex
 10
98.25792193767602
 20
-134.1513346886847
 30
0.0
  0
SEQEND
  5
4C
330
41
100
AcDbEntity
  8
_U+30EC_U+30A4_U+30E4_U+30FC 1
 62
   179
420
  2234388
370
    25
  0
HATCH
  5
4B
330
1F
100
AcDbEntity
  8
_U+30EC_U+30A4_U+30E4_U+30FC 1
 62
   253
420
 11711154
100
AcDbHatch
 10
0.0
 20
0.0
 30
0.0
210
0.0
220
0.0
230
1.0
  2
SOLID
 70
     1
 71
     0
 91
        1
 92
        1
 93
        8
 72
     1
 10
98.25792193767602
 20
-134.1513346886847
 11
85.25784949155772
 21
-134.1513346886847
 72
     1
 10
85.25784949155772
 20
-134.1513346886847
 11
85.25784949155772
 21
-122.4755544138255
 72
     1
 10
85.25784949155772
 20
-122.4755544138255
 11
88.61301301707148
 21
-125.6515774685872
 72
     1
 10
88.61301301707148
 20
-125.6515774685872
 11
90.06755103551868
 21
-125.6515774685872
 72
     1
 10
90.06755103551868
 20
-125.6515774685872
 11
84.25772451707303
 21
-120.1514896921844
 72
     1
 10
84.25772451707303
 20
-120.1514896921844
 11
84.25772451707303
 21
-135.1514244106568
 72
     1
 10
84.25772451707303
 20
-135.1514244106568
 11
99.25769413439193
 21
-135.1514244106568
 72
     1
 10
99.25769413439193
 20
-135.1514244106568
 11
98.25792193767602
 21
-134.1513346886847
 97
        0
 75
     2
 76
     1
 98
        0
  0
SPLINE
  5
4D
330
1F
100
AcDbEntity
  8
_U+30EC_U+30A4_U+30E4_U+30FC 1
 62
   179
420
  2234388
370
     9
100
AcDbSpline
210
0.0
220
0.0
230
1.0
 70
    11
 71
     3
 72
    17
 73
    13
 74
     0
 42
0.0000000001
 43
0.0000000001
 12
1.0
 22
0.0
 32
0.0
 13
1.0
 23
0.0
 33
0.0
 40
0.0
 40
0.0
 40
0.0
 40
0.0
 40
1.0
 40
1.0
 40
1.0
 40
2.0
 40
2.0
 40
2.0
 40
3.0
 40
3.0
 40
3.0
 40
4.0
 40
4.0
 40
4.0
 40
4.0
 10
100.9319774250107
 20
-134.1513346886847
 30
0.0
 10
100.9319774250107
 20
-134.2064385775596
 30
0.0
 10
100.9767802016455
 20
-134.2512413553263
 30
0.0
 10
101.0318840891286
 20
-134.2512413553263
 30
0.0
 10
101.0870232543885
 20
-134.2512413553263
 30
0.0
 10
101.1318260310233
 20
-134.2064385775596
 30
0.0
 10
101.1318260310233
 20
-134.1513346886847
 30
0.0
 10
101.1318260310233
 20
-134.0955252442542
 30
0.0
 10
101.0870232543885
 20
-134.0507224664875
 30
0.0
 10
101.0318840891286
 20
-134.0507224664875
 30
0.0
 10
100.9767802016455
 20
-134.0507224664875
 30
0.0
 10
100.9319774250107
 20
-134.0955252442542
 30
0.0
 10
100.9319774250107
 20
-134.1513346886847
 30
0.0
  0
POLYLINE
  5
4E
330
1F
100
AcDbEntity
  8
_U+30EC_U+30A4_U+30E4_U+30FC 1
 62
   179
420
  2234388
370
     9
100
AcDb2dPolyline
 66
     1
 10
0.0
 20
0.0
 30
0.0
  0
VERTEX
  5
4F
330
4E
100
AcDbEntity
  8
_U+30EC_U+30A4_U+30E4_U+30FC 1
 62
   179
420
  2234388
370
     9
100
AcDbVertex
100
AcDb2dVertex
 10
101.0318840891286
 20
-125.6519302463649
 30
0.0
  0
VERTEX
  5
50
330
4E
100
AcDbEntity
  8
_U+30EC_U+30A4_U+30E4_U+30FC 1
 62
   179
420
  2234388
370
     9
100
AcDbVertex
100
AcDb2dVertex
 10
101.0318840891286
 20
-135.1720971884295
 30
0.0
  0
SEQEND
  5
51
330
4E
100
AcDbEntity
  8
_U+30EC_U+30A4_U+30E4_U+30FC 1
 62
   179
420
  2234388
370
     9
  0
POLYLINE
  5
52
330
1F
100
AcDbEntity
  8
_U+30EC_U+30A4_U+30E4_U+30FC 1
 62
   179
420
  2234388
370
     9
100
AcDb2dPolyline
 66
     1
 10
0.0
 20
0.0
 30
0.0
  0
VERTEX
  5
53
330
52
100
AcDbEntity
  8
_U+30EC_U+30A4_U+30E4_U+30FC 1
 62
   179
420
  2234388
370
     9
100
AcDbVertex
100
AcDb2dVertex
 10
99.40787163056058
 20
-134.1513346886847
 30
0.0
  0
VERTEX
  5
54
330
52
100
AcDbEntity
  8
_U+30EC_U+30A4_U+30E4_U+30FC 1
 62
   179
420
  2234388
370
     9
100
AcDbVertex
100
AcDb2dVertex
 10
102.0316562858445
 20
-134.1513346886847
 30
0.0
  0
SEQEND
  5
55
330
52
100
AcDbEntity
  8
_U+30EC_U+30A4_U+30E4_U+30FC 1
 62
   179
420
  2234388
370
     9
  0
SPLINE
  5
56
330
1F
100
AcDbEntity
  8
_U+30EC_U+30A4_U+30E4_U+30FC 1
 62
   179
420
  2234388
370
     9
100
AcDbSpline
210
0.0
220
0.0
230
1.0
 70
    11
 71
     3
 72
    17
 73
    13
 74
     0
 42
0.0000000001
 43
0.0000000001
 12
1.0
 22
0.0
 32
0.0
 13
1.0
 23
0.0
 33
0.0
 40
0.0
 40
0.0
 40
0.0
 40
0.0
 40
1.0
 40
1.0
 40
1.0
 40
2.0
 40
2.0
 40
2.0
 40
3.0
 40
3.0
 40
3.0
 40
4.0
 40
4.0
 40
4.0
 40
4.0
 10
100.9319774250107
 20
-125.6515774685872
 30
0.0
 10
100.9319774250107
 20
-125.7067166352399
 30
0.0
 10
100.9767802016455
 20
-125.7514841352288
 30
0.0
 10
101.0318840891286
 20
-125.7514841352288
 30
0.0
 10
101.0870232543885
 20
-125.7514841352288
 30
0.0
 10
101.1318260310233
 20
-125.7067166352399
 30
0.0
 10
101.1318260310233
 20
-125.6515774685872
 30
0.0
 10
101.1318260310233
 20
-125.5957680241567
 30
0.0
 10
101.0870232543885
 20
-125.5510005241679
 30
0.0
 10
101.0318840891286
 20
-125.5510005241679
 30
0.0
 10
100.9767802016455
 20
-125.5510005241679
 30
0.0
 10
100.9319774250107
 20
-125.5957680241567
 30
0.0
 10
100.9319774250107
 20
-125.6515774685872
 30
0.0
  0
POLYLINE
  5
57
330
1F
100
AcDbEntity
  8
_U+30EC_U+30A4_U+30E4_U+30FC 1
 62
   179
420
  2234388
370
     9
100
AcDb2dPolyline
 66
     1
 10
0.0
 20
0.0
 30
0.0
  0
VERTEX
  5
58
330
57
100
AcDbEntity
  8
_U+30EC_U+30A4_U+30E4_U+30FC 1
 62
   179
420
  2234388
370
     9
100
AcDbVertex
100
AcDb2dVertex
 10
91.21750072840324
 20
-125.6515774685872
 30
0.0
  0
VERTEX
  5
59
330
57
100
AcDbEntity
  8
_U+30EC_U+30A4_U+30E4_U+30FC 1
 62
   179
420
  2234388
370
     9
100
AcDbVertex
100
AcDb2dVertex
 10
102.0316562858445
 20
-125.6515774685872
 30
0.0
  0
SEQEND
  5
5A
330
57
100
AcDbEntity
  8
_U+30EC_U+30A4_U+30E4_U+30FC 1
 62
   179
420
  2234388
370
     9
  0
INSERT
  5
5C
330
1F
100
AcDbEntity
  8
_U+30EC_U+30A4_U+30E4_U+30FC 1
100
AcDbBlockReference
  2
block 2
 10
0.0
 20
0.0
 30
0.0
  0
SPLINE
  5
6D
330
1F
100
AcDbEntity
  8
_U+30EC_U+30A4_U+30E4_U+30FC 1
 62
   179
420
  2234388
370
     9
100
AcDbSpline
210
0.0
220
0.0
230
1.0
 70
    11
 71
     3
 72
    17
 73
    13
 74
     0
 42
0.0000000001
 43
0.0000000001
 12
1.0
 22
0.0
 32
0.0
 13
1.0
 23
0.0
 33
0.0
 40
0.0
 40
0.0
 40
0.0
 40
0.0
 40
1.0
 40
1.0
 40
1.0
 40
2.0
 40
2.0
 40
2.0
 40
3.0
 40
3.0
 40
3.0
 40
4.0
 40
4.0
 40
4.0
 40
4.0
 10
84.40208331223282
 20
-139.1522419096563
 30
0.0
 10
84.40208331223282
 20
-139.0971027430032
 30
0.0
 10
84.3572805344661
 20
-139.0523352430147
 30
0.0
 10
84.30146896040146
 20
-139.0523352430147
 30
0.0
 10
84.2463650729184
 20
-139.0523352430147
 30
0.0
 10
84.20156229628363
 20
-139.0971027430032
 30
0.0
 10
84.20156229628363
 20
-139.1522419096563
 30
0.0
 10
84.20156229628363
 20
-139.2073457985312
 30
0.0
 10
84.2463650729184
 20
-139.252148576298
 30
0.0
 10
84.30146896040146
 20
-139.252148576298
 30
0.0
 10
84.3572805344661
 20
-139.252148576298
 30
0.0
 10
84.40208331223282
 20
-139.2073457985312
 30
0.0
 10
84.40208331223282
 20
-139.1522419096563
 30
0.0
  0
POLYLINE
  5
6E
330
1F
100
AcDbEntity
  8
_U+30EC_U+30A4_U+30E4_U+30FC 1
 62
   179
420
  2234388
370
     9
100
AcDb2dPolyline
 66
     1
 10
0.0
 20
0.0
 30
0.0
  0
VERTEX
  5
6F
330
6E
100
AcDbEntity
  8
_U+30EC_U+30A4_U+30E4_U+30FC 1
 62
   179
420
  2234388
370
     9
100
AcDbVertex
100
AcDb2dVertex
 10
84.30146896040146
 20
-139.1522419096563
 30
0.0
  0
VERTEX
  5
70
330
6E
100
AcDbEntity
  8
_U+30EC_U+30A4_U+30E4_U+30FC 1
 62
   179
420
  2234388
370
     9
100
AcDbVertex
100
AcDb2dVertex
 10
99.20153191360252
 20
-139.1522419096563
 30
0.0
  0
SEQEND
  5
71
330
6E
100
AcDbEntity
  8
_U+30EC_U+30A4_U+30E4_U+30FC 1
 62
   179
420
  2234388
370
     9
  0
POLYLINE
  5
72
330
1F
100
AcDbEntity
  8
_U+30EC_U+30A4_U+30E4_U+30FC 1
 62
   179
420
  2234388
370
     9
100
AcDb2dPolyline
 66
     1
 10
0.0
 20
0.0
 30
0.0
  0
VERTEX
  5
73
330
72
100
AcDbEntity
  8
_U+30EC_U+30A4_U+30E4_U+30FC 1
 62
   179
420
  2234388
370
     9
100
AcDbVertex
100
AcDb2dVertex
 10
84.30146896040146
 20
-136.6914052436049
 30
0.0
  0
VERTEX
  5
74
330
72
100
AcDbEntity
  8
_U+30EC_U+30A4_U+30E4_U+30FC 1
 62
   179
420
  2234388
370
     9
100
AcDbVertex
100
AcDb2dVertex
 10
84.30146896040146
 20
-140.1520141316289
 30
0.0
  0
SEQEND
  5
75
330
72
100
AcDbEntity
  8
_U+30EC_U+30A4_U+30E4_U+30FC 1
 62
   179
420
  2234388
370
     9
  0
SPLINE
  5
76
330
1F
100
AcDbEntity
  8
_U+30EC_U+30A4_U+30E4_U+30FC 1
 62
   179
420
  2234388
370
     9
100
AcDbSpline
210
0.0
220
0.0
230
1.0
 70
    11
 71
     3
 72
    17
 73
    13
 74
     0
 42
0.0000000001
 43
0.0000000001
 12
1.0
 22
0.0
 32
0.0
 13
1.0
 23
0.0
 33
0.0
 40
0.0
 40
0.0
 40
0.0
 40
0.0
 40
1.0
 40
1.0
 40
1.0
 40
2.0
 40
2.0
 40
2.0
 40
3.0
 40
3.0
 40
3.0
 40
4.0
 40
4.0
 40
4.0
 40
4.0
 10
99.40201551959886
 20
-139.1522419096563
 30
0.0
 10
99.40201551959886
 20
-139.0971027430032
 30
0.0
 10
99.35724802074098
 20
-139.0523352430147
 30
0.0
 10
99.30143857772035
 20
-139.0523352430147
 30
0.0
 10
99.2462994124604
 20
-139.0523352430147
 30
0.0
 10
99.20153191360252
 20
-139.0971027430032
 30
0.0
 10
99.20153191360252
 20
-139.1522419096563
 30
0.0
 10
99.20153191360252
 20
-139.2073457985312
 30
0.0
 10
99.2462994124604
 20
-139.252148576298
 30
0.0
 10
99.30143857772035
 20
-139.252148576298
 30
0.0
 10
99.35724802074098
 20
-139.252148576298
 30
0.0
 10
99.40201551959886
 20
-139.2073457985312
 30
0.0
 10
99.40201551959886
 20
-139.1522419096563
 30
0.0
  0
POLYLINE
  5
77
330
1F
100
AcDbEntity
  8
_U+30EC_U+30A4_U+30E4_U+30FC 1
 62
   179
420
  2234388
370
     9
100
AcDb2dPolyline
 66
     1
 10
0.0
 20
0.0
 30
0.0
  0
VERTEX
  5
78
330
77
100
AcDbEntity
  8
_U+30EC_U+30A4_U+30E4_U+30FC 1
 62
   179
420
  2234388
370
     9
100
AcDbVertex
100
AcDb2dVertex
 10
99.30143857772035
 20
-136.6914052436049
 30
0.0
  0
VERTEX
  5
79
330
77
100
AcDbEntity
  8
_U+30EC_U+30A4_U+30E4_U+30FC 1
 62
   179
420
  2234388
370
     9
100
AcDbVertex
100
AcDb2dVertex
 10
99.30143857772035
 20
-140.1520141316289
 30
0.0
  0
SEQEND
  5
7A
330
77
100
AcDbEntity
  8
_U+30EC_U+30A4_U+30E4_U+30FC 1
 62
   179
420
  2234388
370
     9
  0
INSERT
  5
7C
330
1F
100
AcDbEntity
  8
_U+30EC_U+30A4_U+30E4_U+30FC 1
100
AcDbBlockReference
  2
block 3
 10
0.0
 20
0.0
 30
0.0
  0
SPLINE
  5
83
330
1F
100
AcDbEntity
  8
_U+30EC_U+30A4_U+30E4_U+30FC 1
 62
     7
420
 16777215
370
     9
100
AcDbSpline
210
0.0
220
0.0
230
1.0
 70
    11
 71
     3
 72
    17
 73
    13
 74
     0
 42
0.0000000001
 43
0.0000000001
 12
1.0
 22
0.0
 32
0.0
 13
1.0
 23
0.0
 33
0.0
 40
0.0
 40
0.0
 40
0.0
 40
0.0
 40
1.0
 40
1.0
 40
1.0
 40
2.0
 40
2.0
 40
2.0
 40
3.0
 40
3.0
 40
3.0
 40
4.0
 40
4.0
 40
4.0
 40
4.0
 10
80.42334767045169
 20
-120.1514896921844
 30
0.0
 10
80.42334767045169
 20
-120.0963858033092
 30
0.0
 10
80.37854489381692
 20
-120.0515830255428
 30
0.0
 10
80.32344100633385
 20
-120.0515830255428
 30
0.0
 10
80.2683018410739
 20
-120.0515830255428
 30
0.0
 10
80.22353434221601
 20
-120.0963858033092
 30
0.0
 10
80.22353434221601
 20
-120.1514896921844
 30
0.0
 10
80.22353434221601
 20
-120.2066288588372
 30
0.0
 10
80.2683018410739
 20
-120.2513963588261
 30
0.0
 10
80.32344100633385
 20
-120.2513963588261
 30
0.0
 10
80.37854489381692
 20
-120.2513963588261
 30
0.0
 10
80.42334767045169
 20
-120.2066288588372
 30
0.0
 10
80.42334767045169
 20
-120.1514896921844
 30
0.0
  0
POLYLINE
  5
84
330
1F
100
AcDbEntity
  8
_U+30EC_U+30A4_U+30E4_U+30FC 1
 62
     7
420
 16777215
370
     9
100
AcDb2dPolyline
 66
     1
 10
0.0
 20
0.0
 30
0.0
  0
VERTEX
  5
85
330
84
100
AcDbEntity
  8
_U+30EC_U+30A4_U+30E4_U+30FC 1
 62
     7
420
 16777215
370
     9
100
AcDbVertex
100
AcDb2dVertex
 10
80.32344100633385
 20
-135.1524827439895
 30
0.0
  0
VERTEX
  5
86
330
84
100
AcDbEntity
  8
_U+30EC_U+30A4_U+30E4_U+30FC 1
 62
     7
420
 16777215
370
     9
100
AcDbVertex
100
AcDb2dVertex
 10
80.32344100633385
 20
-120.1525127477396
 30
0.0
  0
SEQEND
  5
87
330
84
100
AcDbEntity
  8
_U+30EC_U+30A4_U+30E4_U+30FC 1
 62
     7
420
 16777215
370
     9
  0
POLYLINE
  5
88
330
1F
100
AcDbEntity
  8
_U+30EC_U+30A4_U+30E4_U+30FC 1
 62
     7
420
 16777215
370
     9
100
AcDb2dPolyline
 66
     1
 10
0.0
 20
0.0
 30
0.0
  0
VERTEX
  5
89
330
88
100
AcDbEntity
  8
_U+30EC_U+30A4_U+30E4_U+30FC 1
 62
     7
420
 16777215
370
     9
100
AcDbVertex
100
AcDb2dVertex
 10
82.43287775716945
 20
-120.1514896921844
 30
0.0
  0
VERTEX
  5
8A
330
88
100
AcDbEntity
  8
_U+30EC_U+30A4_U+30E4_U+30FC 1
 62
     7
420
 16777215
370
     9
100
AcDbVertex
100
AcDb2dVertex
 10
79.32366880961794
 20
-120.1514896921844
 30
0.0
  0
SEQEND
  5
8B
330
88
100
AcDbEntity
  8
_U+30EC_U+30A4_U+30E4_U+30FC 1
 62
     7
420
 16777215
370
     9
  0
SPLINE
  5
8C
330
1F
100
AcDbEntity
  8
_U+30EC_U+30A4_U+30E4_U+30FC 1
 62
     7
420
 16777215
370
     9
100
AcDbSpline
210
0.0
220
0.0
230
1.0
 70
    11
 71
     3
 72
    17
 73
    13
 74
     0
 42
0.0000000001
 43
0.0000000001
 12
1.0
 22
0.0
 32
0.0
 13
1.0
 23
0.0
 33
0.0
 40
0.0
 40
0.0
 40
0.0
 40
0.0
 40
1.0
 40
1.0
 40
1.0
 40
2.0
 40
2.0
 40
2.0
 40
3.0
 40
3.0
 40
3.0
 40
4.0
 40
4.0
 40
4.0
 40
4.0
 10
80.42334767045169
 20
-135.1514244106568
 30
0.0
 10
80.42334767045169
 20
-135.0963205217813
 30
0.0
 10
80.37854489381692
 20
-135.0515177440152
 30
0.0
 10
80.32344100633385
 20
-135.0515177440152
 30
0.0
 10
80.2683018410739
 20
-135.0515177440152
 30
0.0
 10
80.22353434221601
 20
-135.0963205217813
 30
0.0
 10
80.22353434221601
 20
-135.1514244106568
 30
0.0
 10
80.22353434221601
 20
-135.2065635773092
 30
0.0
 10
80.2683018410739
 20
-135.2513310772984
 30
0.0
 10
80.32344100633385
 20
-135.2513310772984
 30
0.0
 10
80.37854489381692
 20
-135.2513310772984
 30
0.0
 10
80.42334767045169
 20
-135.2065635773092
 30
0.0
 10
80.42334767045169
 20
-135.1514244106568
 30
0.0
  0
POLYLINE
  5
8D
330
1F
100
AcDbEntity
  8
_U+30EC_U+30A4_U+30E4_U+30FC 1
 62
     7
420
 16777215
370
     9
100
AcDb2dPolyline
 66
     1
 10
0.0
 20
0.0
 30
0.0
  0
VERTEX
  5
8E
330
8D
100
AcDbEntity
  8
_U+30EC_U+30A4_U+30E4_U+30FC 1
 62
     7
420
 16777215
370
     9
100
AcDbVertex
100
AcDb2dVertex
 10
82.43287775716945
 20
-135.1514244106568
 30
0.0
  0
VERTEX
  5
8F
330
8D
100
AcDbEntity
  8
_U+30EC_U+30A4_U+30E4_U+30FC 1
 62
     7
420
 16777215
370
     9
100
AcDbVertex
100
AcDb2dVertex
 10
79.32366880961794
 20
-135.1514244106568
 30
0.0
  0
SEQEND
  5
90
330
8D
100
AcDbEntity
  8
_U+30EC_U+30A4_U+30E4_U+30FC 1
 62
     7
420
 16777215
370
     9
  0
INSERT
  5
92
330
1F
100
AcDbEntity
  8
_U+30EC_U+30A4_U+30E4_U+30FC 1
100
AcDbBlockReference
  2
block 4
 10
0.0
 20
0.0
 30
0.0
  0
SPLINE
  5
99
330
1F
100
AcDbEntity
  8
_U+30EC_U+30A4_U+30E4_U+30FC 1
 62
   179
420
  2234388
370
     9
100
AcDbSpline
210
0.0
220
0.0
230
1.0
 70
    11
 71
     3
 72
    17
 73
    13
 74
     0
 42
0.0000000001
 43
0.0000000001
 12
1.0
 22
0.0
 32
0.0
 13
1.0
 23
0.0
 33
0.0
 40
0.0
 40
0.0
 40
0.0
 40
0.0
 40
1.0
 40
1.0
 40
1.0
 40
2.0
 40
2.0
 40
2.0
 40
3.0
 40
3.0
 40
3.0
 40
4.0
 40
4.0
 40
4.0
 40
4.0
 10
86.78230806377665
 20
-117.6253891372604
 30
0.0
 10
86.78230806377665
 20
-117.5698971928298
 30
0.0
 10
86.73750528714189
 20
-117.5251296928409
 30
0.0
 10
86.68240139965881
 20
-117.5251296928409
 30
0.0
 10
86.62726223439887
 20
-117.5251296928409
 30
0.0
 10
86.58249473554098
 20
-117.5698971928298
 30
0.0
 10
86.58249473554098
 20
-117.6253891372604
 30
0.0
 10
86.58249473554098
 20
-117.6803166372467
 30
0.0
 10
86.62726223439887
 20
-117.7251194150131
 30
0.0
 10
86.68240139965881
 20
-117.7251194150131
 30
0.0
 10
86.73750528714189
 20
-117.7251194150131
 30
0.0
 10
86.78230806377665
 20
-117.6803166372467
 30
0.0
 10
86.78230806377665
 20
-117.6253891372604
 30
0.0
  0
SPLINE
  5
9A
330
1F
100
AcDbEntity
  8
_U+30EC_U+30A4_U+30E4_U+30FC 1
 62
   179
420
  2234388
370
     9
100
AcDbSpline
210
0.0
220
0.0
230
1.0
 70
    11
 71
     3
 72
    17
 73
    13
 74
     0
 42
0.0000000001
 43
0.0000000001
 12
1.0
 22
0.0
 32
0.0
 13
1.0
 23
0.0
 33
0.0
 40
0.0
 40
0.0
 40
0.0
 40
0.0
 40
1.0
 40
1.0
 40
1.0
 40
2.0
 40
2.0
 40
2.0
 40
3.0
 40
3.0
 40
3.0
 40
4.0
 40
4.0
 40
4.0
 40
4.0
 10
92.59209930444541
 20
-123.1251241358853
 30
0.0
 10
92.59209930444541
 20
-123.070196635899
 30
0.0
 10
92.54733180558753
 20
-123.0253938581326
 30
0.0
 10
92.49219264032757
 20
-123.0253938581326
 30
0.0
 10
92.4370887528445
 20
-123.0253938581326
 30
0.0
 10
92.39228597620975
 20
-123.070196635899
 30
0.0
 10
92.39228597620975
 20
-123.1251241358853
 30
0.0
 10
92.39228597620975
 20
-123.1805808025383
 30
0.0
 10
92.4370887528445
 20
-123.2253835803047
 30
0.0
 10
92.49219264032757
 20
-123.2253835803047
 30
0.0
 10
92.54733180558753
 20
-123.2253835803047
 30
0.0
 10
92.59209930444541
 20
-123.1805808025383
 30
0.0
 10
92.59209930444541
 20
-123.1251241358853
 30
0.0
  0
POLYLINE
  5
9B
330
1F
100
AcDbEntity
  8
_U+30EC_U+30A4_U+30E4_U+30FC 1
 62
   179
420
  2234388
370
     9
100
AcDb2dPolyline
 66
     1
 10
0.0
 20
0.0
 30
0.0
  0
VERTEX
  5
9C
330
9B
100
AcDbEntity
  8
_U+30EC_U+30A4_U+30E4_U+30FC 1
 62
   179
420
  2234388
370
     9
100
AcDbVertex
100
AcDb2dVertex
 10
86.68240139965881
 20
-117.6253891372604
 30
0.0
  0
VERTEX
  5
9D
330
9B
100
AcDbEntity
  8
_U+30EC_U+30A4_U+30E4_U+30FC 1
 62
   179
420
  2234388
370
     9
100
AcDbVertex
100
AcDb2dVertex
 10
92.49219264032757
 20
-123.1251241358853
 30
0.0
  0
SEQEND
  5
9E
330
9B
100
AcDbEntity
  8
_U+30EC_U+30A4_U+30E4_U+30FC 1
 62
   179
420
  2234388
370
     9
  0
POLYLINE
  5
9F
330
1F
100
AcDbEntity
  8
_U+30EC_U+30A4_U+30E4_U+30FC 1
 62
   179
420
  2234388
370
     9
100
AcDb2dPolyline
 66
     1
 10
0.0
 20
0.0
 30
0.0
  0
VERTEX
  5
A0
330
9F
100
AcDbEntity
  8
_U+30EC_U+30A4_U+30E4_U+30FC 1
 62
   179
420
  2234388
370
     9
100
AcDbVertex
100
AcDb2dVertex
 10
85.67850170304821
 20
-118.6854510814398
 30
0.0
  0
VERTEX
  5
A1
330
9F
100
AcDbEntity
  8
_U+30EC_U+30A4_U+30E4_U+30FC 1
 62
   179
420
  2234388
370
     9
100
AcDbVertex
100
AcDb2dVertex
 10
87.37003582656024
 20
-116.8993371929974
 30
0.0
  0
SEQEND
  5
A2
330
9F
100
AcDbEntity
  8
_U+30EC_U+30A4_U+30E4_U+30FC 1
 62
   179
420
  2234388
370
     9
  0
POLYLINE
  5
A3
330
1F
100
AcDbEntity
  8
_U+30EC_U+30A4_U+30E4_U+30FC 1
 62
   179
420
  2234388
370
     9
100
AcDb2dPolyline
 66
     1
 10
0.0
 20
0.0
 30
0.0
  0
VERTEX
  5
A4
330
A3
100
AcDbEntity
  8
_U+30EC_U+30A4_U+30E4_U+30FC 1
 62
   179
420
  2234388
370
     9
100
AcDbVertex
100
AcDb2dVertex
 10
91.48829294371697
 20
-124.1855388578425
 30
0.0
  0
VERTEX
  5
A5
330
A3
100
AcDbEntity
  8
_U+30EC_U+30A4_U+30E4_U+30FC 1
 62
   179
420
  2234388
370
     9
100
AcDbVertex
100
AcDb2dVertex
 10
93.17982706722901
 20
-122.3990721916223
 30
0.0
  0
SEQEND
  5
A6
330
A3
100
AcDbEntity
  8
_U+30EC_U+30A4_U+30E4_U+30FC 1
 62
   179
420
  2234388
370
     9
  0
INSERT
  5
A8
330
1F
100
AcDbEntity
  8
_U+30EC_U+30A4_U+30E4_U+30FC 1
100
AcDbBlockReference
  2
block 5
 10
0.0
 20
0.0
 30
0.0
  0
SPLINE
  5
AF
330
1F
100
AcDbEntity
  8
_U+30EC_U+30A4_U+30E4_U+30FC 1
 62
   179
420
  2234388
370
     9
100
AcDbSpline
210
0.0
220
0.0
230
1.0
 70
    11
 71
     3
 72
    17
 73
    13
 74
     0
 42
0.0000000001
 43
0.0000000001
 12
1.0
 22
0.0
 32
0.0
 13
1.0
 23
0.0
 33
0.0
 40
0.0
 40
0.0
 40
0.0
 40
0.0
 40
1.0
 40
1.0
 40
1.0
 40
2.0
 40
2.0
 40
2.0
 40
3.0
 40
3.0
 40
3.0
 40
4.0
 40
4.0
 40
4.0
 40
4.0
 10
92.52732930609784
 20
-123.1251241358853
 30
0.0
 10
92.52732930609784
 20
-123.1449502469915
 30
0.0
 10
92.51148958427972
 20
-123.1607899692097
 30
0.0
 10
92.4918398625588
 20
-123.1607899692097
 30
0.0
 10
92.4722277546598
 20
-123.1607899692097
 30
0.0
 10
92.45705831021927
 20
-123.1449502469915
 30
0.0
 10
92.45705831021927
 20
-123.1251241358853
 30
0.0
 10
92.45705831021927
 20
-123.1056508025569
 30
0.0
 10
92.4722277546598
 20
-123.0898110803387
 30
0.0
 10
92.4918398625588
 20
-123.0898110803387
 30
0.0
 10
92.51148958427972
 20
-123.0898110803387
 30
0.0
 10
92.52732930609784
 20
-123.1056508025569
 30
0.0
 10
92.52732930609784
 20
-123.1251241358853
 30
0.0
  0
SPLINE
  5
B0
330
1F
100
AcDbEntity
  8
_U+30EC_U+30A4_U+30E4_U+30FC 1
 62
   179
420
  2234388
370
     9
100
AcDbSpline
210
0.0
220
0.0
230
1.0
 70
    11
 71
     3
 72
    17
 73
    13
 74
     0
 42
0.0000000001
 43
0.0000000001
 12
1.0
 22
0.0
 32
0.0
 13
1.0
 23
0.0
 33
0.0
 40
0.0
 40
0.0
 40
0.0
 40
0.0
 40
1.0
 40
1.0
 40
1.0
 40
2.0
 40
2.0
 40
2.0
 40
3.0
 40
3.0
 40
3.0
 40
4.0
 40
4.0
 40
4.0
 40
4.0
 10
101.1321435310152
 20
-134.152004966462
 30
0.0
 10
101.1321435310152
 20
-134.0969010775871
 30
0.0
 10
101.0873760321573
 20
-134.0520982998204
 30
0.0
 10
101.0315665891367
 20
-134.0520982998204
 30
0.0
 10
100.9764274238767
 20
-134.0520982998204
 30
0.0
 10
100.9316599250188
 20
-134.0969010775871
 30
0.0
 10
100.9316599250188
 20
-134.152004966462
 30
0.0
 10
100.9316599250188
 20
-134.2071441331151
 30
0.0
 10
100.9764274238767
 20
-134.2519116331036
 30
0.0
 10
101.0315665891367
 20
-134.2519116331036
 30
0.0
 10
101.0873760321573
 20
-134.2519116331036
 30
0.0
 10
101.1321435310152
 20
-134.2071441331151
 30
0.0
 10
101.1321435310152
 20
-134.152004966462
 30
0.0
  0
SPLINE
  5
B1
330
1F
100
AcDbEntity
  8
_U+30EC_U+30A4_U+30E4_U+30FC 1
 62
   179
420
  2234388
370
     9
100
AcDbSpline
210
0.0
220
0.0
230
1.0
 70
    11
 71
     3
 72
    17
 73
    13
 74
     0
 42
0.0000000001
 43
0.0000000001
 12
1.0
 22
0.0
 32
0.0
 13
1.0
 23
0.0
 33
0.0
 40
0.0
 40
0.0
 40
0.0
 40
0.0
 40
1.0
 40
1.0
 40
1.0
 40
2.0
 40
2.0
 40
2.0
 40
3.0
 40
3.0
 40
3.0
 40
4.0
 40
4.0
 40
4.0
 40
4.0
 10
101.1321435310152
 20
-135.1517771884346
 30
0.0
 10
101.1321435310152
 20
-135.096673299559
 30
0.0
 10
101.0873760321573
 20
-135.0518705217923
 30
0.0
 10
101.0315665891367
 20
-135.0518705217923
 30
0.0
 10
100.9764274238767
 20
-135.0518705217923
 30
0.0
 10
100.9316599250188
 20
-135.096673299559
 30
0.0
 10
100.9316599250188
 20
-135.1517771884346
 30
0.0
 10
100.9316599250188
 20
-135.206916355087
 30
0.0
 10
100.9764274238767
 20
-135.2516838550762
 30
0.0
 10
101.0315665891367
 20
-135.2516838550762
 30
0.0
 10
101.0873760321573
 20
-135.2516838550762
 30
0.0
 10
101.1321435310152
 20
-135.206916355087
 30
0.0
 10
101.1321435310152
 20
-135.1517771884346
 30
0.0
  0
POLYLINE
  5
B2
330
1F
100
AcDbEntity
  8
_U+30EC_U+30A4_U+30E4_U+30FC 1
 62
   179
420
  2234388
370
     9
100
AcDb2dPolyline
 66
     1
 10
0.0
 20
0.0
 30
0.0
  0
VERTEX
  5
B3
330
B2
100
AcDbEntity
  8
_U+30EC_U+30A4_U+30E4_U+30FC 1
 62
   179
420
  2234388
370
     9
100
AcDbVertex
100
AcDb2dVertex
 10
98.57175553091236
 20
-134.152004966462
 30
0.0
  0
VERTEX
  5
B4
330
B2
100
AcDbEntity
  8
_U+30EC_U+30A4_U+30E4_U+30FC 1
 62
   179
420
  2234388
370
     9
100
AcDbVertex
100
AcDb2dVertex
 10
102.0320090636133
 20
-134.152004966462
 30
0.0
  0
SEQEND
  5
B5
330
B2
100
AcDbEntity
  8
_U+30EC_U+30A4_U+30E4_U+30FC 1
 62
   179
420
  2234388
370
     9
  0
POLYLINE
  5
B6
330
1F
100
AcDbEntity
  8
_U+30EC_U+30A4_U+30E4_U+30FC 1
 62
   179
420
  2234388
370
     9
100
AcDb2dPolyline
 66
     1
 10
0.0
 20
0.0
 30
0.0
  0
VERTEX
  5
B7
330
B6
100
AcDbEntity
  8
_U+30EC_U+30A4_U+30E4_U+30FC 1
 62
   179
420
  2234388
370
     9
100
AcDbVertex
100
AcDb2dVertex
 10
99.64317440233528
 20
-135.1517771884346
 30
0.0
  0
VERTEX
  5
B8
330
B6
100
AcDbEntity
  8
_U+30EC_U+30A4_U+30E4_U+30FC 1
 62
   179
420
  2234388
370
     9
100
AcDbVertex
100
AcDb2dVertex
 10
102.0320090636133
 20
-135.1517771884346
 30
0.0
  0
SEQEND
  5
B9
330
B6
100
AcDbEntity
  8
_U+30EC_U+30A4_U+30E4_U+30FC 1
 62
   179
420
  2234388
370
     9
  0
INSERT
  5
BB
330
1F
100
AcDbEntity
  8
_U+30EC_U+30A4_U+30E4_U+30FC 1
100
AcDbBlockReference
  2
block 6
 10
0.0
 20
0.0
 30
0.0
  0
ENDSEC
  0
SECTION
  2
OBJECTS
  0
DICTIONARY
  5
C
330
0
100
AcDbDictionary
281
     1
  3
ACAD_GROUP
350
D
  3
ACAD_LAYOUT
350
1A
  3
ACAD_MATERIAL
350
3B
  3
ACAD_MLEADERSTYLE
350
C1
  3
ACAD_MLINESTYLE
350
17
  3
ACAD_PLOTSETTINGS
350
19
  3
ACAD_PLOTSTYLENAME
350
E
  3
ACAD_TABLESTYLE
350
C0
  3
ACAD_VISUALSTYLE
350
2A
  0
SUN
  5
3F
330
29
100
AcDbSun
 90
        1
290
     0
 63
     7
421
 16777215
 40
1.0
291
     1
 91
  2455826
 92
 54000000
292
     0
 70
     2
 71
   256
280
     1
  0
DICTIONARY
  5
D
102
{ACAD_REACTORS
330
C
102
}
330
C
100
AcDbDictionary
281
     1
  0
DICTIONARY
  5
1A
102
{ACAD_REACTORS
330
C
102
}
330
C
100
AcDbDictionary
281
     1
  3
Layout1
350
1E
  3
Layout2
350
26
  3
Model
350
22
  0
DICTIONARY
  5
3B
102
{ACAD_REACTORS
330
C
102
}
330
C
100
AcDbDictionary
281
     1
  3
ByBlock
350
3D
  3
ByLayer
350
3C
  3
Global
350
3E
  0
DICTIONARY
  5
C1
102
{ACAD_REACTORS
330
C
102
}
330
C
100
AcDbDictionary
281
     1
  0
DICTIONARY
  5
17
102
{ACAD_REACTORS
330
C
102
}
330
C
100
AcDbDictionary
281
     1
  3
Standard
350
18
  0
DICTIONARY
  5
19
102
{ACAD_REACTORS
330
C
102
}
330
C
100
AcDbDictionary
281
     1
  0
ACDBDICTIONARYWDFLT
  5
E
102
{ACAD_REACTORS
330
C
102
}
330
C
100
AcDbDictionary
281
     1
  3
Normal
350
F
100
AcDbDictionaryWithDefault
340
F
  0
DICTIONARY
  5
C0
102
{ACAD_REACTORS
330
C
102
}
330
C
100
AcDbDictionary
281
     1
  0
DICTIONARY
  5
2A
102
{ACAD_REACTORS
330
C
102
}
330
C
100
AcDbDictionary
281
     1
  3
2dWireframe
350
2F
  3
3D Hidden
350
31
  3
3dWireframe
350
30
  3
Basic
350
32
  3
Brighten
350
36
  3
ColorChange
350
3A
  3
Conceptual
350
34
  3
Dim
350
35
  3
Facepattern
350
39
  3
Flat
350
2B
  3
FlatWithEdges
350
2C
  3
Gouraud
350
2D
  3
GouraudWithEdges
350
2E
  3
Linepattern
350
38
  3
Realistic
350
33
  3
Thicken
350
37
  0
LAYOUT
  5
1E
102
{ACAD_REACTORS
330
1A
102
}
330
1A
100
AcDbPlotSettings
  1

  2
none_device
  4

  6

 40
0.0
 41
0.0
 42
0.0
 43
0.0
 44
0.0
 45
0.0
 46
0.0
 47
0.0
 48
0.0
 49
0.0
140
0.0
141
0.0
142
1.0
143
1.0
 70
   688
 72
     0
 73
     0
 74
     5
  7

 75
    16
 76
     0
 77
     2
 78
   300
147
1.0
148
0.0
149
0.0
100
AcDbLayout
  1
Layout1
 70
     1
 71
     1
 10
0.0
 20
0.0
 11
12.0
 21
9.0
 12
0.0
 22
0.0
 32
0.0
 14
1.000000000000000E+20
 24
1.000000000000000E+20
 34
1.000000000000000E+20
 15
-1.000000000000000E+20
 25
-1.000000000000000E+20
 35
-1.000000000000000E+20
146
0.0
 13
0.0
 23
0.0
 33
0.0
 16
1.0
 26
0.0
 36
0.0
 17
0.0
 27
1.0
 37
0.0
 76
     0
330
1B
  0
LAYOUT
  5
26
102
{ACAD_REACTORS
330
1A
102
}
330
1A
100
AcDbPlotSettings
  1

  2
none_device
  4

  6

 40
0.0
 41
0.0
 42
0.0
 43
0.0
 44
0.0
 45
0.0
 46
0.0
 47
0.0
 48
0.0
 49
0.0
140
0.0
141
0.0
142
1.0
143
1.0
 70
   688
 72
     0
 73
     0
 74
     5
  7

 75
    16
 76
     0
 77
     2
 78
   300
147
1.0
148
0.0
149
0.0
100
AcDbLayout
  1
Layout2
 70
     1
 71
     2
 10
0.0
 20
0.0
 11
0.0
 21
0.0
 12
0.0
 22
0.0
 32
0.0
 14
0.0
 24
0.0
 34
0.0
 15
0.0
 25
0.0
 35
0.0
146
0.0
 13
0.0
 23
0.0
 33
0.0
 16
1.0
 26
0.0
 36
0.0
 17
0.0
 27
1.0
 37
0.0
 76
     0
330
23
  0
LAYOUT
  5
22
102
{ACAD_REACTORS
330
1A
102
}
330
1A
100
AcDbPlotSettings
  1

  2
none_device
  4

  6

 40
0.0
 41
0.0
 42
0.0
 43
0.0
 44
0.0
 45
0.0
 46
0.0
 47
0.0
 48
0.0
 49
0.0
140
0.0
141
0.0
142
1.0
143
1.0
 70
  1712
 72
     0
 73
     0
 74
     0
  7

 75
     0
 76
     0
 77
     2
 78
   300
147
1.0
148
0.0
149
0.0
100
AcDbLayout
  1
Model
 70
     1
 71
     0
 10
0.0
 20
0.0
 11
12.0
 21
9.0
 12
0.0
 22
0.0
 32
0.0
 14
1.000000000000000E+20
 24
1.000000000000000E+20
 34
1.000000000000000E+20
 15
-1.000000000000000E+20
 25
-1.000000000000000E+20
 35
-1.000000000000000E+20
146
0.0
 13
0.0
 23
0.0
 33
0.0
 16
1.0
 26
0.0
 36
0.0
 17
0.0
 27
1.0
 37
0.0
 76
     0
330
1F
331
29
  0
MATERIAL
  5
3D
102
{ACAD_REACTORS
330
3B
102
}
330
3B
100
AcDbMaterial
  1
ByBlock
 72
     1
 94
      127
  0
MATERIAL
  5
3C
102
{ACAD_REACTORS
330
3B
102
}
330
3B
100
AcDbMaterial
  1
ByLayer
 72
     1
 94
      127
  0
MATERIAL
  5
3E
102
{ACAD_REACTORS
330
3B
102
}
330
3B
100
AcDbMaterial
  1
Global
 72
     1
 94
      127
  0
MLINESTYLE
  5
18
102
{ACAD_REACTORS
330
17
102
}
330
17
100
AcDbMlineStyle
  2
Standard
 70
     0
  3

 62
   256
 51
90.0
 52
90.0
 71
     2
 49
0.5
 62
   256
  6
BYLAYER
 49
-0.5
 62
   256
  6
BYLAYER
  0
ACDBPLACEHOLDER
  5
F
102
{ACAD_REACTORS
330
E
102
}
330
E
  0
VISUALSTYLE
  5
2F
102
{ACAD_REACTORS
330
2A
102
}
330
2A
100
AcDbVisualStyle
  2
2dWireframe
 70
     4
177
     2
291
     0
 71
     0
176
     1
 72
     2
176
     1
 73
     0
176
     1
 90
        0
176
     1
 40
-0.6
176
     1
 41
-30.0
176
     1
 62
     5
 63
     7
421
 16777215
176
     1
 74
     1
176
     1
 91
        4
176
     1
 64
     7
176
     1
 65
   257
176
     1
 75
     1
176
     1
175
     1
176
     1
 42
1.0
176
     1
 92
        0
176
     1
 66
   257
176
     1
 43
1.0
176
     1
 76
     1
176
     1
 77
     6
176
     1
 78
     2
176
     1
 67
     7
176
     1
 79
     5
176
     1
170
     0
176
     1
171
     0
176
     1
290
     0
176
     1
 93
        1
176
     1
 44
0.0
176
     1
173
     0
176
     1
  0
VISUALSTYLE
  5
31
102
{ACAD_REACTORS
330
2A
102
}
330
2A
100
AcDbVisualStyle
  2
3D Hidden
 70
     6
177
     2
291
     0
 71
     1
176
     1
 72
     2
176
     1
 73
     2
176
     1
 90
        0
176
     1
 40
-0.6
176
     1
 41
-30.0
176
     1
 62
     5
 63
     7
421
 16777215
176
     1
 74
     2
176
     1
 91
        2
176
     1
 64
     7
176
     1
 65
   257
176
     1
 75
     2
176
     1
175
     1
176
     1
 42
40.0
176
     1
 92
        0
176
     1
 66
   257
176
     1
 43
1.0
176
     1
 76
     1
176
     1
 77
     6
176
     1
 78
     2
176
     1
 67
     7
176
     1
 79
     3
176
     1
170
     0
176
     1
171
     0
176
     1
290
     0
176
     1
 93
        1
176
     1
 44
0.0
176
     1
173
     0
176
     1
  0
VISUALSTYLE
  5
30
102
{ACAD_REACTORS
330
2A
102
}
330
2A
100
AcDbVisualStyle
  2
3dWireframe
 70
     5
177
     2
291
     0
 71
     0
176
     1
 72
     2
176
     1
 73
     0
176
     1
 90
        0
176
     1
 40
-0.6
176
     1
 41
-30.0
176
     1
 62
     5
 63
     7
421
 16777215
176
     1
 74
     1
176
     1
 91
        4
176
     1
 64
     7
176
     1
 65
   257
176
     1
 75
     1
176
     1
175
     1
176
     1
 42
1.0
176
     1
 92
        0
176
     1
 66
   257
176
     1
 43
1.0
176
     1
 76
     1
176
     1
 77
     6
176
     1
 78
     2
176
     1
 67
     7
176
     1
 79
     5
176
     1
170
     0
176
     1
171
     0
176
     1
290
     0
176
     1
 93
        1
176
     1
 44
0.0
176
     1
173
     0
176
     1
  0
VISUALSTYLE
  5
32
102
{ACAD_REACTORS
330
2A
102
}
330
2A
100
AcDbVisualStyle
  2
Basic
 70
     7
177
     2
291
     1
 71
     1
176
     1
 72
     0
176
     1
 73
     1
176
     1
 90
        0
176
     1
 40
-0.6
176
     1
 41
-30.0
176
     1
 62
     5
 63
     7
421
 16777215
176
     1
 74
     0
176
     1
 91
        4
176
     1
 64
     7
176
     1
 65
   257
176
     1
 75
     1
176
     1
175
     1
176
     1
 42
1.0
176
     1
 92
        8
176
     1
 66
     7
176
     1
 43
1.0
176
     1
 76
     1
176
     1
 77
     6
176
     1
 78
     2
176
     1
 67
     7
176
     1
 79
     5
176
     1
170
     0
176
     1
171
     0
176
     1
290
     0
176
     1
 93
        1
176
     1
 44
0.0
176
     1
173
     0
176
     1
  0
VISUALSTYLE
  5
36
102
{ACAD_REACTORS
330
2A
102
}
330
2A
100
AcDbVisualStyle
  2
Brighten
 70
    12
177
     2
291
     1
 71
     2
176
     1
 72
     2
176
     1
 73
     0
176
     1
 90
        0
176
     1
 40
-0.6
176
     1
 41
-30.0
176
     1
 62
     5
 63
     7
421
 16777215
176
     1
 74
     1
176
     1
 91
        4
176
     1
 64
     7
176
     1
 65
   257
176
     1
 75
     1
176
     1
175
     1
176
     1
 42
1.0
176
     1
 92
        8
176
     1
 66
     7
176
     1
 43
1.0
176
     1
 76
     1
176
     1
 77
     6
176
     1
 78
     2
176
     1
 67
     7
176
     1
 79
     5
176
     1
170
     0
176
     1
171
     0
176
     1
290
     0
176
     1
 93
        1
176
     1
 44
50.0
176
     1
173
     0
176
     1
  0
VISUALSTYLE
  5
3A
102
{ACAD_REACTORS
330
2A
102
}
330
2A
100
AcDbVisualStyle
  2
ColorChange
 70
    16
177
     2
291
     1
 71
     2
176
     1
 72
     2
176
     1
 73
     3
176
     1
 90
        0
176
     1
 40
-0.6
176
     1
 41
-30.0
176
     1
 62
     5
 63
     8
421
  8421504
176
     1
 74
     1
176
     1
 91
        4
176
     1
 64
     7
176
     1
 65
   257
176
     1
 75
     1
176
     1
175
     1
176
     1
 42
1.0
176
     1
 92
        8
176
     1
 66
     8
424
  8421504
176
     1
 43
1.0
176
     1
 76
     1
176
     1
 77
     6
176
     1
 78
     2
176
     1
 67
     7
176
     1
 79
     5
176
     1
170
     0
176
     1
171
     0
176
     1
290
     0
176
     1
 93
        1
176
     1
 44
0.0
176
     1
173
     0
176
     1
  0
VISUALSTYLE
  5
34
102
{ACAD_REACTORS
330
2A
102
}
330
2A
100
AcDbVisualStyle
  2
Conceptual
 70
     9
177
     2
291
     0
 71
     3
176
     1
 72
     2
176
     1
 73
     0
176
     1
 90
        0
176
     1
 40
-0.6
176
     1
 41
-30.0
176
     1
 62
     5
 63
     7
421
 16777215
176
     1
 74
     2
176
     1
 91
        2
176
     1
 64
     7
176
     1
 65
   257
176
     1
 75
     1
176
     1
175
     1
176
     1
 42
40.0
176
     1
 92
        8
176
     1
 66
     7
176
     1
 43
1.0
176
     1
 76
     1
176
     1
 77
     6
176
     1
 78
     2
176
     1
 67
     7
176
     1
 79
     3
176
     1
170
     0
176
     1
171
     0
176
     1
290
     0
176
     1
 93
        1
176
     1
 44
0.0
176
     1
173
     0
176
     1
  0
VISUALSTYLE
  5
35
102
{ACAD_REACTORS
330
2A
102
}
330
2A
100
AcDbVisualStyle
  2
Dim
 70
    11
177
     2
291
     1
 71
     2
176
     1
 72
     2
176
     1
 73
     0
176
     1
 90
        0
176
     1
 40
-0.6
176
     1
 41
-30.0
176
     1
 62
     5
 63
     7
421
 16777215
176
     1
 74
     1
176
     1
 91
        4
176
     1
 64
     7
176
     1
 65
   257
176
     1
 75
     1
176
     1
175
     1
176
     1
 42
1.0
176
     1
 92
        8
176
     1
 66
     7
176
     1
 43
1.0
176
     1
 76
     1
176
     1
 77
     6
176
     1
 78
     2
176
     1
 67
     7
176
     1
 79
     5
176
     1
170
     0
176
     1
171
     0
176
     1
290
     0
176
     1
 93
        1
176
     1
 44
-50.0
176
     1
173
     0
176
     1
  0
VISUALSTYLE
  5
39
102
{ACAD_REACTORS
330
2A
102
}
330
2A
100
AcDbVisualStyle
  2
Facepattern
 70
    15
177
     2
291
     1
 71
     2
176
     1
 72
     2
176
     1
 73
     0
176
     1
 90
        0
176
     1
 40
-0.6
176
     1
 41
-30.0
176
     1
 62
     5
 63
     7
421
 16777215
176
     1
 74
     1
176
     1
 91
        4
176
     1
 64
     7
176
     1
 65
   257
176
     1
 75
     1
176
     1
175
     1
176
     1
 42
1.0
176
     1
 92
        8
176
     1
 66
     7
176
     1
 43
1.0
176
     1
 76
     1
176
     1
 77
     6
176
     1
 78
     2
176
     1
 67
     7
176
     1
 79
     5
176
     1
170
     0
176
     1
171
     0
176
     1
290
     0
176
     1
 93
        1
176
     1
 44
0.0
176
     1
173
     0
176
     1
  0
VISUALSTYLE
  5
2B
102
{ACAD_REACTORS
330
2A
102
}
330
2A
100
AcDbVisualStyle
  2
Flat
 70
     0
177
     2
291
     1
 71
     2
176
     1
 72
     1
176
     1
 73
     1
176
     1
 90
        2
176
     1
 40
-0.6
176
     1
 41
30.0
176
     1
 62
     5
 63
     7
421
 16777215
176
     1
 74
     0
176
     1
 91
        4
176
     1
 64
     7
176
     1
 65
   257
176
     1
 75
     1
176
     1
175
     1
176
     1
 42
1.0
176
     1
 92
        8
176
     1
 66
     7
176
     1
 43
1.0
176
     1
 76
     1
176
     1
 77
     6
176
     1
 78
     2
176
     1
 67
     7
176
     1
 79
     5
176
     1
170
     0
176
     1
171
     0
176
     1
290
     0
176
     1
 93
       13
176
     1
 44
0.0
176
     1
173
     0
176
     1
  0
VISUALSTYLE
  5
2C
102
{ACAD_REACTORS
330
2A
102
}
330
2A
100
AcDbVisualStyle
  2
FlatWithEdges
 70
     1
177
     2
291
     1
 71
     2
176
     1
 72
     1
176
     1
 73
     1
176
     1
 90
        2
176
     1
 40
-0.6
176
     1
 41
30.0
176
     1
 62
     5
 63
     7
421
 16777215
176
     1
 74
     1
176
     1
 91
        4
176
     1
 64
     7
176
     1
 65
   257
176
     1
 75
     1
176
     1
175
     1
176
     1
 42
1.0
176
     1
 92
        0
176
     1
 66
   257
176
     1
 43
1.0
176
     1
 76
     1
176
     1
 77
     6
176
     1
 78
     2
176
     1
 67
     7
176
     1
 79
     5
176
     1
170
     0
176
     1
171
     0
176
     1
290
     0
176
     1
 93
       13
176
     1
 44
0.0
176
     1
173
     0
176
     1
  0
VISUALSTYLE
  5
2D
102
{ACAD_REACTORS
330
2A
102
}
330
2A
100
AcDbVisualStyle
  2
Gouraud
 70
     2
177
     2
291
     1
 71
     2
176
     1
 72
     2
176
     1
 73
     1
176
     1
 90
        2
176
     1
 40
-0.6
176
     1
 41
30.0
176
     1
 62
     5
 63
     7
421
 16777215
176
     1
 74
     0
176
     1
 91
        4
176
     1
 64
     7
176
     1
 65
   257
176
     1
 75
     1
176
     1
175
     1
176
     1
 42
1.0
176
     1
 92
        0
176
     1
 66
     7
176
     1
 43
1.0
176
     1
 76
     1
176
     1
 77
     6
176
     1
 78
     2
176
     1
 67
     7
176
     1
 79
     5
176
     1
170
     0
176
     1
171
     0
176
     1
290
     0
176
     1
 93
       13
176
     1
 44
0.0
176
     1
173
     0
176
     1
  0
VISUALSTYLE
  5
2E
102
{ACAD_REACTORS
330
2A
102
}
330
2A
100
AcDbVisualStyle
  2
GouraudWithEdges
 70
     3
177
     2
291
     1
 71
     2
176
     1
 72
     2
176
     1
 73
     1
176
     1
 90
        2
176
     1
 40
-0.6
176
     1
 41
30.0
176
     1
 62
     5
 63
     7
421
 16777215
176
     1
 74
     1
176
     1
 91
        4
176
     1
 64
     7
176
     1
 65
   257
176
     1
 75
     1
176
     1
175
     1
176
     1
 42
1.0
176
     1
 92
        0
176
     1
 66
   257
176
     1
 43
1.0
176
     1
 76
     1
176
     1
 77
     6
176
     1
 78
     2
176
     1
 67
     7
176
     1
 79
     5
176
     1
170
     0
176
     1
171
     0
176
     1
290
     0
176
     1
 93
       13
176
     1
 44
0.0
176
     1
173
     0
176
     1
  0
VISUALSTYLE
  5
38
102
{ACAD_REACTORS
330
2A
102
}
330
2A
100
AcDbVisualStyle
  2
Linepattern
 70
    14
177
     2
291
     1
 71
     2
176
     1
 72
     2
176
     1
 73
     0
176
     1
 90
        0
176
     1
 40
-0.6
176
     1
 41
-30.0
176
     1
 62
     5
 63
     7
421
 16777215
176
     1
 74
     1
176
     1
 91
        4
176
     1
 64
     7
176
     1
 65
   257
176
     1
 75
     7
176
     1
175
     7
176
     1
 42
1.0
176
     1
 92
        8
176
     1
 66
     7
176
     1
 43
1.0
176
     1
 76
     1
176
     1
 77
     6
176
     1
 78
     2
176
     1
 67
     7
176
     1
 79
     5
176
     1
170
     0
176
     1
171
     0
176
     1
290
     0
176
     1
 93
        1
176
     1
 44
0.0
176
     1
173
     0
176
     1
  0
VISUALSTYLE
  5
33
102
{ACAD_REACTORS
330
2A
102
}
330
2A
100
AcDbVisualStyle
  2
Realistic
 70
     8
177
     2
291
     0
 71
     2
176
     1
 72
     2
176
     1
 73
     0
176
     1
 90
        0
176
     1
 40
-0.6
176
     1
 41
-30.0
176
     1
 62
     5
 63
     7
421
 16777215
176
     1
 74
     1
176
     1
 91
        0
176
     1
 64
     7
176
     1
 65
   257
176
     1
 75
     1
176
     1
175
     1
176
     1
 42
1.0
176
     1
 92
        8
176
     1
 66
     8
424
  7895160
176
     1
 43
1.0
176
     1
 76
     1
176
     1
 77
     6
176
     1
 78
     2
176
     1
 67
     7
176
     1
 79
     5
176
     1
170
     0
176
     1
171
     0
176
     1
290
     0
176
     1
 93
       13
176
     1
 44
0.0
176
     1
173
     0
176
     1
  0
VISUALSTYLE
  5
37
102
{ACAD_REACTORS
330
2A
102
}
330
2A
100
AcDbVisualStyle
  2
Thicken
 70
    13
177
     2
291
     1
 71
     2
176
     1
 72
     2
176
     1
 73
     0
176
     1
 90
        0
176
     1
 40
-0.6
176
     1
 41
-30.0
176
     1
 62
     5
 63
     7
421
 16777215
176
     1
 74
     1
176
     1
 91
        4
176
     1
 64
     7
176
     1
 65
   257
176
     1
 75
     1
176
     1
175
     1
176
     1
 42
1.0
176
     1
 92
       12
176
     1
 66
     7
176
     1
 43
1.0
176
     1
 76
     1
176
     1
 77
     6
176
     1
 78
     2
176
     1
 67
     7
176
     1
 79
     5
176
     1
170
     0
176
     1
171
     0
176
     1
290
     0
176
     1
 93
        1
176
     1
 44
0.0
176
     1
173
     0
176
     1
  0
ENDSEC
  0
EOF
