  0
SECTION
  2
HEADER
  9
$ACADVER
  1
AC1024
  9
$ACADMAINTVER
 70
     6
  9
$DWGCODEPAGE
  3
UNDEFINED
  9
$INSBASE
 10
0.0
 20
0.0
 30
0.0
  9
$EXTMIN
 10
1.000000000000000E+20
 20
1.000000000000000E+20
 30
1.000000000000000E+20
  9
$EXTMAX
 10
-1.000000000000000E+20
 20
-1.000000000000000E+20
 30
-1.000000000000000E+20
  9
$LIMMIN
 10
0.0
 20
0.0
  9
$LIMMAX
 10
12.0
 20
9.0
  9
$ORTHOMODE
 70
     0
  9
$REGENMODE
 70
     1
  9
$FILLMODE
 70
     1
  9
$QTEXTMODE
 70
     0
  9
$MIRRTEXT
 70
     1
  9
$LTSCALE
 40
1.0
  9
$ATTMODE
 70
     1
  9
$TEXTSIZE
 40
0.2
  9
$TRACEWID
 40
0.05
  9
$TEXTSTYLE
  7
Standard
  9
$CLAYER
  8
0
  9
$CELTYPE
  6
ByLayer
  9
$CECOLOR
 62
   256
  9
$CELTSCALE
 40
1.0
  9
$DISPSILH
 70
     0
  9
$DIMSCALE
 40
1.0
  9
$DIMASZ
 40
0.18
  9
$DIMEXO
 40
0.0625
  9
$DIMDLI
 40
0.38
  9
$DIMRND
 40
0.0
  9
$DIMDLE
 40
0.0
  9
$DIMEXE
 40
0.18
  9
$DIMTP
 40
0.0
  9
$DIMTM
 40
0.0
  9
$DIMTXT
 40
0.18
  9
$DIMCEN
 40
0.09
  9
$DIMTSZ
 40
0.0
  9
$DIMTOL
 70
     0
  9
$DIMLIM
 70
     0
  9
$DIMTIH
 70
     1
  9
$DIMTOH
 70
     1
  9
$DIMSE1
 70
     0
  9
$DIMSE2
 70
     0
  9
$DIMTAD
 70
     0
  9
$DIMZIN
 70
     0
  9
$DIMBLK
  1

  9
$DIMASO
 70
     1
  9
$DIMSHO
 70
     1
  9
$DIMPOST
  1

  9
$DIMAPOST
  1

  9
$DIMALT
 70
     0
  9
$DIMALTD
 70
     2
  9
$DIMALTF
 40
25.4
  9
$DIMLFAC
 40
1.0
  9
$DIMTOFL
 70
     0
  9
$DIMTVP
 40
0.0
  9
$DIMTIX
 70
     0
  9
$DIMSOXD
 70
     0
  9
$DIMSAH
 70
     0
  9
$DIMBLK1
  1

  9
$DIMBLK2
  1

  9
$DIMSTYLE
  2
Standard
  9
$DIMCLRD
 70
     0
  9
$DIMCLRE
 70
     0
  9
$DIMCLRT
 70
     0
  9
$DIMTFAC
 40
1.0
  9
$DIMGAP
 40
0.09
  9
$DIMJUST
 70
     0
  9
$DIMSD1
 70
     0
  9
$DIMSD2
 70
     0
  9
$DIMTOLJ
 70
     1
  9
$DIMTZIN
 70
     0
  9
$DIMALTZ
 70
     0
  9
$DIMALTTZ
 70
     0
  9
$DIMUPT
 70
     0
  9
$DIMDEC
 70
     4
  9
$DIMTDEC
 70
     4
  9
$DIMALTU
 70
     2
  9
$DIMALTTD
 70
     2
  9
$DIMTXSTY
  7
Standard
  9
$DIMAUNIT
 70
     0
  9
$DIMADEC
 70
     0
  9
$DIMALTRND
 40
0.0
  9
$DIMAZIN
 70
     0
  9
$DIMDSEP
 70
    46
  9
$DIMATFIT
 70
     3
  9
$DIMFRAC
 70
     0
  9
$DIMLDRBLK
  1

  9
$DIMLUNIT
 70
     2
  9
$DIMLWD
 70
    -2
  9
$DIMLWE
 70
    -2
  9
$DIMTMOVE
 70
     0
  9
$DIMFXL
 40
1.0
  9
$DIMFXLON
 70
     0
  9
$DIMJOGANG
 40
0.7853981633974483
  9
$DIMTFILL
 70
     0
  9
$DIMTFILLCLR
 70
     0
  9
$DIMARCSYM
 70
     0
  9
$DIMLTYPE
  6

  9
$DIMLTEX1
  6

  9
$DIMLTEX2
  6

  9
$DIMTXTDIRECTION
 70
     0
  9
$LUNITS
 70
     2
  9
$LUPREC
 70
     4
  9
$SKETCHINC
 40
0.1
  9
$FILLETRAD
 40
0.5
  9
$AUNITS
 70
     0
  9
$AUPREC
 70
     0
  9
$MENU
  1
.
  9
$ELEVATION
 40
0.0
  9
$PELEVATION
 40
0.0
  9
$THICKNESS
 40
0.0
  9
$LIMCHECK
 70
     0
  9
$CHAMFERA
 40
0.5
  9
$CHAMFERB
 40
0.5
  9
$CHAMFERC
 40
1.0
  9
$CHAMFERD
 40
0.0
  9
$SKPOLY
 70
     0
  9
$TDCREATE
 40
2458263.582615729
  9
$TDUCREATE
 40
2458263.207615741
  9
$TDUPDATE
 40
2458263.582615729
  9
$TDUUPDATE
 40
2458263.207615741
  9
$TDINDWG
 40
0.0000000116
  9
$TDUSRTIMER
 40
0.0000000116
  9
$USRTIMER
 70
     1
  9
$ANGBASE
 50
0.0
  9
$ANGDIR
 70
     0
  9
$PDMODE
 70
     0
  9
$PDSIZE
 40
0.0
  9
$PLINEWID
 40
0.0
  9
$SPLFRAME
 70
     0
  9
$SPLINETYPE
 70
     6
  9
$SPLINESEGS
 70
     8
  9
$HANDSEED
  5
A8
  9
$SURFTAB1
 70
     6
  9
$SURFTAB2
 70
     6
  9
$SURFTYPE
 70
     6
  9
$SURFU
 70
     6
  9
$SURFV
 70
     6
  9
$UCSBASE
  2

  9
$UCSNAME
  2

  9
$UCSORG
 10
0.0
 20
0.0
 30
0.0
  9
$UCSXDIR
 10
1.0
 20
0.0
 30
0.0
  9
$UCSYDIR
 10
0.0
 20
1.0
 30
0.0
  9
$UCSORTHOREF
  2

  9
$UCSORTHOVIEW
 70
     0
  9
$UCSORGTOP
 10
0.0
 20
0.0
 30
0.0
  9
$UCSORGBOTTOM
 10
0.0
 20
0.0
 30
0.0
  9
$UCSORGLEFT
 10
0.0
 20
0.0
 30
0.0
  9
$UCSORGRIGHT
 10
0.0
 20
0.0
 30
0.0
  9
$UCSORGFRONT
 10
0.0
 20
0.0
 30
0.0
  9
$UCSORGBACK
 10
0.0
 20
0.0
 30
0.0
  9
$PUCSBASE
  2

  9
$PUCSNAME
  2

  9
$PUCSORG
 10
0.0
 20
0.0
 30
0.0
  9
$PUCSXDIR
 10
1.0
 20
0.0
 30
0.0
  9
$PUCSYDIR
 10
0.0
 20
1.0
 30
0.0
  9
$PUCSORTHOREF
  2

  9
$PUCSORTHOVIEW
 70
     0
  9
$PUCSORGTOP
 10
0.0
 20
0.0
 30
0.0
  9
$PUCSORGBOTTOM
 10
0.0
 20
0.0
 30
0.0
  9
$PUCSORGLEFT
 10
0.0
 20
0.0
 30
0.0
  9
$PUCSORGRIGHT
 10
0.0
 20
0.0
 30
0.0
  9
$PUCSORGFRONT
 10
0.0
 20
0.0
 30
0.0
  9
$PUCSORGBACK
 10
0.0
 20
0.0
 30
0.0
  9
$USERI1
 70
     0
  9
$USERI2
 70
     0
  9
$USERI3
 70
     0
  9
$USERI4
 70
     0
  9
$USERI5
 70
     0
  9
$USERR1
 40
0.0
  9
$USERR2
 40
0.0
  9
$USERR3
 40
0.0
  9
$USERR4
 40
0.0
  9
$USERR5
 40
0.0
  9
$WORLDVIEW
 70
     1
  9
$SHADEDGE
 70
     3
  9
$SHADEDIF
 70
    70
  9
$TILEMODE
 70
     1
  9
$MAXACTVP
 70
    64
  9
$PINSBASE
 10
0.0
 20
0.0
 30
0.0
  9
$PLIMCHECK
 70
     0
  9
$PEXTMIN
 10
1.000000000000000E+20
 20
1.000000000000000E+20
 30
1.000000000000000E+20
  9
$PEXTMAX
 10
-1.000000000000000E+20
 20
-1.000000000000000E+20
 30
-1.000000000000000E+20
  9
$PLIMMIN
 10
0.0
 20
0.0
  9
$PLIMMAX
 10
12.0
 20
9.0
  9
$UNITMODE
 70
     0
  9
$VISRETAIN
 70
     1
  9
$PLINEGEN
 70
     0
  9
$PSLTSCALE
 70
     1
  9
$TREEDEPTH
 70
  3020
  9
$CMLSTYLE
  2
Standard
  9
$CMLJUST
 70
     0
  9
$CMLSCALE
 40
1.0
  9
$PROXYGRAPHICS
 70
     1
  9
$MEASUREMENT
 70
     0
  9
$CELWEIGHT
370
    -1
  9
$ENDCAPS
280
     0
  9
$JOINSTYLE
280
     0
  9
$LWDISPLAY
290
     1
  9
$INSUNITS
 70
     1
  9
$HYPERLINKBASE
  1

  9
$STYLESHEET
  1

  9
$XEDIT
290
     1
  9
$CEPSNTYPE
380
     0
  9
$PSTYLEMODE
290
     1
  9
$FINGERPRINTGUID
  2
{9DD0F1A8-1575-B071-8138-F84F8BDA748F}
  9
$VERSIONGUID
  2
{FAEB1C32-E019-11D5-929B-00C0DF256EC4}
  9
$EXTNAMES
290
     1
  9
$PSVPSCALE
 40
0.0
  9
$OLESTARTUP
290
     0
  9
$SORTENTS
280
   127
  9
$INDEXCTL
280
     0
  9
$HIDETEXT
280
     1
  9
$XCLIPFRAME
280
     2
  9
$HALOGAP
280
     0
  9
$OBSCOLOR
 70
   257
  9
$OBSLTYPE
280
     0
  9
$INTERSECTIONDISPLAY
280
     0
  9
$INTERSECTIONCOLOR
 70
   257
  9
$DIMASSOC
280
     2
  9
$PROJECTNAME
  1

  9
$CAMERADISPLAY
290
     0
  9
$LENSLENGTH
 40
50.0
  9
$CAMERAHEIGHT
 40
0.0
  9
$STEPSPERSEC
 40
2.0
  9
$STEPSIZE
 40
6.0
  9
$3DDWFPREC
 40
2.0
  9
$PSOLWIDTH
 40
0.25
  9
$PSOLHEIGHT
 40
4.0
  9
$LOFTANG1
 40
1.570796326794897
  9
$LOFTANG2
 40
1.570796326794897
  9
$LOFTMAG1
 40
0.0
  9
$LOFTMAG2
 40
0.0
  9
$LOFTPARAM
 70
     7
  9
$LOFTNORMALS
280
     1
  9
$LATITUDE
 40
37.795
  9
$LONGITUDE
 40
-122.394
  9
$NORTHDIRECTION
 40
0.0
  9
$TIMEZONE
 70
 -8000
  9
$LIGHTGLYPHDISPLAY
280
     1
  9
$TILEMODELIGHTSYNCH
280
     1
  9
$CMATERIAL
347
3C
  9
$SOLIDHIST
280
     1
  9
$SHOWHIST
280
     1
  9
$DWFFRAME
280
     2
  9
$DGNFRAME
280
     2
  9
$REALWORLDSCALE
290
     1
  9
$INTERFERECOLOR
 62
   256
  9
$CSHADOW
280
     0
  9
$SHADOWPLANELOCATION
 40
0.0
  0
ENDSEC
  0
SECTION
  2
CLASSES
  0
CLASS
  1
ACDBDICTIONARYWDFLT
  2
AcDbDictionaryWithDefault
  3
ObjectDBX Classes
 90
        0
 91
        4
280
     0
281
     0
  0
CLASS
  1
VISUALSTYLE
  2
AcDbVisualStyle
  3
ObjectDBX Classes
 90
     4095
 91
        4
280
     0
281
     0
  0
CLASS
  1
MATERIAL
  2
AcDbMaterial
  3
ObjectDBX Classes
 90
     1153
 91
        4
280
     0
281
     0
  0
CLASS
  1
SUN
  2
AcDbSun
  3
SCENEOE
 90
     1024
 91
        4
280
     0
281
     0
  0
ENDSEC
  0
SECTION
  2
TABLES
  0
TABLE
  2
VPORT
  5
8
330
0
100
AcDbSymbolTable
 70
     1
  0
VPORT
  5
29
330
8
100
AcDbSymbolTableRecord
100
AcDbViewportTableRecord
  2
*Active
 70
     0
 10
0.0
 20
0.0
 11
1.0
 21
1.0
 12
0.0
 22
0.0
 13
0.0
 23
0.0
 14
0.5
 24
0.5
 15
0.5
 25
0.5
 16
0.0
 26
0.0
 36
1.0
 17
105.0007777515277
 27
-148.5000416295416
 37
0.0
 40
297.0000832590831
 41
0.7070757462376333
 42
50.0
 43
0.0
 44
0.0
 50
0.0
 51
0.0
 71
     0
 72
   100
 73
     1
 74
     3
 75
     0
 76
     0
 77
     0
 78
     0
281
     0
 65
     1
110
0.0
120
0.0
130
0.0
111
1.0
121
0.0
131
0.0
112
0.0
122
1.0
132
0.0
 79
     0
146
0.0
 60
     3
 61
     5
292
     1
282
     1
141
0.0
142
0.0
 63
   250
361
3F
  0
ENDTAB
  0
TABLE
  2
LTYPE
  5
5
330
0
100
AcDbSymbolTable
 70
     1
  0
LTYPE
  5
14
330
5
100
AcDbSymbolTableRecord
100
AcDbLinetypeTableRecord
  2
ByBlock
 70
     0
  3

 72
    65
 73
     0
 40
0.0
  0
LTYPE
  5
15
330
5
100
AcDbSymbolTableRecord
100
AcDbLinetypeTableRecord
  2
ByLayer
 70
     0
  3

 72
    65
 73
     0
 40
0.0
  0
LTYPE
  5
16
330
5
100
AcDbSymbolTableRecord
100
AcDbLinetypeTableRecord
  2
Continuous
 70
     0
  3
Solid line
 72
    65
 73
     0
 40
0.0
  0
ENDTAB
  0
TABLE
  2
LAYER
  5
2
330
0
100
AcDbSymbolTable
 70
     2
  0
LAYER
  5
10
330
2
100
AcDbSymbolTableRecord
100
AcDbLayerTableRecord
  2
0
 70
     0
 62
     7
  6
Continuous
370
    -3
390
F
347
3E
  0
LAYER
  5
40
330
2
100
AcDbSymbolTableRecord
100
AcDbLayerTableRecord
  2
_U+30EC_U+30A4_U+30E4_U+30FC 1
 70
     0
 62
     7
  6
Continuous
370
    -3
390
F
347
3E
  0
ENDTAB
  0
TABLE
  2
STYLE
  5
3
330
0
100
AcDbSymbolTable
 70
     1
  0
STYLE
  5
11
330
3
100
AcDbSymbolTableRecord
100
AcDbTextStyleTableRecord
  2
Standard
 70
     0
 40
0.0
 41
1.0
 50
0.0
 71
     0
 42
0.2
  3
txt
  4

  0
ENDTAB
  0
TABLE
  2
VIEW
  5
6
330
0
100
AcDbSymbolTable
 70
     0
  0
ENDTAB
  0
TABLE
  2
UCS
  5
7
330
0
100
AcDbSymbolTable
 70
     0
  0
ENDTAB
  0
TABLE
  2
APPID
  5
9
330
0
100
AcDbSymbolTable
 70
     1
  0
APPID
  5
12
330
9
100
AcDbSymbolTableRecord
100
AcDbRegAppTableRecord
  2
ACAD
 70
     0
  0
ENDTAB
  0
TABLE
  2
DIMSTYLE
  5
A
330
0
100
AcDbSymbolTable
 70
     1
100
AcDbDimStyleTable
  0
DIMSTYLE
105
27
330
A
100
AcDbSymbolTableRecord
100
AcDbDimStyleTableRecord
  2
Standard
 70
     0
178
     0
340
11
  0
ENDTAB
  0
TABLE
  2
BLOCK_RECORD
  5
1
330
0
100
AcDbSymbolTable
 70
     8
  0
BLOCK_RECORD
  5
1F
330
1
100
AcDbSymbolTableRecord
100
AcDbBlockTableRecord
  2
*Model_Space
340
22
 70
     0
280
     1
281
     0
  0
BLOCK_RECORD
  5
1B
330
1
100
AcDbSymbolTableRecord
100
AcDbBlockTableRecord
  2
*Paper_Space
340
1E
 70
     0
280
     1
281
     0
  0
BLOCK_RECORD
  5
23
330
1
100
AcDbSymbolTableRecord
100
AcDbBlockTableRecord
  2
*Paper_Space0
340
26
 70
     0
280
     1
281
     0
  0
BLOCK_RECORD
  5
58
330
1
100
AcDbSymbolTableRecord
100
AcDbBlockTableRecord
  2
block 2
340
0
102
{BLKREFS
331
59
102
}
 70
     0
280
     1
281
     0
  0
BLOCK_RECORD
  5
5F
330
1
100
AcDbSymbolTableRecord
100
AcDbBlockTableRecord
  2
block 3
340
0
102
{BLKREFS
331
60
102
}
 70
     0
280
     1
281
     0
  0
BLOCK_RECORD
  5
73
330
1
100
AcDbSymbolTableRecord
100
AcDbBlockTableRecord
  2
block 4
340
0
102
{BLKREFS
331
74
102
}
 70
     0
280
     1
281
     0
  0
BLOCK_RECORD
  5
89
330
1
100
AcDbSymbolTableRecord
100
AcDbBlockTableRecord
  2
block 5
340
0
102
{BLKREFS
331
8A
102
}
 70
     0
280
     1
281
     0
  0
BLOCK_RECORD
  5
91
330
1
100
AcDbSymbolTableRecord
100
AcDbBlockTableRecord
  2
block 6
340
0
102
{BLKREFS
331
92
102
}
 70
     0
280
     1
281
     0
  0
BLOCK_RECORD
  5
99
330
1
100
AcDbSymbolTableRecord
100
AcDbBlockTableRecord
  2
block 7
340
0
102
{BLKREFS
331
9A
102
}
 70
     0
280
     1
281
     0
  0
BLOCK_RECORD
  5
9F
330
1
100
AcDbSymbolTableRecord
100
AcDbBlockTableRecord
  2
block 8
340
0
102
{BLKREFS
331
A0
102
}
 70
     0
280
     1
281
     0
  0
ENDTAB
  0
ENDSEC
  0
SECTION
  2
BLOCKS
  0
BLOCK
  5
20
330
1F
100
AcDbEntity
  8
0
100
AcDbBlockBegin
  2
*Model_Space
 70
     0
 10
0.0
 20
0.0
 30
0.0
  3
*Model_Space
  1

  0
ENDBLK
  5
21
330
1F
100
AcDbEntity
  8
0
100
AcDbBlockEnd
  0
BLOCK
  5
1C
330
1B
100
AcDbEntity
 67
     1
  8
0
100
AcDbBlockBegin
  2
*Paper_Space
 70
     0
 10
0.0
 20
0.0
 30
0.0
  3
*Paper_Space
  1

  0
ENDBLK
  5
1D
330
1B
100
AcDbEntity
 67
     1
  8
0
100
AcDbBlockEnd
  0
BLOCK
  5
24
330
23
100
AcDbEntity
  8
0
100
AcDbBlockBegin
  2
*Paper_Space0
 70
     0
 10
0.0
 20
0.0
 30
0.0
  3
*Paper_Space0
  1

  0
ENDBLK
  5
25
330
23
100
AcDbEntity
  8
0
100
AcDbBlockEnd
  0
BLOCK
  5
5A
330
58
100
AcDbEntity
  8
0
100
AcDbBlockBegin
  2
block 2
 70
     0
 10
0.0
 20
0.0
 30
0.0
  3
block 2
  1

  0
SPLINE
  5
5C
330
58
100
AcDbEntity
  8
_U+30EC_U+30A4_U+30E4_U+30FC 1
370
     0
100
AcDbSpline
210
0.0
220
0.0
230
1.0
 70
    11
 71
     3
 72
    32
 73
    28
 74
     0
 42
0.0000000001
 43
0.0000000001
 12
1.0
 22
0.0
 32
0.0
 13
1.0
 23
0.0
 33
0.0
 40
0.0
 40
0.0
 40
0.0
 40
0.0
 40
1.0
 40
1.0
 40
1.0
 40
2.0
 40
2.0
 40
2.0
 40
3.0
 40
3.0
 40
3.0
 40
4.0
 40
4.0
 40
4.0
 40
5.0
 40
5.0
 40
5.0
 40
6.0
 40
6.0
 40
6.0
 40
7.0
 40
7.0
 40
7.0
 40
8.0
 40
8.0
 40
8.0
 40
9.0
 40
9.0
 40
9.0
 40
9.0
 10
122.0507757941401
 20
-152.6935220972433
 30
0.0
 10
122.0507757941401
 20
-152.8671549096999
 30
0.0
 10
121.981184865338
 20
-153.1124457082497
 30
0.0
 10
121.64907766056
 20
-153.1503417585874
 30
0.0
 10
121.64907766056
 20
-153.1503417585874
 30
0.0
 10
121.64907766056
 20
-152.9367458385019
 30
0.0
 10
121.64907766056
 20
-152.9367458385019
 30
0.0
 10
121.7083333029063
 20
-152.9264105520462
 30
0.0
 10
121.8561278992235
 20
-152.8947156735819
 30
0.0
 10
121.8561278992235
 20
-152.6914550399521
 30
0.0
 10
121.8561278992235
 20
-152.399310942803
 30
0.0
 10
121.5264322612851
 20
-152.3614148924652
 30
0.0
 10
121.3211045703642
 20
-152.3490125487183
 30
0.0
 10
121.4013752951705
 20
-152.4399630695289
 30
0.0
 10
121.4585638802256
 20
-152.5074869410398
 30
0.0
 10
121.4585638802256
 20
-152.689387982661
 30
0.0
 10
121.4585638802256
 20
-152.869221966991
 30
0.0
 10
121.3527994488285
 20
-153.171701350596
 30
0.0
 10
120.9466226911175
 20
-153.171701350596
 30
0.0
 10
120.6272623396349
 20
-153.171701350596
 30
0.0
 10
120.4071207381274
 20
-152.9729193410971
 30
0.0
 10
120.4071207381274
 20
-152.6556260469056
 30
0.0
 10
120.4071207381274
 20
-152.1416178005063
 30
0.0
 10
120.9614366017041
 20
-152.130938004502
 30
0.0
 10
121.1750325217896
 20
-152.130938004502
 30
0.0
 10
121.4055094097528
 20
-152.130938004502
 30
0.0
 10
122.0507757941401
 20
-152.1498860296709
 30
0.0
 10
122.0507757941401
 20
-152.6935220972433
 30
0.0
  0
SPLINE
  5
5D
330
58
100
AcDbEntity
  8
_U+30EC_U+30A4_U+30E4_U+30FC 1
370
     0
100
AcDbSpline
210
0.0
220
0.0
230
1.0
 70
    11
 71
     3
 72
    17
 73
    13
 74
     0
 42
0.0000000001
 43
0.0000000001
 12
1.0
 22
0.0
 32
0.0
 13
1.0
 23
0.0
 33
0.0
 40
0.0
 40
0.0
 40
0.0
 40
0.0
 40
1.0
 40
1.0
 40
1.0
 40
2.0
 40
2.0
 40
2.0
 40
3.0
 40
3.0
 40
3.0
 40
4.0
 40
4.0
 40
4.0
 40
4.0
 10
120.5997015757529
 20
-152.6535589896144
 30
0.0
 10
120.5997015757529
 20
-152.772070274307
 30
0.0
 10
120.656890160808
 20
-152.9474256345062
 30
0.0
 10
120.9424885765352
 20
-152.9474256345062
 30
0.0
 10
121.1688313499161
 20
-152.9474256345062
 30
0.0
 10
121.263915985309
 20
-152.8078992673536
 30
0.0
 10
121.263915985309
 20
-152.6725070147833
 30
0.0
 10
121.263915985309
 20
-152.4103352483558
 30
0.0
 10
121.0544541798058
 20
-152.3720946884695
 30
0.0
 10
120.9380099524044
 20
-152.3720946884695
 30
0.0
 10
120.7626545922052
 20
-152.3720946884695
 30
0.0
 10
120.5997015757529
 20
-152.4671793238624
 30
0.0
 10
120.5997015757529
 20
-152.6535589896144
 30
0.0
  0
HATCH
  5
5E
330
58
100
AcDbEntity
  8
_U+30EC_U+30A4_U+30E4_U+30FC 1
 62
   179
420
  2234388
100
AcDbHatch
 10
0.0
 20
0.0
 30
0.0
210
0.0
220
0.0
230
1.0
  2
SOLID
 70
     1
 71
     0
 91
        2
 92
        1
 93
        1
 72
     4
 94
        3
 73
     0
 74
     1
 95
       32
 96
       28
 40
0.0
 40
0.0
 40
0.0
 40
0.0
 40
1.0
 40
1.0
 40
1.0
 40
2.0
 40
2.0
 40
2.0
 40
3.0
 40
3.0
 40
3.0
 40
4.0
 40
4.0
 40
4.0
 40
5.0
 40
5.0
 40
5.0
 40
6.0
 40
6.0
 40
6.0
 40
7.0
 40
7.0
 40
7.0
 40
8.0
 40
8.0
 40
8.0
 40
9.0
 40
9.0
 40
9.0
 40
9.0
 10
122.0507757941401
 20
-152.6935220972433
 10
122.0507757941401
 20
-152.8671549096999
 10
121.981184865338
 20
-153.1124457082497
 10
121.64907766056
 20
-153.1503417585874
 10
121.64907766056
 20
-153.1503417585874
 10
121.64907766056
 20
-152.9367458385019
 10
121.64907766056
 20
-152.9367458385019
 10
121.7083333029063
 20
-152.9264105520462
 10
121.8561278992235
 20
-152.8947156735819
 10
121.8561278992235
 20
-152.6914550399521
 10
121.8561278992235
 20
-152.399310942803
 10
121.5264322612851
 20
-152.3614148924652
 10
121.3211045703642
 20
-152.3490125487183
 10
121.4013752951705
 20
-152.4399630695289
 10
121.4585638802256
 20
-152.5074869410398
 10
121.4585638802256
 20
-152.689387982661
 10
121.4585638802256
 20
-152.869221966991
 10
121.3527994488285
 20
-153.171701350596
 10
120.9466226911175
 20
-153.171701350596
 10
120.6272623396349
 20
-153.171701350596
 10
120.4071207381274
 20
-152.9729193410971
 10
120.4071207381274
 20
-152.6556260469056
 10
120.4071207381274
 20
-152.1416178005063
 10
120.9614366017041
 20
-152.130938004502
 10
121.1750325217896
 20
-152.130938004502
 10
121.4055094097528
 20
-152.130938004502
 10
122.0507757941401
 20
-152.1498860296709
 10
122.0507757941401
 20
-152.6935220972433
 97
        0
 97
        0
 92
        1
 93
        1
 72
     4
 94
        3
 73
     0
 74
     1
 95
       17
 96
       13
 40
0.0
 40
0.0
 40
0.0
 40
0.0
 40
1.0
 40
1.0
 40
1.0
 40
2.0
 40
2.0
 40
2.0
 40
3.0
 40
3.0
 40
3.0
 40
4.0
 40
4.0
 40
4.0
 40
4.0
 10
120.5997015757529
 20
-152.6535589896144
 10
120.5997015757529
 20
-152.772070274307
 10
120.656890160808
 20
-152.9474256345062
 10
120.9424885765352
 20
-152.9474256345062
 10
121.1688313499161
 20
-152.9474256345062
 10
121.263915985309
 20
-152.8078992673536
 10
121.263915985309
 20
-152.6725070147833
 10
121.263915985309
 20
-152.4103352483558
 10
121.0544541798058
 20
-152.3720946884695
 10
120.9380099524044
 20
-152.3720946884695
 10
120.7626545922052
 20
-152.3720946884695
 10
120.5997015757529
 20
-152.4671793238624
 10
120.5997015757529
 20
-152.6535589896144
 97
        0
 97
        0
 75
     2
 76
     1
 98
        0
  0
ENDBLK
  5
5B
330
58
100
AcDbEntity
  8
0
100
AcDbBlockEnd
  0
BLOCK
  5
61
330
5F
100
AcDbEntity
  8
0
100
AcDbBlockBegin
  2
block 3
 70
     0
 10
0.0
 20
0.0
 30
0.0
  3
block 3
  1

  0
SPLINE
  5
63
330
5F
100
AcDbEntity
  8
_U+30EC_U+30A4_U+30E4_U+30FC 1
370
     0
100
AcDbSpline
210
0.0
220
0.0
230
1.0
 70
    11
 71
     3
 72
    26
 73
    22
 74
     0
 42
0.0000000001
 43
0.0000000001
 12
1.0
 22
0.0
 32
0.0
 13
1.0
 23
0.0
 33
0.0
 40
0.0
 40
0.0
 40
0.0
 40
0.0
 40
1.0
 40
1.0
 40
1.0
 40
2.0
 40
2.0
 40
2.0
 40
3.0
 40
3.0
 40
3.0
 40
4.0
 40
4.0
 40
4.0
 40
5.0
 40
5.0
 40
5.0
 40
6.0
 40
6.0
 40
6.0
 40
7.0
 40
7.0
 40
7.0
 40
7.0
 10
121.9997883809584
 20
-146.1910766236085
 30
0.0
 10
121.9997883809584
 20
-146.1910766236085
 30
0.0
 10
120.8956352779358
 20
-146.1910766236085
 30
0.0
 10
120.8956352779358
 20
-146.1910766236085
 30
0.0
 10
120.8956352779358
 20
-146.1910766236085
 30
0.0
 10
120.8956352779358
 20
-146.5211167710954
 30
0.0
 10
120.8956352779358
 20
-146.5211167710954
 30
0.0
 10
120.8956352779358
 20
-146.5211167710954
 30
0.0
 10
120.7474961720701
 20
-146.5211167710954
 30
0.0
 10
120.7474961720701
 20
-146.5211167710954
 30
0.0
 10
120.7326822614835
 20
-146.1890095663173
 30
0.0
 10
120.5697292450312
 20
-146.1425007772665
 30
0.0
 10
120.4553520749209
 20
-146.1128729560933
 30
0.0
 10
120.4553520749209
 20
-146.1128729560933
 30
0.0
 10
120.4553520749209
 20
-145.9668009075187
 30
0.0
 10
120.4553520749209
 20
-145.9668009075187
 30
0.0
 10
120.4553520749209
 20
-145.9668009075187
 30
0.0
 10
121.9997883809584
 20
-145.9668009075187
 30
0.0
 10
121.9997883809584
 20
-145.9668009075187
 30
0.0
 10
121.9997883809584
 20
-145.9668009075187
 30
0.0
 10
121.9997883809584
 20
-146.1910766236085
 30
0.0
 10
121.9997883809584
 20
-146.1910766236085
 30
0.0
  0
HATCH
  5
64
330
5F
100
AcDbEntity
  8
_U+30EC_U+30A4_U+30E4_U+30FC 1
 62
   179
420
  2234388
100
AcDbHatch
 10
0.0
 20
0.0
 30
0.0
210
0.0
220
0.0
230
1.0
  2
SOLID
 70
     1
 71
     0
 91
        1
 92
        1
 93
        1
 72
     4
 94
        3
 73
     0
 74
     1
 95
       26
 96
       22
 40
0.0
 40
0.0
 40
0.0
 40
0.0
 40
1.0
 40
1.0
 40
1.0
 40
2.0
 40
2.0
 40
2.0
 40
3.0
 40
3.0
 40
3.0
 40
4.0
 40
4.0
 40
4.0
 40
5.0
 40
5.0
 40
5.0
 40
6.0
 40
6.0
 40
6.0
 40
7.0
 40
7.0
 40
7.0
 40
7.0
 10
121.9997883809584
 20
-146.1910766236085
 10
121.9997883809584
 20
-146.1910766236085
 10
120.8956352779358
 20
-146.1910766236085
 10
120.8956352779358
 20
-146.1910766236085
 10
120.8956352779358
 20
-146.1910766236085
 10
120.8956352779358
 20
-146.5211167710954
 10
120.8956352779358
 20
-146.5211167710954
 10
120.8956352779358
 20
-146.5211167710954
 10
120.7474961720701
 20
-146.5211167710954
 10
120.7474961720701
 20
-146.5211167710954
 10
120.7326822614835
 20
-146.1890095663173
 10
120.5697292450312
 20
-146.1425007772665
 10
120.4553520749209
 20
-146.1128729560933
 10
120.4553520749209
 20
-146.1128729560933
 10
120.4553520749209
 20
-145.9668009075187
 10
120.4553520749209
 20
-145.9668009075187
 10
120.4553520749209
 20
-145.9668009075187
 10
121.9997883809584
 20
-145.9668009075187
 10
121.9997883809584
 20
-145.9668009075187
 10
121.9997883809584
 20
-145.9668009075187
 10
121.9997883809584
 20
-146.1910766236085
 10
121.9997883809584
 20
-146.1910766236085
 97
        0
 97
        0
 75
     2
 76
     1
 98
        0
  0
ENDBLK
  5
62
330
5F
100
AcDbEntity
  8
0
100
AcDbBlockEnd
  0
BLOCK
  5
75
330
73
100
AcDbEntity
  8
0
100
AcDbBlockBegin
  2
block 4
 70
     0
 10
0.0
 20
0.0
 30
0.0
  3
block 4
  1

  0
SPLINE
  5
77
330
73
100
AcDbEntity
  8
_U+30EC_U+30A4_U+30E4_U+30FC 1
370
     0
100
AcDbSpline
210
0.0
220
0.0
230
1.0
 70
    11
 71
     3
 72
    26
 73
    22
 74
     0
 42
0.0000000001
 43
0.0000000001
 12
1.0
 22
0.0
 32
0.0
 13
1.0
 23
0.0
 33
0.0
 40
0.0
 40
0.0
 40
0.0
 40
0.0
 40
1.0
 40
1.0
 40
1.0
 40
2.0
 40
2.0
 40
2.0
 40
3.0
 40
3.0
 40
3.0
 40
4.0
 40
4.0
 40
4.0
 40
5.0
 40
5.0
 40
5.0
 40
6.0
 40
6.0
 40
6.0
 40
7.0
 40
7.0
 40
7.0
 40
7.0
 10
107.6874836970365
 20
-161.4633571644953
 30
0.0
 10
107.6874836970365
 20
-161.4633571644953
 30
0.0
 10
107.6874836970365
 20
-160.3592040614727
 30
0.0
 10
107.6874836970365
 20
-160.3592040614727
 30
0.0
 10
107.6874836970365
 20
-160.3592040614727
 30
0.0
 10
107.3574435495495
 20
-160.3592040614727
 30
0.0
 10
107.3574435495495
 20
-160.3592040614727
 30
0.0
 10
107.3574435495495
 20
-160.3592040614727
 30
0.0
 10
107.3574435495495
 20
-160.211064955607
 30
0.0
 10
107.3574435495495
 20
-160.211064955607
 30
0.0
 10
107.6895507543276
 20
-160.1962510450204
 30
0.0
 10
107.73571503383
 20
-160.0332980285681
 30
0.0
 10
107.7653428550031
 20
-159.9189208584578
 30
0.0
 10
107.7653428550031
 20
-159.9189208584578
 30
0.0
 10
107.9114149035777
 20
-159.9189208584578
 30
0.0
 10
107.9114149035777
 20
-159.9189208584578
 30
0.0
 10
107.9114149035777
 20
-159.9189208584578
 30
0.0
 10
107.9114149035777
 20
-161.4633571644953
 30
0.0
 10
107.9114149035777
 20
-161.4633571644953
 30
0.0
 10
107.9114149035777
 20
-161.4633571644953
 30
0.0
 10
107.6874836970365
 20
-161.4633571644953
 30
0.0
 10
107.6874836970365
 20
-161.4633571644953
 30
0.0
  0
HATCH
  5
78
330
73
100
AcDbEntity
  8
_U+30EC_U+30A4_U+30E4_U+30FC 1
 62
   179
420
  2234388
100
AcDbHatch
 10
0.0
 20
0.0
 30
0.0
210
0.0
220
0.0
230
1.0
  2
SOLID
 70
     1
 71
     0
 91
        1
 92
        1
 93
        1
 72
     4
 94
        3
 73
     0
 74
     1
 95
       26
 96
       22
 40
0.0
 40
0.0
 40
0.0
 40
0.0
 40
1.0
 40
1.0
 40
1.0
 40
2.0
 40
2.0
 40
2.0
 40
3.0
 40
3.0
 40
3.0
 40
4.0
 40
4.0
 40
4.0
 40
5.0
 40
5.0
 40
5.0
 40
6.0
 40
6.0
 40
6.0
 40
7.0
 40
7.0
 40
7.0
 40
7.0
 10
107.6874836970365
 20
-161.4633571644953
 10
107.6874836970365
 20
-161.4633571644953
 10
107.6874836970365
 20
-160.3592040614727
 10
107.6874836970365
 20
-160.3592040614727
 10
107.6874836970365
 20
-160.3592040614727
 10
107.3574435495495
 20
-160.3592040614727
 10
107.3574435495495
 20
-160.3592040614727
 10
107.3574435495495
 20
-160.3592040614727
 10
107.3574435495495
 20
-160.211064955607
 10
107.3574435495495
 20
-160.211064955607
 10
107.6895507543276
 20
-160.1962510450204
 10
107.73571503383
 20
-160.0332980285681
 10
107.7653428550031
 20
-159.9189208584578
 10
107.7653428550031
 20
-159.9189208584578
 10
107.9114149035777
 20
-159.9189208584578
 10
107.9114149035777
 20
-159.9189208584578
 10
107.9114149035777
 20
-159.9189208584578
 10
107.9114149035777
 20
-161.4633571644953
 10
107.9114149035777
 20
-161.4633571644953
 10
107.9114149035777
 20
-161.4633571644953
 10
107.6874836970365
 20
-161.4633571644953
 10
107.6874836970365
 20
-161.4633571644953
 97
        0
 97
        0
 75
     2
 76
     1
 98
        0
  0
SPLINE
  5
79
330
73
100
AcDbEntity
  8
_U+30EC_U+30A4_U+30E4_U+30FC 1
370
     0
100
AcDbSpline
210
0.0
220
0.0
230
1.0
 70
    11
 71
     3
 72
    26
 73
    22
 74
     0
 42
0.0000000001
 43
0.0000000001
 12
1.0
 22
0.0
 32
0.0
 13
1.0
 23
0.0
 33
0.0
 40
0.0
 40
0.0
 40
0.0
 40
0.0
 40
1.0
 40
1.0
 40
1.0
 40
2.0
 40
2.0
 40
2.0
 40
3.0
 40
3.0
 40
3.0
 40
4.0
 40
4.0
 40
4.0
 40
5.0
 40
5.0
 40
5.0
 40
6.0
 40
6.0
 40
6.0
 40
7.0
 40
7.0
 40
7.0
 40
7.0
 10
108.8236761880719
 20
-161.4633571644953
 30
0.0
 10
108.8236761880719
 20
-161.4633571644953
 30
0.0
 10
108.5869981282352
 20
-161.4633571644953
 30
0.0
 10
108.5869981282352
 20
-161.4633571644953
 30
0.0
 10
108.6121473252775
 20
-161.1543320994684
 30
0.0
 10
108.8050726724515
 20
-160.6361897384868
 30
0.0
 10
109.2109049206139
 20
-160.1304497212521
 30
0.0
 10
109.2109049206139
 20
-160.1304497212521
 30
0.0
 10
108.3730576986012
 20
-160.1304497212521
 30
0.0
 10
108.3730576986012
 20
-160.1304497212521
 30
0.0
 10
108.3730576986012
 20
-160.1304497212521
 30
0.0
 10
108.3730576986012
 20
-159.9189208584578
 30
0.0
 10
108.3730576986012
 20
-159.9189208584578
 30
0.0
 10
108.3730576986012
 20
-159.9189208584578
 30
0.0
 10
109.4479274899991
 20
-159.9189208584578
 30
0.0
 10
109.4479274899991
 20
-159.9189208584578
 30
0.0
 10
109.4479274899991
 20
-159.9189208584578
 30
0.0
 10
109.4479274899991
 20
-160.1304497212521
 30
0.0
 10
109.4479274899991
 20
-160.1304497212521
 30
0.0
 10
109.1240885143856
 20
-160.4205267611102
 30
0.0
 10
108.8577826333758
 20
-161.0127386750246
 30
0.0
 10
108.8236761880719
 20
-161.4633571644953
 30
0.0
  0
HATCH
  5
7A
330
73
100
AcDbEntity
  8
_U+30EC_U+30A4_U+30E4_U+30FC 1
 62
   179
420
  2234388
100
AcDbHatch
 10
0.0
 20
0.0
 30
0.0
210
0.0
220
0.0
230
1.0
  2
SOLID
 70
     1
 71
     0
 91
        1
 92
        1
 93
        1
 72
     4
 94
        3
 73
     0
 74
     1
 95
       26
 96
       22
 40
0.0
 40
0.0
 40
0.0
 40
0.0
 40
1.0
 40
1.0
 40
1.0
 40
2.0
 40
2.0
 40
2.0
 40
3.0
 40
3.0
 40
3.0
 40
4.0
 40
4.0
 40
4.0
 40
5.0
 40
5.0
 40
5.0
 40
6.0
 40
6.0
 40
6.0
 40
7.0
 40
7.0
 40
7.0
 40
7.0
 10
108.8236761880719
 20
-161.4633571644953
 10
108.8236761880719
 20
-161.4633571644953
 10
108.5869981282352
 20
-161.4633571644953
 10
108.5869981282352
 20
-161.4633571644953
 10
108.6121473252775
 20
-161.1543320994684
 10
108.8050726724515
 20
-160.6361897384868
 10
109.2109049206139
 20
-160.1304497212521
 10
109.2109049206139
 20
-160.1304497212521
 10
108.3730576986012
 20
-160.1304497212521
 10
108.3730576986012
 20
-160.1304497212521
 10
108.3730576986012
 20
-160.1304497212521
 10
108.3730576986012
 20
-159.9189208584578
 10
108.3730576986012
 20
-159.9189208584578
 10
108.3730576986012
 20
-159.9189208584578
 10
109.4479274899991
 20
-159.9189208584578
 10
109.4479274899991
 20
-159.9189208584578
 10
109.4479274899991
 20
-159.9189208584578
 10
109.4479274899991
 20
-160.1304497212521
 10
109.4479274899991
 20
-160.1304497212521
 10
109.1240885143856
 20
-160.4205267611102
 10
108.8577826333758
 20
-161.0127386750246
 10
108.8236761880719
 20
-161.4633571644953
 97
        0
 97
        0
 75
     2
 76
     1
 98
        0
  0
ENDBLK
  5
76
330
73
100
AcDbEntity
  8
0
100
AcDbBlockEnd
  0
BLOCK
  5
8B
330
89
100
AcDbEntity
  8
0
100
AcDbBlockBegin
  2
block 5
 70
     0
 10
0.0
 20
0.0
 30
0.0
  3
block 5
  1

  0
SPLINE
  5
8D
330
89
100
AcDbEntity
  8
_U+30EC_U+30A4_U+30E4_U+30FC 1
370
     0
100
AcDbSpline
210
0.0
220
0.0
230
1.0
 70
    11
 71
     3
 72
    29
 73
    25
 74
     0
 42
0.0000000001
 43
0.0000000001
 12
1.0
 22
0.0
 32
0.0
 13
1.0
 23
0.0
 33
0.0
 40
0.0
 40
0.0
 40
0.0
 40
0.0
 40
1.0
 40
1.0
 40
1.0
 40
2.0
 40
2.0
 40
2.0
 40
3.0
 40
3.0
 40
3.0
 40
4.0
 40
4.0
 40
4.0
 40
5.0
 40
5.0
 40
5.0
 40
6.0
 40
6.0
 40
6.0
 40
7.0
 40
7.0
 40
7.0
 40
8.0
 40
8.0
 40
8.0
 40
8.0
 10
108.3895941569304
 20
-136.9919826588944
 30
0.0
 10
108.122943766372
 20
-136.9919826588944
 30
0.0
 10
107.8690402291091
 20
-136.8545233490329
 30
0.0
 10
107.8690402291091
 20
-136.5055351763771
 30
0.0
 10
107.8690402291091
 20
-136.249564581823
 30
0.0
 10
108.0106336535529
 20
-136.1544799464301
 30
0.0
 10
108.1167425944986
 20
-136.0931572467927
 30
0.0
 10
107.991685628384
 20
-136.0339016044464
 30
0.0
 10
107.91554901816
 20
-135.9195244343361
 30
0.0
 10
107.91554901816
 20
-135.7586384751749
 30
0.0
 10
107.91554901816
 20
-135.483719855452
 30
0.0
 10
108.1146755372074
 20
-135.3483276028817
 30
0.0
 10
108.3895941569304
 20
-135.3483276028817
 30
0.0
 10
108.6727810058179
 20
-135.3483276028817
 30
0.0
 10
108.8632947861522
 20
-135.4923325941651
 30
0.0
 10
108.8632947861522
 20
-135.7586384751749
 30
0.0
 10
108.8632947861522
 20
-135.9195244343361
 30
0.0
 10
108.7850911186371
 20
-136.0339016044464
 30
0.0
 10
108.660378662071
 20
-136.0931572467927
 30
0.0
 10
108.7492621255905
 20
-136.1438001504259
 30
0.0
 10
108.907736517912
 20
-136.2388847858188
 30
0.0
 10
108.907736517912
 20
-136.5014010617948
 30
0.0
 10
108.907736517912
 20
-136.8758829410415
 30
0.0
 10
108.6286837836067
 20
-136.9919826588944
 30
0.0
 10
108.3895941569304
 20
-136.9919826588944
 30
0.0
  0
SPLINE
  5
8E
330
89
100
AcDbEntity
  8
_U+30EC_U+30A4_U+30E4_U+30FC 1
370
     0
100
AcDbSpline
210
0.0
220
0.0
230
1.0
 70
    11
 71
     3
 72
    17
 73
    13
 74
     0
 42
0.0000000001
 43
0.0000000001
 12
1.0
 22
0.0
 32
0.0
 13
1.0
 23
0.0
 33
0.0
 40
0.0
 40
0.0
 40
0.0
 40
0.0
 40
1.0
 40
1.0
 40
1.0
 40
2.0
 40
2.0
 40
2.0
 40
3.0
 40
3.0
 40
3.0
 40
4.0
 40
4.0
 40
4.0
 40
4.0
 10
108.3895941569304
 20
-136.200988735481
 30
0.0
 10
108.2455891656469
 20
-136.200988735481
 30
0.0
 10
108.0933159451989
 20
-136.2878051417093
 30
0.0
 10
108.0933159451989
 20
-136.4907212657905
 30
0.0
 10
108.0933159451989
 20
-136.6960489567114
 30
0.0
 10
108.2200954590561
 20
-136.7973347639777
 30
0.0
 10
108.3895941569304
 20
-136.7973347639777
 30
0.0
 10
108.5756293131339
 20
-136.7973347639777
 30
0.0
 10
108.6858723686619
 20
-136.6746893647029
 30
0.0
 10
108.6858723686619
 20
-136.496922437664
 30
0.0
 10
108.6858723686619
 20
-136.2750582884139
 30
0.0
 10
108.522574842661
 20
-136.200988735481
 30
0.0
 10
108.3895941569304
 20
-136.200988735481
 30
0.0
  0
SPLINE
  5
8F
330
89
100
AcDbEntity
  8
_U+30EC_U+30A4_U+30E4_U+30FC 1
370
     0
100
AcDbSpline
210
0.0
220
0.0
230
1.0
 70
    11
 71
     3
 72
    17
 73
    13
 74
     0
 42
0.0000000001
 43
0.0000000001
 12
1.0
 22
0.0
 32
0.0
 13
1.0
 23
0.0
 33
0.0
 40
0.0
 40
0.0
 40
0.0
 40
0.0
 40
1.0
 40
1.0
 40
1.0
 40
2.0
 40
2.0
 40
2.0
 40
3.0
 40
3.0
 40
3.0
 40
4.0
 40
4.0
 40
4.0
 40
4.0
 10
108.3895941569304
 20
-135.5409084405071
 30
0.0
 10
108.2242295736384
 20
-135.5409084405071
 30
0.0
 10
108.1398247342498
 20
-135.6359930759
 30
0.0
 10
108.1398247342498
 20
-135.7713853284704
 30
0.0
 10
108.1398247342498
 20
-135.8940307277452
 30
0.0
 10
108.2118272298915
 20
-136.0125420124378
 30
0.0
 10
108.3895941569304
 20
-136.0125420124378
 30
0.0
 10
108.5673610839693
 20
-136.0125420124378
 30
0.0
 10
108.6390190700625
 20
-135.8940307277452
 30
0.0
 10
108.6390190700625
 20
-135.7713853284704
 30
0.0
 10
108.6390190700625
 20
-135.6359930759
 30
0.0
 10
108.5522026638342
 20
-135.5409084405071
 30
0.0
 10
108.3895941569304
 20
-135.5409084405071
 30
0.0
  0
HATCH
  5
90
330
89
100
AcDbEntity
  8
_U+30EC_U+30A4_U+30E4_U+30FC 1
 62
   179
420
  2234388
100
AcDbHatch
 10
0.0
 20
0.0
 30
0.0
210
0.0
220
0.0
230
1.0
  2
SOLID
 70
     1
 71
     0
 91
        3
 92
        1
 93
        1
 72
     4
 94
        3
 73
     0
 74
     1
 95
       29
 96
       25
 40
0.0
 40
0.0
 40
0.0
 40
0.0
 40
1.0
 40
1.0
 40
1.0
 40
2.0
 40
2.0
 40
2.0
 40
3.0
 40
3.0
 40
3.0
 40
4.0
 40
4.0
 40
4.0
 40
5.0
 40
5.0
 40
5.0
 40
6.0
 40
6.0
 40
6.0
 40
7.0
 40
7.0
 40
7.0
 40
8.0
 40
8.0
 40
8.0
 40
8.0
 10
108.3895941569304
 20
-136.9919826588944
 10
108.122943766372
 20
-136.9919826588944
 10
107.8690402291091
 20
-136.8545233490329
 10
107.8690402291091
 20
-136.5055351763771
 10
107.8690402291091
 20
-136.249564581823
 10
108.0106336535529
 20
-136.1544799464301
 10
108.1167425944986
 20
-136.0931572467927
 10
107.991685628384
 20
-136.0339016044464
 10
107.91554901816
 20
-135.9195244343361
 10
107.91554901816
 20
-135.7586384751749
 10
107.91554901816
 20
-135.483719855452
 10
108.1146755372074
 20
-135.3483276028817
 10
108.3895941569304
 20
-135.3483276028817
 10
108.6727810058179
 20
-135.3483276028817
 10
108.8632947861522
 20
-135.4923325941651
 10
108.8632947861522
 20
-135.7586384751749
 10
108.8632947861522
 20
-135.9195244343361
 10
108.7850911186371
 20
-136.0339016044464
 10
108.660378662071
 20
-136.0931572467927
 10
108.7492621255905
 20
-136.1438001504259
 10
108.907736517912
 20
-136.2388847858188
 10
108.907736517912
 20
-136.5014010617948
 10
108.907736517912
 20
-136.8758829410415
 10
108.6286837836067
 20
-136.9919826588944
 10
108.3895941569304
 20
-136.9919826588944
 97
        0
 97
        0
 92
        1
 93
        1
 72
     4
 94
        3
 73
     0
 74
     1
 95
       17
 96
       13
 40
0.0
 40
0.0
 40
0.0
 40
0.0
 40
1.0
 40
1.0
 40
1.0
 40
2.0
 40
2.0
 40
2.0
 40
3.0
 40
3.0
 40
3.0
 40
4.0
 40
4.0
 40
4.0
 40
4.0
 10
108.3895941569304
 20
-136.200988735481
 10
108.2455891656469
 20
-136.200988735481
 10
108.0933159451989
 20
-136.2878051417093
 10
108.0933159451989
 20
-136.4907212657905
 10
108.0933159451989
 20
-136.6960489567114
 10
108.2200954590561
 20
-136.7973347639777
 10
108.3895941569304
 20
-136.7973347639777
 10
108.5756293131339
 20
-136.7973347639777
 10
108.6858723686619
 20
-136.6746893647029
 10
108.6858723686619
 20
-136.496922437664
 10
108.6858723686619
 20
-136.2750582884139
 10
108.522574842661
 20
-136.200988735481
 10
108.3895941569304
 20
-136.200988735481
 97
        0
 97
        0
 92
        1
 93
        1
 72
     4
 94
        3
 73
     0
 74
     1
 95
       17
 96
       13
 40
0.0
 40
0.0
 40
0.0
 40
0.0
 40
1.0
 40
1.0
 40
1.0
 40
2.0
 40
2.0
 40
2.0
 40
3.0
 40
3.0
 40
3.0
 40
4.0
 40
4.0
 40
4.0
 40
4.0
 10
108.3895941569304
 20
-135.5409084405071
 10
108.2242295736384
 20
-135.5409084405071
 10
108.1398247342498
 20
-135.6359930759
 10
108.1398247342498
 20
-135.7713853284704
 10
108.1398247342498
 20
-135.8940307277452
 10
108.2118272298915
 20
-136.0125420124378
 10
108.3895941569304
 20
-136.0125420124378
 10
108.5673610839693
 20
-136.0125420124378
 10
108.6390190700625
 20
-135.8940307277452
 10
108.6390190700625
 20
-135.7713853284704
 10
108.6390190700625
 20
-135.6359930759
 10
108.5522026638342
 20
-135.5409084405071
 10
108.3895941569304
 20
-135.5409084405071
 97
        0
 97
        0
 75
     2
 76
     1
 98
        0
  0
ENDBLK
  5
8C
330
89
100
AcDbEntity
  8
0
100
AcDbBlockEnd
  0
BLOCK
  5
93
330
91
100
AcDbEntity
  8
0
100
AcDbBlockBegin
  2
block 6
 70
     0
 10
0.0
 20
0.0
 30
0.0
  3
block 6
  1

  0
SPLINE
  5
95
330
91
100
AcDbEntity
  8
_U+30EC_U+30A4_U+30E4_U+30FC 1
370
     0
100
AcDbSpline
210
0.0
220
0.0
230
1.0
 70
    11
 71
     3
 72
    26
 73
    22
 74
     0
 42
0.0000000001
 43
0.0000000001
 12
1.0
 22
0.0
 32
0.0
 13
1.0
 23
0.0
 33
0.0
 40
0.0
 40
0.0
 40
0.0
 40
0.0
 40
1.0
 40
1.0
 40
1.0
 40
2.0
 40
2.0
 40
2.0
 40
3.0
 40
3.0
 40
3.0
 40
4.0
 40
4.0
 40
4.0
 40
5.0
 40
5.0
 40
5.0
 40
6.0
 40
6.0
 40
6.0
 40
7.0
 40
7.0
 40
7.0
 40
7.0
 10
105.5735731072872
 20
-141.7849717527482
 30
0.0
 10
105.5735731072872
 20
-141.7849717527482
 30
0.0
 10
105.8498697652042
 20
-140.7159586236752
 30
0.0
 10
105.8498697652042
 20
-140.7159586236752
 30
0.0
 10
105.8498697652042
 20
-140.7159586236752
 30
0.0
 10
105.530164904173
 20
-140.6332763320292
 30
0.0
 10
105.530164904173
 20
-140.6332763320292
 30
0.0
 10
105.530164904173
 20
-140.6332763320292
 30
0.0
 10
105.5673719354137
 20
-140.4899603598428
 30
0.0
 10
105.5673719354137
 20
-140.4899603598428
 30
0.0
 10
105.8925889492213
 20
-140.5588622695478
 30
0.0
 10
105.9787163363525
 20
-140.4124457114247
 30
0.0
 10
106.0359049214077
 20
-140.3090928468672
 30
0.0
 10
106.0359049214077
 20
-140.3090928468672
 30
0.0
 10
106.1771538363029
 20
-140.3459553685593
 30
0.0
 10
106.1771538363029
 20
-140.3459553685593
 30
0.0
 10
106.1771538363029
 20
-140.3459553685593
 30
0.0
 10
105.7906141228579
 20
-141.8411268091578
 30
0.0
 10
105.7906141228579
 20
-141.8411268091578
 30
0.0
 10
105.7906141228579
 20
-141.8411268091578
 30
0.0
 10
105.5735731072872
 20
-141.7849717527482
 30
0.0
 10
105.5735731072872
 20
-141.7849717527482
 30
0.0
  0
HATCH
  5
96
330
91
100
AcDbEntity
  8
_U+30EC_U+30A4_U+30E4_U+30FC 1
 62
   179
420
  2234388
100
AcDbHatch
 10
0.0
 20
0.0
 30
0.0
210
0.0
220
0.0
230
1.0
  2
SOLID
 70
     1
 71
     0
 91
        1
 92
        1
 93
        1
 72
     4
 94
        3
 73
     0
 74
     1
 95
       26
 96
       22
 40
0.0
 40
0.0
 40
0.0
 40
0.0
 40
1.0
 40
1.0
 40
1.0
 40
2.0
 40
2.0
 40
2.0
 40
3.0
 40
3.0
 40
3.0
 40
4.0
 40
4.0
 40
4.0
 40
5.0
 40
5.0
 40
5.0
 40
6.0
 40
6.0
 40
6.0
 40
7.0
 40
7.0
 40
7.0
 40
7.0
 10
105.5735731072872
 20
-141.7849717527482
 10
105.5735731072872
 20
-141.7849717527482
 10
105.8498697652042
 20
-140.7159586236752
 10
105.8498697652042
 20
-140.7159586236752
 10
105.8498697652042
 20
-140.7159586236752
 10
105.530164904173
 20
-140.6332763320292
 10
105.530164904173
 20
-140.6332763320292
 10
105.530164904173
 20
-140.6332763320292
 10
105.5673719354137
 20
-140.4899603598428
 10
105.5673719354137
 20
-140.4899603598428
 10
105.8925889492213
 20
-140.5588622695478
 10
105.9787163363525
 20
-140.4124457114247
 10
106.0359049214077
 20
-140.3090928468672
 10
106.0359049214077
 20
-140.3090928468672
 10
106.1771538363029
 20
-140.3459553685593
 10
106.1771538363029
 20
-140.3459553685593
 10
106.1771538363029
 20
-140.3459553685593
 10
105.7906141228579
 20
-141.8411268091578
 10
105.7906141228579
 20
-141.8411268091578
 10
105.7906141228579
 20
-141.8411268091578
 10
105.5735731072872
 20
-141.7849717527482
 10
105.5735731072872
 20
-141.7849717527482
 97
        0
 97
        0
 75
     2
 76
     1
 98
        0
  0
SPLINE
  5
97
330
91
100
AcDbEntity
  8
_U+30EC_U+30A4_U+30E4_U+30FC 1
370
     0
100
AcDbSpline
210
0.0
220
0.0
230
1.0
 70
    11
 71
     3
 72
    62
 73
    58
 74
     0
 42
0.0000000001
 43
0.0000000001
 12
1.0
 22
0.0
 32
0.0
 13
1.0
 23
0.0
 33
0.0
 40
0.0
 40
0.0
 40
0.0
 40
0.0
 40
1.0
 40
1.0
 40
1.0
 40
2.0
 40
2.0
 40
2.0
 40
3.0
 40
3.0
 40
3.0
 40
4.0
 40
4.0
 40
4.0
 40
5.0
 40
5.0
 40
5.0
 40
6.0
 40
6.0
 40
6.0
 40
7.0
 40
7.0
 40
7.0
 40
8.0
 40
8.0
 40
8.0
 40
9.0
 40
9.0
 40
9.0
 40
10.0
 40
10.0
 40
10.0
 40
11.0
 40
11.0
 40
11.0
 40
12.0
 40
12.0
 40
12.0
 40
13.0
 40
13.0
 40
13.0
 40
14.0
 40
14.0
 40
14.0
 40
15.0
 40
15.0
 40
15.0
 40
16.0
 40
16.0
 40
16.0
 40
17.0
 40
17.0
 40
17.0
 40
18.0
 40
18.0
 40
18.0
 40
19.0
 40
19.0
 40
19.0
 40
19.0
 10
106.7387044003987
 20
-142.1387830590834
 30
0.0
 10
106.6467203509425
 20
-142.1146673906866
 30
0.0
 10
106.4410481504731
 20
-142.0399088186567
 30
0.0
 10
106.3666340879917
 20
-141.8283799558623
 30
0.0
 10
106.3232258848775
 20
-141.7012559324566
 30
0.0
 10
106.343896457789
 20
-141.6044487493211
 30
0.0
 10
106.3611219352153
 20
-141.5210774385781
 30
0.0
 10
106.3611219352153
 20
-141.5210774385781
 30
0.0
 10
106.5740288362037
 20
-141.5761989663421
 30
0.0
 10
106.5740288362037
 20
-141.5761989663421
 30
0.0
 10
106.5574923778745
 20
-141.6485459715323
 30
0.0
 10
106.509261041081
 20
-141.8783338403985
 30
0.0
 10
106.7834906417069
 20
-141.9493028073946
 30
0.0
 10
106.9168158369861
 20
-141.9834092526986
 30
0.0
 10
107.0818359107296
 20
-141.9544704506225
 30
0.0
 10
107.1390244957847
 20
-141.7332953204695
 30
0.0
 10
107.1679632978608
 20
-141.6206406981018
 30
0.0
 10
107.143158610367
 20
-141.5637966225952
 30
0.0
 10
107.1204209801643
 20
-141.5252115531604
 30
0.0
 10
107.0673665096915
 20
-141.4349500514468
 30
0.0
 10
106.9578124732605
 20
-141.3936089056238
 30
0.0
 10
106.9047580027877
 20
-141.3798285236828
 30
0.0
 10
106.8861544871674
 20
-141.3750053900035
 30
0.0
 10
106.8510145132178
 20
-141.368115199033
 30
0.0
 10
106.8231092397873
 20
-141.3653591226448
 30
0.0
 10
106.8231092397873
 20
-141.3653591226448
 30
0.0
 10
106.8716850861293
 20
-141.1769123996016
 30
0.0
 10
106.8716850861293
 20
-141.1769123996016
 30
0.0
 10
106.9068250600789
 20
-141.1924153292852
 30
0.0
 10
106.9474771868048
 20
-141.2051621825807
 30
0.0
 10
106.9536783586782
 20
-141.2068847303233
 30
0.0
 10
107.0170681156068
 20
-141.223076679104
 30
0.0
 10
107.2148165964602
 20
-141.2523599907286
 30
0.0
 10
107.2740722388065
 20
-141.0232611409595
 30
0.0
 10
107.3188584801147
 20
-140.851006366697
 30
0.0
 10
107.20551483865
 20
-140.7648789795657
 30
0.0
 10
107.0990613881558
 20
-140.7373182156837
 30
0.0
 10
106.8434353031503
 20
-140.6711723823669
 30
0.0
 10
106.7766004507364
 20
-140.8944145698111
 30
0.0
 10
106.7545518396308
 20
-140.9626274604191
 30
0.0
 10
106.7545518396308
 20
-140.9626274604191
 30
0.0
 10
106.5581813969716
 20
-140.9119845567859
 30
0.0
 10
106.5581813969716
 20
-140.9119845567859
 30
0.0
 10
106.5974554855034
 20
-140.7934732720933
 30
0.0
 10
106.7183783370357
 20
-140.4355278511758
 30
0.0
 10
107.1603840877932
 20
-140.5499050212862
 30
0.0
 10
107.3777696129125
 20
-140.6060600776957
 30
0.0
 10
107.5793076987996
 20
-140.7896836670595
 30
0.0
 10
107.5052381458668
 20
-141.0759711018838
 30
0.0
 10
107.4587293568159
 20
-141.2564941053109
 30
0.0
 10
107.3457302248997
 20
-141.3123046521719
 30
0.0
 10
107.2341091311776
 20
-141.3467556070244
 30
0.0
 10
107.2871636016504
 20
-141.389130281493
 30
0.0
 10
107.4428819175837
 20
-141.5121201903164
 30
0.0
 10
107.3732909887817
 20
-141.7808376381659
 30
0.0
 10
107.2885416398445
 20
-142.1081217092647
 30
0.0
 10
107.0074218482481
 20
-142.2080294783369
 30
0.0
 10
106.7387044003987
 20
-142.1387830590834
 30
0.0
  0
HATCH
  5
98
330
91
100
AcDbEntity
  8
_U+30EC_U+30A4_U+30E4_U+30FC 1
 62
   179
420
  2234388
100
AcDbHatch
 10
0.0
 20
0.0
 30
0.0
210
0.0
220
0.0
230
1.0
  2
SOLID
 70
     1
 71
     0
 91
        1
 92
        1
 93
        1
 72
     4
 94
        3
 73
     0
 74
     1
 95
       62
 96
       58
 40
0.0
 40
0.0
 40
0.0
 40
0.0
 40
1.0
 40
1.0
 40
1.0
 40
2.0
 40
2.0
 40
2.0
 40
3.0
 40
3.0
 40
3.0
 40
4.0
 40
4.0
 40
4.0
 40
5.0
 40
5.0
 40
5.0
 40
6.0
 40
6.0
 40
6.0
 40
7.0
 40
7.0
 40
7.0
 40
8.0
 40
8.0
 40
8.0
 40
9.0
 40
9.0
 40
9.0
 40
10.0
 40
10.0
 40
10.0
 40
11.0
 40
11.0
 40
11.0
 40
12.0
 40
12.0
 40
12.0
 40
13.0
 40
13.0
 40
13.0
 40
14.0
 40
14.0
 40
14.0
 40
15.0
 40
15.0
 40
15.0
 40
16.0
 40
16.0
 40
16.0
 40
17.0
 40
17.0
 40
17.0
 40
18.0
 40
18.0
 40
18.0
 40
19.0
 40
19.0
 40
19.0
 40
19.0
 10
106.7387044003987
 20
-142.1387830590834
 10
106.6467203509425
 20
-142.1146673906866
 10
106.4410481504731
 20
-142.0399088186567
 10
106.3666340879917
 20
-141.8283799558623
 10
106.3232258848775
 20
-141.7012559324566
 10
106.343896457789
 20
-141.6044487493211
 10
106.3611219352153
 20
-141.5210774385781
 10
106.3611219352153
 20
-141.5210774385781
 10
106.5740288362037
 20
-141.5761989663421
 10
106.5740288362037
 20
-141.5761989663421
 10
106.5574923778745
 20
-141.6485459715323
 10
106.509261041081
 20
-141.8783338403985
 10
106.7834906417069
 20
-141.9493028073946
 10
106.9168158369861
 20
-141.9834092526986
 10
107.0818359107296
 20
-141.9544704506225
 10
107.1390244957847
 20
-141.7332953204695
 10
107.1679632978608
 20
-141.6206406981018
 10
107.143158610367
 20
-141.5637966225952
 10
107.1204209801643
 20
-141.5252115531604
 10
107.0673665096915
 20
-141.4349500514468
 10
106.9578124732605
 20
-141.3936089056238
 10
106.9047580027877
 20
-141.3798285236828
 10
106.8861544871674
 20
-141.3750053900035
 10
106.8510145132178
 20
-141.368115199033
 10
106.8231092397873
 20
-141.3653591226448
 10
106.8231092397873
 20
-141.3653591226448
 10
106.8716850861293
 20
-141.1769123996016
 10
106.8716850861293
 20
-141.1769123996016
 10
106.9068250600789
 20
-141.1924153292852
 10
106.9474771868048
 20
-141.2051621825807
 10
106.9536783586782
 20
-141.2068847303233
 10
107.0170681156068
 20
-141.223076679104
 10
107.2148165964602
 20
-141.2523599907286
 10
107.2740722388065
 20
-141.0232611409595
 10
107.3188584801147
 20
-140.851006366697
 10
107.20551483865
 20
-140.7648789795657
 10
107.0990613881558
 20
-140.7373182156837
 10
106.8434353031503
 20
-140.6711723823669
 10
106.7766004507364
 20
-140.8944145698111
 10
106.7545518396308
 20
-140.9626274604191
 10
106.7545518396308
 20
-140.9626274604191
 10
106.5581813969716
 20
-140.9119845567859
 10
106.5581813969716
 20
-140.9119845567859
 10
106.5974554855034
 20
-140.7934732720933
 10
106.7183783370357
 20
-140.4355278511758
 10
107.1603840877932
 20
-140.5499050212862
 10
107.3777696129125
 20
-140.6060600776957
 10
107.5793076987996
 20
-140.7896836670595
 10
107.5052381458668
 20
-141.0759711018838
 10
107.4587293568159
 20
-141.2564941053109
 10
107.3457302248997
 20
-141.3123046521719
 10
107.2341091311776
 20
-141.3467556070244
 10
107.2871636016504
 20
-141.389130281493
 10
107.4428819175837
 20
-141.5121201903164
 10
107.3732909887817
 20
-141.7808376381659
 10
107.2885416398445
 20
-142.1081217092647
 10
107.0074218482481
 20
-142.2080294783369
 10
106.7387044003987
 20
-142.1387830590834
 97
        0
 97
        0
 75
     2
 76
     1
 98
        0
  0
ENDBLK
  5
94
330
91
100
AcDbEntity
  8
0
100
AcDbBlockEnd
  0
BLOCK
  5
9B
330
99
100
AcDbEntity
  8
0
100
AcDbBlockBegin
  2
block 7
 70
     0
 10
0.0
 20
0.0
 30
0.0
  3
block 7
  1

  0
SPLINE
  5
9D
330
99
100
AcDbEntity
  8
_U+30EC_U+30A4_U+30E4_U+30FC 1
370
     0
100
AcDbSpline
210
0.0
220
0.0
230
1.0
 70
    11
 71
     3
 72
    53
 73
    49
 74
     0
 42
0.0000000001
 43
0.0000000001
 12
1.0
 22
0.0
 32
0.0
 13
1.0
 23
0.0
 33
0.0
 40
0.0
 40
0.0
 40
0.0
 40
0.0
 40
1.0
 40
1.0
 40
1.0
 40
2.0
 40
2.0
 40
2.0
 40
3.0
 40
3.0
 40
3.0
 40
4.0
 40
4.0
 40
4.0
 40
5.0
 40
5.0
 40
5.0
 40
6.0
 40
6.0
 40
6.0
 40
7.0
 40
7.0
 40
7.0
 40
8.0
 40
8.0
 40
8.0
 40
9.0
 40
9.0
 40
9.0
 40
10.0
 40
10.0
 40
10.0
 40
11.0
 40
11.0
 40
11.0
 40
12.0
 40
12.0
 40
12.0
 40
13.0
 40
13.0
 40
13.0
 40
14.0
 40
14.0
 40
14.0
 40
15.0
 40
15.0
 40
15.0
 40
16.0
 40
16.0
 40
16.0
 40
16.0
 10
107.8680067004636
 20
-142.4307549014583
 30
0.0
 10
107.7922145997881
 20
-142.4111178571924
 30
0.0
 10
107.6985080025893
 20
-142.3694322018208
 30
0.0
 10
107.6158257109433
 20
-142.2826157955925
 30
0.0
 10
107.4752658151451
 20
-142.1327541419842
 30
0.0
 10
107.487668158892
 20
-142.0004624753506
 30
0.0
 10
107.4962808976051
 20
-141.8912529484682
 30
0.0
 10
107.4962808976051
 20
-141.8912529484682
 30
0.0
 10
107.7112548558847
 20
-141.9470634953292
 30
0.0
 10
107.7112548558847
 20
-141.9470634953292
 30
0.0
 10
107.7150444609185
 20
-142.1530802053472
 30
0.0
 10
107.8301106501258
 20
-142.2137138858876
 30
0.0
 10
107.9203721518394
 20
-142.2367960256387
 30
0.0
 10
108.0554198948611
 20
-142.2719359995883
 30
0.0
 10
108.2280191786722
 20
-142.2137138858876
 30
0.0
 10
108.2862412923729
 20
-141.9884046411522
 30
0.0
 10
108.3503200683985
 20
-141.7407022757627
 30
0.0
 10
108.1939127333682
 20
-141.6280476533951
 30
0.0
 10
108.0767794868697
 20
-141.5977308131249
 30
0.0
 10
108.0464626465995
 20
-141.5898070935088
 30
0.0
 10
107.9093478462866
 20
-141.5543226100107
 30
0.0
 10
107.790836561594
 20
-141.6569864554712
 30
0.0
 10
107.790836561594
 20
-141.6569864554712
 30
0.0
 10
107.625471978302
 20
-141.5949747367367
 30
0.0
 10
107.625471978302
 20
-141.5949747367367
 30
0.0
 10
107.625471978302
 20
-141.5949747367367
 30
0.0
 10
107.9541340875948
 20
-140.805703361066
 30
0.0
 10
107.9541340875948
 20
-140.805703361066
 30
0.0
 10
107.9541340875948
 20
-140.805703361066
 30
0.0
 10
108.7079209797675
 20
-141.0003512559826
 30
0.0
 10
108.7079209797675
 20
-141.0003512559826
 30
0.0
 10
108.7079209797675
 20
-141.0003512559826
 30
0.0
 10
108.6590006238769
 20
-141.1887979790257
 30
0.0
 10
108.6590006238769
 20
-141.1887979790257
 30
0.0
 10
108.6590006238769
 20
-141.1887979790257
 30
0.0
 10
108.0629991049287
 20
-141.0348022108351
 30
0.0
 10
108.0629991049287
 20
-141.0348022108351
 30
0.0
 10
108.0629991049287
 20
-141.0348022108351
 30
0.0
 10
107.8935004070544
 20
-141.4278876057021
 30
0.0
 10
107.8935004070544
 20
-141.4278876057021
 30
0.0
 10
107.9617132976624
 20
-141.4106621282758
 30
0.0
 10
108.0512857802788
 20
-141.392403122204
 30
0.0
 10
108.1663519694862
 20
-141.4220309433771
 30
0.0
 10
108.411642768036
 20
-141.4854207003057
 30
0.0
 10
108.5949218478513
 20
-141.7251993460791
 30
0.0
 10
108.5163736707876
 20
-142.0283677487811
 30
0.0
 10
108.4371364746268
 20
-142.3356702660654
 30
0.0
 10
108.1608398167098
 20
-142.5065470021338
 30
0.0
 10
107.8680067004636
 20
-142.4307549014583
 30
0.0
  0
HATCH
  5
9E
330
99
100
AcDbEntity
  8
_U+30EC_U+30A4_U+30E4_U+30FC 1
 62
   179
420
  2234388
100
AcDbHatch
 10
0.0
 20
0.0
 30
0.0
210
0.0
220
0.0
230
1.0
  2
SOLID
 70
     1
 71
     0
 91
        1
 92
        1
 93
        1
 72
     4
 94
        3
 73
     0
 74
     1
 95
       53
 96
       49
 40
0.0
 40
0.0
 40
0.0
 40
0.0
 40
1.0
 40
1.0
 40
1.0
 40
2.0
 40
2.0
 40
2.0
 40
3.0
 40
3.0
 40
3.0
 40
4.0
 40
4.0
 40
4.0
 40
5.0
 40
5.0
 40
5.0
 40
6.0
 40
6.0
 40
6.0
 40
7.0
 40
7.0
 40
7.0
 40
8.0
 40
8.0
 40
8.0
 40
9.0
 40
9.0
 40
9.0
 40
10.0
 40
10.0
 40
10.0
 40
11.0
 40
11.0
 40
11.0
 40
12.0
 40
12.0
 40
12.0
 40
13.0
 40
13.0
 40
13.0
 40
14.0
 40
14.0
 40
14.0
 40
15.0
 40
15.0
 40
15.0
 40
16.0
 40
16.0
 40
16.0
 40
16.0
 10
107.8680067004636
 20
-142.4307549014583
 10
107.7922145997881
 20
-142.4111178571924
 10
107.6985080025893
 20
-142.3694322018208
 10
107.6158257109433
 20
-142.2826157955925
 10
107.4752658151451
 20
-142.1327541419842
 10
107.487668158892
 20
-142.0004624753506
 10
107.4962808976051
 20
-141.8912529484682
 10
107.4962808976051
 20
-141.8912529484682
 10
107.7112548558847
 20
-141.9470634953292
 10
107.7112548558847
 20
-141.9470634953292
 10
107.7150444609185
 20
-142.1530802053472
 10
107.8301106501258
 20
-142.2137138858876
 10
107.9203721518394
 20
-142.2367960256387
 10
108.0554198948611
 20
-142.2719359995883
 10
108.2280191786722
 20
-142.2137138858876
 10
108.2862412923729
 20
-141.9884046411522
 10
108.3503200683985
 20
-141.7407022757627
 10
108.1939127333682
 20
-141.6280476533951
 10
108.0767794868697
 20
-141.5977308131249
 10
108.0464626465995
 20
-141.5898070935088
 10
107.9093478462866
 20
-141.5543226100107
 10
107.790836561594
 20
-141.6569864554712
 10
107.790836561594
 20
-141.6569864554712
 10
107.625471978302
 20
-141.5949747367367
 10
107.625471978302
 20
-141.5949747367367
 10
107.625471978302
 20
-141.5949747367367
 10
107.9541340875948
 20
-140.805703361066
 10
107.9541340875948
 20
-140.805703361066
 10
107.9541340875948
 20
-140.805703361066
 10
108.7079209797675
 20
-141.0003512559826
 10
108.7079209797675
 20
-141.0003512559826
 10
108.7079209797675
 20
-141.0003512559826
 10
108.6590006238769
 20
-141.1887979790257
 10
108.6590006238769
 20
-141.1887979790257
 10
108.6590006238769
 20
-141.1887979790257
 10
108.0629991049287
 20
-141.0348022108351
 10
108.0629991049287
 20
-141.0348022108351
 10
108.0629991049287
 20
-141.0348022108351
 10
107.8935004070544
 20
-141.4278876057021
 10
107.8935004070544
 20
-141.4278876057021
 10
107.9617132976624
 20
-141.4106621282758
 10
108.0512857802788
 20
-141.392403122204
 10
108.1663519694862
 20
-141.4220309433771
 10
108.411642768036
 20
-141.4854207003057
 10
108.5949218478513
 20
-141.7251993460791
 10
108.5163736707876
 20
-142.0283677487811
 10
108.4371364746268
 20
-142.3356702660654
 10
108.1608398167098
 20
-142.5065470021338
 10
107.8680067004636
 20
-142.4307549014583
 97
        0
 97
        0
 75
     2
 76
     1
 98
        0
  0
ENDBLK
  5
9C
330
99
100
AcDbEntity
  8
0
100
AcDbBlockEnd
  0
BLOCK
  5
A1
330
9F
100
AcDbEntity
  8
0
100
AcDbBlockBegin
  2
block 8
 70
     0
 10
0.0
 20
0.0
 30
0.0
  3
block 8
  1

  0
SPLINE
  5
A3
330
9F
100
AcDbEntity
  8
_U+30EC_U+30A4_U+30E4_U+30FC 1
370
     0
100
AcDbSpline
210
0.0
220
0.0
230
1.0
 70
    11
 71
     3
 72
    17
 73
    13
 74
     0
 42
0.0000000001
 43
0.0000000001
 12
1.0
 22
0.0
 32
0.0
 13
1.0
 23
0.0
 33
0.0
 40
0.0
 40
0.0
 40
0.0
 40
0.0
 40
1.0
 40
1.0
 40
1.0
 40
2.0
 40
2.0
 40
2.0
 40
3.0
 40
3.0
 40
3.0
 40
4.0
 40
4.0
 40
4.0
 40
4.0
 10
109.4841009925943
 20
-141.4654391464913
 30
0.0
 10
109.4427598467713
 20
-141.6252915770069
 30
0.0
 10
109.2787733016734
 20
-141.7272664033703
 30
0.0
 10
109.1127196992843
 20
-141.6845472193532
 30
0.0
 10
108.949077663735
 20
-141.6421725448846
 30
0.0
 10
108.852614990148
 20
-141.4747409043015
 30
0.0
 10
108.8943006455195
 20
-141.3128214164947
 30
0.0
 10
108.9363308104395
 20
-141.1512464382365
 30
0.0
 10
109.1016953937315
 20
-141.0520276882613
 30
0.0
 10
109.2653374292809
 20
-141.0944023627299
 30
0.0
 10
109.4313910316699
 20
-141.1374660562955
 30
0.0
 10
109.5254421384173
 20
-141.3055867159757
 30
0.0
 10
109.4841009925943
 20
-141.4654391464913
 30
0.0
  0
SPLINE
  5
A4
330
9F
100
AcDbEntity
  8
_U+30EC_U+30A4_U+30E4_U+30FC 1
370
     0
100
AcDbSpline
210
0.0
220
0.0
230
1.0
 70
    11
 71
     3
 72
    17
 73
    13
 74
     0
 42
0.0000000001
 43
0.0000000001
 12
1.0
 22
0.0
 32
0.0
 13
1.0
 23
0.0
 33
0.0
 40
0.0
 40
0.0
 40
0.0
 40
0.0
 40
1.0
 40
1.0
 40
1.0
 40
2.0
 40
2.0
 40
2.0
 40
3.0
 40
3.0
 40
3.0
 40
4.0
 40
4.0
 40
4.0
 40
4.0
 10
109.0152234970517
 20
-141.3441717854105
 30
0.0
 10
108.990418809558
 20
-141.4406344589975
 30
0.0
 10
109.0479519041616
 20
-141.5384751707786
 30
0.0
 10
109.1440700682001
 20
-141.5632798582724
 30
0.0
 10
109.2405327417871
 20
-141.5880845457662
 30
0.0
 10
109.3383734535682
 20
-141.5305514511625
 30
0.0
 10
109.363178141062
 20
-141.4340887775755
 30
0.0
 10
109.3879828285558
 20
-141.3383151230856
 30
0.0
 10
109.3328613007918
 20
-141.240818920853
 30
0.0
 10
109.2343315699136
 20
-141.2153252142622
 30
0.0
 10
109.1358018390355
 20
-141.1898315076713
 30
0.0
 10
109.0400281845455
 20
-141.248053621372
 30
0.0
 10
109.0152234970517
 20
-141.3441717854105
 30
0.0
  0
HATCH
  5
A5
330
9F
100
AcDbEntity
  8
_U+30EC_U+30A4_U+30E4_U+30FC 1
 62
   179
420
  2234388
100
AcDbHatch
 10
0.0
 20
0.0
 30
0.0
210
0.0
220
0.0
230
1.0
  2
SOLID
 70
     1
 71
     0
 91
        2
 92
        1
 93
        1
 72
     4
 94
        3
 73
     0
 74
     1
 95
       17
 96
       13
 40
0.0
 40
0.0
 40
0.0
 40
0.0
 40
1.0
 40
1.0
 40
1.0
 40
2.0
 40
2.0
 40
2.0
 40
3.0
 40
3.0
 40
3.0
 40
4.0
 40
4.0
 40
4.0
 40
4.0
 10
109.4841009925943
 20
-141.4654391464913
 10
109.4427598467713
 20
-141.6252915770069
 10
109.2787733016734
 20
-141.7272664033703
 10
109.1127196992843
 20
-141.6845472193532
 10
108.949077663735
 20
-141.6421725448846
 10
108.852614990148
 20
-141.4747409043015
 10
108.8943006455195
 20
-141.3128214164947
 10
108.9363308104395
 20
-141.1512464382365
 10
109.1016953937315
 20
-141.0520276882613
 10
109.2653374292809
 20
-141.0944023627299
 10
109.4313910316699
 20
-141.1374660562955
 10
109.5254421384173
 20
-141.3055867159757
 10
109.4841009925943
 20
-141.4654391464913
 97
        0
 97
        0
 92
        1
 93
        1
 72
     4
 94
        3
 73
     0
 74
     1
 95
       17
 96
       13
 40
0.0
 40
0.0
 40
0.0
 40
0.0
 40
1.0
 40
1.0
 40
1.0
 40
2.0
 40
2.0
 40
2.0
 40
3.0
 40
3.0
 40
3.0
 40
4.0
 40
4.0
 40
4.0
 40
4.0
 10
109.0152234970517
 20
-141.3441717854105
 10
108.990418809558
 20
-141.4406344589975
 10
109.0479519041616
 20
-141.5384751707786
 10
109.1440700682001
 20
-141.5632798582724
 10
109.2405327417871
 20
-141.5880845457662
 10
109.3383734535682
 20
-141.5305514511625
 10
109.363178141062
 20
-141.4340887775755
 10
109.3879828285558
 20
-141.3383151230856
 10
109.3328613007918
 20
-141.240818920853
 10
109.2343315699136
 20
-141.2153252142622
 10
109.1358018390355
 20
-141.1898315076713
 10
109.0400281845455
 20
-141.248053621372
 10
109.0152234970517
 20
-141.3441717854105
 97
        0
 97
        0
 75
     2
 76
     1
 98
        0
  0
ENDBLK
  5
A2
330
9F
100
AcDbEntity
  8
0
100
AcDbBlockEnd
  0
ENDSEC
  0
SECTION
  2
ENTITIES
  0
SPLINE
  5
41
330
1F
100
AcDbEntity
  8
_U+30EC_U+30A4_U+30E4_U+30FC 1
 62
   179
420
  2234388
370
     9
100
AcDbSpline
210
0.0
220
0.0
230
1.0
 70
     8
 71
     3
 72
    11
 73
     7
 74
     0
 42
0.0000000001
 43
0.0000000001
 12
1.0
 22
0.0
 32
0.0
 13
1.0
 23
0.0
 33
0.0
 40
0.0
 40
0.0
 40
0.0
 40
0.0
 40
1.0
 40
1.0
 40
1.0
 40
2.0
 40
2.0
 40
2.0
 40
2.0
 10
101.6309735361971
 20
-144.1366800583669
 30
0.0
 10
102.451180792733
 20
-142.7657904373988
 30
0.0
 10
104.0538499783946
 20
-141.9653332673244
 30
0.0
 10
105.7249581390554
 20
-142.2450857866501
 30
0.0
 10
107.9037118853912
 20
-142.6095122934495
 30
0.0
 10
109.3215247834606
 20
-144.8782260956435
 30
0.0
 10
108.956753767113
 20
-147.0573351174512
 30
0.0
  0
SPLINE
  5
42
330
1F
100
AcDbEntity
  8
_U+30EC_U+30A4_U+30E4_U+30FC 1
370
     0
100
AcDbSpline
210
0.0
220
0.0
230
1.0
 70
    11
 71
     3
 72
    62
 73
    58
 74
     0
 42
0.0000000001
 43
0.0000000001
 12
1.0
 22
0.0
 32
0.0
 13
1.0
 23
0.0
 33
0.0
 40
0.0
 40
0.0
 40
0.0
 40
0.0
 40
1.0
 40
1.0
 40
1.0
 40
2.0
 40
2.0
 40
2.0
 40
3.0
 40
3.0
 40
3.0
 40
4.0
 40
4.0
 40
4.0
 40
5.0
 40
5.0
 40
5.0
 40
6.0
 40
6.0
 40
6.0
 40
7.0
 40
7.0
 40
7.0
 40
8.0
 40
8.0
 40
8.0
 40
9.0
 40
9.0
 40
9.0
 40
10.0
 40
10.0
 40
10.0
 40
11.0
 40
11.0
 40
11.0
 40
12.0
 40
12.0
 40
12.0
 40
13.0
 40
13.0
 40
13.0
 40
14.0
 40
14.0
 40
14.0
 40
15.0
 40
15.0
 40
15.0
 40
16.0
 40
16.0
 40
16.0
 40
17.0
 40
17.0
 40
17.0
 40
18.0
 40
18.0
 40
18.0
 40
19.0
 40
19.0
 40
19.0
 40
19.0
 10
104.3920237810038
 20
-147.0598651094481
 30
0.0
 10
104.3920237810038
 20
-147.0598651094481
 30
0.0
 10
100.0891910302756
 20
-142.8240663807165
 30
0.0
 10
100.0891910302756
 20
-142.8240663807165
 30
0.0
 10
100.0891910302756
 20
-142.8240663807165
 30
0.0
 10
98.65373816672925
 20
-142.6907196535906
 30
0.0
 10
98.65373816672925
 20
-142.6907196535906
 30
0.0
 10
98.65373816672925
 20
-142.6907196535906
 30
0.0
 10
103.6353139406304
 20
-147.6754713748921
 30
0.0
 10
103.6353139406304
 20
-147.6754713748921
 30
0.0
 10
103.6353139406304
 20
-147.6754713748921
 30
0.0
 10
99.92515065556071
 20
-156.5587685087661
 30
0.0
 10
99.92515065556071
 20
-156.5587685087661
 30
0.0
 10
99.92515065556071
 20
-156.5587685087661
 30
0.0
 10
94.67158459309914
 20
-151.538381581039
 30
0.0
 10
94.67158459309914
 20
-151.538381581039
 30
0.0
 10
94.67158459309914
 20
-151.538381581039
 30
0.0
 10
94.24613414103672
 20
-151.63187285977
 30
0.0
 10
94.24613414103672
 20
-151.63187285977
 30
0.0
 10
94.24613414103672
 20
-151.63187285977
 30
0.0
 10
88.72339846194323
 20
-146.3169195021306
 30
0.0
 10
88.72339846194323
 20
-146.3169195021306
 30
0.0
 10
88.2400919375754
 20
-146.0495154969349
 30
0.0
 10
87.96245761367697
 20
-145.9775452990633
 30
0.0
 10
87.78853681276966
 20
-146.2915226888503
 30
0.0
 10
87.78853681276966
 20
-146.2915226888503
 30
0.0
 10
99.21818476421727
 20
-157.3105314073412
 30
0.0
 10
99.21818476421727
 20
-157.3105314073412
 30
0.0
 10
99.21818476421727
 20
-157.3105314073412
 30
0.0
 10
101.0730887690161
 20
-158.0594843999111
 30
0.0
 10
101.0730887690161
 20
-158.0594843999111
 30
0.0
 10
101.0730887690161
 20
-158.0594843999111
 30
0.0
 10
116.9819529770751
 20
-158.0594843999111
 30
0.0
 10
116.9819529770751
 20
-158.0594843999111
 30
0.0
 10
116.9819529770751
 20
-157.7003547274206
 30
0.0
 10
116.5346342431238
 20
-157.4096640299293
 30
0.0
 10
115.9821808842939
 20
-157.4096640299293
 30
0.0
 10
115.9821808842939
 20
-157.4096640299293
 30
0.0
 10
108.5463298526242
 20
-157.4096640299293
 30
0.0
 10
108.5463298526242
 20
-157.4096640299293
 30
0.0
 10
108.5463298526242
 20
-157.4096640299293
 30
0.0
 10
108.1466341807948
 20
-157.0597069241682
 30
0.0
 10
108.1466341807948
 20
-157.0597069241682
 30
0.0
 10
108.1466341807948
 20
-157.0597069241682
 30
0.0
 10
100.8197935064248
 20
-157.0597069241682
 30
0.0
 10
100.8197935064248
 20
-157.0597069241682
 30
0.0
 10
100.8197935064248
 20
-157.0597069241682
 30
0.0
 10
104.580050633035
 20
-148.059642585191
 30
0.0
 10
104.580050633035
 20
-148.059642585191
 30
0.0
 10
104.580050633035
 20
-148.059642585191
 30
0.0
 10
112.1880595456563
 20
-148.059642585191
 30
0.0
 10
112.1880595456563
 20
-148.059642585191
 30
0.0
 10
112.1880595456563
 20
-148.059642585191
 30
0.0
 10
110.9258196235544
 20
-147.0598651094481
 30
0.0
 10
110.9258196235544
 20
-147.0598651094481
 30
0.0
 10
110.9258196235544
 20
-147.0598651094481
 30
0.0
 10
104.3920237810038
 20
-147.0598651094481
 30
0.0
 10
104.3920237810038
 20
-147.0598651094481
 30
0.0
  0
HATCH
  5
43
330
1F
100
AcDbEntity
  8
_U+30EC_U+30A4_U+30E4_U+30FC 1
 62
     9
420
 13224394
100
AcDbHatch
 10
0.0
 20
0.0
 30
0.0
210
0.0
220
0.0
230
1.0
  2
SOLID
 70
     1
 71
     0
 91
        1
 92
        1
 93
        1
 72
     4
 94
        3
 73
     0
 74
     1
 95
       62
 96
       58
 40
0.0
 40
0.0
 40
0.0
 40
0.0
 40
1.0
 40
1.0
 40
1.0
 40
2.0
 40
2.0
 40
2.0
 40
3.0
 40
3.0
 40
3.0
 40
4.0
 40
4.0
 40
4.0
 40
5.0
 40
5.0
 40
5.0
 40
6.0
 40
6.0
 40
6.0
 40
7.0
 40
7.0
 40
7.0
 40
8.0
 40
8.0
 40
8.0
 40
9.0
 40
9.0
 40
9.0
 40
10.0
 40
10.0
 40
10.0
 40
11.0
 40
11.0
 40
11.0
 40
12.0
 40
12.0
 40
12.0
 40
13.0
 40
13.0
 40
13.0
 40
14.0
 40
14.0
 40
14.0
 40
15.0
 40
15.0
 40
15.0
 40
16.0
 40
16.0
 40
16.0
 40
17.0
 40
17.0
 40
17.0
 40
18.0
 40
18.0
 40
18.0
 40
19.0
 40
19.0
 40
19.0
 40
19.0
 10
104.3920237810038
 20
-147.0598651094481
 10
104.3920237810038
 20
-147.0598651094481
 10
100.0891910302756
 20
-142.8240663807165
 10
100.0891910302756
 20
-142.8240663807165
 10
100.0891910302756
 20
-142.8240663807165
 10
98.65373816672925
 20
-142.6907196535906
 10
98.65373816672925
 20
-142.6907196535906
 10
98.65373816672925
 20
-142.6907196535906
 10
103.6353139406304
 20
-147.6754713748921
 10
103.6353139406304
 20
-147.6754713748921
 10
103.6353139406304
 20
-147.6754713748921
 10
99.92515065556071
 20
-156.5587685087661
 10
99.92515065556071
 20
-156.5587685087661
 10
99.92515065556071
 20
-156.5587685087661
 10
94.67158459309914
 20
-151.538381581039
 10
94.67158459309914
 20
-151.538381581039
 10
94.67158459309914
 20
-151.538381581039
 10
94.24613414103672
 20
-151.63187285977
 10
94.24613414103672
 20
-151.63187285977
 10
94.24613414103672
 20
-151.63187285977
 10
88.72339846194323
 20
-146.3169195021306
 10
88.72339846194323
 20
-146.3169195021306
 10
88.2400919375754
 20
-146.0495154969349
 10
87.96245761367697
 20
-145.9775452990633
 10
87.78853681276966
 20
-146.2915226888503
 10
87.78853681276966
 20
-146.2915226888503
 10
99.21818476421727
 20
-157.3105314073412
 10
99.21818476421727
 20
-157.3105314073412
 10
99.21818476421727
 20
-157.3105314073412
 10
101.0730887690161
 20
-158.0594843999111
 10
101.0730887690161
 20
-158.0594843999111
 10
101.0730887690161
 20
-158.0594843999111
 10
116.9819529770751
 20
-158.0594843999111
 10
116.9819529770751
 20
-158.0594843999111
 10
116.9819529770751
 20
-157.7003547274206
 10
116.5346342431238
 20
-157.4096640299293
 10
115.9821808842939
 20
-157.4096640299293
 10
115.9821808842939
 20
-157.4096640299293
 10
108.5463298526242
 20
-157.4096640299293
 10
108.5463298526242
 20
-157.4096640299293
 10
108.5463298526242
 20
-157.4096640299293
 10
108.1466341807948
 20
-157.0597069241682
 10
108.1466341807948
 20
-157.0597069241682
 10
108.1466341807948
 20
-157.0597069241682
 10
100.8197935064248
 20
-157.0597069241682
 10
100.8197935064248
 20
-157.0597069241682
 10
100.8197935064248
 20
-157.0597069241682
 10
104.580050633035
 20
-148.059642585191
 10
104.580050633035
 20
-148.059642585191
 10
104.580050633035
 20
-148.059642585191
 10
112.1880595456563
 20
-148.059642585191
 10
112.1880595456563
 20
-148.059642585191
 10
112.1880595456563
 20
-148.059642585191
 10
110.9258196235544
 20
-147.0598651094481
 10
110.9258196235544
 20
-147.0598651094481
 10
110.9258196235544
 20
-147.0598651094481
 10
104.3920237810038
 20
-147.0598651094481
 10
104.3920237810038
 20
-147.0598651094481
 97
        0
 97
        0
 75
     2
 76
     1
 98
        0
  0
SPLINE
  5
44
330
1F
100
AcDbEntity
  8
_U+30EC_U+30A4_U+30E4_U+30FC 1
 62
   179
420
  2234388
370
    25
100
AcDbSpline
210
0.0
220
0.0
230
1.0
 70
    11
 71
     3
 72
    62
 73
    58
 74
     0
 42
0.0000000001
 43
0.0000000001
 12
1.0
 22
0.0
 32
0.0
 13
1.0
 23
0.0
 33
0.0
 40
0.0
 40
0.0
 40
0.0
 40
0.0
 40
1.0
 40
1.0
 40
1.0
 40
2.0
 40
2.0
 40
2.0
 40
3.0
 40
3.0
 40
3.0
 40
4.0
 40
4.0
 40
4.0
 40
5.0
 40
5.0
 40
5.0
 40
6.0
 40
6.0
 40
6.0
 40
7.0
 40
7.0
 40
7.0
 40
8.0
 40
8.0
 40
8.0
 40
9.0
 40
9.0
 40
9.0
 40
10.0
 40
10.0
 40
10.0
 40
11.0
 40
11.0
 40
11.0
 40
12.0
 40
12.0
 40
12.0
 40
13.0
 40
13.0
 40
13.0
 40
14.0
 40
14.0
 40
14.0
 40
15.0
 40
15.0
 40
15.0
 40
16.0
 40
16.0
 40
16.0
 40
17.0
 40
17.0
 40
17.0
 40
18.0
 40
18.0
 40
18.0
 40
19.0
 40
19.0
 40
19.0
 40
19.0
 10
104.3920237810038
 20
-147.0598651094481
 30
0.0
 10
104.3920237810038
 20
-147.0598651094481
 30
0.0
 10
100.0891910302756
 20
-142.8240663807165
 30
0.0
 10
100.0891910302756
 20
-142.8240663807165
 30
0.0
 10
100.0891910302756
 20
-142.8240663807165
 30
0.0
 10
98.65373816672925
 20
-142.6907196535906
 30
0.0
 10
98.65373816672925
 20
-142.6907196535906
 30
0.0
 10
98.65373816672925
 20
-142.6907196535906
 30
0.0
 10
103.6353139406304
 20
-147.6754713748921
 30
0.0
 10
103.6353139406304
 20
-147.6754713748921
 30
0.0
 10
103.6353139406304
 20
-147.6754713748921
 30
0.0
 10
99.92515065556071
 20
-156.5587685087661
 30
0.0
 10
99.92515065556071
 20
-156.5587685087661
 30
0.0
 10
99.92515065556071
 20
-156.5587685087661
 30
0.0
 10
94.67158459309914
 20
-151.538381581039
 30
0.0
 10
94.67158459309914
 20
-151.538381581039
 30
0.0
 10
94.67158459309914
 20
-151.538381581039
 30
0.0
 10
94.24613414103672
 20
-151.63187285977
 30
0.0
 10
94.24613414103672
 20
-151.63187285977
 30
0.0
 10
94.24613414103672
 20
-151.63187285977
 30
0.0
 10
88.72339846194323
 20
-146.3169195021306
 30
0.0
 10
88.72339846194323
 20
-146.3169195021306
 30
0.0
 10
88.2400919375754
 20
-146.0495154969349
 30
0.0
 10
87.96245761367697
 20
-145.9775452990633
 30
0.0
 10
87.78853681276966
 20
-146.2915226888503
 30
0.0
 10
87.78853681276966
 20
-146.2915226888503
 30
0.0
 10
99.21818476421727
 20
-157.3105314073412
 30
0.0
 10
99.21818476421727
 20
-157.3105314073412
 30
0.0
 10
99.21818476421727
 20
-157.3105314073412
 30
0.0
 10
101.0730887690161
 20
-158.0594843999111
 30
0.0
 10
101.0730887690161
 20
-158.0594843999111
 30
0.0
 10
101.0730887690161
 20
-158.0594843999111
 30
0.0
 10
116.9819529770751
 20
-158.0594843999111
 30
0.0
 10
116.9819529770751
 20
-158.0594843999111
 30
0.0
 10
116.9819529770751
 20
-157.7003547274206
 30
0.0
 10
116.5346342431238
 20
-157.4096640299293
 30
0.0
 10
115.9821808842939
 20
-157.4096640299293
 30
0.0
 10
115.9821808842939
 20
-157.4096640299293
 30
0.0
 10
108.5463298526242
 20
-157.4096640299293
 30
0.0
 10
108.5463298526242
 20
-157.4096640299293
 30
0.0
 10
108.5463298526242
 20
-157.4096640299293
 30
0.0
 10
108.1466341807948
 20
-157.0597069241682
 30
0.0
 10
108.1466341807948
 20
-157.0597069241682
 30
0.0
 10
108.1466341807948
 20
-157.0597069241682
 30
0.0
 10
100.8197935064248
 20
-157.0597069241682
 30
0.0
 10
100.8197935064248
 20
-157.0597069241682
 30
0.0
 10
100.8197935064248
 20
-157.0597069241682
 30
0.0
 10
104.580050633035
 20
-148.059642585191
 30
0.0
 10
104.580050633035
 20
-148.059642585191
 30
0.0
 10
104.580050633035
 20
-148.059642585191
 30
0.0
 10
112.1880595456563
 20
-148.059642585191
 30
0.0
 10
112.1880595456563
 20
-148.059642585191
 30
0.0
 10
112.1880595456563
 20
-148.059642585191
 30
0.0
 10
110.9258196235544
 20
-147.0598651094481
 30
0.0
 10
110.9258196235544
 20
-147.0598651094481
 30
0.0
 10
110.9258196235544
 20
-147.0598651094481
 30
0.0
 10
104.3920237810038
 20
-147.0598651094481
 30
0.0
 10
104.3920237810038
 20
-147.0598651094481
 30
0.0
  0
POLYLINE
  5
45
330
1F
100
AcDbEntity
  8
_U+30EC_U+30A4_U+30E4_U+30FC 1
 62
   179
420
  2234388
370
     9
100
AcDb2dPolyline
 66
     1
 10
0.0
 20
0.0
 30
0.0
  0
VERTEX
  5
46
330
45
100
AcDbEntity
  8
_U+30EC_U+30A4_U+30E4_U+30FC 1
 62
   179
420
  2234388
370
     9
100
AcDbVertex
100
AcDb2dVertex
 10
119.7559546277216
 20
-143.2764289497766
 30
0.0
  0
VERTEX
  5
47
330
45
100
AcDbEntity
  8
_U+30EC_U+30A4_U+30E4_U+30FC 1
 62
   179
420
  2234388
370
     9
100
AcDbVertex
100
AcDb2dVertex
 10
119.7559546277216
 20
-157.0615801948383
 30
0.0
  0
SEQEND
  5
48
330
45
100
AcDbEntity
  8
_U+30EC_U+30A4_U+30E4_U+30FC 1
 62
   179
420
  2234388
370
     9
  0
SPLINE
  5
49
330
1F
100
AcDbEntity
  8
_U+30EC_U+30A4_U+30E4_U+30FC 1
 62
   179
420
  2234388
370
     9
100
AcDbSpline
210
0.0
220
0.0
230
1.0
 70
    11
 71
     3
 72
    17
 73
    13
 74
     0
 42
0.0000000001
 43
0.0000000001
 12
1.0
 22
0.0
 32
0.0
 13
1.0
 23
0.0
 33
0.0
 40
0.0
 40
0.0
 40
0.0
 40
0.0
 40
1.0
 40
1.0
 40
1.0
 40
2.0
 40
2.0
 40
2.0
 40
3.0
 40
3.0
 40
3.0
 40
4.0
 40
4.0
 40
4.0
 40
4.0
 10
119.6560468586494
 20
-147.0591653244277
 30
0.0
 10
119.6560468586494
 20
-147.1142007248046
 30
0.0
 10
119.7008492488427
 20
-147.1590084979596
 30
0.0
 10
119.7558792662579
 20
-147.1590084979596
 30
0.0
 10
119.8109146666347
 20
-147.1590084979596
 30
0.0
 10
119.8557170568281
 20
-147.1142007248046
 30
0.0
 10
119.8557170568281
 20
-147.0591653244277
 30
0.0
 10
119.8557170568281
 20
-147.0034301390304
 30
0.0
 10
119.8109146666347
 20
-146.9586331317988
 30
0.0
 10
119.7558792662579
 20
-146.9586331317988
 30
0.0
 10
119.7008492488427
 20
-146.9586331317988
 30
0.0
 10
119.6560468586494
 20
-147.0034301390304
 30
0.0
 10
119.6560468586494
 20
-147.0591653244277
 30
0.0
  0
POLYLINE
  5
4A
330
1F
100
AcDbEntity
  8
_U+30EC_U+30A4_U+30E4_U+30FC 1
 62
   179
420
  2234388
370
     9
100
AcDb2dPolyline
 66
     1
 10
0.0
 20
0.0
 30
0.0
  0
VERTEX
  5
4B
330
4A
100
AcDbEntity
  8
_U+30EC_U+30A4_U+30E4_U+30FC 1
 62
   179
420
  2234388
370
     9
100
AcDbVertex
100
AcDb2dVertex
 10
118.1319419989365
 20
-147.0591653244277
 30
0.0
  0
VERTEX
  5
4C
330
4A
100
AcDbEntity
  8
_U+30EC_U+30A4_U+30E4_U+30FC 1
 62
   179
420
  2234388
370
     9
100
AcDbVertex
100
AcDb2dVertex
 10
120.7558989752771
 20
-147.0591653244277
 30
0.0
  0
SEQEND
  5
4D
330
4A
100
AcDbEntity
  8
_U+30EC_U+30A4_U+30E4_U+30FC 1
 62
   179
420
  2234388
370
     9
  0
SPLINE
  5
4E
330
1F
100
AcDbEntity
  8
_U+30EC_U+30A4_U+30E4_U+30FC 1
 62
   179
420
  2234388
370
     9
100
AcDbSpline
210
0.0
220
0.0
230
1.0
 70
    11
 71
     3
 72
    17
 73
    13
 74
     0
 42
0.0000000001
 43
0.0000000001
 12
1.0
 22
0.0
 32
0.0
 13
1.0
 23
0.0
 33
0.0
 40
0.0
 40
0.0
 40
0.0
 40
0.0
 40
1.0
 40
1.0
 40
1.0
 40
2.0
 40
2.0
 40
2.0
 40
3.0
 40
3.0
 40
3.0
 40
4.0
 40
4.0
 40
4.0
 40
4.0
 10
119.6560468586494
 20
-148.0595672237276
 30
0.0
 10
119.6560468586494
 20
-148.1146026241045
 30
0.0
 10
119.7008492488427
 20
-148.1594103972592
 30
0.0
 10
119.7558792662579
 20
-148.1594103972592
 30
0.0
 10
119.8109146666347
 20
-148.1594103972592
 30
0.0
 10
119.8557170568281
 20
-148.1146026241045
 30
0.0
 10
119.8557170568281
 20
-148.0595672237276
 30
0.0
 10
119.8557170568281
 20
-148.00383203833
 30
0.0
 10
119.8109146666347
 20
-147.9590350310984
 30
0.0
 10
119.7558792662579
 20
-147.9590350310984
 30
0.0
 10
119.7008492488427
 20
-147.9590350310984
 30
0.0
 10
119.6560468586494
 20
-148.00383203833
 30
0.0
 10
119.6560468586494
 20
-148.0595672237276
 30
0.0
  0
POLYLINE
  5
4F
330
1F
100
AcDbEntity
  8
_U+30EC_U+30A4_U+30E4_U+30FC 1
 62
   179
420
  2234388
370
     9
100
AcDb2dPolyline
 66
     1
 10
0.0
 20
0.0
 30
0.0
  0
VERTEX
  5
50
330
4F
100
AcDbEntity
  8
_U+30EC_U+30A4_U+30E4_U+30FC 1
 62
   179
420
  2234388
370
     9
100
AcDbVertex
100
AcDb2dVertex
 10
118.1319419989365
 20
-148.0595672237276
 30
0.0
  0
VERTEX
  5
51
330
4F
100
AcDbEntity
  8
_U+30EC_U+30A4_U+30E4_U+30FC 1
 62
   179
420
  2234388
370
     9
100
AcDbVertex
100
AcDb2dVertex
 10
120.7558989752771
 20
-148.0595672237276
 30
0.0
  0
SEQEND
  5
52
330
4F
100
AcDbEntity
  8
_U+30EC_U+30A4_U+30E4_U+30FC 1
 62
   179
420
  2234388
370
     9
  0
SPLINE
  5
53
330
1F
100
AcDbEntity
  8
_U+30EC_U+30A4_U+30E4_U+30FC 1
 62
   179
420
  2234388
370
     9
100
AcDbSpline
210
0.0
220
0.0
230
1.0
 70
    11
 71
     3
 72
    17
 73
    13
 74
     0
 42
0.0000000001
 43
0.0000000001
 12
1.0
 22
0.0
 32
0.0
 13
1.0
 23
0.0
 33
0.0
 40
0.0
 40
0.0
 40
0.0
 40
0.0
 40
1.0
 40
1.0
 40
1.0
 40
2.0
 40
2.0
 40
2.0
 40
3.0
 40
3.0
 40
3.0
 40
4.0
 40
4.0
 40
4.0
 40
4.0
 10
119.6560468586494
 20
-157.0595992649343
 30
0.0
 10
119.6560468586494
 20
-157.1146346653112
 30
0.0
 10
119.7008492488427
 20
-157.1594424384662
 30
0.0
 10
119.7558792662579
 20
-157.1594424384662
 30
0.0
 10
119.8109146666347
 20
-157.1594424384662
 30
0.0
 10
119.8557170568281
 20
-157.1146346653112
 30
0.0
 10
119.8557170568281
 20
-157.0595992649343
 30
0.0
 10
119.8557170568281
 20
-157.003864079537
 30
0.0
 10
119.8109146666347
 20
-156.9590670723054
 30
0.0
 10
119.7558792662579
 20
-156.9590670723054
 30
0.0
 10
119.7008492488427
 20
-156.9590670723054
 30
0.0
 10
119.6560468586494
 20
-157.003864079537
 30
0.0
 10
119.6560468586494
 20
-157.0595992649343
 30
0.0
  0
POLYLINE
  5
54
330
1F
100
AcDbEntity
  8
_U+30EC_U+30A4_U+30E4_U+30FC 1
 62
   179
420
  2234388
370
     9
100
AcDb2dPolyline
 66
     1
 10
0.0
 20
0.0
 30
0.0
  0
VERTEX
  5
55
330
54
100
AcDbEntity
  8
_U+30EC_U+30A4_U+30E4_U+30FC 1
 62
   179
420
  2234388
370
     9
100
AcDbVertex
100
AcDb2dVertex
 10
118.1319419989365
 20
-157.0595992649343
 30
0.0
  0
VERTEX
  5
56
330
54
100
AcDbEntity
  8
_U+30EC_U+30A4_U+30E4_U+30FC 1
 62
   179
420
  2234388
370
     9
100
AcDbVertex
100
AcDb2dVertex
 10
120.7558989752771
 20
-157.0595992649343
 30
0.0
  0
SEQEND
  5
57
330
54
100
AcDbEntity
  8
_U+30EC_U+30A4_U+30E4_U+30FC 1
 62
   179
420
  2234388
370
     9
  0
INSERT
  5
59
330
1F
100
AcDbEntity
  8
_U+30EC_U+30A4_U+30E4_U+30FC 1
100
AcDbBlockReference
  2
block 2
 10
0.0
 20
0.0
 30
0.0
  0
INSERT
  5
60
330
1F
100
AcDbEntity
  8
_U+30EC_U+30A4_U+30E4_U+30FC 1
100
AcDbBlockReference
  2
block 3
 10
0.0
 20
0.0
 30
0.0
  0
SPLINE
  5
65
330
1F
100
AcDbEntity
  8
_U+30EC_U+30A4_U+30E4_U+30FC 1
 62
   179
420
  2234388
370
     9
100
AcDbSpline
210
0.0
220
0.0
230
1.0
 70
    11
 71
     3
 72
    17
 73
    13
 74
     0
 42
0.0000000001
 43
0.0000000001
 12
1.0
 22
0.0
 32
0.0
 13
1.0
 23
0.0
 33
0.0
 40
0.0
 40
0.0
 40
0.0
 40
0.0
 40
1.0
 40
1.0
 40
1.0
 40
2.0
 40
2.0
 40
2.0
 40
3.0
 40
3.0
 40
3.0
 40
4.0
 40
4.0
 40
4.0
 40
4.0
 10
100.0830921346743
 20
-162.0608228490247
 30
0.0
 10
100.0830921346743
 20
-162.0057982145713
 30
0.0
 10
100.0382870530001
 20
-161.9609904414162
 30
0.0
 10
99.98254917612199
 20
-161.9609904414162
 30
0.0
 10
99.92751646722597
 20
-161.9609904414162
 30
0.0
 10
99.88271407703263
 20
-162.0057982145713
 30
0.0
 10
99.88271407703263
 20
-162.0608228490247
 30
0.0
 10
99.88271407703263
 20
-162.1158582494016
 30
0.0
 10
99.92751646722597
 20
-162.1606660225566
 30
0.0
 10
99.98254917612199
 20
-162.1606660225566
 30
0.0
 10
100.0382870530001
 20
-162.1606660225566
 30
0.0
 10
100.0830921346743
 20
-162.1158582494016
 30
0.0
 10
100.0830921346743
 20
-162.0608228490247
 30
0.0
  0
POLYLINE
  5
66
330
1F
100
AcDbEntity
  8
_U+30EC_U+30A4_U+30E4_U+30FC 1
 62
   179
420
  2234388
370
     9
100
AcDb2dPolyline
 66
     1
 10
0.0
 20
0.0
 30
0.0
  0
VERTEX
  5
67
330
66
100
AcDbEntity
  8
_U+30EC_U+30A4_U+30E4_U+30FC 1
 62
   179
420
  2234388
370
     9
100
AcDbVertex
100
AcDb2dVertex
 10
99.98247919761994
 20
-162.0608228490247
 30
0.0
  0
VERTEX
  5
68
330
66
100
AcDbEntity
  8
_U+30EC_U+30A4_U+30E4_U+30FC 1
 62
   179
420
  2234388
370
     9
100
AcDbVertex
100
AcDb2dVertex
 10
116.8819429317306
 20
-162.0608228490247
 30
0.0
  0
SEQEND
  5
69
330
66
100
AcDbEntity
  8
_U+30EC_U+30A4_U+30E4_U+30FC 1
 62
   179
420
  2234388
370
     9
  0
POLYLINE
  5
6A
330
1F
100
AcDbEntity
  8
_U+30EC_U+30A4_U+30E4_U+30FC 1
 62
   179
420
  2234388
370
     9
100
AcDb2dPolyline
 66
     1
 10
0.0
 20
0.0
 30
0.0
  0
VERTEX
  5
6B
330
6A
100
AcDbEntity
  8
_U+30EC_U+30A4_U+30E4_U+30FC 1
 62
   179
420
  2234388
370
     9
100
AcDbVertex
100
AcDb2dVertex
 10
99.98247919761994
 20
-159.5992805929669
 30
0.0
  0
VERTEX
  5
6C
330
6A
100
AcDbEntity
  8
_U+30EC_U+30A4_U+30E4_U+30FC 1
 62
   179
420
  2234388
370
     9
100
AcDbVertex
100
AcDb2dVertex
 10
99.98247919761994
 20
-163.0607402817717
 30
0.0
  0
SEQEND
  5
6D
330
6A
100
AcDbEntity
  8
_U+30EC_U+30A4_U+30E4_U+30FC 1
 62
   179
420
  2234388
370
     9
  0
SPLINE
  5
6E
330
1F
100
AcDbEntity
  8
_U+30EC_U+30A4_U+30E4_U+30FC 1
 62
   179
420
  2234388
370
     9
100
AcDbSpline
210
0.0
220
0.0
230
1.0
 70
    11
 71
     3
 72
    17
 73
    13
 74
     0
 42
0.0000000001
 43
0.0000000001
 12
1.0
 22
0.0
 32
0.0
 13
1.0
 23
0.0
 33
0.0
 40
0.0
 40
0.0
 40
0.0
 40
0.0
 40
1.0
 40
1.0
 40
1.0
 40
2.0
 40
2.0
 40
2.0
 40
3.0
 40
3.0
 40
3.0
 40
4.0
 40
4.0
 40
4.0
 40
4.0
 10
117.0832387843414
 20
-162.0608228490247
 30
0.0
 10
117.0832387843414
 20
-162.0057982145713
 30
0.0
 10
117.0384310111864
 20
-161.9609904414162
 30
0.0
 10
116.9826958257891
 20
-161.9609904414162
 30
0.0
 10
116.9276604254122
 20
-161.9609904414162
 30
0.0
 10
116.8828580352189
 20
-162.0057982145713
 30
0.0
 10
116.8828580352189
 20
-162.0608228490247
 30
0.0
 10
116.8828580352189
 20
-162.1158582494016
 30
0.0
 10
116.9276604254122
 20
-162.1606660225566
 30
0.0
 10
116.9826958257891
 20
-162.1606660225566
 30
0.0
 10
117.0384310111864
 20
-162.1606660225566
 30
0.0
 10
117.0832387843414
 20
-162.1158582494016
 30
0.0
 10
117.0832387843414
 20
-162.0608228490247
 30
0.0
  0
POLYLINE
  5
6F
330
1F
100
AcDbEntity
  8
_U+30EC_U+30A4_U+30E4_U+30FC 1
 62
   179
420
  2234388
370
     9
100
AcDb2dPolyline
 66
     1
 10
0.0
 20
0.0
 30
0.0
  0
VERTEX
  5
70
330
6F
100
AcDbEntity
  8
_U+30EC_U+30A4_U+30E4_U+30FC 1
 62
   179
420
  2234388
370
     9
100
AcDbVertex
100
AcDb2dVertex
 10
116.9826635280189
 20
-159.5992805929669
 30
0.0
  0
VERTEX
  5
71
330
6F
100
AcDbEntity
  8
_U+30EC_U+30A4_U+30E4_U+30FC 1
 62
   179
420
  2234388
370
     9
100
AcDbVertex
100
AcDb2dVertex
 10
116.9826635280189
 20
-163.0607402817717
 30
0.0
  0
SEQEND
  5
72
330
6F
100
AcDbEntity
  8
_U+30EC_U+30A4_U+30E4_U+30FC 1
 62
   179
420
  2234388
370
     9
  0
INSERT
  5
74
330
1F
100
AcDbEntity
  8
_U+30EC_U+30A4_U+30E4_U+30FC 1
100
AcDbBlockReference
  2
block 4
 10
0.0
 20
0.0
 30
0.0
  0
POLYLINE
  5
7B
330
1F
100
AcDbEntity
  8
_U+30EC_U+30A4_U+30E4_U+30FC 1
 62
   179
420
  2234388
370
     9
100
AcDb2dPolyline
 66
     1
 10
0.0
 20
0.0
 30
0.0
  0
VERTEX
  5
7C
330
7B
100
AcDbEntity
  8
_U+30EC_U+30A4_U+30E4_U+30FC 1
 62
   179
420
  2234388
370
     9
100
AcDbVertex
100
AcDb2dVertex
 10
112.4225521230445
 20
-137.5203311152513
 30
0.0
  0
VERTEX
  5
7D
330
7B
100
AcDbEntity
  8
_U+30EC_U+30A4_U+30E4_U+30FC 1
 62
   179
420
  2234388
370
     9
100
AcDbVertex
100
AcDb2dVertex
 10
104.422959661869
 20
-137.5203311152513
 30
0.0
  0
SEQEND
  5
7E
330
7B
100
AcDbEntity
  8
_U+30EC_U+30A4_U+30E4_U+30FC 1
 62
   179
420
  2234388
370
     9
  0
SPLINE
  5
7F
330
1F
100
AcDbEntity
  8
_U+30EC_U+30A4_U+30E4_U+30FC 1
 62
   179
420
  2234388
370
     9
100
AcDbSpline
210
0.0
220
0.0
230
1.0
 70
    11
 71
     3
 72
    17
 73
    13
 74
     0
 42
0.0000000001
 43
0.0000000001
 12
1.0
 22
0.0
 32
0.0
 13
1.0
 23
0.0
 33
0.0
 40
0.0
 40
0.0
 40
0.0
 40
0.0
 40
1.0
 40
1.0
 40
1.0
 40
2.0
 40
2.0
 40
2.0
 40
3.0
 40
3.0
 40
3.0
 40
4.0
 40
4.0
 40
4.0
 40
4.0
 10
104.3920237810038
 20
-137.4204664098723
 30
0.0
 10
104.3369883806269
 20
-137.4204664098723
 30
0.0
 10
104.2921859904336
 20
-137.4652741830274
 30
0.0
 10
104.2921859904336
 20
-137.5203095834042
 30
0.0
 10
104.2921859904336
 20
-137.5753449837811
 30
0.0
 10
104.3369883806269
 20
-137.6201419910127
 30
0.0
 10
104.3920237810038
 20
-137.6201419910127
 30
0.0
 10
104.4470537984189
 20
-137.6201419910127
 30
0.0
 10
104.4918561886126
 20
-137.5753449837811
 30
0.0
 10
104.4918561886126
 20
-137.5203095834042
 30
0.0
 10
104.4918561886126
 20
-137.4652741830274
 30
0.0
 10
104.4470537984189
 20
-137.4204664098723
 30
0.0
 10
104.3920237810038
 20
-137.4204664098723
 30
0.0
  0
POLYLINE
  5
80
330
1F
100
AcDbEntity
  8
_U+30EC_U+30A4_U+30E4_U+30FC 1
 62
   179
420
  2234388
370
     9
100
AcDb2dPolyline
 66
     1
 10
0.0
 20
0.0
 30
0.0
  0
VERTEX
  5
81
330
80
100
AcDbEntity
  8
_U+30EC_U+30A4_U+30E4_U+30FC 1
 62
   179
420
  2234388
370
     9
100
AcDbVertex
100
AcDb2dVertex
 10
104.3920237810038
 20
-136.0603642441425
 30
0.0
  0
VERTEX
  5
82
330
80
100
AcDbEntity
  8
_U+30EC_U+30A4_U+30E4_U+30FC 1
 62
   179
420
  2234388
370
     9
100
AcDbVertex
100
AcDb2dVertex
 10
104.3920237810038
 20
-138.8007439160377
 30
0.0
  0
SEQEND
  5
83
330
80
100
AcDbEntity
  8
_U+30EC_U+30A4_U+30E4_U+30FC 1
 62
   179
420
  2234388
370
     9
  0
SPLINE
  5
84
330
1F
100
AcDbEntity
  8
_U+30EC_U+30A4_U+30E4_U+30FC 1
 62
   179
420
  2234388
370
     9
100
AcDbSpline
210
0.0
220
0.0
230
1.0
 70
    11
 71
     3
 72
    17
 73
    13
 74
     0
 42
0.0000000001
 43
0.0000000001
 12
1.0
 22
0.0
 32
0.0
 13
1.0
 23
0.0
 33
0.0
 40
0.0
 40
0.0
 40
0.0
 40
0.0
 40
1.0
 40
1.0
 40
1.0
 40
2.0
 40
2.0
 40
2.0
 40
3.0
 40
3.0
 40
3.0
 40
4.0
 40
4.0
 40
4.0
 40
4.0
 10
112.3922460486977
 20
-137.4204664098723
 30
0.0
 10
112.3372106483209
 20
-137.4204664098723
 30
0.0
 10
112.2924082581275
 20
-137.4652741830274
 30
0.0
 10
112.2924082581275
 20
-137.5203095834042
 30
0.0
 10
112.2924082581275
 20
-137.5753449837811
 30
0.0
 10
112.3372106483209
 20
-137.6201419910127
 30
0.0
 10
112.3922460486977
 20
-137.6201419910127
 30
0.0
 10
112.4472760661129
 20
-137.6201419910127
 30
0.0
 10
112.4920784563062
 20
-137.5753449837811
 30
0.0
 10
112.4920784563062
 20
-137.5203095834042
 30
0.0
 10
112.4920784563062
 20
-137.4652741830274
 30
0.0
 10
112.4472760661129
 20
-137.4204664098723
 30
0.0
 10
112.3922460486977
 20
-137.4204664098723
 30
0.0
  0
POLYLINE
  5
85
330
1F
100
AcDbEntity
  8
_U+30EC_U+30A4_U+30E4_U+30FC 1
 62
   179
420
  2234388
370
     9
100
AcDb2dPolyline
 66
     1
 10
0.0
 20
0.0
 30
0.0
  0
VERTEX
  5
86
330
85
100
AcDbEntity
  8
_U+30EC_U+30A4_U+30E4_U+30FC 1
 62
   179
420
  2234388
370
     9
100
AcDbVertex
100
AcDb2dVertex
 10
112.3922460486977
 20
-136.0603642441425
 30
0.0
  0
VERTEX
  5
87
330
85
100
AcDbEntity
  8
_U+30EC_U+30A4_U+30E4_U+30FC 1
 62
   179
420
  2234388
370
     9
100
AcDbVertex
100
AcDb2dVertex
 10
112.3922460486977
 20
-145.5599674284809
 30
0.0
  0
SEQEND
  5
88
330
85
100
AcDbEntity
  8
_U+30EC_U+30A4_U+30E4_U+30FC 1
 62
   179
420
  2234388
370
     9
  0
INSERT
  5
8A
330
1F
100
AcDbEntity
  8
_U+30EC_U+30A4_U+30E4_U+30FC 1
100
AcDbBlockReference
  2
block 5
 10
0.0
 20
0.0
 30
0.0
  0
INSERT
  5
92
330
1F
100
AcDbEntity
  8
_U+30EC_U+30A4_U+30E4_U+30FC 1
100
AcDbBlockReference
  2
block 6
 10
0.0
 20
0.0
 30
0.0
  0
INSERT
  5
9A
330
1F
100
AcDbEntity
  8
_U+30EC_U+30A4_U+30E4_U+30FC 1
100
AcDbBlockReference
  2
block 7
 10
0.0
 20
0.0
 30
0.0
  0
INSERT
  5
A0
330
1F
100
AcDbEntity
  8
_U+30EC_U+30A4_U+30E4_U+30FC 1
100
AcDbBlockReference
  2
block 8
 10
0.0
 20
0.0
 30
0.0
  0
ENDSEC
  0
SECTION
  2
OBJECTS
  0
DICTIONARY
  5
C
330
0
100
AcDbDictionary
281
     1
  3
ACAD_GROUP
350
D
  3
ACAD_LAYOUT
350
1A
  3
ACAD_MATERIAL
350
3B
  3
ACAD_MLEADERSTYLE
350
A7
  3
ACAD_MLINESTYLE
350
17
  3
ACAD_PLOTSETTINGS
350
19
  3
ACAD_PLOTSTYLENAME
350
E
  3
ACAD_TABLESTYLE
350
A6
  3
ACAD_VISUALSTYLE
350
2A
  0
SUN
  5
3F
330
29
100
AcDbSun
 90
        1
290
     0
 63
     7
421
 16777215
 40
1.0
291
     1
 91
  2455826
 92
 54000000
292
     0
 70
     2
 71
   256
280
     1
  0
DICTIONARY
  5
D
102
{ACAD_REACTORS
330
C
102
}
330
C
100
AcDbDictionary
281
     1
  0
DICTIONARY
  5
1A
102
{ACAD_REACTORS
330
C
102
}
330
C
100
AcDbDictionary
281
     1
  3
Layout1
350
1E
  3
Layout2
350
26
  3
Model
350
22
  0
DICTIONARY
  5
3B
102
{ACAD_REACTORS
330
C
102
}
330
C
100
AcDbDictionary
281
     1
  3
ByBlock
350
3D
  3
ByLayer
350
3C
  3
Global
350
3E
  0
DICTIONARY
  5
A7
102
{ACAD_REACTORS
330
C
102
}
330
C
100
AcDbDictionary
281
     1
  0
DICTIONARY
  5
17
102
{ACAD_REACTORS
330
C
102
}
330
C
100
AcDbDictionary
281
     1
  3
Standard
350
18
  0
DICTIONARY
  5
19
102
{ACAD_REACTORS
330
C
102
}
330
C
100
AcDbDictionary
281
     1
  0
ACDBDICTIONARYWDFLT
  5
E
102
{ACAD_REACTORS
330
C
102
}
330
C
100
AcDbDictionary
281
     1
  3
Normal
350
F
100
AcDbDictionaryWithDefault
340
F
  0
DICTIONARY
  5
A6
102
{ACAD_REACTORS
330
C
102
}
330
C
100
AcDbDictionary
281
     1
  0
DICTIONARY
  5
2A
102
{ACAD_REACTORS
330
C
102
}
330
C
100
AcDbDictionary
281
     1
  3
2dWireframe
350
2F
  3
3D Hidden
350
31
  3
3dWireframe
350
30
  3
Basic
350
32
  3
Brighten
350
36
  3
ColorChange
350
3A
  3
Conceptual
350
34
  3
Dim
350
35
  3
Facepattern
350
39
  3
Flat
350
2B
  3
FlatWithEdges
350
2C
  3
Gouraud
350
2D
  3
GouraudWithEdges
350
2E
  3
Linepattern
350
38
  3
Realistic
350
33
  3
Thicken
350
37
  0
LAYOUT
  5
1E
102
{ACAD_REACTORS
330
1A
102
}
330
1A
100
AcDbPlotSettings
  1

  2
none_device
  4

  6

 40
0.0
 41
0.0
 42
0.0
 43
0.0
 44
0.0
 45
0.0
 46
0.0
 47
0.0
 48
0.0
 49
0.0
140
0.0
141
0.0
142
1.0
143
1.0
 70
   688
 72
     0
 73
     0
 74
     5
  7

 75
    16
 76
     0
 77
     2
 78
   300
147
1.0
148
0.0
149
0.0
100
AcDbLayout
  1
Layout1
 70
     1
 71
     1
 10
0.0
 20
0.0
 11
12.0
 21
9.0
 12
0.0
 22
0.0
 32
0.0
 14
1.000000000000000E+20
 24
1.000000000000000E+20
 34
1.000000000000000E+20
 15
-1.000000000000000E+20
 25
-1.000000000000000E+20
 35
-1.000000000000000E+20
146
0.0
 13
0.0
 23
0.0
 33
0.0
 16
1.0
 26
0.0
 36
0.0
 17
0.0
 27
1.0
 37
0.0
 76
     0
330
1B
  0
LAYOUT
  5
26
102
{ACAD_REACTORS
330
1A
102
}
330
1A
100
AcDbPlotSettings
  1

  2
none_device
  4

  6

 40
0.0
 41
0.0
 42
0.0
 43
0.0
 44
0.0
 45
0.0
 46
0.0
 47
0.0
 48
0.0
 49
0.0
140
0.0
141
0.0
142
1.0
143
1.0
 70
   688
 72
     0
 73
     0
 74
     5
  7

 75
    16
 76
     0
 77
     2
 78
   300
147
1.0
148
0.0
149
0.0
100
AcDbLayout
  1
Layout2
 70
     1
 71
     2
 10
0.0
 20
0.0
 11
0.0
 21
0.0
 12
0.0
 22
0.0
 32
0.0
 14
0.0
 24
0.0
 34
0.0
 15
0.0
 25
0.0
 35
0.0
146
0.0
 13
0.0
 23
0.0
 33
0.0
 16
1.0
 26
0.0
 36
0.0
 17
0.0
 27
1.0
 37
0.0
 76
     0
330
23
  0
LAYOUT
  5
22
102
{ACAD_REACTORS
330
1A
102
}
330
1A
100
AcDbPlotSettings
  1

  2
none_device
  4

  6

 40
0.0
 41
0.0
 42
0.0
 43
0.0
 44
0.0
 45
0.0
 46
0.0
 47
0.0
 48
0.0
 49
0.0
140
0.0
141
0.0
142
1.0
143
1.0
 70
  1712
 72
     0
 73
     0
 74
     0
  7

 75
     0
 76
     0
 77
     2
 78
   300
147
1.0
148
0.0
149
0.0
100
AcDbLayout
  1
Model
 70
     1
 71
     0
 10
0.0
 20
0.0
 11
12.0
 21
9.0
 12
0.0
 22
0.0
 32
0.0
 14
1.000000000000000E+20
 24
1.000000000000000E+20
 34
1.000000000000000E+20
 15
-1.000000000000000E+20
 25
-1.000000000000000E+20
 35
-1.000000000000000E+20
146
0.0
 13
0.0
 23
0.0
 33
0.0
 16
1.0
 26
0.0
 36
0.0
 17
0.0
 27
1.0
 37
0.0
 76
     0
330
1F
331
29
  0
MATERIAL
  5
3D
102
{ACAD_REACTORS
330
3B
102
}
330
3B
100
AcDbMaterial
  1
ByBlock
 72
     1
 94
      127
  0
MATERIAL
  5
3C
102
{ACAD_REACTORS
330
3B
102
}
330
3B
100
AcDbMaterial
  1
ByLayer
 72
     1
 94
      127
  0
MATERIAL
  5
3E
102
{ACAD_REACTORS
330
3B
102
}
330
3B
100
AcDbMaterial
  1
Global
 72
     1
 94
      127
  0
MLINESTYLE
  5
18
102
{ACAD_REACTORS
330
17
102
}
330
17
100
AcDbMlineStyle
  2
Standard
 70
     0
  3

 62
   256
 51
90.0
 52
90.0
 71
     2
 49
0.5
 62
   256
  6
BYLAYER
 49
-0.5
 62
   256
  6
BYLAYER
  0
ACDBPLACEHOLDER
  5
F
102
{ACAD_REACTORS
330
E
102
}
330
E
  0
VISUALSTYLE
  5
2F
102
{ACAD_REACTORS
330
2A
102
}
330
2A
100
AcDbVisualStyle
  2
2dWireframe
 70
     4
177
     2
291
     0
 71
     0
176
     1
 72
     2
176
     1
 73
     0
176
     1
 90
        0
176
     1
 40
-0.6
176
     1
 41
-30.0
176
     1
 62
     5
 63
     7
421
 16777215
176
     1
 74
     1
176
     1
 91
        4
176
     1
 64
     7
176
     1
 65
   257
176
     1
 75
     1
176
     1
175
     1
176
     1
 42
1.0
176
     1
 92
        0
176
     1
 66
   257
176
     1
 43
1.0
176
     1
 76
     1
176
     1
 77
     6
176
     1
 78
     2
176
     1
 67
     7
176
     1
 79
     5
176
     1
170
     0
176
     1
171
     0
176
     1
290
     0
176
     1
 93
        1
176
     1
 44
0.0
176
     1
173
     0
176
     1
  0
VISUALSTYLE
  5
31
102
{ACAD_REACTORS
330
2A
102
}
330
2A
100
AcDbVisualStyle
  2
3D Hidden
 70
     6
177
     2
291
     0
 71
     1
176
     1
 72
     2
176
     1
 73
     2
176
     1
 90
        0
176
     1
 40
-0.6
176
     1
 41
-30.0
176
     1
 62
     5
 63
     7
421
 16777215
176
     1
 74
     2
176
     1
 91
        2
176
     1
 64
     7
176
     1
 65
   257
176
     1
 75
     2
176
     1
175
     1
176
     1
 42
40.0
176
     1
 92
        0
176
     1
 66
   257
176
     1
 43
1.0
176
     1
 76
     1
176
     1
 77
     6
176
     1
 78
     2
176
     1
 67
     7
176
     1
 79
     3
176
     1
170
     0
176
     1
171
     0
176
     1
290
     0
176
     1
 93
        1
176
     1
 44
0.0
176
     1
173
     0
176
     1
  0
VISUALSTYLE
  5
30
102
{ACAD_REACTORS
330
2A
102
}
330
2A
100
AcDbVisualStyle
  2
3dWireframe
 70
     5
177
     2
291
     0
 71
     0
176
     1
 72
     2
176
     1
 73
     0
176
     1
 90
        0
176
     1
 40
-0.6
176
     1
 41
-30.0
176
     1
 62
     5
 63
     7
421
 16777215
176
     1
 74
     1
176
     1
 91
        4
176
     1
 64
     7
176
     1
 65
   257
176
     1
 75
     1
176
     1
175
     1
176
     1
 42
1.0
176
     1
 92
        0
176
     1
 66
   257
176
     1
 43
1.0
176
     1
 76
     1
176
     1
 77
     6
176
     1
 78
     2
176
     1
 67
     7
176
     1
 79
     5
176
     1
170
     0
176
     1
171
     0
176
     1
290
     0
176
     1
 93
        1
176
     1
 44
0.0
176
     1
173
     0
176
     1
  0
VISUALSTYLE
  5
32
102
{ACAD_REACTORS
330
2A
102
}
330
2A
100
AcDbVisualStyle
  2
Basic
 70
     7
177
     2
291
     1
 71
     1
176
     1
 72
     0
176
     1
 73
     1
176
     1
 90
        0
176
     1
 40
-0.6
176
     1
 41
-30.0
176
     1
 62
     5
 63
     7
421
 16777215
176
     1
 74
     0
176
     1
 91
        4
176
     1
 64
     7
176
     1
 65
   257
176
     1
 75
     1
176
     1
175
     1
176
     1
 42
1.0
176
     1
 92
        8
176
     1
 66
     7
176
     1
 43
1.0
176
     1
 76
     1
176
     1
 77
     6
176
     1
 78
     2
176
     1
 67
     7
176
     1
 79
     5
176
     1
170
     0
176
     1
171
     0
176
     1
290
     0
176
     1
 93
        1
176
     1
 44
0.0
176
     1
173
     0
176
     1
  0
VISUALSTYLE
  5
36
102
{ACAD_REACTORS
330
2A
102
}
330
2A
100
AcDbVisualStyle
  2
Brighten
 70
    12
177
     2
291
     1
 71
     2
176
     1
 72
     2
176
     1
 73
     0
176
     1
 90
        0
176
     1
 40
-0.6
176
     1
 41
-30.0
176
     1
 62
     5
 63
     7
421
 16777215
176
     1
 74
     1
176
     1
 91
        4
176
     1
 64
     7
176
     1
 65
   257
176
     1
 75
     1
176
     1
175
     1
176
     1
 42
1.0
176
     1
 92
        8
176
     1
 66
     7
176
     1
 43
1.0
176
     1
 76
     1
176
     1
 77
     6
176
     1
 78
     2
176
     1
 67
     7
176
     1
 79
     5
176
     1
170
     0
176
     1
171
     0
176
     1
290
     0
176
     1
 93
        1
176
     1
 44
50.0
176
     1
173
     0
176
     1
  0
VISUALSTYLE
  5
3A
102
{ACAD_REACTORS
330
2A
102
}
330
2A
100
AcDbVisualStyle
  2
ColorChange
 70
    16
177
     2
291
     1
 71
     2
176
     1
 72
     2
176
     1
 73
     3
176
     1
 90
        0
176
     1
 40
-0.6
176
     1
 41
-30.0
176
     1
 62
     5
 63
     8
421
  8421504
176
     1
 74
     1
176
     1
 91
        4
176
     1
 64
     7
176
     1
 65
   257
176
     1
 75
     1
176
     1
175
     1
176
     1
 42
1.0
176
     1
 92
        8
176
     1
 66
     8
424
  8421504
176
     1
 43
1.0
176
     1
 76
     1
176
     1
 77
     6
176
     1
 78
     2
176
     1
 67
     7
176
     1
 79
     5
176
     1
170
     0
176
     1
171
     0
176
     1
290
     0
176
     1
 93
        1
176
     1
 44
0.0
176
     1
173
     0
176
     1
  0
VISUALSTYLE
  5
34
102
{ACAD_REACTORS
330
2A
102
}
330
2A
100
AcDbVisualStyle
  2
Conceptual
 70
     9
177
     2
291
     0
 71
     3
176
     1
 72
     2
176
     1
 73
     0
176
     1
 90
        0
176
     1
 40
-0.6
176
     1
 41
-30.0
176
     1
 62
     5
 63
     7
421
 16777215
176
     1
 74
     2
176
     1
 91
        2
176
     1
 64
     7
176
     1
 65
   257
176
     1
 75
     1
176
     1
175
     1
176
     1
 42
40.0
176
     1
 92
        8
176
     1
 66
     7
176
     1
 43
1.0
176
     1
 76
     1
176
     1
 77
     6
176
     1
 78
     2
176
     1
 67
     7
176
     1
 79
     3
176
     1
170
     0
176
     1
171
     0
176
     1
290
     0
176
     1
 93
        1
176
     1
 44
0.0
176
     1
173
     0
176
     1
  0
VISUALSTYLE
  5
35
102
{ACAD_REACTORS
330
2A
102
}
330
2A
100
AcDbVisualStyle
  2
Dim
 70
    11
177
     2
291
     1
 71
     2
176
     1
 72
     2
176
     1
 73
     0
176
     1
 90
        0
176
     1
 40
-0.6
176
     1
 41
-30.0
176
     1
 62
     5
 63
     7
421
 16777215
176
     1
 74
     1
176
     1
 91
        4
176
     1
 64
     7
176
     1
 65
   257
176
     1
 75
     1
176
     1
175
     1
176
     1
 42
1.0
176
     1
 92
        8
176
     1
 66
     7
176
     1
 43
1.0
176
     1
 76
     1
176
     1
 77
     6
176
     1
 78
     2
176
     1
 67
     7
176
     1
 79
     5
176
     1
170
     0
176
     1
171
     0
176
     1
290
     0
176
     1
 93
        1
176
     1
 44
-50.0
176
     1
173
     0
176
     1
  0
VISUALSTYLE
  5
39
102
{ACAD_REACTORS
330
2A
102
}
330
2A
100
AcDbVisualStyle
  2
Facepattern
 70
    15
177
     2
291
     1
 71
     2
176
     1
 72
     2
176
     1
 73
     0
176
     1
 90
        0
176
     1
 40
-0.6
176
     1
 41
-30.0
176
     1
 62
     5
 63
     7
421
 16777215
176
     1
 74
     1
176
     1
 91
        4
176
     1
 64
     7
176
     1
 65
   257
176
     1
 75
     1
176
     1
175
     1
176
     1
 42
1.0
176
     1
 92
        8
176
     1
 66
     7
176
     1
 43
1.0
176
     1
 76
     1
176
     1
 77
     6
176
     1
 78
     2
176
     1
 67
     7
176
     1
 79
     5
176
     1
170
     0
176
     1
171
     0
176
     1
290
     0
176
     1
 93
        1
176
     1
 44
0.0
176
     1
173
     0
176
     1
  0
VISUALSTYLE
  5
2B
102
{ACAD_REACTORS
330
2A
102
}
330
2A
100
AcDbVisualStyle
  2
Flat
 70
     0
177
     2
291
     1
 71
     2
176
     1
 72
     1
176
     1
 73
     1
176
     1
 90
        2
176
     1
 40
-0.6
176
     1
 41
30.0
176
     1
 62
     5
 63
     7
421
 16777215
176
     1
 74
     0
176
     1
 91
        4
176
     1
 64
     7
176
     1
 65
   257
176
     1
 75
     1
176
     1
175
     1
176
     1
 42
1.0
176
     1
 92
        8
176
     1
 66
     7
176
     1
 43
1.0
176
     1
 76
     1
176
     1
 77
     6
176
     1
 78
     2
176
     1
 67
     7
176
     1
 79
     5
176
     1
170
     0
176
     1
171
     0
176
     1
290
     0
176
     1
 93
       13
176
     1
 44
0.0
176
     1
173
     0
176
     1
  0
VISUALSTYLE
  5
2C
102
{ACAD_REACTORS
330
2A
102
}
330
2A
100
AcDbVisualStyle
  2
FlatWithEdges
 70
     1
177
     2
291
     1
 71
     2
176
     1
 72
     1
176
     1
 73
     1
176
     1
 90
        2
176
     1
 40
-0.6
176
     1
 41
30.0
176
     1
 62
     5
 63
     7
421
 16777215
176
     1
 74
     1
176
     1
 91
        4
176
     1
 64
     7
176
     1
 65
   257
176
     1
 75
     1
176
     1
175
     1
176
     1
 42
1.0
176
     1
 92
        0
176
     1
 66
   257
176
     1
 43
1.0
176
     1
 76
     1
176
     1
 77
     6
176
     1
 78
     2
176
     1
 67
     7
176
     1
 79
     5
176
     1
170
     0
176
     1
171
     0
176
     1
290
     0
176
     1
 93
       13
176
     1
 44
0.0
176
     1
173
     0
176
     1
  0
VISUALSTYLE
  5
2D
102
{ACAD_REACTORS
330
2A
102
}
330
2A
100
AcDbVisualStyle
  2
Gouraud
 70
     2
177
     2
291
     1
 71
     2
176
     1
 72
     2
176
     1
 73
     1
176
     1
 90
        2
176
     1
 40
-0.6
176
     1
 41
30.0
176
     1
 62
     5
 63
     7
421
 16777215
176
     1
 74
     0
176
     1
 91
        4
176
     1
 64
     7
176
     1
 65
   257
176
     1
 75
     1
176
     1
175
     1
176
     1
 42
1.0
176
     1
 92
        0
176
     1
 66
     7
176
     1
 43
1.0
176
     1
 76
     1
176
     1
 77
     6
176
     1
 78
     2
176
     1
 67
     7
176
     1
 79
     5
176
     1
170
     0
176
     1
171
     0
176
     1
290
     0
176
     1
 93
       13
176
     1
 44
0.0
176
     1
173
     0
176
     1
  0
VISUALSTYLE
  5
2E
102
{ACAD_REACTORS
330
2A
102
}
330
2A
100
AcDbVisualStyle
  2
GouraudWithEdges
 70
     3
177
     2
291
     1
 71
     2
176
     1
 72
     2
176
     1
 73
     1
176
     1
 90
        2
176
     1
 40
-0.6
176
     1
 41
30.0
176
     1
 62
     5
 63
     7
421
 16777215
176
     1
 74
     1
176
     1
 91
        4
176
     1
 64
     7
176
     1
 65
   257
176
     1
 75
     1
176
     1
175
     1
176
     1
 42
1.0
176
     1
 92
        0
176
     1
 66
   257
176
     1
 43
1.0
176
     1
 76
     1
176
     1
 77
     6
176
     1
 78
     2
176
     1
 67
     7
176
     1
 79
     5
176
     1
170
     0
176
     1
171
     0
176
     1
290
     0
176
     1
 93
       13
176
     1
 44
0.0
176
     1
173
     0
176
     1
  0
VISUALSTYLE
  5
38
102
{ACAD_REACTORS
330
2A
102
}
330
2A
100
AcDbVisualStyle
  2
Linepattern
 70
    14
177
     2
291
     1
 71
     2
176
     1
 72
     2
176
     1
 73
     0
176
     1
 90
        0
176
     1
 40
-0.6
176
     1
 41
-30.0
176
     1
 62
     5
 63
     7
421
 16777215
176
     1
 74
     1
176
     1
 91
        4
176
     1
 64
     7
176
     1
 65
   257
176
     1
 75
     7
176
     1
175
     7
176
     1
 42
1.0
176
     1
 92
        8
176
     1
 66
     7
176
     1
 43
1.0
176
     1
 76
     1
176
     1
 77
     6
176
     1
 78
     2
176
     1
 67
     7
176
     1
 79
     5
176
     1
170
     0
176
     1
171
     0
176
     1
290
     0
176
     1
 93
        1
176
     1
 44
0.0
176
     1
173
     0
176
     1
  0
VISUALSTYLE
  5
33
102
{ACAD_REACTORS
330
2A
102
}
330
2A
100
AcDbVisualStyle
  2
Realistic
 70
     8
177
     2
291
     0
 71
     2
176
     1
 72
     2
176
     1
 73
     0
176
     1
 90
        0
176
     1
 40
-0.6
176
     1
 41
-30.0
176
     1
 62
     5
 63
     7
421
 16777215
176
     1
 74
     1
176
     1
 91
        0
176
     1
 64
     7
176
     1
 65
   257
176
     1
 75
     1
176
     1
175
     1
176
     1
 42
1.0
176
     1
 92
        8
176
     1
 66
     8
424
  7895160
176
     1
 43
1.0
176
     1
 76
     1
176
     1
 77
     6
176
     1
 78
     2
176
     1
 67
     7
176
     1
 79
     5
176
     1
170
     0
176
     1
171
     0
176
     1
290
     0
176
     1
 93
       13
176
     1
 44
0.0
176
     1
173
     0
176
     1
  0
VISUALSTYLE
  5
37
102
{ACAD_REACTORS
330
2A
102
}
330
2A
100
AcDbVisualStyle
  2
Thicken
 70
    13
177
     2
291
     1
 71
     2
176
     1
 72
     2
176
     1
 73
     0
176
     1
 90
        0
176
     1
 40
-0.6
176
     1
 41
-30.0
176
     1
 62
     5
 63
     7
421
 16777215
176
     1
 74
     1
176
     1
 91
        4
176
     1
 64
     7
176
     1
 65
   257
176
     1
 75
     1
176
     1
175
     1
176
     1
 42
1.0
176
     1
 92
       12
176
     1
 66
     7
176
     1
 43
1.0
176
     1
 76
     1
176
     1
 77
     6
176
     1
 78
     2
176
     1
 67
     7
176
     1
 79
     5
176
     1
170
     0
176
     1
171
     0
176
     1
290
     0
176
     1
 93
        1
176
     1
 44
0.0
176
     1
173
     0
176
     1
  0
ENDSEC
  0
EOF
