  0
SECTION
  2
HEADER
  9
$ACADVER
  1
AC1024
  9
$ACADMAINTVER
 70
     6
  9
$DWGCODEPAGE
  3
UNDEFINED
  9
$INSBASE
 10
0.0
 20
0.0
 30
0.0
  9
$EXTMIN
 10
1.000000000000000E+20
 20
1.000000000000000E+20
 30
1.000000000000000E+20
  9
$EXTMAX
 10
-1.000000000000000E+20
 20
-1.000000000000000E+20
 30
-1.000000000000000E+20
  9
$LIMMIN
 10
0.0
 20
0.0
  9
$LIMMAX
 10
12.0
 20
9.0
  9
$ORTHOMODE
 70
     0
  9
$REGENMODE
 70
     1
  9
$FILLMODE
 70
     1
  9
$QTEXTMODE
 70
     0
  9
$MIRRTEXT
 70
     1
  9
$LTSCALE
 40
1.0
  9
$ATTMODE
 70
     1
  9
$TEXTSIZE
 40
0.2
  9
$TRACEWID
 40
0.05
  9
$TEXTSTYLE
  7
Standard
  9
$CLAYER
  8
0
  9
$CELTYPE
  6
ByLayer
  9
$CECOLOR
 62
   256
  9
$CELTSCALE
 40
1.0
  9
$DISPSILH
 70
     0
  9
$DIMSCALE
 40
1.0
  9
$DIMASZ
 40
0.18
  9
$DIMEXO
 40
0.0625
  9
$DIMDLI
 40
0.38
  9
$DIMRND
 40
0.0
  9
$DIMDLE
 40
0.0
  9
$DIMEXE
 40
0.18
  9
$DIMTP
 40
0.0
  9
$DIMTM
 40
0.0
  9
$DIMTXT
 40
0.18
  9
$DIMCEN
 40
0.09
  9
$DIMTSZ
 40
0.0
  9
$DIMTOL
 70
     0
  9
$DIMLIM
 70
     0
  9
$DIMTIH
 70
     1
  9
$DIMTOH
 70
     1
  9
$DIMSE1
 70
     0
  9
$DIMSE2
 70
     0
  9
$DIMTAD
 70
     0
  9
$DIMZIN
 70
     0
  9
$DIMBLK
  1

  9
$DIMASO
 70
     1
  9
$DIMSHO
 70
     1
  9
$DIMPOST
  1

  9
$DIMAPOST
  1

  9
$DIMALT
 70
     0
  9
$DIMALTD
 70
     2
  9
$DIMALTF
 40
25.4
  9
$DIMLFAC
 40
1.0
  9
$DIMTOFL
 70
     0
  9
$DIMTVP
 40
0.0
  9
$DIMTIX
 70
     0
  9
$DIMSOXD
 70
     0
  9
$DIMSAH
 70
     0
  9
$DIMBLK1
  1

  9
$DIMBLK2
  1

  9
$DIMSTYLE
  2
Standard
  9
$DIMCLRD
 70
     0
  9
$DIMCLRE
 70
     0
  9
$DIMCLRT
 70
     0
  9
$DIMTFAC
 40
1.0
  9
$DIMGAP
 40
0.09
  9
$DIMJUST
 70
     0
  9
$DIMSD1
 70
     0
  9
$DIMSD2
 70
     0
  9
$DIMTOLJ
 70
     1
  9
$DIMTZIN
 70
     0
  9
$DIMALTZ
 70
     0
  9
$DIMALTTZ
 70
     0
  9
$DIMUPT
 70
     0
  9
$DIMDEC
 70
     4
  9
$DIMTDEC
 70
     4
  9
$DIMALTU
 70
     2
  9
$DIMALTTD
 70
     2
  9
$DIMTXSTY
  7
Standard
  9
$DIMAUNIT
 70
     0
  9
$DIMADEC
 70
     0
  9
$DIMALTRND
 40
0.0
  9
$DIMAZIN
 70
     0
  9
$DIMDSEP
 70
    46
  9
$DIMATFIT
 70
     3
  9
$DIMFRAC
 70
     0
  9
$DIMLDRBLK
  1

  9
$DIMLUNIT
 70
     2
  9
$DIMLWD
 70
    -2
  9
$DIMLWE
 70
    -2
  9
$DIMTMOVE
 70
     0
  9
$DIMFXL
 40
1.0
  9
$DIMFXLON
 70
     0
  9
$DIMJOGANG
 40
0.7853981633974483
  9
$DIMTFILL
 70
     0
  9
$DIMTFILLCLR
 70
     0
  9
$DIMARCSYM
 70
     0
  9
$DIMLTYPE
  6

  9
$DIMLTEX1
  6

  9
$DIMLTEX2
  6

  9
$DIMTXTDIRECTION
 70
     0
  9
$LUNITS
 70
     2
  9
$LUPREC
 70
     4
  9
$SKETCHINC
 40
0.1
  9
$FILLETRAD
 40
0.5
  9
$AUNITS
 70
     0
  9
$AUPREC
 70
     0
  9
$MENU
  1
.
  9
$ELEVATION
 40
0.0
  9
$PELEVATION
 40
0.0
  9
$THICKNESS
 40
0.0
  9
$LIMCHECK
 70
     0
  9
$CHAMFERA
 40
0.5
  9
$CHAMFERB
 40
0.5
  9
$CHAMFERC
 40
1.0
  9
$CHAMFERD
 40
0.0
  9
$SKPOLY
 70
     0
  9
$TDCREATE
 40
2457917.61974537
  9
$TDUCREATE
 40
2457917.24474537
  9
$TDUPDATE
 40
2457917.61974537
  9
$TDUUPDATE
 40
2457917.24474537
  9
$TDINDWG
 40
0.0000000116
  9
$TDUSRTIMER
 40
0.0000000116
  9
$USRTIMER
 70
     1
  9
$ANGBASE
 50
0.0
  9
$ANGDIR
 70
     0
  9
$PDMODE
 70
     0
  9
$PDSIZE
 40
0.0
  9
$PLINEWID
 40
0.0
  9
$SPLFRAME
 70
     0
  9
$SPLINETYPE
 70
     6
  9
$SPLINESEGS
 70
     8
  9
$HANDSEED
  5
E7
  9
$SURFTAB1
 70
     6
  9
$SURFTAB2
 70
     6
  9
$SURFTYPE
 70
     6
  9
$SURFU
 70
     6
  9
$SURFV
 70
     6
  9
$UCSBASE
  2

  9
$UCSNAME
  2

  9
$UCSORG
 10
0.0
 20
0.0
 30
0.0
  9
$UCSXDIR
 10
1.0
 20
0.0
 30
0.0
  9
$UCSYDIR
 10
0.0
 20
1.0
 30
0.0
  9
$UCSORTHOREF
  2

  9
$UCSORTHOVIEW
 70
     0
  9
$UCSORGTOP
 10
0.0
 20
0.0
 30
0.0
  9
$UCSORGBOTTOM
 10
0.0
 20
0.0
 30
0.0
  9
$UCSORGLEFT
 10
0.0
 20
0.0
 30
0.0
  9
$UCSORGRIGHT
 10
0.0
 20
0.0
 30
0.0
  9
$UCSORGFRONT
 10
0.0
 20
0.0
 30
0.0
  9
$UCSORGBACK
 10
0.0
 20
0.0
 30
0.0
  9
$PUCSBASE
  2

  9
$PUCSNAME
  2

  9
$PUCSORG
 10
0.0
 20
0.0
 30
0.0
  9
$PUCSXDIR
 10
1.0
 20
0.0
 30
0.0
  9
$PUCSYDIR
 10
0.0
 20
1.0
 30
0.0
  9
$PUCSORTHOREF
  2

  9
$PUCSORTHOVIEW
 70
     0
  9
$PUCSORGTOP
 10
0.0
 20
0.0
 30
0.0
  9
$PUCSORGBOTTOM
 10
0.0
 20
0.0
 30
0.0
  9
$PUCSORGLEFT
 10
0.0
 20
0.0
 30
0.0
  9
$PUCSORGRIGHT
 10
0.0
 20
0.0
 30
0.0
  9
$PUCSORGFRONT
 10
0.0
 20
0.0
 30
0.0
  9
$PUCSORGBACK
 10
0.0
 20
0.0
 30
0.0
  9
$USERI1
 70
     0
  9
$USERI2
 70
     0
  9
$USERI3
 70
     0
  9
$USERI4
 70
     0
  9
$USERI5
 70
     0
  9
$USERR1
 40
0.0
  9
$USERR2
 40
0.0
  9
$USERR3
 40
0.0
  9
$USERR4
 40
0.0
  9
$USERR5
 40
0.0
  9
$WORLDVIEW
 70
     1
  9
$SHADEDGE
 70
     3
  9
$SHADEDIF
 70
    70
  9
$TILEMODE
 70
     1
  9
$MAXACTVP
 70
    64
  9
$PINSBASE
 10
0.0
 20
0.0
 30
0.0
  9
$PLIMCHECK
 70
     0
  9
$PEXTMIN
 10
1.000000000000000E+20
 20
1.000000000000000E+20
 30
1.000000000000000E+20
  9
$PEXTMAX
 10
-1.000000000000000E+20
 20
-1.000000000000000E+20
 30
-1.000000000000000E+20
  9
$PLIMMIN
 10
0.0
 20
0.0
  9
$PLIMMAX
 10
12.0
 20
9.0
  9
$UNITMODE
 70
     0
  9
$VISRETAIN
 70
     1
  9
$PLINEGEN
 70
     0
  9
$PSLTSCALE
 70
     1
  9
$TREEDEPTH
 70
  3020
  9
$CMLSTYLE
  2
Standard
  9
$CMLJUST
 70
     0
  9
$CMLSCALE
 40
1.0
  9
$PROXYGRAPHICS
 70
     1
  9
$MEASUREMENT
 70
     0
  9
$CELWEIGHT
370
    -1
  9
$ENDCAPS
280
     0
  9
$JOINSTYLE
280
     0
  9
$LWDISPLAY
290
     1
  9
$INSUNITS
 70
     1
  9
$HYPERLINKBASE
  1

  9
$STYLESHEET
  1

  9
$XEDIT
290
     1
  9
$CEPSNTYPE
380
     0
  9
$PSTYLEMODE
290
     1
  9
$FINGERPRINTGUID
  2
{324D8D2F-ECDF-F6A4-53FC-E21ACC5CDD53}
  9
$VERSIONGUID
  2
{FAEB1C32-E019-11D5-929B-00C0DF256EC4}
  9
$EXTNAMES
290
     1
  9
$PSVPSCALE
 40
0.0
  9
$OLESTARTUP
290
     0
  9
$SORTENTS
280
   127
  9
$INDEXCTL
280
     0
  9
$HIDETEXT
280
     1
  9
$XCLIPFRAME
280
     2
  9
$HALOGAP
280
     0
  9
$OBSCOLOR
 70
   257
  9
$OBSLTYPE
280
     0
  9
$INTERSECTIONDISPLAY
280
     0
  9
$INTERSECTIONCOLOR
 70
   257
  9
$DIMASSOC
280
     2
  9
$PROJECTNAME
  1

  9
$CAMERADISPLAY
290
     0
  9
$LENSLENGTH
 40
50.0
  9
$CAMERAHEIGHT
 40
0.0
  9
$STEPSPERSEC
 40
2.0
  9
$STEPSIZE
 40
6.0
  9
$3DDWFPREC
 40
2.0
  9
$PSOLWIDTH
 40
0.25
  9
$PSOLHEIGHT
 40
4.0
  9
$LOFTANG1
 40
1.570796326794897
  9
$LOFTANG2
 40
1.570796326794897
  9
$LOFTMAG1
 40
0.0
  9
$LOFTMAG2
 40
0.0
  9
$LOFTPARAM
 70
     7
  9
$LOFTNORMALS
280
     1
  9
$LATITUDE
 40
37.795
  9
$LONGITUDE
 40
-122.394
  9
$NORTHDIRECTION
 40
0.0
  9
$TIMEZONE
 70
 -8000
  9
$LIGHTGLYPHDISPLAY
280
     1
  9
$TILEMODELIGHTSYNCH
280
     1
  9
$CMATERIAL
347
3C
  9
$SOLIDHIST
280
     1
  9
$SHOWHIST
280
     1
  9
$DWFFRAME
280
     2
  9
$DGNFRAME
280
     2
  9
$REALWORLDSCALE
290
     1
  9
$INTERFERECOLOR
 62
   256
  9
$CSHADOW
280
     0
  9
$SHADOWPLANELOCATION
 40
0.0
  0
ENDSEC
  0
SECTION
  2
CLASSES
  0
CLASS
  1
ACDBDICTIONARYWDFLT
  2
AcDbDictionaryWithDefault
  3
ObjectDBX Classes
 90
        0
 91
        4
280
     0
281
     0
  0
CLASS
  1
VISUALSTYLE
  2
AcDbVisualStyle
  3
ObjectDBX Classes
 90
     4095
 91
        4
280
     0
281
     0
  0
CLASS
  1
MATERIAL
  2
AcDbMaterial
  3
ObjectDBX Classes
 90
     1153
 91
        4
280
     0
281
     0
  0
CLASS
  1
SUN
  2
AcDbSun
  3
SCENEOE
 90
     1024
 91
        4
280
     0
281
     0
  0
ENDSEC
  0
SECTION
  2
TABLES
  0
TABLE
  2
VPORT
  5
8
330
0
100
AcDbSymbolTable
 70
     1
  0
VPORT
  5
29
330
8
100
AcDbSymbolTableRecord
100
AcDbViewportTableRecord
  2
*Active
 70
     0
 10
0.0
 20
0.0
 11
1.0
 21
1.0
 12
0.0
 22
0.0
 13
0.0
 23
0.0
 14
0.5
 24
0.5
 15
0.5
 25
0.5
 16
0.0
 26
0.0
 36
1.0
 17
91.00082462281999
 27
-128.4993055234307
 37
0.0
 40
256.9986110468615
 41
0.7081814508812795
 42
50.0
 43
0.0
 44
0.0
 50
0.0
 51
0.0
 71
     0
 72
   100
 73
     1
 74
     3
 75
     0
 76
     0
 77
     0
 78
     0
281
     0
 65
     1
110
0.0
120
0.0
130
0.0
111
1.0
121
0.0
131
0.0
112
0.0
122
1.0
132
0.0
 79
     0
146
0.0
 60
     3
 61
     5
292
     1
282
     1
141
0.0
142
0.0
 63
   250
361
3F
  0
ENDTAB
  0
TABLE
  2
LTYPE
  5
5
330
0
100
AcDbSymbolTable
 70
     2
  0
LTYPE
  5
14
330
5
100
AcDbSymbolTableRecord
100
AcDbLinetypeTableRecord
  2
ByBlock
 70
     0
  3

 72
    65
 73
     0
 40
0.0
  0
LTYPE
  5
15
330
5
100
AcDbSymbolTableRecord
100
AcDbLinetypeTableRecord
  2
ByLayer
 70
     0
  3

 72
    65
 73
     0
 40
0.0
  0
LTYPE
  5
16
330
5
100
AcDbSymbolTableRecord
100
AcDbLinetypeTableRecord
  2
Continuous
 70
     0
  3
Solid line
 72
    65
 73
     0
 40
0.0
  0
LTYPE
  5
45
330
5
100
AcDbSymbolTableRecord
100
AcDbLinetypeTableRecord
  2
AI-Linetype-1
 70
     0
  3
Adobe Illustrator Linetype No. 1
 72
    65
 73
     2
 40
1.411111110758333
 49
0.7055555553791667
 74
     0
 49
-0.7055555553791667
 74
     0
  0
ENDTAB
  0
TABLE
  2
LAYER
  5
2
330
0
100
AcDbSymbolTable
 70
     2
  0
LAYER
  5
10
330
2
100
AcDbSymbolTableRecord
100
AcDbLayerTableRecord
  2
0
 70
     0
 62
     7
  6
Continuous
370
    -3
390
F
347
3E
  0
LAYER
  5
40
330
2
100
AcDbSymbolTableRecord
100
AcDbLayerTableRecord
  2
_U+30EC_U+30A4_U+30E4_U+30FC 1
 70
     0
 62
     7
  6
Continuous
370
    -3
390
F
347
3E
  0
ENDTAB
  0
TABLE
  2
STYLE
  5
3
330
0
100
AcDbSymbolTable
 70
     1
  0
STYLE
  5
11
330
3
100
AcDbSymbolTableRecord
100
AcDbTextStyleTableRecord
  2
Standard
 70
     0
 40
0.0
 41
1.0
 50
0.0
 71
     0
 42
0.2
  3
txt
  4

  0
ENDTAB
  0
TABLE
  2
VIEW
  5
6
330
0
100
AcDbSymbolTable
 70
     0
  0
ENDTAB
  0
TABLE
  2
UCS
  5
7
330
0
100
AcDbSymbolTable
 70
     0
  0
ENDTAB
  0
TABLE
  2
APPID
  5
9
330
0
100
AcDbSymbolTable
 70
     1
  0
APPID
  5
12
330
9
100
AcDbSymbolTableRecord
100
AcDbRegAppTableRecord
  2
ACAD
 70
     0
  0
ENDTAB
  0
TABLE
  2
DIMSTYLE
  5
A
330
0
100
AcDbSymbolTable
 70
     1
100
AcDbDimStyleTable
  0
DIMSTYLE
105
27
330
A
100
AcDbSymbolTableRecord
100
AcDbDimStyleTableRecord
  2
Standard
 70
     0
178
     0
340
11
  0
ENDTAB
  0
TABLE
  2
BLOCK_RECORD
  5
1
330
0
100
AcDbSymbolTable
 70
     6
  0
BLOCK_RECORD
  5
1F
330
1
100
AcDbSymbolTableRecord
100
AcDbBlockTableRecord
  2
*Model_Space
340
22
 70
     0
280
     1
281
     0
  0
BLOCK_RECORD
  5
1B
330
1
100
AcDbSymbolTableRecord
100
AcDbBlockTableRecord
  2
*Paper_Space
340
1E
 70
     0
280
     1
281
     0
  0
BLOCK_RECORD
  5
23
330
1
100
AcDbSymbolTableRecord
100
AcDbBlockTableRecord
  2
*Paper_Space0
340
26
 70
     0
280
     1
281
     0
  0
BLOCK_RECORD
  5
7D
330
1
100
AcDbSymbolTableRecord
100
AcDbBlockTableRecord
  2
block 2
340
0
102
{BLKREFS
331
7E
102
}
 70
     0
280
     1
281
     0
  0
BLOCK_RECORD
  5
94
330
1
100
AcDbSymbolTableRecord
100
AcDbBlockTableRecord
  2
block 3
340
0
102
{BLKREFS
331
95
102
}
 70
     0
280
     1
281
     0
  0
BLOCK_RECORD
  5
AB
330
1
100
AcDbSymbolTableRecord
100
AcDbBlockTableRecord
  2
block 4
340
0
102
{BLKREFS
331
AC
102
}
 70
     0
280
     1
281
     0
  0
BLOCK_RECORD
  5
CB
330
1
100
AcDbSymbolTableRecord
100
AcDbBlockTableRecord
  2
block 5
340
0
102
{BLKREFS
331
CC
102
}
 70
     0
280
     1
281
     0
  0
BLOCK_RECORD
  5
DF
330
1
100
AcDbSymbolTableRecord
100
AcDbBlockTableRecord
  2
block 6
340
0
102
{BLKREFS
331
E0
102
}
 70
     0
280
     1
281
     0
  0
ENDTAB
  0
ENDSEC
  0
SECTION
  2
BLOCKS
  0
BLOCK
  5
20
330
1F
100
AcDbEntity
  8
0
100
AcDbBlockBegin
  2
*Model_Space
 70
     0
 10
0.0
 20
0.0
 30
0.0
  3
*Model_Space
  1

  0
ENDBLK
  5
21
330
1F
100
AcDbEntity
  8
0
100
AcDbBlockEnd
  0
BLOCK
  5
1C
330
1B
100
AcDbEntity
 67
     1
  8
0
100
AcDbBlockBegin
  2
*Paper_Space
 70
     0
 10
0.0
 20
0.0
 30
0.0
  3
*Paper_Space
  1

  0
ENDBLK
  5
1D
330
1B
100
AcDbEntity
 67
     1
  8
0
100
AcDbBlockEnd
  0
BLOCK
  5
24
330
23
100
AcDbEntity
  8
0
100
AcDbBlockBegin
  2
*Paper_Space0
 70
     0
 10
0.0
 20
0.0
 30
0.0
  3
*Paper_Space0
  1

  0
ENDBLK
  5
25
330
23
100
AcDbEntity
  8
0
100
AcDbBlockEnd
  0
BLOCK
  5
7F
330
7D
100
AcDbEntity
  8
0
100
AcDbBlockBegin
  2
block 2
 70
     0
 10
0.0
 20
0.0
 30
0.0
  3
block 2
  1

  0
SPLINE
  5
81
330
7D
100
AcDbEntity
  8
_U+30EC_U+30A4_U+30E4_U+30FC 1
370
     0
100
AcDbSpline
210
0.0
220
0.0
230
1.0
 70
    11
 71
     3
 72
    26
 73
    22
 74
     0
 42
0.0000000001
 43
0.0000000001
 12
1.0
 22
0.0
 32
0.0
 13
1.0
 23
0.0
 33
0.0
 40
0.0
 40
0.0
 40
0.0
 40
0.0
 40
1.0
 40
1.0
 40
1.0
 40
2.0
 40
2.0
 40
2.0
 40
3.0
 40
3.0
 40
3.0
 40
4.0
 40
4.0
 40
4.0
 40
5.0
 40
5.0
 40
5.0
 40
6.0
 40
6.0
 40
6.0
 40
7.0
 40
7.0
 40
7.0
 40
7.0
 10
89.88374699358809
 20
-137.5581841018952
 30
0.0
 10
89.88374699358809
 20
-137.5581841018952
 30
0.0
 10
89.88374699358809
 20
-136.4536864893241
 30
0.0
 10
89.88374699358809
 20
-136.4536864893241
 30
0.0
 10
89.88374699358809
 20
-136.4536864893241
 30
0.0
 10
89.53114147067278
 20
-136.4536864893241
 30
0.0
 10
89.53114147067278
 20
-136.4536864893241
 30
0.0
 10
89.53114147067278
 20
-136.4536864893241
 30
0.0
 10
89.53114147067278
 20
-136.3055473834583
 30
0.0
 10
89.53114147067278
 20
-136.3055473834583
 30
0.0
 10
89.8859863056535
 20
-136.2907334728718
 30
0.0
 10
89.93576793541537
 20
-136.128124965968
 30
0.0
 10
89.96746281387966
 20
-136.0137477958577
 30
0.0
 10
89.96746281387966
 20
-136.0137477958577
 30
0.0
 10
90.12335338458722
 20
-136.0137477958577
 30
0.0
 10
90.12335338458722
 20
-136.0137477958577
 30
0.0
 10
90.12335338458722
 20
-136.0137477958577
 30
0.0
 10
90.12335338458722
 20
-137.5581841018952
 30
0.0
 10
90.12335338458722
 20
-137.5581841018952
 30
0.0
 10
90.12335338458722
 20
-137.5581841018952
 30
0.0
 10
89.88374699358809
 20
-137.5581841018952
 30
0.0
 10
89.88374699358809
 20
-137.5581841018952
 30
0.0
  0
HATCH
  5
82
330
7D
100
AcDbEntity
  8
_U+30EC_U+30A4_U+30E4_U+30FC 1
 62
   179
420
  2234388
100
AcDbHatch
 10
0.0
 20
0.0
 30
0.0
210
0.0
220
0.0
230
1.0
  2
SOLID
 70
     1
 71
     0
 91
        1
 92
        1
 93
        1
 72
     4
 94
        3
 73
     0
 74
     1
 95
       26
 96
       22
 40
0.0
 40
0.0
 40
0.0
 40
0.0
 40
1.0
 40
1.0
 40
1.0
 40
2.0
 40
2.0
 40
2.0
 40
3.0
 40
3.0
 40
3.0
 40
4.0
 40
4.0
 40
4.0
 40
5.0
 40
5.0
 40
5.0
 40
6.0
 40
6.0
 40
6.0
 40
7.0
 40
7.0
 40
7.0
 40
7.0
 10
89.88374699358809
 20
-137.5581841018952
 10
89.88374699358809
 20
-137.5581841018952
 10
89.88374699358809
 20
-136.4536864893241
 10
89.88374699358809
 20
-136.4536864893241
 10
89.88374699358809
 20
-136.4536864893241
 10
89.53114147067278
 20
-136.4536864893241
 10
89.53114147067278
 20
-136.4536864893241
 10
89.53114147067278
 20
-136.4536864893241
 10
89.53114147067278
 20
-136.3055473834583
 10
89.53114147067278
 20
-136.3055473834583
 10
89.8859863056535
 20
-136.2907334728718
 10
89.93576793541537
 20
-136.128124965968
 10
89.96746281387966
 20
-136.0137477958577
 10
89.96746281387966
 20
-136.0137477958577
 10
90.12335338458722
 20
-136.0137477958577
 10
90.12335338458722
 20
-136.0137477958577
 10
90.12335338458722
 20
-136.0137477958577
 10
90.12335338458722
 20
-137.5581841018952
 10
90.12335338458722
 20
-137.5581841018952
 10
90.12335338458722
 20
-137.5581841018952
 10
89.88374699358809
 20
-137.5581841018952
 10
89.88374699358809
 20
-137.5581841018952
 97
        0
 97
        0
 75
     2
 76
     1
 98
        0
  0
SPLINE
  5
83
330
7D
100
AcDbEntity
  8
_U+30EC_U+30A4_U+30E4_U+30FC 1
370
     0
100
AcDbSpline
210
0.0
220
0.0
230
1.0
 70
    11
 71
     3
 72
    44
 73
    40
 74
     0
 42
0.0000000001
 43
0.0000000001
 12
1.0
 22
0.0
 32
0.0
 13
1.0
 23
0.0
 33
0.0
 40
0.0
 40
0.0
 40
0.0
 40
0.0
 40
1.0
 40
1.0
 40
1.0
 40
2.0
 40
2.0
 40
2.0
 40
3.0
 40
3.0
 40
3.0
 40
4.0
 40
4.0
 40
4.0
 40
5.0
 40
5.0
 40
5.0
 40
6.0
 40
6.0
 40
6.0
 40
7.0
 40
7.0
 40
7.0
 40
8.0
 40
8.0
 40
8.0
 40
9.0
 40
9.0
 40
9.0
 40
10.0
 40
10.0
 40
10.0
 40
11.0
 40
11.0
 40
11.0
 40
12.0
 40
12.0
 40
12.0
 40
13.0
 40
13.0
 40
13.0
 40
13.0
 10
91.29296330182954
 20
-136.9763074744365
 30
0.0
 10
91.06007484702666
 20
-137.134781866758
 30
0.0
 10
90.96068384227719
 20
-137.2088514196909
 30
0.0
 10
90.90866290044993
 20
-137.3528564109743
 30
0.0
 10
90.90866290044993
 20
-137.3528564109743
 30
0.0
 10
91.74082571491202
 20
-137.3528564109743
 30
0.0
 10
91.74082571491202
 20
-137.3528564109743
 30
0.0
 10
91.74082571491202
 20
-137.3528564109743
 30
0.0
 10
91.74082571491202
 20
-137.5581841018952
 30
0.0
 10
91.74082571491202
 20
-137.5581841018952
 30
0.0
 10
91.74082571491202
 20
-137.5581841018952
 30
0.0
 10
90.64184025511732
 20
-137.5581841018952
 30
0.0
 10
90.64184025511732
 20
-137.5581841018952
 30
0.0
 10
90.67577444564704
 20
-137.2005831905263
 30
0.0
 10
90.74588213877186
 20
-137.1223795230111
 30
0.0
 10
91.15739879448496
 20
-136.8240342539884
 30
0.0
 10
91.43076712123954
 20
-136.6252522444895
 30
0.0
 10
91.50104706913864
 20
-136.5573838634301
 30
0.0
 10
91.50104706913864
 20
-136.4199245535686
 30
0.0
 10
91.50104706913864
 20
-136.301413268876
 30
0.0
 10
91.42422143981756
 20
-136.170155130888
 30
0.0
 10
91.21389836044305
 20
-136.170155130888
 30
0.0
 10
90.93570690000914
 20
-136.170155130888
 30
0.0
 10
90.92674965174749
 20
-136.4009765283998
 30
0.0
 10
90.92227102761666
 20
-136.5170762462527
 30
0.0
 10
90.92227102761666
 20
-136.5170762462527
 30
0.0
 10
90.68249238184328
 20
-136.5170762462527
 30
0.0
 10
90.68249238184328
 20
-136.5170762462527
 30
0.0
 10
90.69162188487918
 20
-136.3902967323955
 30
0.0
 10
90.7029906999805
 20
-136.2783311291249
 30
0.0
 10
90.78877357756323
 20
-136.1598198444323
 30
0.0
 10
90.90642358838451
 20
-135.9989338852711
 30
0.0
 10
91.10537785265768
 20
-135.9651719495156
 30
0.0
 10
91.2297457996752
 20
-135.9651719495156
 30
0.0
 10
91.52585175663243
 20
-135.9651719495156
 30
0.0
 10
91.74737139633399
 20
-136.149140048428
 30
0.0
 10
91.74737139633399
 20
-136.4219916108598
 30
0.0
 10
91.74737139633399
 20
-136.6504014415318
 30
0.0
 10
91.62300344931647
 20
-136.7499647010556
 30
0.0
 10
91.29296330182954
 20
-136.9763074744365
 30
0.0
  0
HATCH
  5
84
330
7D
100
AcDbEntity
  8
_U+30EC_U+30A4_U+30E4_U+30FC 1
 62
   179
420
  2234388
100
AcDbHatch
 10
0.0
 20
0.0
 30
0.0
210
0.0
220
0.0
230
1.0
  2
SOLID
 70
     1
 71
     0
 91
        1
 92
        1
 93
        1
 72
     4
 94
        3
 73
     0
 74
     1
 95
       44
 96
       40
 40
0.0
 40
0.0
 40
0.0
 40
0.0
 40
1.0
 40
1.0
 40
1.0
 40
2.0
 40
2.0
 40
2.0
 40
3.0
 40
3.0
 40
3.0
 40
4.0
 40
4.0
 40
4.0
 40
5.0
 40
5.0
 40
5.0
 40
6.0
 40
6.0
 40
6.0
 40
7.0
 40
7.0
 40
7.0
 40
8.0
 40
8.0
 40
8.0
 40
9.0
 40
9.0
 40
9.0
 40
10.0
 40
10.0
 40
10.0
 40
11.0
 40
11.0
 40
11.0
 40
12.0
 40
12.0
 40
12.0
 40
13.0
 40
13.0
 40
13.0
 40
13.0
 10
91.29296330182954
 20
-136.9763074744365
 10
91.06007484702666
 20
-137.134781866758
 10
90.96068384227719
 20
-137.2088514196909
 10
90.90866290044993
 20
-137.3528564109743
 10
90.90866290044993
 20
-137.3528564109743
 10
91.74082571491202
 20
-137.3528564109743
 10
91.74082571491202
 20
-137.3528564109743
 10
91.74082571491202
 20
-137.3528564109743
 10
91.74082571491202
 20
-137.5581841018952
 10
91.74082571491202
 20
-137.5581841018952
 10
91.74082571491202
 20
-137.5581841018952
 10
90.64184025511732
 20
-137.5581841018952
 10
90.64184025511732
 20
-137.5581841018952
 10
90.67577444564704
 20
-137.2005831905263
 10
90.74588213877186
 20
-137.1223795230111
 10
91.15739879448496
 20
-136.8240342539884
 10
91.43076712123954
 20
-136.6252522444895
 10
91.50104706913864
 20
-136.5573838634301
 10
91.50104706913864
 20
-136.4199245535686
 10
91.50104706913864
 20
-136.301413268876
 10
91.42422143981756
 20
-136.170155130888
 10
91.21389836044305
 20
-136.170155130888
 10
90.93570690000914
 20
-136.170155130888
 10
90.92674965174749
 20
-136.4009765283998
 10
90.92227102761666
 20
-136.5170762462527
 10
90.92227102761666
 20
-136.5170762462527
 10
90.68249238184328
 20
-136.5170762462527
 10
90.68249238184328
 20
-136.5170762462527
 10
90.69162188487918
 20
-136.3902967323955
 10
90.7029906999805
 20
-136.2783311291249
 10
90.78877357756323
 20
-136.1598198444323
 10
90.90642358838451
 20
-135.9989338852711
 10
91.10537785265768
 20
-135.9651719495156
 10
91.2297457996752
 20
-135.9651719495156
 10
91.52585175663243
 20
-135.9651719495156
 10
91.74737139633399
 20
-136.149140048428
 10
91.74737139633399
 20
-136.4219916108598
 10
91.74737139633399
 20
-136.6504014415318
 10
91.62300344931647
 20
-136.7499647010556
 10
91.29296330182954
 20
-136.9763074744365
 97
        0
 97
        0
 75
     2
 76
     1
 98
        0
  0
ENDBLK
  5
80
330
7D
100
AcDbEntity
  8
0
100
AcDbBlockEnd
  0
BLOCK
  5
96
330
94
100
AcDbEntity
  8
0
100
AcDbBlockBegin
  2
block 3
 70
     0
 10
0.0
 20
0.0
 30
0.0
  3
block 3
  1

  0
SPLINE
  5
98
330
94
100
AcDbEntity
  8
_U+30EC_U+30A4_U+30E4_U+30FC 1
370
     0
100
AcDbSpline
210
0.0
220
0.0
230
1.0
 70
    11
 71
     3
 72
    26
 73
    22
 74
     0
 42
0.0000000001
 43
0.0000000001
 12
1.0
 22
0.0
 32
0.0
 13
1.0
 23
0.0
 33
0.0
 40
0.0
 40
0.0
 40
0.0
 40
0.0
 40
1.0
 40
1.0
 40
1.0
 40
2.0
 40
2.0
 40
2.0
 40
3.0
 40
3.0
 40
3.0
 40
4.0
 40
4.0
 40
4.0
 40
5.0
 40
5.0
 40
5.0
 40
6.0
 40
6.0
 40
6.0
 40
7.0
 40
7.0
 40
7.0
 40
7.0
 10
80.19234888403177
 20
-128.1120767908887
 30
0.0
 10
80.19234888403177
 20
-128.1120767908887
 30
0.0
 10
79.08802352623495
 20
-128.1120767908887
 30
0.0
 10
79.08802352623495
 20
-128.1120767908887
 30
0.0
 10
79.08802352623495
 20
-128.1120767908887
 30
0.0
 10
79.08802352623495
 20
-128.4648545685782
 30
0.0
 10
79.08802352623495
 20
-128.4648545685782
 30
0.0
 10
79.08802352623495
 20
-128.4648545685782
 30
0.0
 10
78.94005667514347
 20
-128.4648545685782
 30
0.0
 10
78.94005667514347
 20
-128.4648545685782
 30
0.0
 10
78.92524276455688
 20
-128.1098374788232
 30
0.0
 10
78.76228974810456
 20
-128.0602281038356
 30
0.0
 10
78.64808483276853
 20
-128.0285332253713
 30
0.0
 10
78.64808483276853
 20
-128.0285332253713
 30
0.0
 10
78.64808483276853
 20
-127.8724703998895
 30
0.0
 10
78.64808483276853
 20
-127.8724703998895
 30
0.0
 10
78.64808483276853
 20
-127.8724703998895
 30
0.0
 10
80.19234888403177
 20
-127.8724703998895
 30
0.0
 10
80.19234888403177
 20
-127.8724703998895
 30
0.0
 10
80.19234888403177
 20
-127.8724703998895
 30
0.0
 10
80.19234888403177
 20
-128.1120767908887
 30
0.0
 10
80.19234888403177
 20
-128.1120767908887
 30
0.0
  0
HATCH
  5
99
330
94
100
AcDbEntity
  8
_U+30EC_U+30A4_U+30E4_U+30FC 1
 62
   179
420
  2234388
100
AcDbHatch
 10
0.0
 20
0.0
 30
0.0
210
0.0
220
0.0
230
1.0
  2
SOLID
 70
     1
 71
     0
 91
        1
 92
        1
 93
        1
 72
     4
 94
        3
 73
     0
 74
     1
 95
       26
 96
       22
 40
0.0
 40
0.0
 40
0.0
 40
0.0
 40
1.0
 40
1.0
 40
1.0
 40
2.0
 40
2.0
 40
2.0
 40
3.0
 40
3.0
 40
3.0
 40
4.0
 40
4.0
 40
4.0
 40
5.0
 40
5.0
 40
5.0
 40
6.0
 40
6.0
 40
6.0
 40
7.0
 40
7.0
 40
7.0
 40
7.0
 10
80.19234888403177
 20
-128.1120767908887
 10
80.19234888403177
 20
-128.1120767908887
 10
79.08802352623495
 20
-128.1120767908887
 10
79.08802352623495
 20
-128.1120767908887
 10
79.08802352623495
 20
-128.1120767908887
 10
79.08802352623495
 20
-128.4648545685782
 10
79.08802352623495
 20
-128.4648545685782
 10
79.08802352623495
 20
-128.4648545685782
 10
78.94005667514347
 20
-128.4648545685782
 10
78.94005667514347
 20
-128.4648545685782
 10
78.92524276455688
 20
-128.1098374788232
 10
78.76228974810456
 20
-128.0602281038356
 10
78.64808483276853
 20
-128.0285332253713
 10
78.64808483276853
 20
-128.0285332253713
 10
78.64808483276853
 20
-127.8724703998895
 10
78.64808483276853
 20
-127.8724703998895
 10
78.64808483276853
 20
-127.8724703998895
 10
80.19234888403177
 20
-127.8724703998895
 10
80.19234888403177
 20
-127.8724703998895
 10
80.19234888403177
 20
-127.8724703998895
 10
80.19234888403177
 20
-128.1120767908887
 10
80.19234888403177
 20
-128.1120767908887
 97
        0
 97
        0
 75
     2
 76
     1
 98
        0
  0
SPLINE
  5
9A
330
94
100
AcDbEntity
  8
_U+30EC_U+30A4_U+30E4_U+30FC 1
370
     0
100
AcDbSpline
210
0.0
220
0.0
230
1.0
 70
    11
 71
     3
 72
    62
 73
    58
 74
     0
 42
0.0000000001
 43
0.0000000001
 12
1.0
 22
0.0
 32
0.0
 13
1.0
 23
0.0
 33
0.0
 40
0.0
 40
0.0
 40
0.0
 40
0.0
 40
1.0
 40
1.0
 40
1.0
 40
2.0
 40
2.0
 40
2.0
 40
3.0
 40
3.0
 40
3.0
 40
4.0
 40
4.0
 40
4.0
 40
5.0
 40
5.0
 40
5.0
 40
6.0
 40
6.0
 40
6.0
 40
7.0
 40
7.0
 40
7.0
 40
8.0
 40
8.0
 40
8.0
 40
9.0
 40
9.0
 40
9.0
 40
10.0
 40
10.0
 40
10.0
 40
11.0
 40
11.0
 40
11.0
 40
12.0
 40
12.0
 40
12.0
 40
13.0
 40
13.0
 40
13.0
 40
14.0
 40
14.0
 40
14.0
 40
15.0
 40
15.0
 40
15.0
 40
16.0
 40
16.0
 40
16.0
 40
17.0
 40
17.0
 40
17.0
 40
18.0
 40
18.0
 40
18.0
 40
19.0
 40
19.0
 40
19.0
 40
19.0
 10
80.24316404243922
 20
-126.8113809904326
 30
0.0
 10
80.24316404243922
 20
-126.9131835620217
 30
0.0
 10
80.22197670520492
 20
-127.1460720168246
 30
0.0
 10
80.03576929422717
 20
-127.2793972121038
 30
0.0
 10
79.92363143618229
 20
-127.3586344082645
 30
0.0
 10
79.82424043143283
 20
-127.3631130323953
 30
0.0
 10
79.73966333726995
 20
-127.3675916565262
 30
0.0
 10
79.73966333726995
 20
-127.3675916565262
 30
0.0
 10
79.73966333726995
 20
-127.1324638896579
 30
0.0
 10
79.73966333726995
 20
-127.1324638896579
 30
0.0
 10
79.81373289020281
 20
-127.1302245775924
 30
0.0
 10
80.04851614752259
 20
-127.1188557624911
 30
0.0
 10
80.04851614752259
 20
-126.8160318693377
 30
0.0
 10
80.04851614752259
 20
-126.6689262921175
 30
0.0
 10
79.97875296394629
 20
-126.5061455304394
 30
0.0
 10
79.75017087849996
 20
-126.5061455304394
 30
0.0
 10
79.63389890587278
 20
-126.5061455304394
 30
0.0
 10
79.5851508047565
 20
-126.5469699119397
 30
0.0
 10
79.5534559262922
 20
-126.5809041024694
 30
0.0
 10
79.47938637335932
 20
-126.6599690438559
 30
0.0
 10
79.46681177483816
 20
-126.7843369908734
 30
0.0
 10
79.46681177483816
 20
-126.8430758688969
 30
0.0
 10
79.46681177483816
 20
-126.8634019322598
 30
0.0
 10
79.4688788321293
 20
-126.9018147469204
 30
0.0
 10
79.47318520148588
 20
-126.9312703133193
 30
0.0
 10
79.47318520148588
 20
-126.9312703133193
 30
0.0
 10
79.27853730656926
 20
-126.9312703133193
 30
0.0
 10
79.27853730656926
 20
-126.9312703133193
 30
0.0
 10
79.28491073321698
 20
-126.8906181865933
 30
0.0
 10
79.28697779050812
 20
-126.8453151809623
 30
0.0
 10
79.28697779050812
 20
-126.838597244766
 30
0.0
 10
79.28697779050812
 20
-126.7684895516412
 30
0.0
 10
79.26579045327384
 20
-126.5559271602013
 30
0.0
 10
79.02876788388865
 20
-126.5559271602013
 30
0.0
 10
78.85117321162402
 20
-126.5559271602013
 30
0.0
 10
78.79622393863428
 20
-126.696142546451
 30
0.0
 10
78.79622393863428
 20
-126.813620302498
 30
0.0
 10
78.79622393863428
 20
-127.0962903870627
 30
0.0
 10
79.02876788388865
 20
-127.1054198900986
 30
0.0
 10
79.10077037953036
 20
-127.1098985142295
 30
0.0
 10
79.10077037953036
 20
-127.1098985142295
 30
0.0
 10
79.10077037953036
 20
-127.3269395298002
 30
0.0
 10
79.10077037953036
 20
-127.3269395298002
 30
0.0
 10
78.97588566819006
 20
-127.3178100267643
 30
0.0
 10
78.59933673165226
 20
-127.2885267151397
 30
0.0
 10
78.59933673165226
 20
-126.8001844301055
 30
0.0
 10
78.59933673165226
 20
-126.5604057843321
 30
0.0
 10
78.72628850028372
 20
-126.3027126420354
 30
0.0
 10
79.02256671201519
 20
-126.3027126420354
 30
0.0
 10
79.2086018682187
 20
-126.3027126420354
 30
0.0
 10
79.29111190509042
 20
-126.4045152136246
 30
0.0
 10
79.35260685950213
 20
-126.5107964093445
 30
0.0
 10
79.37999536860987
 20
-126.4451673403505
 30
0.0
 10
79.46043834819045
 20
-126.2506917002082
 30
0.0
 10
79.7375962799788
 20
-126.2506917002082
 30
0.0
 10
80.0760769114046
 20
-126.2506917002082
 30
0.0
 10
80.24316404243922
 20
-126.5152750334753
 30
0.0
 10
80.24316404243922
 20
-126.8113809904326
 30
0.0
  0
HATCH
  5
9B
330
94
100
AcDbEntity
  8
_U+30EC_U+30A4_U+30E4_U+30FC 1
 62
   179
420
  2234388
100
AcDbHatch
 10
0.0
 20
0.0
 30
0.0
210
0.0
220
0.0
230
1.0
  2
SOLID
 70
     1
 71
     0
 91
        1
 92
        1
 93
        1
 72
     4
 94
        3
 73
     0
 74
     1
 95
       62
 96
       58
 40
0.0
 40
0.0
 40
0.0
 40
0.0
 40
1.0
 40
1.0
 40
1.0
 40
2.0
 40
2.0
 40
2.0
 40
3.0
 40
3.0
 40
3.0
 40
4.0
 40
4.0
 40
4.0
 40
5.0
 40
5.0
 40
5.0
 40
6.0
 40
6.0
 40
6.0
 40
7.0
 40
7.0
 40
7.0
 40
8.0
 40
8.0
 40
8.0
 40
9.0
 40
9.0
 40
9.0
 40
10.0
 40
10.0
 40
10.0
 40
11.0
 40
11.0
 40
11.0
 40
12.0
 40
12.0
 40
12.0
 40
13.0
 40
13.0
 40
13.0
 40
14.0
 40
14.0
 40
14.0
 40
15.0
 40
15.0
 40
15.0
 40
16.0
 40
16.0
 40
16.0
 40
17.0
 40
17.0
 40
17.0
 40
18.0
 40
18.0
 40
18.0
 40
19.0
 40
19.0
 40
19.0
 40
19.0
 10
80.24316404243922
 20
-126.8113809904326
 10
80.24316404243922
 20
-126.9131835620217
 10
80.22197670520492
 20
-127.1460720168246
 10
80.03576929422717
 20
-127.2793972121038
 10
79.92363143618229
 20
-127.3586344082645
 10
79.82424043143283
 20
-127.3631130323953
 10
79.73966333726995
 20
-127.3675916565262
 10
79.73966333726995
 20
-127.3675916565262
 10
79.73966333726995
 20
-127.1324638896579
 10
79.73966333726995
 20
-127.1324638896579
 10
79.81373289020281
 20
-127.1302245775924
 10
80.04851614752259
 20
-127.1188557624911
 10
80.04851614752259
 20
-126.8160318693377
 10
80.04851614752259
 20
-126.6689262921175
 10
79.97875296394629
 20
-126.5061455304394
 10
79.75017087849996
 20
-126.5061455304394
 10
79.63389890587278
 20
-126.5061455304394
 10
79.5851508047565
 20
-126.5469699119397
 10
79.5534559262922
 20
-126.5809041024694
 10
79.47938637335932
 20
-126.6599690438559
 10
79.46681177483816
 20
-126.7843369908734
 10
79.46681177483816
 20
-126.8430758688969
 10
79.46681177483816
 20
-126.8634019322598
 10
79.4688788321293
 20
-126.9018147469204
 10
79.47318520148588
 20
-126.9312703133193
 10
79.47318520148588
 20
-126.9312703133193
 10
79.27853730656926
 20
-126.9312703133193
 10
79.27853730656926
 20
-126.9312703133193
 10
79.28491073321698
 20
-126.8906181865933
 10
79.28697779050812
 20
-126.8453151809623
 10
79.28697779050812
 20
-126.838597244766
 10
79.28697779050812
 20
-126.7684895516412
 10
79.26579045327384
 20
-126.5559271602013
 10
79.02876788388865
 20
-126.5559271602013
 10
78.85117321162402
 20
-126.5559271602013
 10
78.79622393863428
 20
-126.696142546451
 10
78.79622393863428
 20
-126.813620302498
 10
78.79622393863428
 20
-127.0962903870627
 10
79.02876788388865
 20
-127.1054198900986
 10
79.10077037953036
 20
-127.1098985142295
 10
79.10077037953036
 20
-127.1098985142295
 10
79.10077037953036
 20
-127.3269395298002
 10
79.10077037953036
 20
-127.3269395298002
 10
78.97588566819006
 20
-127.3178100267643
 10
78.59933673165226
 20
-127.2885267151397
 10
78.59933673165226
 20
-126.8001844301055
 10
78.59933673165226
 20
-126.5604057843321
 10
78.72628850028372
 20
-126.3027126420354
 10
79.02256671201519
 20
-126.3027126420354
 10
79.2086018682187
 20
-126.3027126420354
 10
79.29111190509042
 20
-126.4045152136246
 10
79.35260685950213
 20
-126.5107964093445
 10
79.37999536860987
 20
-126.4451673403505
 10
79.46043834819045
 20
-126.2506917002082
 10
79.7375962799788
 20
-126.2506917002082
 10
80.0760769114046
 20
-126.2506917002082
 10
80.24316404243922
 20
-126.5152750334753
 10
80.24316404243922
 20
-126.8113809904326
 97
        0
 97
        0
 75
     2
 76
     1
 98
        0
  0
ENDBLK
  5
97
330
94
100
AcDbEntity
  8
0
100
AcDbBlockEnd
  0
BLOCK
  5
AD
330
AB
100
AcDbEntity
  8
0
100
AcDbBlockBegin
  2
block 4
 70
     0
 10
0.0
 20
0.0
 30
0.0
  3
block 4
  1

  0
SPLINE
  5
AF
330
AB
100
AcDbEntity
  8
_U+30EC_U+30A4_U+30E4_U+30FC 1
370
     0
100
AcDbSpline
210
0.0
220
0.0
230
1.0
 70
    11
 71
     3
 72
    32
 73
    28
 74
     0
 42
0.0000000001
 43
0.0000000001
 12
1.0
 22
0.0
 32
0.0
 13
1.0
 23
0.0
 33
0.0
 40
0.0
 40
0.0
 40
0.0
 40
0.0
 40
1.0
 40
1.0
 40
1.0
 40
2.0
 40
2.0
 40
2.0
 40
3.0
 40
3.0
 40
3.0
 40
4.0
 40
4.0
 40
4.0
 40
5.0
 40
5.0
 40
5.0
 40
6.0
 40
6.0
 40
6.0
 40
7.0
 40
7.0
 40
7.0
 40
8.0
 40
8.0
 40
8.0
 40
9.0
 40
9.0
 40
9.0
 40
9.0
 10
103.0641655558312
 20
-130.598057693045
 30
0.0
 10
103.0641655558312
 20
-131.149961989782
 30
0.0
 10
102.5453341757526
 20
-131.1589192380436
 30
0.0
 10
102.3451741280595
 20
-131.1589192380436
 30
0.0
 10
102.1291666411344
 20
-131.1589192380436
 30
0.0
 10
101.5228298357304
 20
-131.1385931746806
 30
0.0
 10
101.5228298357304
 20
-130.557405566319
 30
0.0
 10
101.5228298357304
 20
-130.3720594292126
 30
0.0
 10
101.5882866499501
 20
-130.109887662785
 30
0.0
 10
101.8993787722682
 20
-130.0692355360591
 30
0.0
 10
101.8993787722682
 20
-130.0692355360591
 30
0.0
 10
101.8993787722682
 20
-130.2976453667312
 30
0.0
 10
101.8993787722682
 20
-130.2976453667312
 30
0.0
 10
101.8459797922468
 20
-130.3086696722839
 30
0.0
 10
101.7071424441913
 20
-130.3427761175879
 30
0.0
 10
101.7071424441913
 20
-130.5598171331587
 30
0.0
 10
101.7071424441913
 20
-130.8715982745738
 30
0.0
 10
102.014100451927
 20
-130.9146619681394
 30
0.0
 10
102.206336780004
 20
-130.9280978405319
 30
0.0
 10
102.1333007557167
 20
-130.8288790905567
 30
0.0
 10
102.0774902088556
 20
-130.7565320853664
 30
0.0
 10
102.0774902088556
 20
-130.5622286999983
 30
0.0
 10
102.0774902088556
 20
-130.3699923719214
 30
0.0
 10
102.178776016122
 20
-130.0464979058564
 30
0.0
 10
102.5591145576936
 20
-130.0464979058564
 30
0.0
 10
102.8581488458132
 20
-130.0464979058564
 30
0.0
 10
103.0641655558312
 20
-130.2590602972963
 30
0.0
 10
103.0641655558312
 20
-130.598057693045
 30
0.0
  0
SPLINE
  5
B0
330
AB
100
AcDbEntity
  8
_U+30EC_U+30A4_U+30E4_U+30FC 1
370
     0
100
AcDbSpline
210
0.0
220
0.0
230
1.0
 70
    11
 71
     3
 72
    17
 73
    13
 74
     0
 42
0.0000000001
 43
0.0000000001
 12
1.0
 22
0.0
 32
0.0
 13
1.0
 23
0.0
 33
0.0
 40
0.0
 40
0.0
 40
0.0
 40
0.0
 40
1.0
 40
1.0
 40
1.0
 40
2.0
 40
2.0
 40
2.0
 40
3.0
 40
3.0
 40
3.0
 40
4.0
 40
4.0
 40
4.0
 40
4.0
 10
102.2600802695739
 20
-130.5801431965216
 30
0.0
 10
102.2600802695739
 20
-130.860573969021
 30
0.0
 10
102.4578287504272
 20
-130.9012260957469
 30
0.0
 10
102.5670382773096
 20
-130.9012260957469
 30
0.0
 10
102.731369331956
 20
-130.9012260957469
 30
0.0
 10
102.8839870619526
 20
-130.7992512693835
 30
0.0
 10
102.8839870619526
 20
-130.6028808267243
 30
0.0
 10
102.8839870619526
 20
-130.4740342555759
 30
0.0
 10
102.8285210246401
 20
-130.2862765516298
 30
0.0
 10
102.5611816149847
 20
-130.2862765516298
 30
0.0
 10
102.3510307903845
 20
-130.2862765516298
 30
0.0
 10
102.2600802695739
 20
-130.4354491861411
 30
0.0
 10
102.2600802695739
 20
-130.5801431965216
 30
0.0
  0
HATCH
  5
B1
330
AB
100
AcDbEntity
  8
_U+30EC_U+30A4_U+30E4_U+30FC 1
 62
   179
420
  2234388
100
AcDbHatch
 10
0.0
 20
0.0
 30
0.0
210
0.0
220
0.0
230
1.0
  2
SOLID
 70
     1
 71
     0
 91
        2
 92
        1
 93
        1
 72
     4
 94
        3
 73
     0
 74
     1
 95
       32
 96
       28
 40
0.0
 40
0.0
 40
0.0
 40
0.0
 40
1.0
 40
1.0
 40
1.0
 40
2.0
 40
2.0
 40
2.0
 40
3.0
 40
3.0
 40
3.0
 40
4.0
 40
4.0
 40
4.0
 40
5.0
 40
5.0
 40
5.0
 40
6.0
 40
6.0
 40
6.0
 40
7.0
 40
7.0
 40
7.0
 40
8.0
 40
8.0
 40
8.0
 40
9.0
 40
9.0
 40
9.0
 40
9.0
 10
103.0641655558312
 20
-130.598057693045
 10
103.0641655558312
 20
-131.149961989782
 10
102.5453341757526
 20
-131.1589192380436
 10
102.3451741280595
 20
-131.1589192380436
 10
102.1291666411344
 20
-131.1589192380436
 10
101.5228298357304
 20
-131.1385931746806
 10
101.5228298357304
 20
-130.557405566319
 10
101.5228298357304
 20
-130.3720594292126
 10
101.5882866499501
 20
-130.109887662785
 10
101.8993787722682
 20
-130.0692355360591
 10
101.8993787722682
 20
-130.0692355360591
 10
101.8993787722682
 20
-130.2976453667312
 10
101.8993787722682
 20
-130.2976453667312
 10
101.8459797922468
 20
-130.3086696722839
 10
101.7071424441913
 20
-130.3427761175879
 10
101.7071424441913
 20
-130.5598171331587
 10
101.7071424441913
 20
-130.8715982745738
 10
102.014100451927
 20
-130.9146619681394
 10
102.206336780004
 20
-130.9280978405319
 10
102.1333007557167
 20
-130.8288790905567
 10
102.0774902088556
 20
-130.7565320853664
 10
102.0774902088556
 20
-130.5622286999983
 10
102.0774902088556
 20
-130.3699923719214
 10
102.178776016122
 20
-130.0464979058564
 10
102.5591145576936
 20
-130.0464979058564
 10
102.8581488458132
 20
-130.0464979058564
 10
103.0641655558312
 20
-130.2590602972963
 10
103.0641655558312
 20
-130.598057693045
 97
        0
 97
        0
 92
        1
 93
        1
 72
     4
 94
        3
 73
     0
 74
     1
 95
       17
 96
       13
 40
0.0
 40
0.0
 40
0.0
 40
0.0
 40
1.0
 40
1.0
 40
1.0
 40
2.0
 40
2.0
 40
2.0
 40
3.0
 40
3.0
 40
3.0
 40
4.0
 40
4.0
 40
4.0
 40
4.0
 10
102.2600802695739
 20
-130.5801431965216
 10
102.2600802695739
 20
-130.860573969021
 10
102.4578287504272
 20
-130.9012260957469
 10
102.5670382773096
 20
-130.9012260957469
 10
102.731369331956
 20
-130.9012260957469
 10
102.8839870619526
 20
-130.7992512693835
 10
102.8839870619526
 20
-130.6028808267243
 10
102.8839870619526
 20
-130.4740342555759
 10
102.8285210246401
 20
-130.2862765516298
 10
102.5611816149847
 20
-130.2862765516298
 10
102.3510307903845
 20
-130.2862765516298
 10
102.2600802695739
 20
-130.4354491861411
 10
102.2600802695739
 20
-130.5801431965216
 97
        0
 97
        0
 75
     2
 76
     1
 98
        0
  0
POLYLINE
  5
B2
330
AB
100
AcDbEntity
  8
_U+30EC_U+30A4_U+30E4_U+30FC 1
370
     0
100
AcDb2dPolyline
 66
     1
 10
0.0
 20
0.0
 30
0.0
  0
VERTEX
  5
B3
330
B2
100
AcDbEntity
  8
_U+30EC_U+30A4_U+30E4_U+30FC 1
370
     0
100
AcDbVertex
100
AcDb2dVertex
 10
103.0166232381347
 20
-129.8153319987962
 30
0.0
  0
VERTEX
  5
B4
330
B2
100
AcDbEntity
  8
_U+30EC_U+30A4_U+30E4_U+30FC 1
370
     0
100
AcDbVertex
100
AcDb2dVertex
 10
102.7809787069436
 20
-129.8153319987962
 30
0.0
  0
VERTEX
  5
B5
330
B2
100
AcDbEntity
  8
_U+30EC_U+30A4_U+30E4_U+30FC 1
370
     0
100
AcDbVertex
100
AcDb2dVertex
 10
102.7809787069436
 20
-129.5459255318496
 30
0.0
  0
VERTEX
  5
B6
330
B2
100
AcDbEntity
  8
_U+30EC_U+30A4_U+30E4_U+30FC 1
370
     0
100
AcDbVertex
100
AcDb2dVertex
 10
103.0166232381347
 20
-129.5459255318496
 30
0.0
  0
VERTEX
  5
B7
330
B2
100
AcDbEntity
  8
_U+30EC_U+30A4_U+30E4_U+30FC 1
370
     0
100
AcDbVertex
100
AcDb2dVertex
 10
103.0166232381347
 20
-129.8153319987962
 30
0.0
  0
SEQEND
  5
B8
330
B2
100
AcDbEntity
  8
_U+30EC_U+30A4_U+30E4_U+30FC 1
370
     0
  0
HATCH
  5
B9
330
AB
100
AcDbEntity
  8
_U+30EC_U+30A4_U+30E4_U+30FC 1
 62
   179
420
  2234388
100
AcDbHatch
 10
0.0
 20
0.0
 30
0.0
210
0.0
220
0.0
230
1.0
  2
SOLID
 70
     1
 71
     0
 91
        1
 92
        1
 93
        4
 72
     1
 10
103.0166232381347
 20
-129.8153319987962
 11
102.7809787069436
 21
-129.8153319987962
 72
     1
 10
102.7809787069436
 20
-129.8153319987962
 11
102.7809787069436
 21
-129.5459255318496
 72
     1
 10
102.7809787069436
 20
-129.5459255318496
 11
103.0166232381347
 21
-129.5459255318496
 72
     1
 10
103.0166232381347
 20
-129.5459255318496
 11
103.0166232381347
 21
-129.8153319987962
 97
        0
 75
     2
 76
     1
 98
        0
  0
SPLINE
  5
BA
330
AB
100
AcDbEntity
  8
_U+30EC_U+30A4_U+30E4_U+30FC 1
370
     0
100
AcDbSpline
210
0.0
220
0.0
230
1.0
 70
    11
 71
     3
 72
    53
 73
    49
 74
     0
 42
0.0000000001
 43
0.0000000001
 12
1.0
 22
0.0
 32
0.0
 13
1.0
 23
0.0
 33
0.0
 40
0.0
 40
0.0
 40
0.0
 40
0.0
 40
1.0
 40
1.0
 40
1.0
 40
2.0
 40
2.0
 40
2.0
 40
3.0
 40
3.0
 40
3.0
 40
4.0
 40
4.0
 40
4.0
 40
5.0
 40
5.0
 40
5.0
 40
6.0
 40
6.0
 40
6.0
 40
7.0
 40
7.0
 40
7.0
 40
8.0
 40
8.0
 40
8.0
 40
9.0
 40
9.0
 40
9.0
 40
10.0
 40
10.0
 40
10.0
 40
11.0
 40
11.0
 40
11.0
 40
12.0
 40
12.0
 40
12.0
 40
13.0
 40
13.0
 40
13.0
 40
14.0
 40
14.0
 40
14.0
 40
15.0
 40
15.0
 40
15.0
 40
16.0
 40
16.0
 40
16.0
 40
16.0
 10
103.0641655558312
 20
-128.7793917863816
 30
0.0
 10
103.0641655558312
 20
-128.8631076066731
 30
0.0
 10
103.048318116599
 20
-128.9716281144585
 30
0.0
 10
102.9890624742527
 20
-129.0801486222439
 30
0.0
 10
102.8857096096952
 20
-129.2654947593503
 30
0.0
 10
102.7630642104204
 20
-129.2882323895529
 30
0.0
 10
102.6621229127025
 20
-129.3085584529159
 30
0.0
 10
102.6621229127025
 20
-129.3085584529159
 30
0.0
 10
102.6621229127025
 20
-129.0711913739822
 30
0.0
 10
102.6621229127025
 20
-129.0711913739822
 30
0.0
 10
102.848158068906
 20
-129.0122802411844
 30
0.0
 10
102.8760633423366
 20
-128.8768879886141
 30
0.0
 10
102.8760633423366
 20
-128.7769802195419
 30
0.0
 10
102.8760633423366
 20
-128.6279798398048
 30
0.0
 10
102.7830457642348
 20
-128.4651990781268
 30
0.0
 10
102.5649712200185
 20
-128.4651990781268
 30
0.0
 10
102.3251925742451
 20
-128.4651990781268
 30
0.0
 10
102.2600802695739
 20
-128.6574354062037
 30
0.0
 10
102.2600802695739
 20
-128.786281977352
 30
0.0
 10
102.2600802695739
 20
-128.820388422656
 30
0.0
 10
102.2600802695739
 20
-128.9716281144585
 30
0.0
 10
102.3806586115576
 20
-129.0663682403029
 30
0.0
 10
102.3806586115576
 20
-129.0663682403029
 30
0.0
 10
102.3627441150343
 20
-129.2544704537975
 30
0.0
 10
102.3627441150343
 20
-129.2544704537975
 30
0.0
 10
102.3627441150343
 20
-129.2544704537975
 30
0.0
 10
101.5703721534269
 20
-129.1252793731006
 30
0.0
 10
101.5703721534269
 20
-129.1252793731006
 30
0.0
 10
101.5703721534269
 20
-129.1252793731006
 30
0.0
 10
101.5703721534269
 20
-128.2932888134128
 30
0.0
 10
101.5703721534269
 20
-128.2932888134128
 30
0.0
 10
101.5703721534269
 20
-128.2932888134128
 30
0.0
 10
101.7529622141451
 20
-128.2932888134128
 30
0.0
 10
101.7529622141451
 20
-128.2932888134128
 30
0.0
 10
101.7529622141451
 20
-128.2932888134128
 30
0.0
 10
101.7529622141451
 20
-128.9513020510955
 30
0.0
 10
101.7529622141451
 20
-128.9513020510955
 30
0.0
 10
101.7529622141451
 20
-128.9513020510955
 30
0.0
 10
102.1491481949488
 20
-129.0215819989946
 30
0.0
 10
102.1491481949488
 20
-129.0215819989946
 30
0.0
 10
102.1174533164845
 20
-128.9557806752264
 30
0.0
 10
102.0795572661468
 20
-128.8675862308039
 30
0.0
 10
102.0795572661468
 20
-128.740978971721
 30
0.0
 10
102.0795572661468
 20
-128.4696777022576
 30
0.0
 10
102.2538790977004
 20
-128.2164631840917
 30
0.0
 10
102.5470567234952
 20
-128.2164631840917
 30
0.0
 10
102.8443684638722
 20
-128.2164631840917
 30
0.0
 10
103.0641655558312
 20
-128.4562418298651
 30
0.0
 10
103.0641655558312
 20
-128.7793917863816
 30
0.0
  0
HATCH
  5
BB
330
AB
100
AcDbEntity
  8
_U+30EC_U+30A4_U+30E4_U+30FC 1
 62
   179
420
  2234388
100
AcDbHatch
 10
0.0
 20
0.0
 30
0.0
210
0.0
220
0.0
230
1.0
  2
SOLID
 70
     1
 71
     0
 91
        1
 92
        1
 93
        1
 72
     4
 94
        3
 73
     0
 74
     1
 95
       53
 96
       49
 40
0.0
 40
0.0
 40
0.0
 40
0.0
 40
1.0
 40
1.0
 40
1.0
 40
2.0
 40
2.0
 40
2.0
 40
3.0
 40
3.0
 40
3.0
 40
4.0
 40
4.0
 40
4.0
 40
5.0
 40
5.0
 40
5.0
 40
6.0
 40
6.0
 40
6.0
 40
7.0
 40
7.0
 40
7.0
 40
8.0
 40
8.0
 40
8.0
 40
9.0
 40
9.0
 40
9.0
 40
10.0
 40
10.0
 40
10.0
 40
11.0
 40
11.0
 40
11.0
 40
12.0
 40
12.0
 40
12.0
 40
13.0
 40
13.0
 40
13.0
 40
14.0
 40
14.0
 40
14.0
 40
15.0
 40
15.0
 40
15.0
 40
16.0
 40
16.0
 40
16.0
 40
16.0
 10
103.0641655558312
 20
-128.7793917863816
 10
103.0641655558312
 20
-128.8631076066731
 10
103.048318116599
 20
-128.9716281144585
 10
102.9890624742527
 20
-129.0801486222439
 10
102.8857096096952
 20
-129.2654947593503
 10
102.7630642104204
 20
-129.2882323895529
 10
102.6621229127025
 20
-129.3085584529159
 10
102.6621229127025
 20
-129.3085584529159
 10
102.6621229127025
 20
-129.0711913739822
 10
102.6621229127025
 20
-129.0711913739822
 10
102.848158068906
 20
-129.0122802411844
 10
102.8760633423366
 20
-128.8768879886141
 10
102.8760633423366
 20
-128.7769802195419
 10
102.8760633423366
 20
-128.6279798398048
 10
102.7830457642348
 20
-128.4651990781268
 10
102.5649712200185
 20
-128.4651990781268
 10
102.3251925742451
 20
-128.4651990781268
 10
102.2600802695739
 20
-128.6574354062037
 10
102.2600802695739
 20
-128.786281977352
 10
102.2600802695739
 20
-128.820388422656
 10
102.2600802695739
 20
-128.9716281144585
 10
102.3806586115576
 20
-129.0663682403029
 10
102.3806586115576
 20
-129.0663682403029
 10
102.3627441150343
 20
-129.2544704537975
 10
102.3627441150343
 20
-129.2544704537975
 10
102.3627441150343
 20
-129.2544704537975
 10
101.5703721534269
 20
-129.1252793731006
 10
101.5703721534269
 20
-129.1252793731006
 10
101.5703721534269
 20
-129.1252793731006
 10
101.5703721534269
 20
-128.2932888134128
 10
101.5703721534269
 20
-128.2932888134128
 10
101.5703721534269
 20
-128.2932888134128
 10
101.7529622141451
 20
-128.2932888134128
 10
101.7529622141451
 20
-128.2932888134128
 10
101.7529622141451
 20
-128.2932888134128
 10
101.7529622141451
 20
-128.9513020510955
 10
101.7529622141451
 20
-128.9513020510955
 10
101.7529622141451
 20
-128.9513020510955
 10
102.1491481949488
 20
-129.0215819989946
 10
102.1491481949488
 20
-129.0215819989946
 10
102.1174533164845
 20
-128.9557806752264
 10
102.0795572661468
 20
-128.8675862308039
 10
102.0795572661468
 20
-128.740978971721
 10
102.0795572661468
 20
-128.4696777022576
 10
102.2538790977004
 20
-128.2164631840917
 10
102.5470567234952
 20
-128.2164631840917
 10
102.8443684638722
 20
-128.2164631840917
 10
103.0641655558312
 20
-128.4562418298651
 10
103.0641655558312
 20
-128.7793917863816
 97
        0
 97
        0
 75
     2
 76
     1
 98
        0
  0
ENDBLK
  5
AE
330
AB
100
AcDbEntity
  8
0
100
AcDbBlockEnd
  0
BLOCK
  5
CD
330
CB
100
AcDbEntity
  8
0
100
AcDbBlockBegin
  2
block 5
 70
     0
 10
0.0
 20
0.0
 30
0.0
  3
block 5
  1

  0
SPLINE
  5
CF
330
CB
100
AcDbEntity
  8
_U+30EC_U+30A4_U+30E4_U+30FC 1
370
     0
100
AcDbSpline
210
0.0
220
0.0
230
1.0
 70
    11
 71
     3
 72
    29
 73
    25
 74
     0
 42
0.0000000001
 43
0.0000000001
 12
1.0
 22
0.0
 32
0.0
 13
1.0
 23
0.0
 33
0.0
 40
0.0
 40
0.0
 40
0.0
 40
0.0
 40
1.0
 40
1.0
 40
1.0
 40
2.0
 40
2.0
 40
2.0
 40
3.0
 40
3.0
 40
3.0
 40
4.0
 40
4.0
 40
4.0
 40
5.0
 40
5.0
 40
5.0
 40
6.0
 40
6.0
 40
6.0
 40
7.0
 40
7.0
 40
7.0
 40
8.0
 40
8.0
 40
8.0
 40
8.0
 10
90.46992999040336
 20
-120.5330389781133
 30
0.0
 10
90.25151093663851
 20
-120.350448917395
 30
0.0
 10
90.13162161375182
 20
-120.070879418767
 30
0.0
 10
90.35555282029306
 20
-119.8031954995631
 30
0.0
 10
90.51988387493948
 20
-119.6068250569039
 30
0.0
 10
90.69696178288132
 20
-119.6309407253006
 30
0.0
 10
90.82305227764147
 20
-119.6564344318915
 30
0.0
 10
90.75897350161581
 20
-119.525520803452
 30
0.0
 10
90.76930878807157
 20
-119.3854776719766
 30
0.0
 10
90.87266165262906
 20
-119.2621432536046
 30
0.0
 10
91.04905054147385
 20
-119.0513034099073
 30
0.0
 10
91.29881996415446
 20
-119.0836873074687
 30
0.0
 10
91.52447371843833
 20
-119.2723062852861
 30
0.0
 10
91.7570176636927
 20
-119.4667819254284
 30
0.0
 10
91.8204074206213
 20
-119.7074218450732
 30
0.0
 10
91.6495306845529
 20
-119.9118882621227
 30
0.0
 10
91.5461778199954
 20
-120.0352226804947
 30
0.0
 10
91.40940752923099
 20
-120.0695013805729
 30
0.0
 10
91.26850312388427
 20
-120.0291937633955
 30
0.0
 10
91.30915525061022
 20
-120.1291015324677
 30
0.0
 10
91.37771265076668
 20
-120.3108303193147
 30
0.0
 10
91.2095919910865
 20
-120.5120238956532
 30
0.0
 10
90.96946883576459
 20
-120.7991726043488
 30
0.0
 10
90.66595592351408
 20
-120.6970255232112
 30
0.0
 10
90.46992999040336
 20
-120.5330389781133
 30
0.0
  0
SPLINE
  5
D0
330
CB
100
AcDbEntity
  8
_U+30EC_U+30A4_U+30E4_U+30FC 1
370
     0
100
AcDbSpline
210
0.0
220
0.0
230
1.0
 70
    11
 71
     3
 72
    17
 73
    13
 74
     0
 42
0.0000000001
 43
0.0000000001
 12
1.0
 22
0.0
 32
0.0
 13
1.0
 23
0.0
 33
0.0
 40
0.0
 40
0.0
 40
0.0
 40
0.0
 40
1.0
 40
1.0
 40
1.0
 40
2.0
 40
2.0
 40
2.0
 40
3.0
 40
3.0
 40
3.0
 40
4.0
 40
4.0
 40
4.0
 40
4.0
 10
90.97739255538066
 20
-119.9261854083865
 30
0.0
 10
90.85957028978511
 20
-119.8276556775084
 30
0.0
 10
90.67939179590654
 20
-119.7897596271706
 30
0.0
 10
90.5491671865641
 20
-119.9456501978782
 30
0.0
 10
90.41722002947903
 20
-120.1029188067798
 30
0.0
 10
90.45580509891383
 20
-120.267766625749
 30
0.0
 10
90.5946424469694
 20
-120.383866343602
 30
0.0
 10
90.74726017696597
 20
-120.5116793861047
 30
0.0
 10
90.91641436529173
 20
-120.4927313609358
 30
0.0
 10
91.0304470258535
 20
-120.3564778344942
 30
0.0
 10
91.17272946939433
 20
-120.1861178627486
 30
0.0
 10
91.08660208226307
 20
-120.0176526935199
 30
0.0
 10
90.97739255538066
 20
-119.9261854083865
 30
0.0
  0
SPLINE
  5
D1
330
CB
100
AcDbEntity
  8
_U+30EC_U+30A4_U+30E4_U+30FC 1
370
     0
100
AcDbSpline
210
0.0
220
0.0
230
1.0
 70
    11
 71
     3
 72
    17
 73
    13
 74
     0
 42
0.0000000001
 43
0.0000000001
 12
1.0
 22
0.0
 32
0.0
 13
1.0
 23
0.0
 33
0.0
 40
0.0
 40
0.0
 40
0.0
 40
0.0
 40
1.0
 40
1.0
 40
1.0
 40
2.0
 40
2.0
 40
2.0
 40
3.0
 40
3.0
 40
3.0
 40
4.0
 40
4.0
 40
4.0
 40
4.0
 10
91.40113930006639
 20
-119.419928626829
 30
0.0
 10
91.26574704749606
 20
-119.3067572401386
 30
0.0
 10
91.1351779286051
 20
-119.3219156602737
 30
0.0
 10
91.04836152237681
 20
-119.425785289154
 30
0.0
 10
90.96981334531311
 20
-119.5198363959013
 30
0.0
 10
90.95258786788686
 20
-119.660051782151
 30
0.0
 10
91.09831540691293
 20
-119.7818359075546
 30
0.0
 10
91.244042945939
 20
-119.9037922877324
 30
0.0
 10
91.37909068896079
 20
-119.8621066323609
 30
0.0
 10
91.45763886602448
 20
-119.7680555256135
 30
0.0
 10
91.54445527225278
 20
-119.6641858967333
 30
0.0
 10
91.53480900489409
 20
-119.5317219753254
 30
0.0
 10
91.40113930006639
 20
-119.419928626829
 30
0.0
  0
HATCH
  5
D2
330
CB
100
AcDbEntity
  8
_U+30EC_U+30A4_U+30E4_U+30FC 1
 62
   179
420
  2234388
100
AcDbHatch
 10
0.0
 20
0.0
 30
0.0
210
0.0
220
0.0
230
1.0
  2
SOLID
 70
     1
 71
     0
 91
        3
 92
        1
 93
        1
 72
     4
 94
        3
 73
     0
 74
     1
 95
       29
 96
       25
 40
0.0
 40
0.0
 40
0.0
 40
0.0
 40
1.0
 40
1.0
 40
1.0
 40
2.0
 40
2.0
 40
2.0
 40
3.0
 40
3.0
 40
3.0
 40
4.0
 40
4.0
 40
4.0
 40
5.0
 40
5.0
 40
5.0
 40
6.0
 40
6.0
 40
6.0
 40
7.0
 40
7.0
 40
7.0
 40
8.0
 40
8.0
 40
8.0
 40
8.0
 10
90.46992999040336
 20
-120.5330389781133
 10
90.25151093663851
 20
-120.350448917395
 10
90.13162161375182
 20
-120.070879418767
 10
90.35555282029306
 20
-119.8031954995631
 10
90.51988387493948
 20
-119.6068250569039
 10
90.69696178288132
 20
-119.6309407253006
 10
90.82305227764147
 20
-119.6564344318915
 10
90.75897350161581
 20
-119.525520803452
 10
90.76930878807157
 20
-119.3854776719766
 10
90.87266165262906
 20
-119.2621432536046
 10
91.04905054147385
 20
-119.0513034099073
 10
91.29881996415446
 20
-119.0836873074687
 10
91.52447371843833
 20
-119.2723062852861
 10
91.7570176636927
 20
-119.4667819254284
 10
91.8204074206213
 20
-119.7074218450732
 10
91.6495306845529
 20
-119.9118882621227
 10
91.5461778199954
 20
-120.0352226804947
 10
91.40940752923099
 20
-120.0695013805729
 10
91.26850312388427
 20
-120.0291937633955
 10
91.30915525061022
 20
-120.1291015324677
 10
91.37771265076668
 20
-120.3108303193147
 10
91.2095919910865
 20
-120.5120238956532
 10
90.96946883576459
 20
-120.7991726043488
 10
90.66595592351408
 20
-120.6970255232112
 10
90.46992999040336
 20
-120.5330389781133
 97
        0
 97
        0
 92
        1
 93
        1
 72
     4
 94
        3
 73
     0
 74
     1
 95
       17
 96
       13
 40
0.0
 40
0.0
 40
0.0
 40
0.0
 40
1.0
 40
1.0
 40
1.0
 40
2.0
 40
2.0
 40
2.0
 40
3.0
 40
3.0
 40
3.0
 40
4.0
 40
4.0
 40
4.0
 40
4.0
 10
90.97739255538066
 20
-119.9261854083865
 10
90.85957028978511
 20
-119.8276556775084
 10
90.67939179590654
 20
-119.7897596271706
 10
90.5491671865641
 20
-119.9456501978782
 10
90.41722002947903
 20
-120.1029188067798
 10
90.45580509891383
 20
-120.267766625749
 10
90.5946424469694
 20
-120.383866343602
 10
90.74726017696597
 20
-120.5116793861047
 10
90.91641436529173
 20
-120.4927313609358
 10
91.0304470258535
 20
-120.3564778344942
 10
91.17272946939433
 20
-120.1861178627486
 10
91.08660208226307
 20
-120.0176526935199
 10
90.97739255538066
 20
-119.9261854083865
 97
        0
 97
        0
 92
        1
 93
        1
 72
     4
 94
        3
 73
     0
 74
     1
 95
       17
 96
       13
 40
0.0
 40
0.0
 40
0.0
 40
0.0
 40
1.0
 40
1.0
 40
1.0
 40
2.0
 40
2.0
 40
2.0
 40
3.0
 40
3.0
 40
3.0
 40
4.0
 40
4.0
 40
4.0
 40
4.0
 10
91.40113930006639
 20
-119.419928626829
 10
91.26574704749606
 20
-119.3067572401386
 10
91.1351779286051
 20
-119.3219156602737
 10
91.04836152237681
 20
-119.425785289154
 10
90.96981334531311
 20
-119.5198363959013
 10
90.95258786788686
 20
-119.660051782151
 10
91.09831540691293
 20
-119.7818359075546
 10
91.244042945939
 20
-119.9037922877324
 10
91.37909068896079
 20
-119.8621066323609
 10
91.45763886602448
 20
-119.7680555256135
 10
91.54445527225278
 20
-119.6641858967333
 10
91.53480900489409
 20
-119.5317219753254
 10
91.40113930006639
 20
-119.419928626829
 97
        0
 97
        0
 75
     2
 76
     1
 98
        0
  0
ENDBLK
  5
CE
330
CB
100
AcDbEntity
  8
0
100
AcDbBlockEnd
  0
BLOCK
  5
E1
330
DF
100
AcDbEntity
  8
0
100
AcDbBlockBegin
  2
block 6
 70
     0
 10
0.0
 20
0.0
 30
0.0
  3
block 6
  1

  0
SPLINE
  5
E3
330
DF
100
AcDbEntity
  8
_U+30EC_U+30A4_U+30E4_U+30FC 1
370
     0
100
AcDbSpline
210
0.0
220
0.0
230
1.0
 70
    11
 71
     3
 72
    26
 73
    22
 74
     0
 42
0.0000000001
 43
0.0000000001
 12
1.0
 22
0.0
 32
0.0
 13
1.0
 23
0.0
 33
0.0
 40
0.0
 40
0.0
 40
0.0
 40
0.0
 40
1.0
 40
1.0
 40
1.0
 40
2.0
 40
2.0
 40
2.0
 40
3.0
 40
3.0
 40
3.0
 40
4.0
 40
4.0
 40
4.0
 40
5.0
 40
5.0
 40
5.0
 40
6.0
 40
6.0
 40
6.0
 40
7.0
 40
7.0
 40
7.0
 40
7.0
 10
103.0159342190377
 20
-134.9437011381391
 30
0.0
 10
103.0159342190377
 20
-134.9437011381391
 30
0.0
 10
101.9817165543657
 20
-134.9437011381391
 30
0.0
 10
101.9817165543657
 20
-134.9437011381391
 30
0.0
 10
101.9817165543657
 20
-134.9437011381391
 30
0.0
 10
101.9817165543657
 20
-135.2964789158287
 30
0.0
 10
101.9817165543657
 20
-135.2964789158287
 30
0.0
 10
101.9817165543657
 20
-135.2964789158287
 30
0.0
 10
101.8432237158586
 20
-135.2964789158287
 30
0.0
 10
101.8432237158586
 20
-135.2964789158287
 30
0.0
 10
101.8294433339176
 20
-134.9416340808479
 30
0.0
 10
101.6768256039211
 20
-134.8916801963118
 30
0.0
 10
101.5696831343298
 20
-134.8599853178475
 30
0.0
 10
101.5696831343298
 20
-134.8599853178475
 30
0.0
 10
101.5696831343298
 20
-134.7039224923657
 30
0.0
 10
101.5696831343298
 20
-134.7039224923657
 30
0.0
 10
101.5696831343298
 20
-134.7039224923657
 30
0.0
 10
103.0159342190377
 20
-134.7039224923657
 30
0.0
 10
103.0159342190377
 20
-134.7039224923657
 30
0.0
 10
103.0159342190377
 20
-134.7039224923657
 30
0.0
 10
103.0159342190377
 20
-134.9437011381391
 30
0.0
 10
103.0159342190377
 20
-134.9437011381391
 30
0.0
  0
HATCH
  5
E4
330
DF
100
AcDbEntity
  8
_U+30EC_U+30A4_U+30E4_U+30FC 1
 62
   179
420
  2234388
100
AcDbHatch
 10
0.0
 20
0.0
 30
0.0
210
0.0
220
0.0
230
1.0
  2
SOLID
 70
     1
 71
     0
 91
        1
 92
        1
 93
        1
 72
     4
 94
        3
 73
     0
 74
     1
 95
       26
 96
       22
 40
0.0
 40
0.0
 40
0.0
 40
0.0
 40
1.0
 40
1.0
 40
1.0
 40
2.0
 40
2.0
 40
2.0
 40
3.0
 40
3.0
 40
3.0
 40
4.0
 40
4.0
 40
4.0
 40
5.0
 40
5.0
 40
5.0
 40
6.0
 40
6.0
 40
6.0
 40
7.0
 40
7.0
 40
7.0
 40
7.0
 10
103.0159342190377
 20
-134.9437011381391
 10
103.0159342190377
 20
-134.9437011381391
 10
101.9817165543657
 20
-134.9437011381391
 10
101.9817165543657
 20
-134.9437011381391
 10
101.9817165543657
 20
-134.9437011381391
 10
101.9817165543657
 20
-135.2964789158287
 10
101.9817165543657
 20
-135.2964789158287
 10
101.9817165543657
 20
-135.2964789158287
 10
101.8432237158586
 20
-135.2964789158287
 10
101.8432237158586
 20
-135.2964789158287
 10
101.8294433339176
 20
-134.9416340808479
 10
101.6768256039211
 20
-134.8916801963118
 10
101.5696831343298
 20
-134.8599853178475
 10
101.5696831343298
 20
-134.8599853178475
 10
101.5696831343298
 20
-134.7039224923657
 10
101.5696831343298
 20
-134.7039224923657
 10
101.5696831343298
 20
-134.7039224923657
 10
103.0159342190377
 20
-134.7039224923657
 10
103.0159342190377
 20
-134.7039224923657
 10
103.0159342190377
 20
-134.7039224923657
 10
103.0159342190377
 20
-134.9437011381391
 10
103.0159342190377
 20
-134.9437011381391
 97
        0
 97
        0
 75
     2
 76
     1
 98
        0
  0
ENDBLK
  5
E2
330
DF
100
AcDbEntity
  8
0
100
AcDbBlockEnd
  0
ENDSEC
  0
SECTION
  2
ENTITIES
  0
POLYLINE
  5
41
330
1F
100
AcDbEntity
  8
_U+30EC_U+30A4_U+30E4_U+30FC 1
  6
AI-Linetype-1
 62
   251
420
  5855577
370
    25
100
AcDb2dPolyline
 66
     1
 10
0.0
 20
0.0
 30
0.0
  0
VERTEX
  5
42
330
41
100
AcDbEntity
  8
_U+30EC_U+30A4_U+30E4_U+30FC 1
  6
AI-Linetype-1
 62
   251
420
  5855577
370
    25
100
AcDbVertex
100
AcDb2dVertex
 10
83.85224174963997
 20
-134.034882744269
 30
0.0
  0
VERTEX
  5
43
330
41
100
AcDbEntity
  8
_U+30EC_U+30A4_U+30E4_U+30FC 1
  6
AI-Linetype-1
 62
   251
420
  5855577
370
    25
100
AcDbVertex
100
AcDb2dVertex
 10
83.85224174963997
 20
-119.4102683034809
 30
0.0
  0
VERTEX
  5
44
330
41
100
AcDbEntity
  8
_U+30EC_U+30A4_U+30E4_U+30FC 1
  6
AI-Linetype-1
 62
   251
420
  5855577
370
    25
100
AcDbVertex
100
AcDb2dVertex
 10
92.1156376499343
 20
-126.1178791351372
 30
0.0
  0
SEQEND
  5
46
330
41
100
AcDbEntity
  8
_U+30EC_U+30A4_U+30E4_U+30FC 1
  6
AI-Linetype-1
 62
   251
420
  5855577
370
    25
  0
SPLINE
  5
47
330
1F
100
AcDbEntity
  8
_U+30EC_U+30A4_U+30E4_U+30FC 1
370
     0
100
AcDbSpline
210
0.0
220
0.0
230
1.0
 70
    11
 71
     3
 72
    47
 73
    43
 74
     0
 42
0.0000000001
 43
0.0000000001
 12
1.0
 22
0.0
 32
0.0
 13
1.0
 23
0.0
 33
0.0
 40
0.0
 40
0.0
 40
0.0
 40
0.0
 40
1.0
 40
1.0
 40
1.0
 40
2.0
 40
2.0
 40
2.0
 40
3.0
 40
3.0
 40
3.0
 40
4.0
 40
4.0
 40
4.0
 40
5.0
 40
5.0
 40
5.0
 40
6.0
 40
6.0
 40
6.0
 40
7.0
 40
7.0
 40
7.0
 40
8.0
 40
8.0
 40
8.0
 40
9.0
 40
9.0
 40
9.0
 40
10.0
 40
10.0
 40
10.0
 40
11.0
 40
11.0
 40
11.0
 40
12.0
 40
12.0
 40
12.0
 40
13.0
 40
13.0
 40
13.0
 40
14.0
 40
14.0
 40
14.0
 40
14.0
 10
96.51400275364948
 20
-133.9056955220789
 30
0.0
 10
96.51400275364948
 20
-133.9056955220789
 30
0.0
 10
95.6244711715276
 20
-132.9555238556497
 30
0.0
 10
95.6244711715276
 20
-132.9555238556497
 30
0.0
 10
95.6186150605659
 20
-132.9617327445374
 30
0.0
 10
95.6103600607765
 20
-132.9658602445361
 30
0.0
 10
95.60139950544955
 20
-132.9658602445361
 30
0.0
 10
95.58312561702687
 20
-132.9658602445361
 30
0.0
 10
95.5683089507382
 20
-132.9500205223182
 30
0.0
 10
95.5683089507382
 20
-132.9307235778784
 30
0.0
 10
95.5683089507382
 20
-132.9307235778784
 30
0.0
 10
85.58409837212331
 20
-132.9307235778784
 30
0.0
 10
85.58409837212331
 20
-132.9307235778784
 30
0.0
 10
85.58409837212331
 20
-132.9307235778784
 30
0.0
 10
85.58409837212331
 20
-123.0712196914544
 30
0.0
 10
85.58409837212331
 20
-123.0712196914544
 30
0.0
 10
85.58409837212331
 20
-123.0712196914544
 30
0.0
 10
89.60590831093194
 20
-126.4305108017256
 30
0.0
 10
89.60590831093194
 20
-126.4305108017256
 30
0.0
 10
89.60590831093194
 20
-126.4305108017256
 30
0.0
 10
91.00322351164768
 20
-126.4305108017256
 30
0.0
 10
91.00322351164768
 20
-126.4305108017256
 30
0.0
 10
91.00322351164768
 20
-126.4232788572831
 30
0.0
 10
91.16962878518011
 20
-126.4174227461735
 30
0.0
 10
91.17340350730602
 20
-126.4119194128413
 30
0.0
 10
91.17340350730602
 20
-126.4119194128413
 30
0.0
 10
84.56400831219227
 20
-120.9498963586513
 30
0.0
 10
84.56400831219227
 20
-120.9498963586513
 30
0.0
 10
84.5581500649641
 20
-120.9595271919825
 30
0.0
 10
84.55469284283006
 20
-120.966759136425
 30
0.0
 10
84.54298062090665
 20
-120.966759136425
 30
0.0
 10
84.54298062090665
 20
-120.966759136425
 30
0.0
 10
84.54298062090665
 20
-133.8953591331925
 30
0.0
 10
84.54298062090665
 20
-133.8953591331925
 30
0.0
 10
84.56090173156056
 20
-133.8953591331925
 30
0.0
 10
84.56400831219227
 20
-133.9111988554111
 30
0.0
 10
84.56400831219227
 20
-133.9304957998509
 30
0.0
 10
84.56400831219227
 20
-133.9304957998509
 30
0.0
 10
96.50436948241287
 20
-133.9304957998509
 30
0.0
 10
96.50436948241287
 20
-133.9304957998509
 30
0.0
 10
96.50436948241287
 20
-133.9208649665201
 30
0.0
 10
96.50849698230756
 20
-133.9119044109666
 30
0.0
 10
96.51400275364948
 20
-133.9056955220789
 30
0.0
  0
HATCH
  5
48
330
1F
100
AcDbEntity
  8
_U+30EC_U+30A4_U+30E4_U+30FC 1
 62
   253
420
 11711154
100
AcDbHatch
 10
0.0
 20
0.0
 30
0.0
210
0.0
220
0.0
230
1.0
  2
SOLID
 70
     1
 71
     0
 91
        1
 92
        1
 93
        1
 72
     4
 94
        3
 73
     0
 74
     1
 95
       47
 96
       43
 40
0.0
 40
0.0
 40
0.0
 40
0.0
 40
1.0
 40
1.0
 40
1.0
 40
2.0
 40
2.0
 40
2.0
 40
3.0
 40
3.0
 40
3.0
 40
4.0
 40
4.0
 40
4.0
 40
5.0
 40
5.0
 40
5.0
 40
6.0
 40
6.0
 40
6.0
 40
7.0
 40
7.0
 40
7.0
 40
8.0
 40
8.0
 40
8.0
 40
9.0
 40
9.0
 40
9.0
 40
10.0
 40
10.0
 40
10.0
 40
11.0
 40
11.0
 40
11.0
 40
12.0
 40
12.0
 40
12.0
 40
13.0
 40
13.0
 40
13.0
 40
14.0
 40
14.0
 40
14.0
 40
14.0
 10
96.51400275364948
 20
-133.9056955220789
 10
96.51400275364948
 20
-133.9056955220789
 10
95.6244711715276
 20
-132.9555238556497
 10
95.6244711715276
 20
-132.9555238556497
 10
95.6186150605659
 20
-132.9617327445374
 10
95.6103600607765
 20
-132.9658602445361
 10
95.60139950544955
 20
-132.9658602445361
 10
95.58312561702687
 20
-132.9658602445361
 10
95.5683089507382
 20
-132.9500205223182
 10
95.5683089507382
 20
-132.9307235778784
 10
95.5683089507382
 20
-132.9307235778784
 10
85.58409837212331
 20
-132.9307235778784
 10
85.58409837212331
 20
-132.9307235778784
 10
85.58409837212331
 20
-132.9307235778784
 10
85.58409837212331
 20
-123.0712196914544
 10
85.58409837212331
 20
-123.0712196914544
 10
85.58409837212331
 20
-123.0712196914544
 10
89.60590831093194
 20
-126.4305108017256
 10
89.60590831093194
 20
-126.4305108017256
 10
89.60590831093194
 20
-126.4305108017256
 10
91.00322351164768
 20
-126.4305108017256
 10
91.00322351164768
 20
-126.4305108017256
 10
91.00322351164768
 20
-126.4232788572831
 10
91.16962878518011
 20
-126.4174227461735
 10
91.17340350730602
 20
-126.4119194128413
 10
91.17340350730602
 20
-126.4119194128413
 10
84.56400831219227
 20
-120.9498963586513
 10
84.56400831219227
 20
-120.9498963586513
 10
84.5581500649641
 20
-120.9595271919825
 10
84.55469284283006
 20
-120.966759136425
 10
84.54298062090665
 20
-120.966759136425
 10
84.54298062090665
 20
-120.966759136425
 10
84.54298062090665
 20
-133.8953591331925
 10
84.54298062090665
 20
-133.8953591331925
 10
84.56090173156056
 20
-133.8953591331925
 10
84.56400831219227
 20
-133.9111988554111
 10
84.56400831219227
 20
-133.9304957998509
 10
84.56400831219227
 20
-133.9304957998509
 10
96.50436948241287
 20
-133.9304957998509
 10
96.50436948241287
 20
-133.9304957998509
 10
96.50436948241287
 20
-133.9208649665201
 10
96.50849698230756
 20
-133.9119044109666
 10
96.51400275364948
 20
-133.9056955220789
 97
        0
 97
        0
 75
     2
 76
     1
 98
        0
  0
POLYLINE
  5
49
330
1F
100
AcDbEntity
  8
_U+30EC_U+30A4_U+30E4_U+30FC 1
 62
   179
420
  2234388
370
    25
100
AcDb2dPolyline
 66
     1
 10
0.0
 20
0.0
 30
0.0
  0
VERTEX
  5
4A
330
49
100
AcDbEntity
  8
_U+30EC_U+30A4_U+30E4_U+30FC 1
 62
   179
420
  2234388
370
    25
100
AcDbVertex
100
AcDb2dVertex
 10
85.50073698536114
 20
-132.9307235778784
 30
0.0
  0
VERTEX
  5
4B
330
49
100
AcDbEntity
  8
_U+30EC_U+30A4_U+30E4_U+30FC 1
 62
   179
420
  2234388
370
    25
100
AcDbVertex
100
AcDb2dVertex
 10
95.60139950544955
 20
-132.9307235778784
 30
0.0
  0
SEQEND
  5
4C
330
49
100
AcDbEntity
  8
_U+30EC_U+30A4_U+30E4_U+30FC 1
 62
   179
420
  2234388
370
    25
  0
POLYLINE
  5
4D
330
1F
100
AcDbEntity
  8
_U+30EC_U+30A4_U+30E4_U+30FC 1
 62
   179
420
  2234388
370
    25
100
AcDb2dPolyline
 66
     1
 10
0.0
 20
0.0
 30
0.0
  0
VERTEX
  5
4E
330
4D
100
AcDbEntity
  8
_U+30EC_U+30A4_U+30E4_U+30FC 1
 62
   179
420
  2234388
370
    25
100
AcDbVertex
100
AcDb2dVertex
 10
84.56467645368647
 20
-120.9313049697673
 30
0.0
  0
VERTEX
  5
4F
330
4D
100
AcDbEntity
  8
_U+30EC_U+30A4_U+30E4_U+30FC 1
 62
   179
420
  2234388
370
    25
100
AcDbVertex
100
AcDb2dVertex
 10
84.56467645368647
 20
-133.9304957998509
 30
0.0
  0
SEQEND
  5
50
330
4D
100
AcDbEntity
  8
_U+30EC_U+30A4_U+30E4_U+30FC 1
 62
   179
420
  2234388
370
    25
  0
POLYLINE
  5
51
330
1F
100
AcDbEntity
  8
_U+30EC_U+30A4_U+30E4_U+30FC 1
 62
   179
420
  2234388
370
    25
100
AcDb2dPolyline
 66
     1
 10
0.0
 20
0.0
 30
0.0
  0
VERTEX
  5
52
330
51
100
AcDbEntity
  8
_U+30EC_U+30A4_U+30E4_U+30FC 1
 62
   179
420
  2234388
370
    25
100
AcDbVertex
100
AcDb2dVertex
 10
84.56467645368647
 20
-133.9304957998509
 30
0.0
  0
VERTEX
  5
53
330
51
100
AcDbEntity
  8
_U+30EC_U+30A4_U+30E4_U+30FC 1
 62
   179
420
  2234388
370
    25
100
AcDbVertex
100
AcDb2dVertex
 10
96.56465920309697
 20
-133.9304957998509
 30
0.0
  0
SEQEND
  5
54
330
51
100
AcDbEntity
  8
_U+30EC_U+30A4_U+30E4_U+30FC 1
 62
   179
420
  2234388
370
    25
  0
POLYLINE
  5
55
330
1F
100
AcDbEntity
  8
_U+30EC_U+30A4_U+30E4_U+30FC 1
 62
   179
420
  2234388
370
    25
100
AcDb2dPolyline
 66
     1
 10
0.0
 20
0.0
 30
0.0
  0
VERTEX
  5
56
330
55
100
AcDbEntity
  8
_U+30EC_U+30A4_U+30E4_U+30FC 1
 62
   179
420
  2234388
370
    25
100
AcDbVertex
100
AcDb2dVertex
 10
85.56444865040238
 20
-123.0712196914544
 30
0.0
  0
VERTEX
  5
57
330
55
100
AcDbEntity
  8
_U+30EC_U+30A4_U+30E4_U+30FC 1
 62
   179
420
  2234388
370
    25
100
AcDbVertex
100
AcDb2dVertex
 10
85.56444865040238
 20
-132.9307235778784
 30
0.0
  0
SEQEND
  5
58
330
55
100
AcDbEntity
  8
_U+30EC_U+30A4_U+30E4_U+30FC 1
 62
   179
420
  2234388
370
    25
  0
POLYLINE
  5
59
330
1F
100
AcDbEntity
  8
_U+30EC_U+30A4_U+30E4_U+30FC 1
 62
   179
420
  2234388
370
    25
100
AcDb2dPolyline
 66
     1
 10
0.0
 20
0.0
 30
0.0
  0
VERTEX
  5
5A
330
59
100
AcDbEntity
  8
_U+30EC_U+30A4_U+30E4_U+30FC 1
 62
   179
420
  2234388
370
    25
100
AcDbVertex
100
AcDb2dVertex
 10
95.60139950544955
 20
-132.9307235778784
 30
0.0
  0
VERTEX
  5
5B
330
59
100
AcDbEntity
  8
_U+30EC_U+30A4_U+30E4_U+30FC 1
 62
   179
420
  2234388
370
    25
100
AcDbVertex
100
AcDb2dVertex
 10
96.53742475934733
 20
-133.9304957998509
 30
0.0
  0
SEQEND
  5
5C
330
59
100
AcDbEntity
  8
_U+30EC_U+30A4_U+30E4_U+30FC 1
 62
   179
420
  2234388
370
    25
  0
POLYLINE
  5
5D
330
1F
100
AcDbEntity
  8
_U+30EC_U+30A4_U+30E4_U+30FC 1
 62
   179
420
  2234388
370
    25
100
AcDb2dPolyline
 66
     1
 10
0.0
 20
0.0
 30
0.0
  0
VERTEX
  5
5E
330
5D
100
AcDbEntity
  8
_U+30EC_U+30A4_U+30E4_U+30FC 1
 62
   179
420
  2234388
370
    25
100
AcDbVertex
100
AcDb2dVertex
 10
89.65173187946044
 20
-126.4305108017256
 30
0.0
  0
VERTEX
  5
5F
330
5D
100
AcDbEntity
  8
_U+30EC_U+30A4_U+30E4_U+30FC 1
 62
   179
420
  2234388
370
    25
100
AcDbVertex
100
AcDb2dVertex
 10
91.17925961826774
 20
-126.4305108017256
 30
0.0
  0
SEQEND
  5
60
330
5D
100
AcDbEntity
  8
_U+30EC_U+30A4_U+30E4_U+30FC 1
 62
   179
420
  2234388
370
    25
  0
POLYLINE
  5
61
330
1F
100
AcDbEntity
  8
_U+30EC_U+30A4_U+30E4_U+30FC 1
 62
   179
420
  2234388
370
    25
100
AcDb2dPolyline
 66
     1
 10
0.0
 20
0.0
 30
0.0
  0
VERTEX
  5
62
330
61
100
AcDbEntity
  8
_U+30EC_U+30A4_U+30E4_U+30FC 1
 62
   179
420
  2234388
370
    25
100
AcDbVertex
100
AcDb2dVertex
 10
84.56467645368647
 20
-120.9313049697673
 30
0.0
  0
VERTEX
  5
63
330
61
100
AcDbEntity
  8
_U+30EC_U+30A4_U+30E4_U+30FC 1
 62
   179
420
  2234388
370
    25
100
AcDbVertex
100
AcDb2dVertex
 10
91.17925961826774
 20
-126.4305108017256
 30
0.0
  0
SEQEND
  5
64
330
61
100
AcDbEntity
  8
_U+30EC_U+30A4_U+30E4_U+30FC 1
 62
   179
420
  2234388
370
    25
  0
POLYLINE
  5
65
330
1F
100
AcDbEntity
  8
_U+30EC_U+30A4_U+30E4_U+30FC 1
 62
   179
420
  2234388
370
    25
100
AcDb2dPolyline
 66
     1
 10
0.0
 20
0.0
 30
0.0
  0
VERTEX
  5
66
330
65
100
AcDbEntity
  8
_U+30EC_U+30A4_U+30E4_U+30FC 1
 62
   179
420
  2234388
370
    25
100
AcDbVertex
100
AcDb2dVertex
 10
85.56444865040238
 20
-123.0712196914544
 30
0.0
  0
VERTEX
  5
67
330
65
100
AcDbEntity
  8
_U+30EC_U+30A4_U+30E4_U+30FC 1
 62
   179
420
  2234388
370
    25
100
AcDbVertex
100
AcDb2dVertex
 10
89.65173187946044
 20
-126.4305108017256
 30
0.0
  0
SEQEND
  5
68
330
65
100
AcDbEntity
  8
_U+30EC_U+30A4_U+30E4_U+30FC 1
 62
   179
420
  2234388
370
    25
  0
SPLINE
  5
69
330
1F
100
AcDbEntity
  8
_U+30EC_U+30A4_U+30E4_U+30FC 1
 62
   179
420
  2234388
370
     9
100
AcDbSpline
210
0.0
220
0.0
230
1.0
 70
    11
 71
     3
 72
    17
 73
    13
 74
     0
 42
0.0000000001
 43
0.0000000001
 12
1.0
 22
0.0
 32
0.0
 13
1.0
 23
0.0
 33
0.0
 40
0.0
 40
0.0
 40
0.0
 40
0.0
 40
1.0
 40
1.0
 40
1.0
 40
2.0
 40
2.0
 40
2.0
 40
3.0
 40
3.0
 40
3.0
 40
4.0
 40
4.0
 40
4.0
 40
4.0
 10
80.66485933095687
 20
-133.9304957998509
 30
0.0
 10
80.66485933095687
 20
-133.8753919109753
 30
0.0
 10
80.62005655432212
 20
-133.8305891332093
 30
0.0
 10
80.56491942430307
 20
-133.8305891332093
 30
0.0
 10
80.50981350157909
 20
-133.8305891332093
 30
0.0
 10
80.46501072494434
 20
-133.8753919109753
 30
0.0
 10
80.46501072494434
 20
-133.9304957998509
 30
0.0
 10
80.46501072494434
 20
-133.9856349665033
 30
0.0
 10
80.50981350157909
 20
-134.0304024664925
 30
0.0
 10
80.56491942430307
 20
-134.0304024664925
 30
0.0
 10
80.62005655432212
 20
-134.0304024664925
 30
0.0
 10
80.66485933095687
 20
-133.9856349665033
 30
0.0
 10
80.66485933095687
 20
-133.9304957998509
 30
0.0
  0
SPLINE
  5
6A
330
1F
100
AcDbEntity
  8
_U+30EC_U+30A4_U+30E4_U+30FC 1
 62
   179
420
  2234388
370
     9
100
AcDbSpline
210
0.0
220
0.0
230
1.0
 70
    11
 71
     3
 72
    17
 73
    13
 74
     0
 42
0.0000000001
 43
0.0000000001
 12
1.0
 22
0.0
 32
0.0
 13
1.0
 23
0.0
 33
0.0
 40
0.0
 40
0.0
 40
0.0
 40
0.0
 40
1.0
 40
1.0
 40
1.0
 40
2.0
 40
2.0
 40
2.0
 40
3.0
 40
3.0
 40
3.0
 40
4.0
 40
4.0
 40
4.0
 40
4.0
 10
84.66458311780431
 20
-137.9302549655172
 30
0.0
 10
84.66458311780431
 20
-137.8751157988647
 30
0.0
 10
84.61981561894643
 20
-137.8303482988755
 30
0.0
 10
84.56467645368647
 20
-137.8303482988755
 30
0.0
 10
84.5095725662034
 20
-137.8303482988755
 30
0.0
 10
84.46476978956865
 20
-137.8751157988647
 30
0.0
 10
84.46476978956865
 20
-137.9302549655172
 30
0.0
 10
84.46476978956865
 20
-137.9860644099482
 30
0.0
 10
84.5095725662034
 20
-138.0308671877143
 30
0.0
 10
84.56467645368647
 20
-138.0308671877143
 30
0.0
 10
84.61981561894643
 20
-138.0308671877143
 30
0.0
 10
84.66458311780431
 20
-137.9860644099482
 30
0.0
 10
84.66458311780431
 20
-137.9302549655172
 30
0.0
  0
SPLINE
  5
6B
330
1F
100
AcDbEntity
  8
_U+30EC_U+30A4_U+30E4_U+30FC 1
 62
   179
420
  2234388
370
     9
100
AcDbSpline
210
0.0
220
0.0
230
1.0
 70
    11
 71
     3
 72
    17
 73
    13
 74
     0
 42
0.0000000001
 43
0.0000000001
 12
1.0
 22
0.0
 32
0.0
 13
1.0
 23
0.0
 33
0.0
 40
0.0
 40
0.0
 40
0.0
 40
0.0
 40
1.0
 40
1.0
 40
1.0
 40
2.0
 40
2.0
 40
2.0
 40
3.0
 40
3.0
 40
3.0
 40
4.0
 40
4.0
 40
4.0
 40
4.0
 10
100.3766346614009
 20
-132.9307235778784
 30
0.0
 10
100.3766346614009
 20
-132.8756196890035
 30
0.0
 10
100.3346188291395
 20
-132.8308169112367
 30
0.0
 10
100.282231330476
 20
-132.8308169112367
 30
0.0
 10
100.2309021651189
 20
-132.8308169112367
 30
0.0
 10
100.1888888638417
 20
-132.8756196890035
 30
0.0
 10
100.1888888638417
 20
-132.9307235778784
 30
0.0
 10
100.1888888638417
 20
-132.9858627445314
 30
0.0
 10
100.2309021651189
 20
-133.03063024452
 30
0.0
 10
100.282231330476
 20
-133.03063024452
 30
0.0
 10
100.3346188291395
 20
-133.03063024452
 30
0.0
 10
100.3766346614009
 20
-132.9858627445314
 30
0.0
 10
100.3766346614009
 20
-132.9307235778784
 30
0.0
  0
SPLINE
  5
6C
330
1F
100
AcDbEntity
  8
_U+30EC_U+30A4_U+30E4_U+30FC 1
 62
   179
420
  2234388
370
     9
100
AcDbSpline
210
0.0
220
0.0
230
1.0
 70
    11
 71
     3
 72
    17
 73
    13
 74
     0
 42
0.0000000001
 43
0.0000000001
 12
1.0
 22
0.0
 32
0.0
 13
1.0
 23
0.0
 33
0.0
 40
0.0
 40
0.0
 40
0.0
 40
0.0
 40
1.0
 40
1.0
 40
1.0
 40
2.0
 40
2.0
 40
2.0
 40
3.0
 40
3.0
 40
3.0
 40
4.0
 40
4.0
 40
4.0
 40
4.0
 10
96.63080503474278
 20
-137.9302549655172
 30
0.0
 10
96.63080503474278
 20
-137.8751157988647
 30
0.0
 10
96.58910670247326
 20
-137.8303482988755
 30
0.0
 10
96.53742475934733
 20
-137.8303482988755
 30
0.0
 10
96.4857428162214
 20
-137.8303482988755
 30
0.0
 10
96.44372698395999
 20
-137.8751157988647
 30
0.0
 10
96.44372698395999
 20
-137.9302549655172
 30
0.0
 10
96.44372698395999
 20
-137.9860644099482
 30
0.0
 10
96.4857428162214
 20
-138.0308671877143
 30
0.0
 10
96.53742475934733
 20
-138.0308671877143
 30
0.0
 10
96.58910670247326
 20
-138.0308671877143
 30
0.0
 10
96.63080503474278
 20
-137.9860644099482
 30
0.0
 10
96.63080503474278
 20
-137.9302549655172
 30
0.0
  0
SPLINE
  5
6D
330
1F
100
AcDbEntity
  8
_U+30EC_U+30A4_U+30E4_U+30FC 1
 62
   179
420
  2234388
370
     9
100
AcDbSpline
210
0.0
220
0.0
230
1.0
 70
    11
 71
     3
 72
    17
 73
    13
 74
     0
 42
0.0000000001
 43
0.0000000001
 12
1.0
 22
0.0
 32
0.0
 13
1.0
 23
0.0
 33
0.0
 40
0.0
 40
0.0
 40
0.0
 40
0.0
 40
1.0
 40
1.0
 40
1.0
 40
2.0
 40
2.0
 40
2.0
 40
3.0
 40
3.0
 40
3.0
 40
4.0
 40
4.0
 40
4.0
 40
4.0
 10
80.66485933095687
 20
-120.9307758031007
 30
0.0
 10
80.66485933095687
 20
-120.8756366364479
 30
0.0
 10
80.62005655432212
 20
-120.830869136459
 30
0.0
 10
80.56491942430307
 20
-120.830869136459
 30
0.0
 10
80.50981350157909
 20
-120.830869136459
 30
0.0
 10
80.46501072494434
 20
-120.8756366364479
 30
0.0
 10
80.46501072494434
 20
-120.9307758031007
 30
0.0
 10
80.46501072494434
 20
-120.9862324697533
 30
0.0
 10
80.50981350157909
 20
-121.0310352475201
 30
0.0
 10
80.56491942430307
 20
-121.0310352475201
 30
0.0
 10
80.62005655432212
 20
-121.0310352475201
 30
0.0
 10
80.66485933095687
 20
-120.9862324697533
 30
0.0
 10
80.66485933095687
 20
-120.9307758031007
 30
0.0
  0
SPLINE
  5
6E
330
1F
100
AcDbEntity
  8
_U+30EC_U+30A4_U+30E4_U+30FC 1
 62
   179
420
  2234388
370
     9
100
AcDbSpline
210
0.0
220
0.0
230
1.0
 70
    11
 71
     3
 72
    17
 73
    13
 74
     0
 42
0.0000000001
 43
0.0000000001
 12
1.0
 22
0.0
 32
0.0
 13
1.0
 23
0.0
 33
0.0
 40
0.0
 40
0.0
 40
0.0
 40
0.0
 40
1.0
 40
1.0
 40
1.0
 40
2.0
 40
2.0
 40
2.0
 40
3.0
 40
3.0
 40
3.0
 40
4.0
 40
4.0
 40
4.0
 40
4.0
 10
93.41410678347425
 20
-123.357146080272
 30
0.0
 10
93.4192573388984
 20
-123.3022185802856
 30
0.0
 10
93.37932289547278
 20
-123.2534646914088
 30
0.0
 10
93.32418608777981
 20
-123.248102469188
 30
0.0
 10
93.26939734272166
 20
-123.2424227469673
 30
0.0
 10
93.22050234396907
 20
-123.2822160802906
 30
0.0
 10
93.21496373299927
 20
-123.3377080247211
 30
0.0
 10
93.20946039980633
 20
-123.3922827469297
 30
0.0
 10
93.24943012100884
 20
-123.4415658024729
 30
0.0
 10
93.30456928626879
 20
-123.4468927469162
 30
0.0
 10
93.35932039598309
 20
-123.4525724691369
 30
0.0
 10
93.40860345028132
 20
-123.4122852469248
 30
0.0
 10
93.41410678347425
 20
-123.357146080272
 30
0.0
  0
SPLINE
  5
6F
330
1F
100
AcDbEntity
  8
_U+30EC_U+30A4_U+30E4_U+30FC 1
 62
   179
420
  2234388
370
     9
100
AcDbSpline
210
0.0
220
0.0
230
1.0
 70
    11
 71
     3
 72
    17
 73
    13
 74
     0
 42
0.0000000001
 43
0.0000000001
 12
1.0
 22
0.0
 32
0.0
 13
1.0
 23
0.0
 33
0.0
 40
0.0
 40
0.0
 40
0.0
 40
0.0
 40
1.0
 40
1.0
 40
1.0
 40
2.0
 40
2.0
 40
2.0
 40
3.0
 40
3.0
 40
3.0
 40
4.0
 40
4.0
 40
4.0
 40
4.0
 10
87.28046555106759
 20
-118.221724692667
 30
0.0
 10
87.28596888426053
 20
-118.1667619149028
 30
0.0
 10
87.24532888529734
 20
-118.1175141371371
 30
0.0
 10
87.19124805334373
 20
-118.1118344149164
 30
0.0
 10
87.13540553377156
 20
-118.1064721926956
 30
0.0
 10
87.08615555602485
 20
-118.1467946926856
 30
0.0
 10
87.0810050006007
 20
-118.2017574704495
 30
0.0
 10
87.07581916739967
 20
-118.2568613593247
 30
0.0
 10
87.11508333306462
 20
-118.3056152482015
 30
0.0
 10
87.17089277608525
 20
-118.3112949704223
 30
0.0
 10
87.2260319413452
 20
-118.3166219148652
 30
0.0
 10
87.27496221787466
 20
-118.2768285815419
 30
0.0
 10
87.28046555106759
 20
-118.221724692667
 30
0.0
  0
SPLINE
  5
70
330
1F
100
AcDbEntity
  8
_U+30EC_U+30A4_U+30E4_U+30FC 1
 62
   179
420
  2234388
370
     9
100
AcDbSpline
210
0.0
220
0.0
230
1.0
 70
    11
 71
     3
 72
    17
 73
    13
 74
     0
 42
0.0000000001
 43
0.0000000001
 12
1.0
 22
0.0
 32
0.0
 13
1.0
 23
0.0
 33
0.0
 40
0.0
 40
0.0
 40
0.0
 40
0.0
 40
1.0
 40
1.0
 40
1.0
 40
2.0
 40
2.0
 40
2.0
 40
3.0
 40
3.0
 40
3.0
 40
4.0
 40
4.0
 40
4.0
 40
4.0
 10
100.3766346614009
 20
-126.4305108017256
 30
0.0
 10
100.3766346614009
 20
-126.3754069128507
 30
0.0
 10
100.3346188291395
 20
-126.330604135084
 30
0.0
 10
100.282231330476
 20
-126.330604135084
 30
0.0
 10
100.2309021651189
 20
-126.330604135084
 30
0.0
 10
100.1888888638417
 20
-126.3754069128507
 30
0.0
 10
100.1888888638417
 20
-126.4305108017256
 30
0.0
 10
100.1888888638417
 20
-126.4860027461562
 30
0.0
 10
100.2309021651189
 20
-126.530770246145
 30
0.0
 10
100.282231330476
 20
-126.530770246145
 30
0.0
 10
100.3346188291395
 20
-126.530770246145
 30
0.0
 10
100.3766346614009
 20
-126.4860027461562
 30
0.0
 10
100.3766346614009
 20
-126.4305108017256
 30
0.0
  0
POLYLINE
  5
71
330
1F
100
AcDbEntity
  8
_U+30EC_U+30A4_U+30E4_U+30FC 1
 62
   179
420
  2234388
370
     9
100
AcDb2dPolyline
 66
     1
 10
0.0
 20
0.0
 30
0.0
  0
VERTEX
  5
72
330
71
100
AcDbEntity
  8
_U+30EC_U+30A4_U+30E4_U+30FC 1
 62
   179
420
  2234388
370
     9
100
AcDbVertex
100
AcDb2dVertex
 10
84.56467645368647
 20
-137.9302549655172
 30
0.0
  0
VERTEX
  5
73
330
71
100
AcDbEntity
  8
_U+30EC_U+30A4_U+30E4_U+30FC 1
 62
   179
420
  2234388
370
     9
100
AcDbVertex
100
AcDb2dVertex
 10
96.56465920309697
 20
-137.9302549655172
 30
0.0
  0
SEQEND
  5
74
330
71
100
AcDbEntity
  8
_U+30EC_U+30A4_U+30E4_U+30FC 1
 62
   179
420
  2234388
370
     9
  0
POLYLINE
  5
75
330
1F
100
AcDbEntity
  8
_U+30EC_U+30A4_U+30E4_U+30FC 1
 62
   179
420
  2234388
370
     9
100
AcDb2dPolyline
 66
     1
 10
0.0
 20
0.0
 30
0.0
  0
VERTEX
  5
76
330
75
100
AcDbEntity
  8
_U+30EC_U+30A4_U+30E4_U+30FC 1
 62
   179
420
  2234388
370
     9
100
AcDbVertex
100
AcDb2dVertex
 10
84.56467645368647
 20
-136.4702135769934
 30
0.0
  0
VERTEX
  5
77
330
75
100
AcDbEntity
  8
_U+30EC_U+30A4_U+30E4_U+30FC 1
 62
   179
420
  2234388
370
     9
100
AcDbVertex
100
AcDb2dVertex
 10
84.56467645368647
 20
-138.9306974652671
 30
0.0
  0
SEQEND
  5
78
330
75
100
AcDbEntity
  8
_U+30EC_U+30A4_U+30E4_U+30FC 1
 62
   179
420
  2234388
370
     9
  0
POLYLINE
  5
79
330
1F
100
AcDbEntity
  8
_U+30EC_U+30A4_U+30E4_U+30FC 1
 62
   179
420
  2234388
370
     9
100
AcDb2dPolyline
 66
     1
 10
0.0
 20
0.0
 30
0.0
  0
VERTEX
  5
7A
330
79
100
AcDbEntity
  8
_U+30EC_U+30A4_U+30E4_U+30FC 1
 62
   179
420
  2234388
370
     9
100
AcDbVertex
100
AcDb2dVertex
 10
96.53742475934733
 20
-136.4702135769934
 30
0.0
  0
VERTEX
  5
7B
330
79
100
AcDbEntity
  8
_U+30EC_U+30A4_U+30E4_U+30FC 1
 62
   179
420
  2234388
370
     9
100
AcDbVertex
100
AcDb2dVertex
 10
96.53742475934733
 20
-138.9306974652671
 30
0.0
  0
SEQEND
  5
7C
330
79
100
AcDbEntity
  8
_U+30EC_U+30A4_U+30E4_U+30FC 1
 62
   179
420
  2234388
370
     9
  0
INSERT
  5
7E
330
1F
100
AcDbEntity
  8
_U+30EC_U+30A4_U+30E4_U+30FC 1
100
AcDbBlockReference
  2
block 2
 10
0.0
 20
0.0
 30
0.0
  0
SPLINE
  5
85
330
1F
100
AcDbEntity
  8
_U+30EC_U+30A4_U+30E4_U+30FC 1
 62
   179
420
  2234388
370
    25
100
AcDbSpline
210
0.0
220
0.0
230
1.0
 70
    11
 71
     3
 72
    17
 73
    13
 74
     0
 42
0.0000000001
 43
0.0000000001
 12
1.0
 22
0.0
 32
0.0
 13
1.0
 23
0.0
 33
0.0
 40
0.0
 40
0.0
 40
0.0
 40
0.0
 40
1.0
 40
1.0
 40
1.0
 40
2.0
 40
2.0
 40
2.0
 40
3.0
 40
3.0
 40
3.0
 40
4.0
 40
4.0
 40
4.0
 40
4.0
 10
84.59981311945674
 20
-133.9304957998509
 30
0.0
 10
84.59981311945674
 20
-133.9497927442901
 30
0.0
 10
84.58397339763862
 20
-133.9656324665086
 30
0.0
 10
84.56467645368647
 20
-133.9656324665086
 30
0.0
 10
84.54541478751122
 20
-133.9656324665086
 30
0.0
 10
84.52953978791622
 20
-133.9497927442901
 30
0.0
 10
84.52953978791622
 20
-133.9304957998509
 30
0.0
 10
84.52953978791622
 20
-133.9111988554111
 30
0.0
 10
84.54541478751122
 20
-133.8953591331925
 30
0.0
 10
84.56467645368647
 20
-133.8953591331925
 30
0.0
 10
84.58397339763862
 20
-133.8953591331925
 30
0.0
 10
84.59981311945674
 20
-133.9111988554111
 30
0.0
 10
84.59981311945674
 20
-133.9304957998509
 30
0.0
  0
SPLINE
  5
86
330
1F
100
AcDbEntity
  8
_U+30EC_U+30A4_U+30E4_U+30FC 1
 62
   179
420
  2234388
370
    25
100
AcDbSpline
210
0.0
220
0.0
230
1.0
 70
    11
 71
     3
 72
    17
 73
    13
 74
     0
 42
0.0000000001
 43
0.0000000001
 12
1.0
 22
0.0
 32
0.0
 13
1.0
 23
0.0
 33
0.0
 40
0.0
 40
0.0
 40
0.0
 40
0.0
 40
1.0
 40
1.0
 40
1.0
 40
2.0
 40
2.0
 40
2.0
 40
3.0
 40
3.0
 40
3.0
 40
4.0
 40
4.0
 40
4.0
 40
4.0
 10
96.5701625362899
 20
-133.9304957998509
 30
0.0
 10
96.5701625362899
 20
-133.9497927442901
 30
0.0
 10
96.55534587000123
 20
-133.9656324665086
 30
0.0
 10
96.53742475934733
 20
-133.9656324665086
 30
0.0
 10
96.51918614870152
 20
-133.9656324665086
 30
0.0
 10
96.50436948241287
 20
-133.9497927442901
 30
0.0
 10
96.50436948241287
 20
-133.9304957998509
 30
0.0
 10
96.50436948241287
 20
-133.9111988554111
 30
0.0
 10
96.51918614870152
 20
-133.8953591331925
 30
0.0
 10
96.53742475934733
 20
-133.8953591331925
 30
0.0
 10
96.55534587000123
 20
-133.8953591331925
 30
0.0
 10
96.5701625362899
 20
-133.9111988554111
 30
0.0
 10
96.5701625362899
 20
-133.9304957998509
 30
0.0
  0
SPLINE
  5
87
330
1F
100
AcDbEntity
  8
_U+30EC_U+30A4_U+30E4_U+30FC 1
 62
   179
420
  2234388
370
     9
100
AcDbSpline
210
0.0
220
0.0
230
1.0
 70
    11
 71
     3
 72
    17
 73
    13
 74
     0
 42
0.0000000001
 43
0.0000000001
 12
1.0
 22
0.0
 32
0.0
 13
1.0
 23
0.0
 33
0.0
 40
0.0
 40
0.0
 40
0.0
 40
0.0
 40
1.0
 40
1.0
 40
1.0
 40
2.0
 40
2.0
 40
2.0
 40
3.0
 40
3.0
 40
3.0
 40
4.0
 40
4.0
 40
4.0
 40
4.0
 10
96.5701625362899
 20
-137.9302549655172
 30
0.0
 10
96.5701625362899
 20
-137.950222187735
 30
0.0
 10
96.55534587000123
 20
-137.9660971877304
 30
0.0
 10
96.53742475934733
 20
-137.9660971877304
 30
0.0
 10
96.51918614870152
 20
-137.9660971877304
 30
0.0
 10
96.50436948241287
 20
-137.950222187735
 30
0.0
 10
96.50436948241287
 20
-137.9302549655172
 30
0.0
 10
96.50436948241287
 20
-137.910958021078
 30
0.0
 10
96.51918614870152
 20
-137.8951182988594
 30
0.0
 10
96.53742475934733
 20
-137.8951182988594
 30
0.0
 10
96.55534587000123
 20
-137.8951182988594
 30
0.0
 10
96.5701625362899
 20
-137.910958021078
 30
0.0
 10
96.5701625362899
 20
-137.9302549655172
 30
0.0
  0
POLYLINE
  5
88
330
1F
100
AcDbEntity
  8
_U+30EC_U+30A4_U+30E4_U+30FC 1
 62
   179
420
  2234388
370
     9
100
AcDb2dPolyline
 66
     1
 10
0.0
 20
0.0
 30
0.0
  0
VERTEX
  5
89
330
88
100
AcDbEntity
  8
_U+30EC_U+30A4_U+30E4_U+30FC 1
 62
   179
420
  2234388
370
     9
100
AcDbVertex
100
AcDb2dVertex
 10
80.56491942430307
 20
-120.9307758031007
 30
0.0
  0
VERTEX
  5
8A
330
88
100
AcDbEntity
  8
_U+30EC_U+30A4_U+30E4_U+30FC 1
 62
   179
420
  2234388
370
     9
100
AcDbVertex
100
AcDb2dVertex
 10
80.56491942430307
 20
-133.9304957998509
 30
0.0
  0
SEQEND
  5
8B
330
88
100
AcDbEntity
  8
_U+30EC_U+30A4_U+30E4_U+30FC 1
 62
   179
420
  2234388
370
     9
  0
POLYLINE
  5
8C
330
1F
100
AcDbEntity
  8
_U+30EC_U+30A4_U+30E4_U+30FC 1
 62
   179
420
  2234388
370
     9
100
AcDb2dPolyline
 66
     1
 10
0.0
 20
0.0
 30
0.0
  0
VERTEX
  5
8D
330
8C
100
AcDbEntity
  8
_U+30EC_U+30A4_U+30E4_U+30FC 1
 62
   179
420
  2234388
370
     9
100
AcDbVertex
100
AcDb2dVertex
 10
82.0249587407023
 20
-120.9307758031007
 30
0.0
  0
VERTEX
  5
8E
330
8C
100
AcDbEntity
  8
_U+30EC_U+30A4_U+30E4_U+30FC 1
 62
   179
420
  2234388
370
     9
100
AcDbVertex
100
AcDb2dVertex
 10
79.56447491458557
 20
-120.9307758031007
 30
0.0
  0
SEQEND
  5
8F
330
8C
100
AcDbEntity
  8
_U+30EC_U+30A4_U+30E4_U+30FC 1
 62
   179
420
  2234388
370
     9
  0
POLYLINE
  5
90
330
1F
100
AcDbEntity
  8
_U+30EC_U+30A4_U+30E4_U+30FC 1
 62
   179
420
  2234388
370
     9
100
AcDb2dPolyline
 66
     1
 10
0.0
 20
0.0
 30
0.0
  0
VERTEX
  5
91
330
90
100
AcDbEntity
  8
_U+30EC_U+30A4_U+30E4_U+30FC 1
 62
   179
420
  2234388
370
     9
100
AcDbVertex
100
AcDb2dVertex
 10
82.0249587407023
 20
-133.9304957998509
 30
0.0
  0
VERTEX
  5
92
330
90
100
AcDbEntity
  8
_U+30EC_U+30A4_U+30E4_U+30FC 1
 62
   179
420
  2234388
370
     9
100
AcDbVertex
100
AcDb2dVertex
 10
79.56447491458557
 20
-133.9304957998509
 30
0.0
  0
SEQEND
  5
93
330
90
100
AcDbEntity
  8
_U+30EC_U+30A4_U+30E4_U+30FC 1
 62
   179
420
  2234388
370
     9
  0
INSERT
  5
95
330
1F
100
AcDbEntity
  8
_U+30EC_U+30A4_U+30E4_U+30FC 1
100
AcDbBlockReference
  2
block 3
 10
0.0
 20
0.0
 30
0.0
  0
SPLINE
  5
9C
330
1F
100
AcDbEntity
  8
_U+30EC_U+30A4_U+30E4_U+30FC 1
 62
   179
420
  2234388
370
    25
100
AcDbSpline
210
0.0
220
0.0
230
1.0
 70
    11
 71
     3
 72
    17
 73
    13
 74
     0
 42
0.0000000001
 43
0.0000000001
 12
1.0
 22
0.0
 32
0.0
 13
1.0
 23
0.0
 33
0.0
 40
0.0
 40
0.0
 40
0.0
 40
0.0
 40
1.0
 40
1.0
 40
1.0
 40
2.0
 40
2.0
 40
2.0
 40
3.0
 40
3.0
 40
3.0
 40
4.0
 40
4.0
 40
4.0
 40
4.0
 10
84.59981311945674
 20
-120.9313049697673
 30
0.0
 10
84.59981311945674
 20
-120.9509194142067
 30
0.0
 10
84.58397339763862
 20
-120.966759136425
 30
0.0
 10
84.56467645368647
 20
-120.966759136425
 30
0.0
 10
84.54541478751122
 20
-120.966759136425
 30
0.0
 10
84.52953978791622
 20
-120.9509194142067
 30
0.0
 10
84.52953978791622
 20
-120.9313049697673
 30
0.0
 10
84.52953978791622
 20
-120.9120080253275
 30
0.0
 10
84.54541478751122
 20
-120.8961683031093
 30
0.0
 10
84.56467645368647
 20
-120.8961683031093
 30
0.0
 10
84.58397339763862
 20
-120.8961683031093
 30
0.0
 10
84.59981311945674
 20
-120.9120080253275
 30
0.0
 10
84.59981311945674
 20
-120.9313049697673
 30
0.0
  0
SPLINE
  5
9D
330
1F
100
AcDbEntity
  8
_U+30EC_U+30A4_U+30E4_U+30FC 1
 62
   179
420
  2234388
370
    25
100
AcDbSpline
210
0.0
220
0.0
230
1.0
 70
    11
 71
     3
 72
    17
 73
    13
 74
     0
 42
0.0000000001
 43
0.0000000001
 12
1.0
 22
0.0
 32
0.0
 13
1.0
 23
0.0
 33
0.0
 40
0.0
 40
0.0
 40
0.0
 40
0.0
 40
1.0
 40
1.0
 40
1.0
 40
2.0
 40
2.0
 40
2.0
 40
3.0
 40
3.0
 40
3.0
 40
4.0
 40
4.0
 40
4.0
 40
4.0
 10
84.59981311945674
 20
-133.9304957998509
 30
0.0
 10
84.59981311945674
 20
-133.9497927442901
 30
0.0
 10
84.58397339763862
 20
-133.9656324665086
 30
0.0
 10
84.56467645368647
 20
-133.9656324665086
 30
0.0
 10
84.54541478751122
 20
-133.9656324665086
 30
0.0
 10
84.52953978791622
 20
-133.9497927442901
 30
0.0
 10
84.52953978791622
 20
-133.9304957998509
 30
0.0
 10
84.52953978791622
 20
-133.9111988554111
 30
0.0
 10
84.54541478751122
 20
-133.8953591331925
 30
0.0
 10
84.56467645368647
 20
-133.8953591331925
 30
0.0
 10
84.58397339763862
 20
-133.8953591331925
 30
0.0
 10
84.59981311945674
 20
-133.9111988554111
 30
0.0
 10
84.59981311945674
 20
-133.9304957998509
 30
0.0
  0
SPLINE
  5
9E
330
1F
100
AcDbEntity
  8
_U+30EC_U+30A4_U+30E4_U+30FC 1
 62
   179
420
  2234388
370
     9
100
AcDbSpline
210
0.0
220
0.0
230
1.0
 70
    11
 71
     3
 72
    17
 73
    13
 74
     0
 42
0.0000000001
 43
0.0000000001
 12
1.0
 22
0.0
 32
0.0
 13
1.0
 23
0.0
 33
0.0
 40
0.0
 40
0.0
 40
0.0
 40
0.0
 40
1.0
 40
1.0
 40
1.0
 40
2.0
 40
2.0
 40
2.0
 40
3.0
 40
3.0
 40
3.0
 40
4.0
 40
4.0
 40
4.0
 40
4.0
 10
80.6000893326093
 20
-133.9304957998509
 30
0.0
 10
80.6000893326093
 20
-133.9497927442901
 30
0.0
 10
80.5842143330143
 20
-133.9656324665086
 30
0.0
 10
80.56491942430307
 20
-133.9656324665086
 30
0.0
 10
80.54495016734936
 20
-133.9656324665086
 30
0.0
 10
80.5297807232919
 20
-133.9497927442901
 30
0.0
 10
80.5297807232919
 20
-133.9304957998509
 30
0.0
 10
80.5297807232919
 20
-133.9111988554111
 30
0.0
 10
80.54495016734936
 20
-133.8953591331925
 30
0.0
 10
80.56491942430307
 20
-133.8953591331925
 30
0.0
 10
80.5842143330143
 20
-133.8953591331925
 30
0.0
 10
80.6000893326093
 20
-133.9111988554111
 30
0.0
 10
80.6000893326093
 20
-133.9304957998509
 30
0.0
  0
POLYLINE
  5
9F
330
1F
100
AcDbEntity
  8
_U+30EC_U+30A4_U+30E4_U+30FC 1
 62
   179
420
  2234388
370
     9
100
AcDb2dPolyline
 66
     1
 10
0.0
 20
0.0
 30
0.0
  0
VERTEX
  5
A0
330
9F
100
AcDbEntity
  8
_U+30EC_U+30A4_U+30E4_U+30FC 1
 62
   179
420
  2234388
370
     9
100
AcDbVertex
100
AcDb2dVertex
 10
100.282231330476
 20
-132.9307235778784
 30
0.0
  0
VERTEX
  5
A1
330
9F
100
AcDbEntity
  8
_U+30EC_U+30A4_U+30E4_U+30FC 1
 62
   179
420
  2234388
370
     9
100
AcDbVertex
100
AcDb2dVertex
 10
100.282231330476
 20
-126.4305108017256
 30
0.0
  0
SEQEND
  5
A2
330
9F
100
AcDbEntity
  8
_U+30EC_U+30A4_U+30E4_U+30FC 1
 62
   179
420
  2234388
370
     9
  0
POLYLINE
  5
A3
330
1F
100
AcDbEntity
  8
_U+30EC_U+30A4_U+30E4_U+30FC 1
 62
   179
420
  2234388
370
     9
100
AcDb2dPolyline
 66
     1
 10
0.0
 20
0.0
 30
0.0
  0
VERTEX
  5
A4
330
A3
100
AcDbEntity
  8
_U+30EC_U+30A4_U+30E4_U+30FC 1
 62
   179
420
  2234388
370
     9
100
AcDbVertex
100
AcDb2dVertex
 10
97.97919222256478
 20
-132.9307235778784
 30
0.0
  0
VERTEX
  5
A5
330
A3
100
AcDbEntity
  8
_U+30EC_U+30A4_U+30E4_U+30FC 1
 62
   179
420
  2234388
370
     9
100
AcDbVertex
100
AcDb2dVertex
 10
101.2189621399114
 20
-132.9307235778784
 30
0.0
  0
SEQEND
  5
A6
330
A3
100
AcDbEntity
  8
_U+30EC_U+30A4_U+30E4_U+30FC 1
 62
   179
420
  2234388
370
     9
  0
POLYLINE
  5
A7
330
1F
100
AcDbEntity
  8
_U+30EC_U+30A4_U+30E4_U+30FC 1
 62
   179
420
  2234388
370
     9
100
AcDb2dPolyline
 66
     1
 10
0.0
 20
0.0
 30
0.0
  0
VERTEX
  5
A8
330
A7
100
AcDbEntity
  8
_U+30EC_U+30A4_U+30E4_U+30FC 1
 62
   179
420
  2234388
370
     9
100
AcDbVertex
100
AcDb2dVertex
 10
93.87300010510025
 20
-126.4305108017256
 30
0.0
  0
VERTEX
  5
A9
330
A7
100
AcDbEntity
  8
_U+30EC_U+30A4_U+30E4_U+30FC 1
 62
   179
420
  2234388
370
     9
100
AcDbVertex
100
AcDb2dVertex
 10
101.2189621399114
 20
-126.4305108017256
 30
0.0
  0
SEQEND
  5
AA
330
A7
100
AcDbEntity
  8
_U+30EC_U+30A4_U+30E4_U+30FC 1
 62
   179
420
  2234388
370
     9
  0
INSERT
  5
AC
330
1F
100
AcDbEntity
  8
_U+30EC_U+30A4_U+30E4_U+30FC 1
100
AcDbBlockReference
  2
block 4
 10
0.0
 20
0.0
 30
0.0
  0
SPLINE
  5
BC
330
1F
100
AcDbEntity
  8
_U+30EC_U+30A4_U+30E4_U+30FC 1
 62
   179
420
  2234388
370
    25
100
AcDbSpline
210
0.0
220
0.0
230
1.0
 70
    11
 71
     3
 72
    17
 73
    13
 74
     0
 42
0.0000000001
 43
0.0000000001
 12
1.0
 22
0.0
 32
0.0
 13
1.0
 23
0.0
 33
0.0
 40
0.0
 40
0.0
 40
0.0
 40
0.0
 40
1.0
 40
1.0
 40
1.0
 40
2.0
 40
2.0
 40
2.0
 40
3.0
 40
3.0
 40
3.0
 40
4.0
 40
4.0
 40
4.0
 40
4.0
 10
95.63413728239212
 20
-132.9307235778784
 30
0.0
 10
95.63413728239212
 20
-132.9500205223182
 30
0.0
 10
95.61932061610345
 20
-132.9658602445361
 30
0.0
 10
95.60139950544955
 20
-132.9658602445361
 30
0.0
 10
95.58312561702687
 20
-132.9658602445361
 30
0.0
 10
95.5683089507382
 20
-132.9500205223182
 30
0.0
 10
95.5683089507382
 20
-132.9307235778784
 30
0.0
 10
95.5683089507382
 20
-132.9107563556612
 30
0.0
 10
95.58312561702687
 20
-132.8949166334426
 30
0.0
 10
95.60139950544955
 20
-132.8949166334426
 30
0.0
 10
95.61932061610345
 20
-132.8949166334426
 30
0.0
 10
95.63413728239212
 20
-132.9107563556612
 30
0.0
 10
95.63413728239212
 20
-132.9307235778784
 30
0.0
  0
SPLINE
  5
BD
330
1F
100
AcDbEntity
  8
_U+30EC_U+30A4_U+30E4_U+30FC 1
 62
   179
420
  2234388
370
    25
100
AcDbSpline
210
0.0
220
0.0
230
1.0
 70
    11
 71
     3
 72
    17
 73
    13
 74
     0
 42
0.0000000001
 43
0.0000000001
 12
1.0
 22
0.0
 32
0.0
 13
1.0
 23
0.0
 33
0.0
 40
0.0
 40
0.0
 40
0.0
 40
0.0
 40
1.0
 40
1.0
 40
1.0
 40
2.0
 40
2.0
 40
2.0
 40
3.0
 40
3.0
 40
3.0
 40
4.0
 40
4.0
 40
4.0
 40
4.0
 10
91.21439628403799
 20
-126.4305108017256
 30
0.0
 10
91.21439628403799
 20
-126.4501605239429
 30
0.0
 10
91.19855656221988
 20
-126.4660002461615
 30
0.0
 10
91.17925961826774
 20
-126.4660002461615
 30
0.0
 10
91.15929239655492
 20
-126.4660002461615
 30
0.0
 10
91.14412295249748
 20
-126.4501605239429
 30
0.0
 10
91.14412295249748
 20
-126.4305108017256
 30
0.0
 10
91.14412295249748
 20
-126.411249135064
 30
0.0
 10
91.15929239655492
 20
-126.3953741350679
 30
0.0
 10
91.17925961826774
 20
-126.3953741350679
 30
0.0
 10
91.19855656221988
 20
-126.3953741350679
 30
0.0
 10
91.21439628403799
 20
-126.411249135064
 30
0.0
 10
91.21439628403799
 20
-126.4305108017256
 30
0.0
  0
SPLINE
  5
BE
330
1F
100
AcDbEntity
  8
_U+30EC_U+30A4_U+30E4_U+30FC 1
 62
   179
420
  2234388
370
     9
100
AcDbSpline
210
0.0
220
0.0
230
1.0
 70
    11
 71
     3
 72
    17
 73
    13
 74
     0
 42
0.0000000001
 43
0.0000000001
 12
1.0
 22
0.0
 32
0.0
 13
1.0
 23
0.0
 33
0.0
 40
0.0
 40
0.0
 40
0.0
 40
0.0
 40
1.0
 40
1.0
 40
1.0
 40
2.0
 40
2.0
 40
2.0
 40
3.0
 40
3.0
 40
3.0
 40
4.0
 40
4.0
 40
4.0
 40
4.0
 10
100.3160274407249
 20
-126.4305108017256
 30
0.0
 10
100.3160274407249
 20
-126.4501605239429
 30
0.0
 10
100.3012107744363
 20
-126.4660002461615
 30
0.0
 10
100.282231330476
 20
-126.4660002461615
 30
0.0
 10
100.264345497599
 20
-126.4660002461615
 30
0.0
 10
100.2495288313103
 20
-126.4501605239429
 30
0.0
 10
100.2495288313103
 20
-126.4305108017256
 30
0.0
 10
100.2495288313103
 20
-126.411249135064
 30
0.0
 10
100.264345497599
 20
-126.3953741350679
 30
0.0
 10
100.282231330476
 20
-126.3953741350679
 30
0.0
 10
100.3012107744363
 20
-126.3953741350679
 30
0.0
 10
100.3160274407249
 20
-126.411249135064
 30
0.0
 10
100.3160274407249
 20
-126.4305108017256
 30
0.0
  0
POLYLINE
  5
BF
330
1F
100
AcDbEntity
  8
_U+30EC_U+30A4_U+30E4_U+30FC 1
 62
   179
420
  2234388
370
     9
100
AcDb2dPolyline
 66
     1
 10
0.0
 20
0.0
 30
0.0
  0
VERTEX
  5
C0
330
BF
100
AcDbEntity
  8
_U+30EC_U+30A4_U+30E4_U+30FC 1
 62
   179
420
  2234388
370
     9
100
AcDbVertex
100
AcDb2dVertex
 10
87.18122916471043
 20
-118.2119174704469
 30
0.0
  0
VERTEX
  5
C1
330
BF
100
AcDbEntity
  8
_U+30EC_U+30A4_U+30E4_U+30FC 1
 62
   179
420
  2234388
370
     9
100
AcDbVertex
100
AcDb2dVertex
 10
93.31420011935643
 20
-123.3475152469408
 30
0.0
  0
SEQEND
  5
C2
330
BF
100
AcDbEntity
  8
_U+30EC_U+30A4_U+30E4_U+30FC 1
 62
   179
420
  2234388
370
     9
  0
POLYLINE
  5
C3
330
1F
100
AcDbEntity
  8
_U+30EC_U+30A4_U+30E4_U+30FC 1
 62
   179
420
  2234388
370
     9
100
AcDb2dPolyline
 66
     1
 10
0.0
 20
0.0
 30
0.0
  0
VERTEX
  5
C4
330
C3
100
AcDbEntity
  8
_U+30EC_U+30A4_U+30E4_U+30FC 1
 62
   179
420
  2234388
370
     9
100
AcDbVertex
100
AcDb2dVertex
 10
86.24382807751442
 20
-119.3313871923894
 30
0.0
  0
VERTEX
  5
C5
330
C3
100
AcDbEntity
  8
_U+30EC_U+30A4_U+30E4_U+30FC 1
 62
   179
420
  2234388
370
     9
100
AcDbVertex
100
AcDb2dVertex
 10
87.82272025945575
 20
-117.4450138595276
 30
0.0
  0
SEQEND
  5
C6
330
C3
100
AcDbEntity
  8
_U+30EC_U+30A4_U+30E4_U+30FC 1
 62
   179
420
  2234388
370
     9
  0
POLYLINE
  5
C7
330
1F
100
AcDbEntity
  8
_U+30EC_U+30A4_U+30E4_U+30FC 1
 62
   179
420
  2234388
370
     9
100
AcDb2dPolyline
 66
     1
 10
0.0
 20
0.0
 30
0.0
  0
VERTEX
  5
C8
330
C7
100
AcDbEntity
  8
_U+30EC_U+30A4_U+30E4_U+30FC 1
 62
   179
420
  2234388
370
     9
100
AcDbVertex
100
AcDb2dVertex
 10
92.37644625439162
 20
-124.4668085799944
 30
0.0
  0
VERTEX
  5
C9
330
C7
100
AcDbEntity
  8
_U+30EC_U+30A4_U+30E4_U+30FC 1
 62
   179
420
  2234388
370
     9
100
AcDbVertex
100
AcDb2dVertex
 10
93.95671664317776
 20
-122.5807880249104
 30
0.0
  0
SEQEND
  5
CA
330
C7
100
AcDbEntity
  8
_U+30EC_U+30A4_U+30E4_U+30FC 1
 62
   179
420
  2234388
370
     9
  0
INSERT
  5
CC
330
1F
100
AcDbEntity
  8
_U+30EC_U+30A4_U+30E4_U+30FC 1
100
AcDbBlockReference
  2
block 5
 10
0.0
 20
0.0
 30
0.0
  0
SPLINE
  5
D3
330
1F
100
AcDbEntity
  8
_U+30EC_U+30A4_U+30E4_U+30FC 1
 62
   179
420
  2234388
370
    25
100
AcDbSpline
210
0.0
220
0.0
230
1.0
 70
    11
 71
     3
 72
    17
 73
    13
 74
     0
 42
0.0000000001
 43
0.0000000001
 12
1.0
 22
0.0
 32
0.0
 13
1.0
 23
0.0
 33
0.0
 40
0.0
 40
0.0
 40
0.0
 40
0.0
 40
1.0
 40
1.0
 40
1.0
 40
2.0
 40
2.0
 40
2.0
 40
3.0
 40
3.0
 40
3.0
 40
4.0
 40
4.0
 40
4.0
 40
4.0
 10
84.59981311945674
 20
-120.9313049697673
 30
0.0
 10
84.59981311945674
 20
-120.9509194142067
 30
0.0
 10
84.58397339763862
 20
-120.966759136425
 30
0.0
 10
84.56467645368647
 20
-120.966759136425
 30
0.0
 10
84.54541478751122
 20
-120.966759136425
 30
0.0
 10
84.52953978791622
 20
-120.9509194142067
 30
0.0
 10
84.52953978791622
 20
-120.9313049697673
 30
0.0
 10
84.52953978791622
 20
-120.9120080253275
 30
0.0
 10
84.54541478751122
 20
-120.8961683031093
 30
0.0
 10
84.56467645368647
 20
-120.8961683031093
 30
0.0
 10
84.58397339763862
 20
-120.8961683031093
 30
0.0
 10
84.59981311945674
 20
-120.9120080253275
 30
0.0
 10
84.59981311945674
 20
-120.9313049697673
 30
0.0
  0
SPLINE
  5
D4
330
1F
100
AcDbEntity
  8
_U+30EC_U+30A4_U+30E4_U+30FC 1
 62
   179
420
  2234388
370
    25
100
AcDbSpline
210
0.0
220
0.0
230
1.0
 70
    11
 71
     3
 72
    17
 73
    13
 74
     0
 42
0.0000000001
 43
0.0000000001
 12
1.0
 22
0.0
 32
0.0
 13
1.0
 23
0.0
 33
0.0
 40
0.0
 40
0.0
 40
0.0
 40
0.0
 40
1.0
 40
1.0
 40
1.0
 40
2.0
 40
2.0
 40
2.0
 40
3.0
 40
3.0
 40
3.0
 40
4.0
 40
4.0
 40
4.0
 40
4.0
 10
91.21439628403799
 20
-126.4305108017256
 30
0.0
 10
91.21439628403799
 20
-126.4501605239429
 30
0.0
 10
91.19855656221988
 20
-126.4660002461615
 30
0.0
 10
91.17925961826774
 20
-126.4660002461615
 30
0.0
 10
91.15929239655492
 20
-126.4660002461615
 30
0.0
 10
91.14412295249748
 20
-126.4501605239429
 30
0.0
 10
91.14412295249748
 20
-126.4305108017256
 30
0.0
 10
91.14412295249748
 20
-126.411249135064
 30
0.0
 10
91.15929239655492
 20
-126.3953741350679
 30
0.0
 10
91.17925961826774
 20
-126.3953741350679
 30
0.0
 10
91.19855656221988
 20
-126.3953741350679
 30
0.0
 10
91.21439628403799
 20
-126.411249135064
 30
0.0
 10
91.21439628403799
 20
-126.4305108017256
 30
0.0
  0
SPLINE
  5
D5
330
1F
100
AcDbEntity
  8
_U+30EC_U+30A4_U+30E4_U+30FC 1
 62
   179
420
  2234388
370
     9
100
AcDbSpline
210
0.0
220
0.0
230
1.0
 70
    11
 71
     3
 72
    17
 73
    13
 74
     0
 42
0.0000000001
 43
0.0000000001
 12
1.0
 22
0.0
 32
0.0
 13
1.0
 23
0.0
 33
0.0
 40
0.0
 40
0.0
 40
0.0
 40
0.0
 40
1.0
 40
1.0
 40
1.0
 40
2.0
 40
2.0
 40
2.0
 40
3.0
 40
3.0
 40
3.0
 40
4.0
 40
4.0
 40
4.0
 40
4.0
 10
93.84957566125341
 20
-122.8510863581762
 30
0.0
 10
93.84749427241762
 20
-122.8703480248379
 30
0.0
 10
93.83094899506195
 20
-122.8844944137233
 30
0.0
 10
93.81098177334913
 20
-122.8825894137237
 30
0.0
 10
93.791684829397
 20
-122.8808608026131
 30
0.0
 10
93.77789121863779
 20
-122.8632924692842
 30
0.0
 10
93.7799749765552
 20
-122.8439955248444
 30
0.0
 10
93.78170121854059
 20
-122.8247338581827
 30
0.0
 10
93.79856399588816
 20
-122.8102346915196
 30
0.0
 10
93.8178609398403
 20
-122.8121396915191
 30
0.0
 10
93.83786343933
 20
-122.8143974692964
 30
0.0
 10
93.85162177231231
 20
-122.8314366359589
 30
0.0
 10
93.84957566125341
 20
-122.8510863581762
 30
0.0
  0
POLYLINE
  5
D6
330
1F
100
AcDbEntity
  8
_U+30EC_U+30A4_U+30E4_U+30FC 1
 62
   179
420
  2234388
370
     9
100
AcDb2dPolyline
 66
     1
 10
0.0
 20
0.0
 30
0.0
  0
VERTEX
  5
D7
330
D6
100
AcDbEntity
  8
_U+30EC_U+30A4_U+30E4_U+30FC 1
 62
   179
420
  2234388
370
     9
100
AcDbVertex
100
AcDb2dVertex
 10
100.2819138304841
 20
-135.7987716327169
 30
0.0
  0
VERTEX
  5
D8
330
D6
100
AcDbEntity
  8
_U+30EC_U+30A4_U+30E4_U+30FC 1
 62
   179
420
  2234388
370
     9
100
AcDbVertex
100
AcDb2dVertex
 10
100.2819138304841
 20
-129.4315560787529
 30
0.0
  0
SEQEND
  5
D9
330
D6
100
AcDbEntity
  8
_U+30EC_U+30A4_U+30E4_U+30FC 1
 62
   179
420
  2234388
370
     9
  0
SPLINE
  5
DA
330
1F
100
AcDbEntity
  8
_U+30EC_U+30A4_U+30E4_U+30FC 1
 62
   179
420
  2234388
370
     9
100
AcDbSpline
210
0.0
220
0.0
230
1.0
 70
    11
 71
     3
 72
    17
 73
    13
 74
     0
 42
0.0000000001
 43
0.0000000001
 12
1.0
 22
0.0
 32
0.0
 13
1.0
 23
0.0
 33
0.0
 40
0.0
 40
0.0
 40
0.0
 40
0.0
 40
1.0
 40
1.0
 40
1.0
 40
2.0
 40
2.0
 40
2.0
 40
3.0
 40
3.0
 40
3.0
 40
4.0
 40
4.0
 40
4.0
 40
4.0
 10
100.3752588281027
 20
-133.931518855406
 30
0.0
 10
100.3752588281027
 20
-133.8764149665311
 30
0.0
 10
100.3332429958413
 20
-133.8316121887644
 30
0.0
 10
100.2819138304841
 20
-133.8316121887644
 30
0.0
 10
100.2302318873582
 20
-133.8316121887644
 30
0.0
 10
100.1881833082861
 20
-133.8764149665311
 30
0.0
 10
100.1881833082861
 20
-133.931518855406
 30
0.0
 10
100.1881833082861
 20
-133.9866580220591
 30
0.0
 10
100.2302318873582
 20
-134.0314255220477
 30
0.0
 10
100.2819138304841
 20
-134.0314255220477
 30
0.0
 10
100.3332429958413
 20
-134.0314255220477
 30
0.0
 10
100.3752588281027
 20
-133.9866580220591
 30
0.0
 10
100.3752588281027
 20
-133.931518855406
 30
0.0
  0
POLYLINE
  5
DB
330
1F
100
AcDbEntity
  8
_U+30EC_U+30A4_U+30E4_U+30FC 1
 62
   179
420
  2234388
370
     9
100
AcDb2dPolyline
 66
     1
 10
0.0
 20
0.0
 30
0.0
  0
VERTEX
  5
DC
330
DB
100
AcDbEntity
  8
_U+30EC_U+30A4_U+30E4_U+30FC 1
 62
   179
420
  2234388
370
     9
100
AcDbVertex
100
AcDb2dVertex
 10
97.97919222256478
 20
-133.931518855406
 30
0.0
  0
VERTEX
  5
DD
330
DB
100
AcDbEntity
  8
_U+30EC_U+30A4_U+30E4_U+30FC 1
 62
   179
420
  2234388
370
     9
100
AcDbVertex
100
AcDb2dVertex
 10
101.2186093621426
 20
-133.931518855406
 30
0.0
  0
SEQEND
  5
DE
330
DB
100
AcDbEntity
  8
_U+30EC_U+30A4_U+30E4_U+30FC 1
 62
   179
420
  2234388
370
     9
  0
INSERT
  5
E0
330
1F
100
AcDbEntity
  8
_U+30EC_U+30A4_U+30E4_U+30FC 1
100
AcDbBlockReference
  2
block 6
 10
0.0
 20
0.0
 30
0.0
  0
ENDSEC
  0
SECTION
  2
OBJECTS
  0
DICTIONARY
  5
C
330
0
100
AcDbDictionary
281
     1
  3
ACAD_GROUP
350
D
  3
ACAD_LAYOUT
350
1A
  3
ACAD_MATERIAL
350
3B
  3
ACAD_MLEADERSTYLE
350
E6
  3
ACAD_MLINESTYLE
350
17
  3
ACAD_PLOTSETTINGS
350
19
  3
ACAD_PLOTSTYLENAME
350
E
  3
ACAD_TABLESTYLE
350
E5
  3
ACAD_VISUALSTYLE
350
2A
  0
SUN
  5
3F
330
29
100
AcDbSun
 90
        1
290
     0
 63
     7
421
 16777215
 40
1.0
291
     1
 91
  2455826
 92
 54000000
292
     0
 70
     2
 71
   256
280
     1
  0
DICTIONARY
  5
D
102
{ACAD_REACTORS
330
C
102
}
330
C
100
AcDbDictionary
281
     1
  0
DICTIONARY
  5
1A
102
{ACAD_REACTORS
330
C
102
}
330
C
100
AcDbDictionary
281
     1
  3
Layout1
350
1E
  3
Layout2
350
26
  3
Model
350
22
  0
DICTIONARY
  5
3B
102
{ACAD_REACTORS
330
C
102
}
330
C
100
AcDbDictionary
281
     1
  3
ByBlock
350
3D
  3
ByLayer
350
3C
  3
Global
350
3E
  0
DICTIONARY
  5
E6
102
{ACAD_REACTORS
330
C
102
}
330
C
100
AcDbDictionary
281
     1
  0
DICTIONARY
  5
17
102
{ACAD_REACTORS
330
C
102
}
330
C
100
AcDbDictionary
281
     1
  3
Standard
350
18
  0
DICTIONARY
  5
19
102
{ACAD_REACTORS
330
C
102
}
330
C
100
AcDbDictionary
281
     1
  0
ACDBDICTIONARYWDFLT
  5
E
102
{ACAD_REACTORS
330
C
102
}
330
C
100
AcDbDictionary
281
     1
  3
Normal
350
F
100
AcDbDictionaryWithDefault
340
F
  0
DICTIONARY
  5
E5
102
{ACAD_REACTORS
330
C
102
}
330
C
100
AcDbDictionary
281
     1
  0
DICTIONARY
  5
2A
102
{ACAD_REACTORS
330
C
102
}
330
C
100
AcDbDictionary
281
     1
  3
2dWireframe
350
2F
  3
3D Hidden
350
31
  3
3dWireframe
350
30
  3
Basic
350
32
  3
Brighten
350
36
  3
ColorChange
350
3A
  3
Conceptual
350
34
  3
Dim
350
35
  3
Facepattern
350
39
  3
Flat
350
2B
  3
FlatWithEdges
350
2C
  3
Gouraud
350
2D
  3
GouraudWithEdges
350
2E
  3
Linepattern
350
38
  3
Realistic
350
33
  3
Thicken
350
37
  0
LAYOUT
  5
1E
102
{ACAD_REACTORS
330
1A
102
}
330
1A
100
AcDbPlotSettings
  1

  2
none_device
  4

  6

 40
0.0
 41
0.0
 42
0.0
 43
0.0
 44
0.0
 45
0.0
 46
0.0
 47
0.0
 48
0.0
 49
0.0
140
0.0
141
0.0
142
1.0
143
1.0
 70
   688
 72
     0
 73
     0
 74
     5
  7

 75
    16
 76
     0
 77
     2
 78
   300
147
1.0
148
0.0
149
0.0
100
AcDbLayout
  1
Layout1
 70
     1
 71
     1
 10
0.0
 20
0.0
 11
12.0
 21
9.0
 12
0.0
 22
0.0
 32
0.0
 14
1.000000000000000E+20
 24
1.000000000000000E+20
 34
1.000000000000000E+20
 15
-1.000000000000000E+20
 25
-1.000000000000000E+20
 35
-1.000000000000000E+20
146
0.0
 13
0.0
 23
0.0
 33
0.0
 16
1.0
 26
0.0
 36
0.0
 17
0.0
 27
1.0
 37
0.0
 76
     0
330
1B
  0
LAYOUT
  5
26
102
{ACAD_REACTORS
330
1A
102
}
330
1A
100
AcDbPlotSettings
  1

  2
none_device
  4

  6

 40
0.0
 41
0.0
 42
0.0
 43
0.0
 44
0.0
 45
0.0
 46
0.0
 47
0.0
 48
0.0
 49
0.0
140
0.0
141
0.0
142
1.0
143
1.0
 70
   688
 72
     0
 73
     0
 74
     5
  7

 75
    16
 76
     0
 77
     2
 78
   300
147
1.0
148
0.0
149
0.0
100
AcDbLayout
  1
Layout2
 70
     1
 71
     2
 10
0.0
 20
0.0
 11
0.0
 21
0.0
 12
0.0
 22
0.0
 32
0.0
 14
0.0
 24
0.0
 34
0.0
 15
0.0
 25
0.0
 35
0.0
146
0.0
 13
0.0
 23
0.0
 33
0.0
 16
1.0
 26
0.0
 36
0.0
 17
0.0
 27
1.0
 37
0.0
 76
     0
330
23
  0
LAYOUT
  5
22
102
{ACAD_REACTORS
330
1A
102
}
330
1A
100
AcDbPlotSettings
  1

  2
none_device
  4

  6

 40
0.0
 41
0.0
 42
0.0
 43
0.0
 44
0.0
 45
0.0
 46
0.0
 47
0.0
 48
0.0
 49
0.0
140
0.0
141
0.0
142
1.0
143
1.0
 70
  1712
 72
     0
 73
     0
 74
     0
  7

 75
     0
 76
     0
 77
     2
 78
   300
147
1.0
148
0.0
149
0.0
100
AcDbLayout
  1
Model
 70
     1
 71
     0
 10
0.0
 20
0.0
 11
12.0
 21
9.0
 12
0.0
 22
0.0
 32
0.0
 14
1.000000000000000E+20
 24
1.000000000000000E+20
 34
1.000000000000000E+20
 15
-1.000000000000000E+20
 25
-1.000000000000000E+20
 35
-1.000000000000000E+20
146
0.0
 13
0.0
 23
0.0
 33
0.0
 16
1.0
 26
0.0
 36
0.0
 17
0.0
 27
1.0
 37
0.0
 76
     0
330
1F
331
29
  0
MATERIAL
  5
3D
102
{ACAD_REACTORS
330
3B
102
}
330
3B
100
AcDbMaterial
  1
ByBlock
 72
     1
 94
      127
  0
MATERIAL
  5
3C
102
{ACAD_REACTORS
330
3B
102
}
330
3B
100
AcDbMaterial
  1
ByLayer
 72
     1
 94
      127
  0
MATERIAL
  5
3E
102
{ACAD_REACTORS
330
3B
102
}
330
3B
100
AcDbMaterial
  1
Global
 72
     1
 94
      127
  0
MLINESTYLE
  5
18
102
{ACAD_REACTORS
330
17
102
}
330
17
100
AcDbMlineStyle
  2
Standard
 70
     0
  3

 62
   256
 51
90.0
 52
90.0
 71
     2
 49
0.5
 62
   256
  6
BYLAYER
 49
-0.5
 62
   256
  6
BYLAYER
  0
ACDBPLACEHOLDER
  5
F
102
{ACAD_REACTORS
330
E
102
}
330
E
  0
VISUALSTYLE
  5
2F
102
{ACAD_REACTORS
330
2A
102
}
330
2A
100
AcDbVisualStyle
  2
2dWireframe
 70
     4
177
     2
291
     0
 71
     0
176
     1
 72
     2
176
     1
 73
     0
176
     1
 90
        0
176
     1
 40
-0.6
176
     1
 41
-30.0
176
     1
 62
     5
 63
     7
421
 16777215
176
     1
 74
     1
176
     1
 91
        4
176
     1
 64
     7
176
     1
 65
   257
176
     1
 75
     1
176
     1
175
     1
176
     1
 42
1.0
176
     1
 92
        0
176
     1
 66
   257
176
     1
 43
1.0
176
     1
 76
     1
176
     1
 77
     6
176
     1
 78
     2
176
     1
 67
     7
176
     1
 79
     5
176
     1
170
     0
176
     1
171
     0
176
     1
290
     0
176
     1
 93
        1
176
     1
 44
0.0
176
     1
173
     0
176
     1
  0
VISUALSTYLE
  5
31
102
{ACAD_REACTORS
330
2A
102
}
330
2A
100
AcDbVisualStyle
  2
3D Hidden
 70
     6
177
     2
291
     0
 71
     1
176
     1
 72
     2
176
     1
 73
     2
176
     1
 90
        0
176
     1
 40
-0.6
176
     1
 41
-30.0
176
     1
 62
     5
 63
     7
421
 16777215
176
     1
 74
     2
176
     1
 91
        2
176
     1
 64
     7
176
     1
 65
   257
176
     1
 75
     2
176
     1
175
     1
176
     1
 42
40.0
176
     1
 92
        0
176
     1
 66
   257
176
     1
 43
1.0
176
     1
 76
     1
176
     1
 77
     6
176
     1
 78
     2
176
     1
 67
     7
176
     1
 79
     3
176
     1
170
     0
176
     1
171
     0
176
     1
290
     0
176
     1
 93
        1
176
     1
 44
0.0
176
     1
173
     0
176
     1
  0
VISUALSTYLE
  5
30
102
{ACAD_REACTORS
330
2A
102
}
330
2A
100
AcDbVisualStyle
  2
3dWireframe
 70
     5
177
     2
291
     0
 71
     0
176
     1
 72
     2
176
     1
 73
     0
176
     1
 90
        0
176
     1
 40
-0.6
176
     1
 41
-30.0
176
     1
 62
     5
 63
     7
421
 16777215
176
     1
 74
     1
176
     1
 91
        4
176
     1
 64
     7
176
     1
 65
   257
176
     1
 75
     1
176
     1
175
     1
176
     1
 42
1.0
176
     1
 92
        0
176
     1
 66
   257
176
     1
 43
1.0
176
     1
 76
     1
176
     1
 77
     6
176
     1
 78
     2
176
     1
 67
     7
176
     1
 79
     5
176
     1
170
     0
176
     1
171
     0
176
     1
290
     0
176
     1
 93
        1
176
     1
 44
0.0
176
     1
173
     0
176
     1
  0
VISUALSTYLE
  5
32
102
{ACAD_REACTORS
330
2A
102
}
330
2A
100
AcDbVisualStyle
  2
Basic
 70
     7
177
     2
291
     1
 71
     1
176
     1
 72
     0
176
     1
 73
     1
176
     1
 90
        0
176
     1
 40
-0.6
176
     1
 41
-30.0
176
     1
 62
     5
 63
     7
421
 16777215
176
     1
 74
     0
176
     1
 91
        4
176
     1
 64
     7
176
     1
 65
   257
176
     1
 75
     1
176
     1
175
     1
176
     1
 42
1.0
176
     1
 92
        8
176
     1
 66
     7
176
     1
 43
1.0
176
     1
 76
     1
176
     1
 77
     6
176
     1
 78
     2
176
     1
 67
     7
176
     1
 79
     5
176
     1
170
     0
176
     1
171
     0
176
     1
290
     0
176
     1
 93
        1
176
     1
 44
0.0
176
     1
173
     0
176
     1
  0
VISUALSTYLE
  5
36
102
{ACAD_REACTORS
330
2A
102
}
330
2A
100
AcDbVisualStyle
  2
Brighten
 70
    12
177
     2
291
     1
 71
     2
176
     1
 72
     2
176
     1
 73
     0
176
     1
 90
        0
176
     1
 40
-0.6
176
     1
 41
-30.0
176
     1
 62
     5
 63
     7
421
 16777215
176
     1
 74
     1
176
     1
 91
        4
176
     1
 64
     7
176
     1
 65
   257
176
     1
 75
     1
176
     1
175
     1
176
     1
 42
1.0
176
     1
 92
        8
176
     1
 66
     7
176
     1
 43
1.0
176
     1
 76
     1
176
     1
 77
     6
176
     1
 78
     2
176
     1
 67
     7
176
     1
 79
     5
176
     1
170
     0
176
     1
171
     0
176
     1
290
     0
176
     1
 93
        1
176
     1
 44
50.0
176
     1
173
     0
176
     1
  0
VISUALSTYLE
  5
3A
102
{ACAD_REACTORS
330
2A
102
}
330
2A
100
AcDbVisualStyle
  2
ColorChange
 70
    16
177
     2
291
     1
 71
     2
176
     1
 72
     2
176
     1
 73
     3
176
     1
 90
        0
176
     1
 40
-0.6
176
     1
 41
-30.0
176
     1
 62
     5
 63
     8
421
  8421504
176
     1
 74
     1
176
     1
 91
        4
176
     1
 64
     7
176
     1
 65
   257
176
     1
 75
     1
176
     1
175
     1
176
     1
 42
1.0
176
     1
 92
        8
176
     1
 66
     8
424
  8421504
176
     1
 43
1.0
176
     1
 76
     1
176
     1
 77
     6
176
     1
 78
     2
176
     1
 67
     7
176
     1
 79
     5
176
     1
170
     0
176
     1
171
     0
176
     1
290
     0
176
     1
 93
        1
176
     1
 44
0.0
176
     1
173
     0
176
     1
  0
VISUALSTYLE
  5
34
102
{ACAD_REACTORS
330
2A
102
}
330
2A
100
AcDbVisualStyle
  2
Conceptual
 70
     9
177
     2
291
     0
 71
     3
176
     1
 72
     2
176
     1
 73
     0
176
     1
 90
        0
176
     1
 40
-0.6
176
     1
 41
-30.0
176
     1
 62
     5
 63
     7
421
 16777215
176
     1
 74
     2
176
     1
 91
        2
176
     1
 64
     7
176
     1
 65
   257
176
     1
 75
     1
176
     1
175
     1
176
     1
 42
40.0
176
     1
 92
        8
176
     1
 66
     7
176
     1
 43
1.0
176
     1
 76
     1
176
     1
 77
     6
176
     1
 78
     2
176
     1
 67
     7
176
     1
 79
     3
176
     1
170
     0
176
     1
171
     0
176
     1
290
     0
176
     1
 93
        1
176
     1
 44
0.0
176
     1
173
     0
176
     1
  0
VISUALSTYLE
  5
35
102
{ACAD_REACTORS
330
2A
102
}
330
2A
100
AcDbVisualStyle
  2
Dim
 70
    11
177
     2
291
     1
 71
     2
176
     1
 72
     2
176
     1
 73
     0
176
     1
 90
        0
176
     1
 40
-0.6
176
     1
 41
-30.0
176
     1
 62
     5
 63
     7
421
 16777215
176
     1
 74
     1
176
     1
 91
        4
176
     1
 64
     7
176
     1
 65
   257
176
     1
 75
     1
176
     1
175
     1
176
     1
 42
1.0
176
     1
 92
        8
176
     1
 66
     7
176
     1
 43
1.0
176
     1
 76
     1
176
     1
 77
     6
176
     1
 78
     2
176
     1
 67
     7
176
     1
 79
     5
176
     1
170
     0
176
     1
171
     0
176
     1
290
     0
176
     1
 93
        1
176
     1
 44
-50.0
176
     1
173
     0
176
     1
  0
VISUALSTYLE
  5
39
102
{ACAD_REACTORS
330
2A
102
}
330
2A
100
AcDbVisualStyle
  2
Facepattern
 70
    15
177
     2
291
     1
 71
     2
176
     1
 72
     2
176
     1
 73
     0
176
     1
 90
        0
176
     1
 40
-0.6
176
     1
 41
-30.0
176
     1
 62
     5
 63
     7
421
 16777215
176
     1
 74
     1
176
     1
 91
        4
176
     1
 64
     7
176
     1
 65
   257
176
     1
 75
     1
176
     1
175
     1
176
     1
 42
1.0
176
     1
 92
        8
176
     1
 66
     7
176
     1
 43
1.0
176
     1
 76
     1
176
     1
 77
     6
176
     1
 78
     2
176
     1
 67
     7
176
     1
 79
     5
176
     1
170
     0
176
     1
171
     0
176
     1
290
     0
176
     1
 93
        1
176
     1
 44
0.0
176
     1
173
     0
176
     1
  0
VISUALSTYLE
  5
2B
102
{ACAD_REACTORS
330
2A
102
}
330
2A
100
AcDbVisualStyle
  2
Flat
 70
     0
177
     2
291
     1
 71
     2
176
     1
 72
     1
176
     1
 73
     1
176
     1
 90
        2
176
     1
 40
-0.6
176
     1
 41
30.0
176
     1
 62
     5
 63
     7
421
 16777215
176
     1
 74
     0
176
     1
 91
        4
176
     1
 64
     7
176
     1
 65
   257
176
     1
 75
     1
176
     1
175
     1
176
     1
 42
1.0
176
     1
 92
        8
176
     1
 66
     7
176
     1
 43
1.0
176
     1
 76
     1
176
     1
 77
     6
176
     1
 78
     2
176
     1
 67
     7
176
     1
 79
     5
176
     1
170
     0
176
     1
171
     0
176
     1
290
     0
176
     1
 93
       13
176
     1
 44
0.0
176
     1
173
     0
176
     1
  0
VISUALSTYLE
  5
2C
102
{ACAD_REACTORS
330
2A
102
}
330
2A
100
AcDbVisualStyle
  2
FlatWithEdges
 70
     1
177
     2
291
     1
 71
     2
176
     1
 72
     1
176
     1
 73
     1
176
     1
 90
        2
176
     1
 40
-0.6
176
     1
 41
30.0
176
     1
 62
     5
 63
     7
421
 16777215
176
     1
 74
     1
176
     1
 91
        4
176
     1
 64
     7
176
     1
 65
   257
176
     1
 75
     1
176
     1
175
     1
176
     1
 42
1.0
176
     1
 92
        0
176
     1
 66
   257
176
     1
 43
1.0
176
     1
 76
     1
176
     1
 77
     6
176
     1
 78
     2
176
     1
 67
     7
176
     1
 79
     5
176
     1
170
     0
176
     1
171
     0
176
     1
290
     0
176
     1
 93
       13
176
     1
 44
0.0
176
     1
173
     0
176
     1
  0
VISUALSTYLE
  5
2D
102
{ACAD_REACTORS
330
2A
102
}
330
2A
100
AcDbVisualStyle
  2
Gouraud
 70
     2
177
     2
291
     1
 71
     2
176
     1
 72
     2
176
     1
 73
     1
176
     1
 90
        2
176
     1
 40
-0.6
176
     1
 41
30.0
176
     1
 62
     5
 63
     7
421
 16777215
176
     1
 74
     0
176
     1
 91
        4
176
     1
 64
     7
176
     1
 65
   257
176
     1
 75
     1
176
     1
175
     1
176
     1
 42
1.0
176
     1
 92
        0
176
     1
 66
     7
176
     1
 43
1.0
176
     1
 76
     1
176
     1
 77
     6
176
     1
 78
     2
176
     1
 67
     7
176
     1
 79
     5
176
     1
170
     0
176
     1
171
     0
176
     1
290
     0
176
     1
 93
       13
176
     1
 44
0.0
176
     1
173
     0
176
     1
  0
VISUALSTYLE
  5
2E
102
{ACAD_REACTORS
330
2A
102
}
330
2A
100
AcDbVisualStyle
  2
GouraudWithEdges
 70
     3
177
     2
291
     1
 71
     2
176
     1
 72
     2
176
     1
 73
     1
176
     1
 90
        2
176
     1
 40
-0.6
176
     1
 41
30.0
176
     1
 62
     5
 63
     7
421
 16777215
176
     1
 74
     1
176
     1
 91
        4
176
     1
 64
     7
176
     1
 65
   257
176
     1
 75
     1
176
     1
175
     1
176
     1
 42
1.0
176
     1
 92
        0
176
     1
 66
   257
176
     1
 43
1.0
176
     1
 76
     1
176
     1
 77
     6
176
     1
 78
     2
176
     1
 67
     7
176
     1
 79
     5
176
     1
170
     0
176
     1
171
     0
176
     1
290
     0
176
     1
 93
       13
176
     1
 44
0.0
176
     1
173
     0
176
     1
  0
VISUALSTYLE
  5
38
102
{ACAD_REACTORS
330
2A
102
}
330
2A
100
AcDbVisualStyle
  2
Linepattern
 70
    14
177
     2
291
     1
 71
     2
176
     1
 72
     2
176
     1
 73
     0
176
     1
 90
        0
176
     1
 40
-0.6
176
     1
 41
-30.0
176
     1
 62
     5
 63
     7
421
 16777215
176
     1
 74
     1
176
     1
 91
        4
176
     1
 64
     7
176
     1
 65
   257
176
     1
 75
     7
176
     1
175
     7
176
     1
 42
1.0
176
     1
 92
        8
176
     1
 66
     7
176
     1
 43
1.0
176
     1
 76
     1
176
     1
 77
     6
176
     1
 78
     2
176
     1
 67
     7
176
     1
 79
     5
176
     1
170
     0
176
     1
171
     0
176
     1
290
     0
176
     1
 93
        1
176
     1
 44
0.0
176
     1
173
     0
176
     1
  0
VISUALSTYLE
  5
33
102
{ACAD_REACTORS
330
2A
102
}
330
2A
100
AcDbVisualStyle
  2
Realistic
 70
     8
177
     2
291
     0
 71
     2
176
     1
 72
     2
176
     1
 73
     0
176
     1
 90
        0
176
     1
 40
-0.6
176
     1
 41
-30.0
176
     1
 62
     5
 63
     7
421
 16777215
176
     1
 74
     1
176
     1
 91
        0
176
     1
 64
     7
176
     1
 65
   257
176
     1
 75
     1
176
     1
175
     1
176
     1
 42
1.0
176
     1
 92
        8
176
     1
 66
     8
424
  7895160
176
     1
 43
1.0
176
     1
 76
     1
176
     1
 77
     6
176
     1
 78
     2
176
     1
 67
     7
176
     1
 79
     5
176
     1
170
     0
176
     1
171
     0
176
     1
290
     0
176
     1
 93
       13
176
     1
 44
0.0
176
     1
173
     0
176
     1
  0
VISUALSTYLE
  5
37
102
{ACAD_REACTORS
330
2A
102
}
330
2A
100
AcDbVisualStyle
  2
Thicken
 70
    13
177
     2
291
     1
 71
     2
176
     1
 72
     2
176
     1
 73
     0
176
     1
 90
        0
176
     1
 40
-0.6
176
     1
 41
-30.0
176
     1
 62
     5
 63
     7
421
 16777215
176
     1
 74
     1
176
     1
 91
        4
176
     1
 64
     7
176
     1
 65
   257
176
     1
 75
     1
176
     1
175
     1
176
     1
 42
1.0
176
     1
 92
       12
176
     1
 66
     7
176
     1
 43
1.0
176
     1
 76
     1
176
     1
 77
     6
176
     1
 78
     2
176
     1
 67
     7
176
     1
 79
     5
176
     1
170
     0
176
     1
171
     0
176
     1
290
     0
176
     1
 93
        1
176
     1
 44
0.0
176
     1
173
     0
176
     1
  0
ENDSEC
  0
EOF
