  0
SECTION
  2
HEADER
  9
$ACADVER
  1
AC1024
  9
$ACADMAINTVER
 70
     6
  9
$DWGCODEPAGE
  3
UNDEFINED
  9
$INSBASE
 10
0.0
 20
0.0
 30
0.0
  9
$EXTMIN
 10
1.000000000000000E+20
 20
1.000000000000000E+20
 30
1.000000000000000E+20
  9
$EXTMAX
 10
-1.000000000000000E+20
 20
-1.000000000000000E+20
 30
-1.000000000000000E+20
  9
$LIMMIN
 10
0.0
 20
0.0
  9
$LIMMAX
 10
12.0
 20
9.0
  9
$ORTHOMODE
 70
     0
  9
$REGENMODE
 70
     1
  9
$FILLMODE
 70
     1
  9
$QTEXTMODE
 70
     0
  9
$MIRRTEXT
 70
     1
  9
$LTSCALE
 40
1.0
  9
$ATTMODE
 70
     1
  9
$TEXTSIZE
 40
0.2
  9
$TRACEWID
 40
0.05
  9
$TEXTSTYLE
  7
Standard
  9
$CLAYER
  8
0
  9
$CELTYPE
  6
ByLayer
  9
$CECOLOR
 62
   256
  9
$CELTSCALE
 40
1.0
  9
$DISPSILH
 70
     0
  9
$DIMSCALE
 40
1.0
  9
$DIMASZ
 40
0.18
  9
$DIMEXO
 40
0.0625
  9
$DIMDLI
 40
0.38
  9
$DIMRND
 40
0.0
  9
$DIMDLE
 40
0.0
  9
$DIMEXE
 40
0.18
  9
$DIMTP
 40
0.0
  9
$DIMTM
 40
0.0
  9
$DIMTXT
 40
0.18
  9
$DIMCEN
 40
0.09
  9
$DIMTSZ
 40
0.0
  9
$DIMTOL
 70
     0
  9
$DIMLIM
 70
     0
  9
$DIMTIH
 70
     1
  9
$DIMTOH
 70
     1
  9
$DIMSE1
 70
     0
  9
$DIMSE2
 70
     0
  9
$DIMTAD
 70
     0
  9
$DIMZIN
 70
     0
  9
$DIMBLK
  1

  9
$DIMASO
 70
     1
  9
$DIMSHO
 70
     1
  9
$DIMPOST
  1

  9
$DIMAPOST
  1

  9
$DIMALT
 70
     0
  9
$DIMALTD
 70
     2
  9
$DIMALTF
 40
25.4
  9
$DIMLFAC
 40
1.0
  9
$DIMTOFL
 70
     0
  9
$DIMTVP
 40
0.0
  9
$DIMTIX
 70
     0
  9
$DIMSOXD
 70
     0
  9
$DIMSAH
 70
     0
  9
$DIMBLK1
  1

  9
$DIMBLK2
  1

  9
$DIMSTYLE
  2
Standard
  9
$DIMCLRD
 70
     0
  9
$DIMCLRE
 70
     0
  9
$DIMCLRT
 70
     0
  9
$DIMTFAC
 40
1.0
  9
$DIMGAP
 40
0.09
  9
$DIMJUST
 70
     0
  9
$DIMSD1
 70
     0
  9
$DIMSD2
 70
     0
  9
$DIMTOLJ
 70
     1
  9
$DIMTZIN
 70
     0
  9
$DIMALTZ
 70
     0
  9
$DIMALTTZ
 70
     0
  9
$DIMUPT
 70
     0
  9
$DIMDEC
 70
     4
  9
$DIMTDEC
 70
     4
  9
$DIMALTU
 70
     2
  9
$DIMALTTD
 70
     2
  9
$DIMTXSTY
  7
Standard
  9
$DIMAUNIT
 70
     0
  9
$DIMADEC
 70
     0
  9
$DIMALTRND
 40
0.0
  9
$DIMAZIN
 70
     0
  9
$DIMDSEP
 70
    46
  9
$DIMATFIT
 70
     3
  9
$DIMFRAC
 70
     0
  9
$DIMLDRBLK
  1

  9
$DIMLUNIT
 70
     2
  9
$DIMLWD
 70
    -2
  9
$DIMLWE
 70
    -2
  9
$DIMTMOVE
 70
     0
  9
$DIMFXL
 40
1.0
  9
$DIMFXLON
 70
     0
  9
$DIMJOGANG
 40
0.7853981633974483
  9
$DIMTFILL
 70
     0
  9
$DIMTFILLCLR
 70
     0
  9
$DIMARCSYM
 70
     0
  9
$DIMLTYPE
  6

  9
$DIMLTEX1
  6

  9
$DIMLTEX2
  6

  9
$DIMTXTDIRECTION
 70
     0
  9
$LUNITS
 70
     2
  9
$LUPREC
 70
     4
  9
$SKETCHINC
 40
0.1
  9
$FILLETRAD
 40
0.5
  9
$AUNITS
 70
     0
  9
$AUPREC
 70
     0
  9
$MENU
  1
.
  9
$ELEVATION
 40
0.0
  9
$PELEVATION
 40
0.0
  9
$THICKNESS
 40
0.0
  9
$LIMCHECK
 70
     0
  9
$CHAMFERA
 40
0.5
  9
$CHAMFERB
 40
0.5
  9
$CHAMFERC
 40
1.0
  9
$CHAMFERD
 40
0.0
  9
$SKPOLY
 70
     0
  9
$TDCREATE
 40
2457917.619722222
  9
$TDUCREATE
 40
2457917.244722222
  9
$TDUPDATE
 40
2457917.619722222
  9
$TDUUPDATE
 40
2457917.244722222
  9
$TDINDWG
 40
0.0000000116
  9
$TDUSRTIMER
 40
0.0000000116
  9
$USRTIMER
 70
     1
  9
$ANGBASE
 50
0.0
  9
$ANGDIR
 70
     0
  9
$PDMODE
 70
     0
  9
$PDSIZE
 40
0.0
  9
$PLINEWID
 40
0.0
  9
$SPLFRAME
 70
     0
  9
$SPLINETYPE
 70
     6
  9
$SPLINESEGS
 70
     8
  9
$HANDSEED
  5
E1
  9
$SURFTAB1
 70
     6
  9
$SURFTAB2
 70
     6
  9
$SURFTYPE
 70
     6
  9
$SURFU
 70
     6
  9
$SURFV
 70
     6
  9
$UCSBASE
  2

  9
$UCSNAME
  2

  9
$UCSORG
 10
0.0
 20
0.0
 30
0.0
  9
$UCSXDIR
 10
1.0
 20
0.0
 30
0.0
  9
$UCSYDIR
 10
0.0
 20
1.0
 30
0.0
  9
$UCSORTHOREF
  2

  9
$UCSORTHOVIEW
 70
     0
  9
$UCSORGTOP
 10
0.0
 20
0.0
 30
0.0
  9
$UCSORGBOTTOM
 10
0.0
 20
0.0
 30
0.0
  9
$UCSORGLEFT
 10
0.0
 20
0.0
 30
0.0
  9
$UCSORGRIGHT
 10
0.0
 20
0.0
 30
0.0
  9
$UCSORGFRONT
 10
0.0
 20
0.0
 30
0.0
  9
$UCSORGBACK
 10
0.0
 20
0.0
 30
0.0
  9
$PUCSBASE
  2

  9
$PUCSNAME
  2

  9
$PUCSORG
 10
0.0
 20
0.0
 30
0.0
  9
$PUCSXDIR
 10
1.0
 20
0.0
 30
0.0
  9
$PUCSYDIR
 10
0.0
 20
1.0
 30
0.0
  9
$PUCSORTHOREF
  2

  9
$PUCSORTHOVIEW
 70
     0
  9
$PUCSORGTOP
 10
0.0
 20
0.0
 30
0.0
  9
$PUCSORGBOTTOM
 10
0.0
 20
0.0
 30
0.0
  9
$PUCSORGLEFT
 10
0.0
 20
0.0
 30
0.0
  9
$PUCSORGRIGHT
 10
0.0
 20
0.0
 30
0.0
  9
$PUCSORGFRONT
 10
0.0
 20
0.0
 30
0.0
  9
$PUCSORGBACK
 10
0.0
 20
0.0
 30
0.0
  9
$USERI1
 70
     0
  9
$USERI2
 70
     0
  9
$USERI3
 70
     0
  9
$USERI4
 70
     0
  9
$USERI5
 70
     0
  9
$USERR1
 40
0.0
  9
$USERR2
 40
0.0
  9
$USERR3
 40
0.0
  9
$USERR4
 40
0.0
  9
$USERR5
 40
0.0
  9
$WORLDVIEW
 70
     1
  9
$SHADEDGE
 70
     3
  9
$SHADEDIF
 70
    70
  9
$TILEMODE
 70
     1
  9
$MAXACTVP
 70
    64
  9
$PINSBASE
 10
0.0
 20
0.0
 30
0.0
  9
$PLIMCHECK
 70
     0
  9
$PEXTMIN
 10
1.000000000000000E+20
 20
1.000000000000000E+20
 30
1.000000000000000E+20
  9
$PEXTMAX
 10
-1.000000000000000E+20
 20
-1.000000000000000E+20
 30
-1.000000000000000E+20
  9
$PLIMMIN
 10
0.0
 20
0.0
  9
$PLIMMAX
 10
12.0
 20
9.0
  9
$UNITMODE
 70
     0
  9
$VISRETAIN
 70
     1
  9
$PLINEGEN
 70
     0
  9
$PSLTSCALE
 70
     1
  9
$TREEDEPTH
 70
  3020
  9
$CMLSTYLE
  2
Standard
  9
$CMLJUST
 70
     0
  9
$CMLSCALE
 40
1.0
  9
$PROXYGRAPHICS
 70
     1
  9
$MEASUREMENT
 70
     0
  9
$CELWEIGHT
370
    -1
  9
$ENDCAPS
280
     0
  9
$JOINSTYLE
280
     0
  9
$LWDISPLAY
290
     1
  9
$INSUNITS
 70
     1
  9
$HYPERLINKBASE
  1

  9
$STYLESHEET
  1

  9
$XEDIT
290
     1
  9
$CEPSNTYPE
380
     0
  9
$PSTYLEMODE
290
     1
  9
$FINGERPRINTGUID
  2
{03FDE697-A18B-4DE7-4A88-FF6422A60F7E}
  9
$VERSIONGUID
  2
{FAEB1C32-E019-11D5-929B-00C0DF256EC4}
  9
$EXTNAMES
290
     1
  9
$PSVPSCALE
 40
0.0
  9
$OLESTARTUP
290
     0
  9
$SORTENTS
280
   127
  9
$INDEXCTL
280
     0
  9
$HIDETEXT
280
     1
  9
$XCLIPFRAME
280
     2
  9
$HALOGAP
280
     0
  9
$OBSCOLOR
 70
   257
  9
$OBSLTYPE
280
     0
  9
$INTERSECTIONDISPLAY
280
     0
  9
$INTERSECTIONCOLOR
 70
   257
  9
$DIMASSOC
280
     2
  9
$PROJECTNAME
  1

  9
$CAMERADISPLAY
290
     0
  9
$LENSLENGTH
 40
50.0
  9
$CAMERAHEIGHT
 40
0.0
  9
$STEPSPERSEC
 40
2.0
  9
$STEPSIZE
 40
6.0
  9
$3DDWFPREC
 40
2.0
  9
$PSOLWIDTH
 40
0.25
  9
$PSOLHEIGHT
 40
4.0
  9
$LOFTANG1
 40
1.570796326794897
  9
$LOFTANG2
 40
1.570796326794897
  9
$LOFTMAG1
 40
0.0
  9
$LOFTMAG2
 40
0.0
  9
$LOFTPARAM
 70
     7
  9
$LOFTNORMALS
280
     1
  9
$LATITUDE
 40
37.795
  9
$LONGITUDE
 40
-122.394
  9
$NORTHDIRECTION
 40
0.0
  9
$TIMEZONE
 70
 -8000
  9
$LIGHTGLYPHDISPLAY
280
     1
  9
$TILEMODELIGHTSYNCH
280
     1
  9
$CMATERIAL
347
3C
  9
$SOLIDHIST
280
     1
  9
$SHOWHIST
280
     1
  9
$DWFFRAME
280
     2
  9
$DGNFRAME
280
     2
  9
$REALWORLDSCALE
290
     1
  9
$INTERFERECOLOR
 62
   256
  9
$CSHADOW
280
     0
  9
$SHADOWPLANELOCATION
 40
0.0
  0
ENDSEC
  0
SECTION
  2
CLASSES
  0
CLASS
  1
ACDBDICTIONARYWDFLT
  2
AcDbDictionaryWithDefault
  3
ObjectDBX Classes
 90
        0
 91
        4
280
     0
281
     0
  0
CLASS
  1
VISUALSTYLE
  2
AcDbVisualStyle
  3
ObjectDBX Classes
 90
     4095
 91
        4
280
     0
281
     0
  0
CLASS
  1
MATERIAL
  2
AcDbMaterial
  3
ObjectDBX Classes
 90
     1153
 91
        4
280
     0
281
     0
  0
CLASS
  1
SUN
  2
AcDbSun
  3
SCENEOE
 90
     1024
 91
        4
280
     0
281
     0
  0
ENDSEC
  0
SECTION
  2
TABLES
  0
TABLE
  2
VPORT
  5
8
330
0
100
AcDbSymbolTable
 70
     1
  0
VPORT
  5
29
330
8
100
AcDbSymbolTableRecord
100
AcDbViewportTableRecord
  2
*Active
 70
     0
 10
0.0
 20
0.0
 11
1.0
 21
1.0
 12
0.0
 22
0.0
 13
0.0
 23
0.0
 14
0.5
 24
0.5
 15
0.5
 25
0.5
 16
0.0
 26
0.0
 36
1.0
 17
91.00082462281999
 27
-128.4993055234307
 37
0.0
 40
256.9986110468615
 41
0.7081814508812795
 42
50.0
 43
0.0
 44
0.0
 50
0.0
 51
0.0
 71
     0
 72
   100
 73
     1
 74
     3
 75
     0
 76
     0
 77
     0
 78
     0
281
     0
 65
     1
110
0.0
120
0.0
130
0.0
111
1.0
121
0.0
131
0.0
112
0.0
122
1.0
132
0.0
 79
     0
146
0.0
 60
     3
 61
     5
292
     1
282
     1
141
0.0
142
0.0
 63
   250
361
3F
  0
ENDTAB
  0
TABLE
  2
LTYPE
  5
5
330
0
100
AcDbSymbolTable
 70
     1
  0
LTYPE
  5
14
330
5
100
AcDbSymbolTableRecord
100
AcDbLinetypeTableRecord
  2
ByBlock
 70
     0
  3

 72
    65
 73
     0
 40
0.0
  0
LTYPE
  5
15
330
5
100
AcDbSymbolTableRecord
100
AcDbLinetypeTableRecord
  2
ByLayer
 70
     0
  3

 72
    65
 73
     0
 40
0.0
  0
LTYPE
  5
16
330
5
100
AcDbSymbolTableRecord
100
AcDbLinetypeTableRecord
  2
Continuous
 70
     0
  3
Solid line
 72
    65
 73
     0
 40
0.0
  0
ENDTAB
  0
TABLE
  2
LAYER
  5
2
330
0
100
AcDbSymbolTable
 70
     2
  0
LAYER
  5
10
330
2
100
AcDbSymbolTableRecord
100
AcDbLayerTableRecord
  2
0
 70
     0
 62
     7
  6
Continuous
370
    -3
390
F
347
3E
  0
LAYER
  5
40
330
2
100
AcDbSymbolTableRecord
100
AcDbLayerTableRecord
  2
_U+30EC_U+30A4_U+30E4_U+30FC 1
 70
     0
 62
     7
  6
Continuous
370
    -3
390
F
347
3E
  0
ENDTAB
  0
TABLE
  2
STYLE
  5
3
330
0
100
AcDbSymbolTable
 70
     1
  0
STYLE
  5
11
330
3
100
AcDbSymbolTableRecord
100
AcDbTextStyleTableRecord
  2
Standard
 70
     0
 40
0.0
 41
1.0
 50
0.0
 71
     0
 42
0.2
  3
txt
  4

  0
ENDTAB
  0
TABLE
  2
VIEW
  5
6
330
0
100
AcDbSymbolTable
 70
     0
  0
ENDTAB
  0
TABLE
  2
UCS
  5
7
330
0
100
AcDbSymbolTable
 70
     0
  0
ENDTAB
  0
TABLE
  2
APPID
  5
9
330
0
100
AcDbSymbolTable
 70
     1
  0
APPID
  5
12
330
9
100
AcDbSymbolTableRecord
100
AcDbRegAppTableRecord
  2
ACAD
 70
     0
  0
ENDTAB
  0
TABLE
  2
DIMSTYLE
  5
A
330
0
100
AcDbSymbolTable
 70
     1
100
AcDbDimStyleTable
  0
DIMSTYLE
105
27
330
A
100
AcDbSymbolTableRecord
100
AcDbDimStyleTableRecord
  2
Standard
 70
     0
178
     0
340
11
  0
ENDTAB
  0
TABLE
  2
BLOCK_RECORD
  5
1
330
0
100
AcDbSymbolTable
 70
     6
  0
BLOCK_RECORD
  5
1F
330
1
100
AcDbSymbolTableRecord
100
AcDbBlockTableRecord
  2
*Model_Space
340
22
 70
     0
280
     1
281
     0
  0
BLOCK_RECORD
  5
1B
330
1
100
AcDbSymbolTableRecord
100
AcDbBlockTableRecord
  2
*Paper_Space
340
1E
 70
     0
280
     1
281
     0
  0
BLOCK_RECORD
  5
23
330
1
100
AcDbSymbolTableRecord
100
AcDbBlockTableRecord
  2
*Paper_Space0
340
26
 70
     0
280
     1
281
     0
  0
BLOCK_RECORD
  5
77
330
1
100
AcDbSymbolTableRecord
100
AcDbBlockTableRecord
  2
block 2
340
0
102
{BLKREFS
331
78
102
}
 70
     0
280
     1
281
     0
  0
BLOCK_RECORD
  5
8E
330
1
100
AcDbSymbolTableRecord
100
AcDbBlockTableRecord
  2
block 3
340
0
102
{BLKREFS
331
8F
102
}
 70
     0
280
     1
281
     0
  0
BLOCK_RECORD
  5
A5
330
1
100
AcDbSymbolTableRecord
100
AcDbBlockTableRecord
  2
block 4
340
0
102
{BLKREFS
331
A6
102
}
 70
     0
280
     1
281
     0
  0
BLOCK_RECORD
  5
C5
330
1
100
AcDbSymbolTableRecord
100
AcDbBlockTableRecord
  2
block 5
340
0
102
{BLKREFS
331
C6
102
}
 70
     0
280
     1
281
     0
  0
BLOCK_RECORD
  5
D9
330
1
100
AcDbSymbolTableRecord
100
AcDbBlockTableRecord
  2
block 6
340
0
102
{BLKREFS
331
DA
102
}
 70
     0
280
     1
281
     0
  0
ENDTAB
  0
ENDSEC
  0
SECTION
  2
BLOCKS
  0
BLOCK
  5
20
330
1F
100
AcDbEntity
  8
0
100
AcDbBlockBegin
  2
*Model_Space
 70
     0
 10
0.0
 20
0.0
 30
0.0
  3
*Model_Space
  1

  0
ENDBLK
  5
21
330
1F
100
AcDbEntity
  8
0
100
AcDbBlockEnd
  0
BLOCK
  5
1C
330
1B
100
AcDbEntity
 67
     1
  8
0
100
AcDbBlockBegin
  2
*Paper_Space
 70
     0
 10
0.0
 20
0.0
 30
0.0
  3
*Paper_Space
  1

  0
ENDBLK
  5
1D
330
1B
100
AcDbEntity
 67
     1
  8
0
100
AcDbBlockEnd
  0
BLOCK
  5
24
330
23
100
AcDbEntity
  8
0
100
AcDbBlockBegin
  2
*Paper_Space0
 70
     0
 10
0.0
 20
0.0
 30
0.0
  3
*Paper_Space0
  1

  0
ENDBLK
  5
25
330
23
100
AcDbEntity
  8
0
100
AcDbBlockEnd
  0
BLOCK
  5
79
330
77
100
AcDbEntity
  8
0
100
AcDbBlockBegin
  2
block 2
 70
     0
 10
0.0
 20
0.0
 30
0.0
  3
block 2
  1

  0
SPLINE
  5
7B
330
77
100
AcDbEntity
  8
_U+30EC_U+30A4_U+30E4_U+30FC 1
370
     0
100
AcDbSpline
210
0.0
220
0.0
230
1.0
 70
    11
 71
     3
 72
    26
 73
    22
 74
     0
 42
0.0000000001
 43
0.0000000001
 12
1.0
 22
0.0
 32
0.0
 13
1.0
 23
0.0
 33
0.0
 40
0.0
 40
0.0
 40
0.0
 40
0.0
 40
1.0
 40
1.0
 40
1.0
 40
2.0
 40
2.0
 40
2.0
 40
3.0
 40
3.0
 40
3.0
 40
4.0
 40
4.0
 40
4.0
 40
5.0
 40
5.0
 40
5.0
 40
6.0
 40
6.0
 40
6.0
 40
7.0
 40
7.0
 40
7.0
 40
7.0
 10
89.7514553269545
 20
-137.831724683424
 30
0.0
 10
89.7514553269545
 20
-137.831724683424
 30
0.0
 10
89.7514553269545
 20
-136.7272270708529
 30
0.0
 10
89.7514553269545
 20
-136.7272270708529
 30
0.0
 10
89.7514553269545
 20
-136.7272270708529
 30
0.0
 10
89.39884980403919
 20
-136.7272270708529
 30
0.0
 10
89.39884980403919
 20
-136.7272270708529
 30
0.0
 10
89.39884980403919
 20
-136.7272270708529
 30
0.0
 10
89.39884980403919
 20
-136.5790879649872
 30
0.0
 10
89.39884980403919
 20
-136.5790879649872
 30
0.0
 10
89.75369463901991
 20
-136.5642740544006
 30
0.0
 10
89.80347626878178
 20
-136.4016655474968
 30
0.0
 10
89.83517114724607
 20
-136.2872883773865
 30
0.0
 10
89.83517114724607
 20
-136.2872883773865
 30
0.0
 10
89.99106171795363
 20
-136.2872883773865
 30
0.0
 10
89.99106171795363
 20
-136.2872883773865
 30
0.0
 10
89.99106171795363
 20
-136.2872883773865
 30
0.0
 10
89.99106171795363
 20
-137.831724683424
 30
0.0
 10
89.99106171795363
 20
-137.831724683424
 30
0.0
 10
89.99106171795363
 20
-137.831724683424
 30
0.0
 10
89.7514553269545
 20
-137.831724683424
 30
0.0
 10
89.7514553269545
 20
-137.831724683424
 30
0.0
  0
HATCH
  5
7C
330
77
100
AcDbEntity
  8
_U+30EC_U+30A4_U+30E4_U+30FC 1
 62
   179
420
  2234388
100
AcDbHatch
 10
0.0
 20
0.0
 30
0.0
210
0.0
220
0.0
230
1.0
  2
SOLID
 70
     1
 71
     0
 91
        1
 92
        1
 93
        1
 72
     4
 94
        3
 73
     0
 74
     1
 95
       26
 96
       22
 40
0.0
 40
0.0
 40
0.0
 40
0.0
 40
1.0
 40
1.0
 40
1.0
 40
2.0
 40
2.0
 40
2.0
 40
3.0
 40
3.0
 40
3.0
 40
4.0
 40
4.0
 40
4.0
 40
5.0
 40
5.0
 40
5.0
 40
6.0
 40
6.0
 40
6.0
 40
7.0
 40
7.0
 40
7.0
 40
7.0
 10
89.7514553269545
 20
-137.831724683424
 10
89.7514553269545
 20
-137.831724683424
 10
89.7514553269545
 20
-136.7272270708529
 10
89.7514553269545
 20
-136.7272270708529
 10
89.7514553269545
 20
-136.7272270708529
 10
89.39884980403919
 20
-136.7272270708529
 10
89.39884980403919
 20
-136.7272270708529
 10
89.39884980403919
 20
-136.7272270708529
 10
89.39884980403919
 20
-136.5790879649872
 10
89.39884980403919
 20
-136.5790879649872
 10
89.75369463901991
 20
-136.5642740544006
 10
89.80347626878178
 20
-136.4016655474968
 10
89.83517114724607
 20
-136.2872883773865
 10
89.83517114724607
 20
-136.2872883773865
 10
89.99106171795363
 20
-136.2872883773865
 10
89.99106171795363
 20
-136.2872883773865
 10
89.99106171795363
 20
-136.2872883773865
 10
89.99106171795363
 20
-137.831724683424
 10
89.99106171795363
 20
-137.831724683424
 10
89.99106171795363
 20
-137.831724683424
 10
89.7514553269545
 20
-137.831724683424
 10
89.7514553269545
 20
-137.831724683424
 97
        0
 97
        0
 75
     2
 76
     1
 98
        0
  0
SPLINE
  5
7D
330
77
100
AcDbEntity
  8
_U+30EC_U+30A4_U+30E4_U+30FC 1
370
     0
100
AcDbSpline
210
0.0
220
0.0
230
1.0
 70
    11
 71
     3
 72
    44
 73
    40
 74
     0
 42
0.0000000001
 43
0.0000000001
 12
1.0
 22
0.0
 32
0.0
 13
1.0
 23
0.0
 33
0.0
 40
0.0
 40
0.0
 40
0.0
 40
0.0
 40
1.0
 40
1.0
 40
1.0
 40
2.0
 40
2.0
 40
2.0
 40
3.0
 40
3.0
 40
3.0
 40
4.0
 40
4.0
 40
4.0
 40
5.0
 40
5.0
 40
5.0
 40
6.0
 40
6.0
 40
6.0
 40
7.0
 40
7.0
 40
7.0
 40
8.0
 40
8.0
 40
8.0
 40
9.0
 40
9.0
 40
9.0
 40
10.0
 40
10.0
 40
10.0
 40
11.0
 40
11.0
 40
11.0
 40
12.0
 40
12.0
 40
12.0
 40
13.0
 40
13.0
 40
13.0
 40
13.0
 10
91.16067163519595
 20
-137.2498480559653
 30
0.0
 10
90.92778318039306
 20
-137.4083224482868
 30
0.0
 10
90.8283921756436
 20
-137.4823920012197
 30
0.0
 10
90.77637123381633
 20
-137.6263969925031
 30
0.0
 10
90.77637123381633
 20
-137.6263969925031
 30
0.0
 10
91.6081895387299
 20
-137.6263969925031
 30
0.0
 10
91.6081895387299
 20
-137.6263969925031
 30
0.0
 10
91.6081895387299
 20
-137.6263969925031
 30
0.0
 10
91.6081895387299
 20
-137.831724683424
 30
0.0
 10
91.6081895387299
 20
-137.831724683424
 30
0.0
 10
91.6081895387299
 20
-137.831724683424
 30
0.0
 10
90.50954858848372
 20
-137.831724683424
 30
0.0
 10
90.50954858848372
 20
-137.831724683424
 30
0.0
 10
90.54348277901344
 20
-137.4741237720551
 30
0.0
 10
90.61359047213827
 20
-137.3959201045399
 30
0.0
 10
91.02510712785137
 20
-137.0975748355173
 30
0.0
 10
91.2986477093802
 20
-136.8987928260184
 30
0.0
 10
91.36875540250504
 20
-136.830924444959
 30
0.0
 10
91.36875540250504
 20
-136.6934651350975
 30
0.0
 10
91.36875540250504
 20
-136.5749538504049
 30
0.0
 10
91.29175751840971
 20
-136.4436957124169
 30
0.0
 10
91.08160669380946
 20
-136.4436957124169
 30
0.0
 10
90.80341523337555
 20
-136.4436957124169
 30
0.0
 10
90.7944579851139
 20
-136.6745171099286
 30
0.0
 10
90.78997936098307
 20
-136.7906168277815
 30
0.0
 10
90.78997936098307
 20
-136.7906168277815
 30
0.0
 10
90.55020071520967
 20
-136.7906168277815
 30
0.0
 10
90.55020071520967
 20
-136.7906168277815
 30
0.0
 10
90.55933021824559
 20
-136.6638373139243
 30
0.0
 10
90.57069903334691
 20
-136.5518717106537
 30
0.0
 10
90.65648191092963
 20
-136.4333604259611
 30
0.0
 10
90.77413192175092
 20
-136.2724744667999
 30
0.0
 10
90.97308618602409
 20
-136.2387125310445
 30
0.0
 10
91.09745413304161
 20
-136.2387125310445
 30
0.0
 10
91.39356008999884
 20
-136.2387125310445
 30
0.0
 10
91.6150797297004
 20
-136.4226806299568
 30
0.0
 10
91.6150797297004
 20
-136.6955321923886
 30
0.0
 10
91.6150797297004
 20
-136.9239420230607
 30
0.0
 10
91.49071178268288
 20
-137.0235052825844
 30
0.0
 10
91.16067163519595
 20
-137.2498480559653
 30
0.0
  0
HATCH
  5
7E
330
77
100
AcDbEntity
  8
_U+30EC_U+30A4_U+30E4_U+30FC 1
 62
   179
420
  2234388
100
AcDbHatch
 10
0.0
 20
0.0
 30
0.0
210
0.0
220
0.0
230
1.0
  2
SOLID
 70
     1
 71
     0
 91
        1
 92
        1
 93
        1
 72
     4
 94
        3
 73
     0
 74
     1
 95
       44
 96
       40
 40
0.0
 40
0.0
 40
0.0
 40
0.0
 40
1.0
 40
1.0
 40
1.0
 40
2.0
 40
2.0
 40
2.0
 40
3.0
 40
3.0
 40
3.0
 40
4.0
 40
4.0
 40
4.0
 40
5.0
 40
5.0
 40
5.0
 40
6.0
 40
6.0
 40
6.0
 40
7.0
 40
7.0
 40
7.0
 40
8.0
 40
8.0
 40
8.0
 40
9.0
 40
9.0
 40
9.0
 40
10.0
 40
10.0
 40
10.0
 40
11.0
 40
11.0
 40
11.0
 40
12.0
 40
12.0
 40
12.0
 40
13.0
 40
13.0
 40
13.0
 40
13.0
 10
91.16067163519595
 20
-137.2498480559653
 10
90.92778318039306
 20
-137.4083224482868
 10
90.8283921756436
 20
-137.4823920012197
 10
90.77637123381633
 20
-137.6263969925031
 10
90.77637123381633
 20
-137.6263969925031
 10
91.6081895387299
 20
-137.6263969925031
 10
91.6081895387299
 20
-137.6263969925031
 10
91.6081895387299
 20
-137.6263969925031
 10
91.6081895387299
 20
-137.831724683424
 10
91.6081895387299
 20
-137.831724683424
 10
91.6081895387299
 20
-137.831724683424
 10
90.50954858848372
 20
-137.831724683424
 10
90.50954858848372
 20
-137.831724683424
 10
90.54348277901344
 20
-137.4741237720551
 10
90.61359047213827
 20
-137.3959201045399
 10
91.02510712785137
 20
-137.0975748355173
 10
91.2986477093802
 20
-136.8987928260184
 10
91.36875540250504
 20
-136.830924444959
 10
91.36875540250504
 20
-136.6934651350975
 10
91.36875540250504
 20
-136.5749538504049
 10
91.29175751840971
 20
-136.4436957124169
 10
91.08160669380946
 20
-136.4436957124169
 10
90.80341523337555
 20
-136.4436957124169
 10
90.7944579851139
 20
-136.6745171099286
 10
90.78997936098307
 20
-136.7906168277815
 10
90.78997936098307
 20
-136.7906168277815
 10
90.55020071520967
 20
-136.7906168277815
 10
90.55020071520967
 20
-136.7906168277815
 10
90.55933021824559
 20
-136.6638373139243
 10
90.57069903334691
 20
-136.5518717106537
 10
90.65648191092963
 20
-136.4333604259611
 10
90.77413192175092
 20
-136.2724744667999
 10
90.97308618602409
 20
-136.2387125310445
 10
91.09745413304161
 20
-136.2387125310445
 10
91.39356008999884
 20
-136.2387125310445
 10
91.6150797297004
 20
-136.4226806299568
 10
91.6150797297004
 20
-136.6955321923886
 10
91.6150797297004
 20
-136.9239420230607
 10
91.49071178268288
 20
-137.0235052825844
 10
91.16067163519595
 20
-137.2498480559653
 97
        0
 97
        0
 75
     2
 76
     1
 98
        0
  0
ENDBLK
  5
7A
330
77
100
AcDbEntity
  8
0
100
AcDbBlockEnd
  0
BLOCK
  5
90
330
8E
100
AcDbEntity
  8
0
100
AcDbBlockBegin
  2
block 3
 70
     0
 10
0.0
 20
0.0
 30
0.0
  3
block 3
  1

  0
SPLINE
  5
92
330
8E
100
AcDbEntity
  8
_U+30EC_U+30A4_U+30E4_U+30FC 1
370
     0
100
AcDbSpline
210
0.0
220
0.0
230
1.0
 70
    11
 71
     3
 72
    26
 73
    22
 74
     0
 42
0.0000000001
 43
0.0000000001
 12
1.0
 22
0.0
 32
0.0
 13
1.0
 23
0.0
 33
0.0
 40
0.0
 40
0.0
 40
0.0
 40
0.0
 40
1.0
 40
1.0
 40
1.0
 40
2.0
 40
2.0
 40
2.0
 40
3.0
 40
3.0
 40
3.0
 40
4.0
 40
4.0
 40
4.0
 40
5.0
 40
5.0
 40
5.0
 40
6.0
 40
6.0
 40
6.0
 40
7.0
 40
7.0
 40
7.0
 40
7.0
 10
80.06074623649523
 20
-128.3856173724175
 30
0.0
 10
80.06074623649523
 20
-128.3856173724175
 30
0.0
 10
78.9564208786984
 20
-128.3856173724175
 30
0.0
 10
78.9564208786984
 20
-128.3856173724175
 30
0.0
 10
78.9564208786984
 20
-128.3856173724175
 30
0.0
 10
78.9564208786984
 20
-128.7383951501071
 30
0.0
 10
78.9564208786984
 20
-128.7383951501071
 30
0.0
 10
78.9564208786984
 20
-128.7383951501071
 30
0.0
 10
78.80845402760691
 20
-128.7383951501071
 30
0.0
 10
78.80845402760691
 20
-128.7383951501071
 30
0.0
 10
78.79364011702035
 20
-128.3833780603521
 30
0.0
 10
78.63068710056803
 20
-128.3337686853645
 30
0.0
 10
78.516482185232
 20
-128.3020738069002
 30
0.0
 10
78.516482185232
 20
-128.3020738069002
 30
0.0
 10
78.516482185232
 20
-128.1460109814184
 30
0.0
 10
78.516482185232
 20
-128.1460109814184
 30
0.0
 10
78.516482185232
 20
-128.1460109814184
 30
0.0
 10
80.06074623649523
 20
-128.1460109814184
 30
0.0
 10
80.06074623649523
 20
-128.1460109814184
 30
0.0
 10
80.06074623649523
 20
-128.1460109814184
 30
0.0
 10
80.06074623649523
 20
-128.3856173724175
 30
0.0
 10
80.06074623649523
 20
-128.3856173724175
 30
0.0
  0
HATCH
  5
93
330
8E
100
AcDbEntity
  8
_U+30EC_U+30A4_U+30E4_U+30FC 1
 62
   179
420
  2234388
100
AcDbHatch
 10
0.0
 20
0.0
 30
0.0
210
0.0
220
0.0
230
1.0
  2
SOLID
 70
     1
 71
     0
 91
        1
 92
        1
 93
        1
 72
     4
 94
        3
 73
     0
 74
     1
 95
       26
 96
       22
 40
0.0
 40
0.0
 40
0.0
 40
0.0
 40
1.0
 40
1.0
 40
1.0
 40
2.0
 40
2.0
 40
2.0
 40
3.0
 40
3.0
 40
3.0
 40
4.0
 40
4.0
 40
4.0
 40
5.0
 40
5.0
 40
5.0
 40
6.0
 40
6.0
 40
6.0
 40
7.0
 40
7.0
 40
7.0
 40
7.0
 10
80.06074623649523
 20
-128.3856173724175
 10
80.06074623649523
 20
-128.3856173724175
 10
78.9564208786984
 20
-128.3856173724175
 10
78.9564208786984
 20
-128.3856173724175
 10
78.9564208786984
 20
-128.3856173724175
 10
78.9564208786984
 20
-128.7383951501071
 10
78.9564208786984
 20
-128.7383951501071
 10
78.9564208786984
 20
-128.7383951501071
 10
78.80845402760691
 20
-128.7383951501071
 10
78.80845402760691
 20
-128.7383951501071
 10
78.79364011702035
 20
-128.3833780603521
 10
78.63068710056803
 20
-128.3337686853645
 10
78.516482185232
 20
-128.3020738069002
 10
78.516482185232
 20
-128.3020738069002
 10
78.516482185232
 20
-128.1460109814184
 10
78.516482185232
 20
-128.1460109814184
 10
78.516482185232
 20
-128.1460109814184
 10
80.06074623649523
 20
-128.1460109814184
 10
80.06074623649523
 20
-128.1460109814184
 10
80.06074623649523
 20
-128.1460109814184
 10
80.06074623649523
 20
-128.3856173724175
 10
80.06074623649523
 20
-128.3856173724175
 97
        0
 97
        0
 75
     2
 76
     1
 98
        0
  0
SPLINE
  5
94
330
8E
100
AcDbEntity
  8
_U+30EC_U+30A4_U+30E4_U+30FC 1
370
     0
100
AcDbSpline
210
0.0
220
0.0
230
1.0
 70
    11
 71
     3
 72
    62
 73
    58
 74
     0
 42
0.0000000001
 43
0.0000000001
 12
1.0
 22
0.0
 32
0.0
 13
1.0
 23
0.0
 33
0.0
 40
0.0
 40
0.0
 40
0.0
 40
0.0
 40
1.0
 40
1.0
 40
1.0
 40
2.0
 40
2.0
 40
2.0
 40
3.0
 40
3.0
 40
3.0
 40
4.0
 40
4.0
 40
4.0
 40
5.0
 40
5.0
 40
5.0
 40
6.0
 40
6.0
 40
6.0
 40
7.0
 40
7.0
 40
7.0
 40
8.0
 40
8.0
 40
8.0
 40
9.0
 40
9.0
 40
9.0
 40
10.0
 40
10.0
 40
10.0
 40
11.0
 40
11.0
 40
11.0
 40
12.0
 40
12.0
 40
12.0
 40
13.0
 40
13.0
 40
13.0
 40
14.0
 40
14.0
 40
14.0
 40
15.0
 40
15.0
 40
15.0
 40
16.0
 40
16.0
 40
16.0
 40
17.0
 40
17.0
 40
17.0
 40
18.0
 40
18.0
 40
18.0
 40
19.0
 40
19.0
 40
19.0
 40
19.0
 10
80.11156139490267
 20
-127.0849215719614
 30
0.0
 10
80.11156139490267
 20
-127.1867241435505
 30
0.0
 10
80.09037405766838
 20
-127.4196125983534
 30
0.0
 10
79.90416664669063
 20
-127.5529377936326
 30
0.0
 10
79.79202878864575
 20
-127.6321749897934
 30
0.0
 10
79.69263778389629
 20
-127.6366536139242
 30
0.0
 10
79.6080606897334
 20
-127.641132238055
 30
0.0
 10
79.6080606897334
 20
-127.641132238055
 30
0.0
 10
79.6080606897334
 20
-127.4060044711867
 30
0.0
 10
79.6080606897334
 20
-127.4060044711867
 30
0.0
 10
79.68213024266628
 20
-127.4037651591213
 30
0.0
 10
79.91691349998605
 20
-127.39239634402
 30
0.0
 10
79.91691349998605
 20
-127.0895724508665
 30
0.0
 10
79.91691349998605
 20
-126.9424668736463
 30
0.0
 10
79.84715031640974
 20
-126.7796861119683
 30
0.0
 10
79.61856823096342
 20
-126.7796861119683
 30
0.0
 10
79.50229625833623
 20
-126.7796861119683
 30
0.0
 10
79.45354815721996
 20
-126.8205104934685
 30
0.0
 10
79.42185327875565
 20
-126.8544446839982
 30
0.0
 10
79.34778372582278
 20
-126.9335096253847
 30
0.0
 10
79.33520912730162
 20
-127.0578775724022
 30
0.0
 10
79.33520912730162
 20
-127.1166164504257
 30
0.0
 10
79.33520912730162
 20
-127.1369425137887
 30
0.0
 10
79.33727618459277
 20
-127.1753553284492
 30
0.0
 10
79.34158255394934
 20
-127.2048108948481
 30
0.0
 10
79.34158255394934
 20
-127.2048108948481
 30
0.0
 10
79.14693465903271
 20
-127.2048108948481
 30
0.0
 10
79.14693465903271
 20
-127.2048108948481
 30
0.0
 10
79.15330808568042
 20
-127.1641587681222
 30
0.0
 10
79.15537514297158
 20
-127.1188557624911
 30
0.0
 10
79.15537514297158
 20
-127.1121378262949
 30
0.0
 10
79.15537514297158
 20
-127.0420301331701
 30
0.0
 10
79.13418780573728
 20
-126.8294677417301
 30
0.0
 10
78.8971652363521
 20
-126.8294677417301
 30
0.0
 10
78.71957056408748
 20
-126.8294677417301
 30
0.0
 10
78.66462129109773
 20
-126.9696831279798
 30
0.0
 10
78.66462129109773
 20
-127.0871608840268
 30
0.0
 10
78.66462129109773
 20
-127.3698309685916
 30
0.0
 10
78.8971652363521
 20
-127.3789604716275
 30
0.0
 10
78.96916773199382
 20
-127.3834390957583
 30
0.0
 10
78.96916773199382
 20
-127.3834390957583
 30
0.0
 10
78.96916773199382
 20
-127.600480111329
 30
0.0
 10
78.96916773199382
 20
-127.600480111329
 30
0.0
 10
78.84428302065352
 20
-127.5913506082931
 30
0.0
 10
78.4677340841157
 20
-127.5620672966685
 30
0.0
 10
78.4677340841157
 20
-127.0737250116344
 30
0.0
 10
78.4677340841157
 20
-126.833946365861
 30
0.0
 10
78.59468585274716
 20
-126.5762532235643
 30
0.0
 10
78.89096406447865
 20
-126.5762532235643
 30
0.0
 10
79.07699922068214
 20
-126.5762532235643
 30
0.0
 10
79.15950925755388
 20
-126.6780557951534
 30
0.0
 10
79.22100421196559
 20
-126.7843369908734
 30
0.0
 10
79.24839272107332
 20
-126.7187079218794
 30
0.0
 10
79.32883570065391
 20
-126.524232281737
 30
0.0
 10
79.60599363244225
 20
-126.524232281737
 30
0.0
 10
79.94447426386805
 20
-126.524232281737
 30
0.0
 10
80.11156139490267
 20
-126.7888156150042
 30
0.0
 10
80.11156139490267
 20
-127.0849215719614
 30
0.0
  0
HATCH
  5
95
330
8E
100
AcDbEntity
  8
_U+30EC_U+30A4_U+30E4_U+30FC 1
 62
   179
420
  2234388
100
AcDbHatch
 10
0.0
 20
0.0
 30
0.0
210
0.0
220
0.0
230
1.0
  2
SOLID
 70
     1
 71
     0
 91
        1
 92
        1
 93
        1
 72
     4
 94
        3
 73
     0
 74
     1
 95
       62
 96
       58
 40
0.0
 40
0.0
 40
0.0
 40
0.0
 40
1.0
 40
1.0
 40
1.0
 40
2.0
 40
2.0
 40
2.0
 40
3.0
 40
3.0
 40
3.0
 40
4.0
 40
4.0
 40
4.0
 40
5.0
 40
5.0
 40
5.0
 40
6.0
 40
6.0
 40
6.0
 40
7.0
 40
7.0
 40
7.0
 40
8.0
 40
8.0
 40
8.0
 40
9.0
 40
9.0
 40
9.0
 40
10.0
 40
10.0
 40
10.0
 40
11.0
 40
11.0
 40
11.0
 40
12.0
 40
12.0
 40
12.0
 40
13.0
 40
13.0
 40
13.0
 40
14.0
 40
14.0
 40
14.0
 40
15.0
 40
15.0
 40
15.0
 40
16.0
 40
16.0
 40
16.0
 40
17.0
 40
17.0
 40
17.0
 40
18.0
 40
18.0
 40
18.0
 40
19.0
 40
19.0
 40
19.0
 40
19.0
 10
80.11156139490267
 20
-127.0849215719614
 10
80.11156139490267
 20
-127.1867241435505
 10
80.09037405766838
 20
-127.4196125983534
 10
79.90416664669063
 20
-127.5529377936326
 10
79.79202878864575
 20
-127.6321749897934
 10
79.69263778389629
 20
-127.6366536139242
 10
79.6080606897334
 20
-127.641132238055
 10
79.6080606897334
 20
-127.641132238055
 10
79.6080606897334
 20
-127.4060044711867
 10
79.6080606897334
 20
-127.4060044711867
 10
79.68213024266628
 20
-127.4037651591213
 10
79.91691349998605
 20
-127.39239634402
 10
79.91691349998605
 20
-127.0895724508665
 10
79.91691349998605
 20
-126.9424668736463
 10
79.84715031640974
 20
-126.7796861119683
 10
79.61856823096342
 20
-126.7796861119683
 10
79.50229625833623
 20
-126.7796861119683
 10
79.45354815721996
 20
-126.8205104934685
 10
79.42185327875565
 20
-126.8544446839982
 10
79.34778372582278
 20
-126.9335096253847
 10
79.33520912730162
 20
-127.0578775724022
 10
79.33520912730162
 20
-127.1166164504257
 10
79.33520912730162
 20
-127.1369425137887
 10
79.33727618459277
 20
-127.1753553284492
 10
79.34158255394934
 20
-127.2048108948481
 10
79.34158255394934
 20
-127.2048108948481
 10
79.14693465903271
 20
-127.2048108948481
 10
79.14693465903271
 20
-127.2048108948481
 10
79.15330808568042
 20
-127.1641587681222
 10
79.15537514297158
 20
-127.1188557624911
 10
79.15537514297158
 20
-127.1121378262949
 10
79.15537514297158
 20
-127.0420301331701
 10
79.13418780573728
 20
-126.8294677417301
 10
78.8971652363521
 20
-126.8294677417301
 10
78.71957056408748
 20
-126.8294677417301
 10
78.66462129109773
 20
-126.9696831279798
 10
78.66462129109773
 20
-127.0871608840268
 10
78.66462129109773
 20
-127.3698309685916
 10
78.8971652363521
 20
-127.3789604716275
 10
78.96916773199382
 20
-127.3834390957583
 10
78.96916773199382
 20
-127.3834390957583
 10
78.96916773199382
 20
-127.600480111329
 10
78.96916773199382
 20
-127.600480111329
 10
78.84428302065352
 20
-127.5913506082931
 10
78.4677340841157
 20
-127.5620672966685
 10
78.4677340841157
 20
-127.0737250116344
 10
78.4677340841157
 20
-126.833946365861
 10
78.59468585274716
 20
-126.5762532235643
 10
78.89096406447865
 20
-126.5762532235643
 10
79.07699922068214
 20
-126.5762532235643
 10
79.15950925755388
 20
-126.6780557951534
 10
79.22100421196559
 20
-126.7843369908734
 10
79.24839272107332
 20
-126.7187079218794
 10
79.32883570065391
 20
-126.524232281737
 10
79.60599363244225
 20
-126.524232281737
 10
79.94447426386805
 20
-126.524232281737
 10
80.11156139490267
 20
-126.7888156150042
 10
80.11156139490267
 20
-127.0849215719614
 97
        0
 97
        0
 75
     2
 76
     1
 98
        0
  0
ENDBLK
  5
91
330
8E
100
AcDbEntity
  8
0
100
AcDbBlockEnd
  0
BLOCK
  5
A7
330
A5
100
AcDbEntity
  8
0
100
AcDbBlockBegin
  2
block 4
 70
     0
 10
0.0
 20
0.0
 30
0.0
  3
block 4
  1

  0
SPLINE
  5
A9
330
A5
100
AcDbEntity
  8
_U+30EC_U+30A4_U+30E4_U+30FC 1
370
     0
100
AcDbSpline
210
0.0
220
0.0
230
1.0
 70
    11
 71
     3
 72
    32
 73
    28
 74
     0
 42
0.0000000001
 43
0.0000000001
 12
1.0
 22
0.0
 32
0.0
 13
1.0
 23
0.0
 33
0.0
 40
0.0
 40
0.0
 40
0.0
 40
0.0
 40
1.0
 40
1.0
 40
1.0
 40
2.0
 40
2.0
 40
2.0
 40
3.0
 40
3.0
 40
3.0
 40
4.0
 40
4.0
 40
4.0
 40
5.0
 40
5.0
 40
5.0
 40
6.0
 40
6.0
 40
6.0
 40
7.0
 40
7.0
 40
7.0
 40
8.0
 40
8.0
 40
8.0
 40
9.0
 40
9.0
 40
9.0
 40
9.0
 10
102.9318738891976
 20
-130.8715982745738
 30
0.0
 10
102.9318738891976
 20
-131.4235025713108
 30
0.0
 10
102.413042509119
 20
-131.4324598195724
 30
0.0
 10
102.2132269709745
 20
-131.4324598195724
 30
0.0
 10
101.9968749745008
 20
-131.4324598195724
 30
0.0
 10
101.3908826786453
 20
-131.4121337562095
 30
0.0
 10
101.3908826786453
 20
-130.8309461478478
 30
0.0
 10
101.3908826786453
 20
-130.6456000107414
 30
0.0
 10
101.4559949833166
 20
-130.3834282443139
 30
0.0
 10
101.7674316151831
 20
-130.3427761175879
 30
0.0
 10
101.7674316151831
 20
-130.3427761175879
 30
0.0
 10
101.7674316151831
 20
-130.57118594826
 30
0.0
 10
101.7674316151831
 20
-130.57118594826
 30
0.0
 10
101.7136881256132
 20
-130.5822102538128
 30
0.0
 10
101.5751952871062
 20
-130.6163166991168
 30
0.0
 10
101.5751952871062
 20
-130.8333577146875
 30
0.0
 10
101.5751952871062
 20
-131.1451388561026
 30
0.0
 10
101.882153294842
 20
-131.1882025496682
 30
0.0
 10
102.0740451133704
 20
-131.2016384220607
 30
0.0
 10
102.0010090890831
 20
-131.1024196720855
 30
0.0
 10
101.9455430517706
 20
-131.0300726668953
 30
0.0
 10
101.9455430517706
 20
-130.8357692815272
 30
0.0
 10
101.9455430517706
 20
-130.6435329534502
 30
0.0
 10
102.0464843494884
 20
-130.3200384873853
 30
0.0
 10
102.42682289106
 20
-130.3200384873853
 30
0.0
 10
102.7258571791797
 20
-130.3200384873853
 30
0.0
 10
102.9318738891976
 20
-130.5326008788252
 30
0.0
 10
102.9318738891976
 20
-130.8715982745738
 30
0.0
  0
SPLINE
  5
AA
330
A5
100
AcDbEntity
  8
_U+30EC_U+30A4_U+30E4_U+30FC 1
370
     0
100
AcDbSpline
210
0.0
220
0.0
230
1.0
 70
    11
 71
     3
 72
    17
 73
    13
 74
     0
 42
0.0000000001
 43
0.0000000001
 12
1.0
 22
0.0
 32
0.0
 13
1.0
 23
0.0
 33
0.0
 40
0.0
 40
0.0
 40
0.0
 40
0.0
 40
1.0
 40
1.0
 40
1.0
 40
2.0
 40
2.0
 40
2.0
 40
3.0
 40
3.0
 40
3.0
 40
4.0
 40
4.0
 40
4.0
 40
4.0
 10
102.1277886029403
 20
-130.8536837780505
 30
0.0
 10
102.1277886029403
 20
-131.1341145505498
 30
0.0
 10
102.3258815933421
 20
-131.1747666772758
 30
0.0
 10
102.4350911202246
 20
-131.1747666772758
 30
0.0
 10
102.5990776653225
 20
-131.1747666772758
 30
0.0
 10
102.7520399048675
 20
-131.0727918509124
 30
0.0
 10
102.7520399048675
 20
-130.8764214082531
 30
0.0
 10
102.7520399048675
 20
-130.7475748371048
 30
0.0
 10
102.6962293580065
 20
-130.5598171331587
 30
0.0
 10
102.4288899483511
 20
-130.5598171331587
 30
0.0
 10
102.2187391237509
 20
-130.5598171331587
 30
0.0
 10
102.1277886029403
 20
-130.70898976767
 30
0.0
 10
102.1277886029403
 20
-130.8536837780505
 30
0.0
  0
HATCH
  5
AB
330
A5
100
AcDbEntity
  8
_U+30EC_U+30A4_U+30E4_U+30FC 1
 62
   179
420
  2234388
100
AcDbHatch
 10
0.0
 20
0.0
 30
0.0
210
0.0
220
0.0
230
1.0
  2
SOLID
 70
     1
 71
     0
 91
        2
 92
        1
 93
        1
 72
     4
 94
        3
 73
     0
 74
     1
 95
       32
 96
       28
 40
0.0
 40
0.0
 40
0.0
 40
0.0
 40
1.0
 40
1.0
 40
1.0
 40
2.0
 40
2.0
 40
2.0
 40
3.0
 40
3.0
 40
3.0
 40
4.0
 40
4.0
 40
4.0
 40
5.0
 40
5.0
 40
5.0
 40
6.0
 40
6.0
 40
6.0
 40
7.0
 40
7.0
 40
7.0
 40
8.0
 40
8.0
 40
8.0
 40
9.0
 40
9.0
 40
9.0
 40
9.0
 10
102.9318738891976
 20
-130.8715982745738
 10
102.9318738891976
 20
-131.4235025713108
 10
102.413042509119
 20
-131.4324598195724
 10
102.2132269709745
 20
-131.4324598195724
 10
101.9968749745008
 20
-131.4324598195724
 10
101.3908826786453
 20
-131.4121337562095
 10
101.3908826786453
 20
-130.8309461478478
 10
101.3908826786453
 20
-130.6456000107414
 10
101.4559949833166
 20
-130.3834282443139
 10
101.7674316151831
 20
-130.3427761175879
 10
101.7674316151831
 20
-130.3427761175879
 10
101.7674316151831
 20
-130.57118594826
 10
101.7674316151831
 20
-130.57118594826
 10
101.7136881256132
 20
-130.5822102538128
 10
101.5751952871062
 20
-130.6163166991168
 10
101.5751952871062
 20
-130.8333577146875
 10
101.5751952871062
 20
-131.1451388561026
 10
101.882153294842
 20
-131.1882025496682
 10
102.0740451133704
 20
-131.2016384220607
 10
102.0010090890831
 20
-131.1024196720855
 10
101.9455430517706
 20
-131.0300726668953
 10
101.9455430517706
 20
-130.8357692815272
 10
101.9455430517706
 20
-130.6435329534502
 10
102.0464843494884
 20
-130.3200384873853
 10
102.42682289106
 20
-130.3200384873853
 10
102.7258571791797
 20
-130.3200384873853
 10
102.9318738891976
 20
-130.5326008788252
 10
102.9318738891976
 20
-130.8715982745738
 97
        0
 97
        0
 92
        1
 93
        1
 72
     4
 94
        3
 73
     0
 74
     1
 95
       17
 96
       13
 40
0.0
 40
0.0
 40
0.0
 40
0.0
 40
1.0
 40
1.0
 40
1.0
 40
2.0
 40
2.0
 40
2.0
 40
3.0
 40
3.0
 40
3.0
 40
4.0
 40
4.0
 40
4.0
 40
4.0
 10
102.1277886029403
 20
-130.8536837780505
 10
102.1277886029403
 20
-131.1341145505498
 10
102.3258815933421
 20
-131.1747666772758
 10
102.4350911202246
 20
-131.1747666772758
 10
102.5990776653225
 20
-131.1747666772758
 10
102.7520399048675
 20
-131.0727918509124
 10
102.7520399048675
 20
-130.8764214082531
 10
102.7520399048675
 20
-130.7475748371048
 10
102.6962293580065
 20
-130.5598171331587
 10
102.4288899483511
 20
-130.5598171331587
 10
102.2187391237509
 20
-130.5598171331587
 10
102.1277886029403
 20
-130.70898976767
 10
102.1277886029403
 20
-130.8536837780505
 97
        0
 97
        0
 75
     2
 76
     1
 98
        0
  0
POLYLINE
  5
AC
330
A5
100
AcDbEntity
  8
_U+30EC_U+30A4_U+30E4_U+30FC 1
370
     0
100
AcDb2dPolyline
 66
     1
 10
0.0
 20
0.0
 30
0.0
  0
VERTEX
  5
AD
330
AC
100
AcDbEntity
  8
_U+30EC_U+30A4_U+30E4_U+30FC 1
370
     0
100
AcDbVertex
100
AcDb2dVertex
 10
102.8843315715011
 20
-130.088872580325
 30
0.0
  0
VERTEX
  5
AE
330
AC
100
AcDbEntity
  8
_U+30EC_U+30A4_U+30E4_U+30FC 1
370
     0
100
AcDbVertex
100
AcDb2dVertex
 10
102.6486870403101
 20
-130.088872580325
 30
0.0
  0
VERTEX
  5
AF
330
AC
100
AcDbEntity
  8
_U+30EC_U+30A4_U+30E4_U+30FC 1
370
     0
100
AcDbVertex
100
AcDb2dVertex
 10
102.6486870403101
 20
-129.8194661133785
 30
0.0
  0
VERTEX
  5
B0
330
AC
100
AcDbEntity
  8
_U+30EC_U+30A4_U+30E4_U+30FC 1
370
     0
100
AcDbVertex
100
AcDb2dVertex
 10
102.8843315715011
 20
-129.8194661133785
 30
0.0
  0
VERTEX
  5
B1
330
AC
100
AcDbEntity
  8
_U+30EC_U+30A4_U+30E4_U+30FC 1
370
     0
100
AcDbVertex
100
AcDb2dVertex
 10
102.8843315715011
 20
-130.088872580325
 30
0.0
  0
SEQEND
  5
B2
330
AC
100
AcDbEntity
  8
_U+30EC_U+30A4_U+30E4_U+30FC 1
370
     0
  0
HATCH
  5
B3
330
A5
100
AcDbEntity
  8
_U+30EC_U+30A4_U+30E4_U+30FC 1
 62
   179
420
  2234388
100
AcDbHatch
 10
0.0
 20
0.0
 30
0.0
210
0.0
220
0.0
230
1.0
  2
SOLID
 70
     1
 71
     0
 91
        1
 92
        1
 93
        4
 72
     1
 10
102.8843315715011
 20
-130.088872580325
 11
102.6486870403101
 21
-130.088872580325
 72
     1
 10
102.6486870403101
 20
-130.088872580325
 11
102.6486870403101
 21
-129.8194661133785
 72
     1
 10
102.6486870403101
 20
-129.8194661133785
 11
102.8843315715011
 21
-129.8194661133785
 72
     1
 10
102.8843315715011
 20
-129.8194661133785
 11
102.8843315715011
 21
-130.088872580325
 97
        0
 75
     2
 76
     1
 98
        0
  0
SPLINE
  5
B4
330
A5
100
AcDbEntity
  8
_U+30EC_U+30A4_U+30E4_U+30FC 1
370
     0
100
AcDbSpline
210
0.0
220
0.0
230
1.0
 70
    11
 71
     3
 72
    53
 73
    49
 74
     0
 42
0.0000000001
 43
0.0000000001
 12
1.0
 22
0.0
 32
0.0
 13
1.0
 23
0.0
 33
0.0
 40
0.0
 40
0.0
 40
0.0
 40
0.0
 40
1.0
 40
1.0
 40
1.0
 40
2.0
 40
2.0
 40
2.0
 40
3.0
 40
3.0
 40
3.0
 40
4.0
 40
4.0
 40
4.0
 40
5.0
 40
5.0
 40
5.0
 40
6.0
 40
6.0
 40
6.0
 40
7.0
 40
7.0
 40
7.0
 40
8.0
 40
8.0
 40
8.0
 40
9.0
 40
9.0
 40
9.0
 40
10.0
 40
10.0
 40
10.0
 40
11.0
 40
11.0
 40
11.0
 40
12.0
 40
12.0
 40
12.0
 40
13.0
 40
13.0
 40
13.0
 40
14.0
 40
14.0
 40
14.0
 40
15.0
 40
15.0
 40
15.0
 40
16.0
 40
16.0
 40
16.0
 40
16.0
 10
102.9318738891976
 20
-129.0529323679104
 30
0.0
 10
102.9318738891976
 20
-129.1366481882019
 30
0.0
 10
102.9160264499654
 20
-129.2451686959873
 30
0.0
 10
102.8567708076191
 20
-129.3536892037727
 30
0.0
 10
102.7537624526102
 20
-129.5390353408791
 30
0.0
 10
102.6307725437868
 20
-129.5617729710818
 30
0.0
 10
102.5301757556175
 20
-129.5820990344448
 30
0.0
 10
102.5301757556175
 20
-129.5820990344448
 30
0.0
 10
102.5301757556175
 20
-129.344731955511
 30
0.0
 10
102.5301757556175
 20
-129.344731955511
 30
0.0
 10
102.716210911821
 20
-129.2858208227133
 30
0.0
 10
102.7437716757029
 20
-129.150428570143
 30
0.0
 10
102.7437716757029
 20
-129.0505208010707
 30
0.0
 10
102.7437716757029
 20
-128.9016926761079
 30
0.0
 10
102.6507540976012
 20
-128.7387396596556
 30
0.0
 10
102.4330240629334
 20
-128.7387396596556
 30
0.0
 10
102.19324541716
 20
-128.7387396596556
 30
0.0
 10
102.1277886029403
 20
-128.9309759877326
 30
0.0
 10
102.1277886029403
 20
-129.0598225588809
 30
0.0
 10
102.1277886029403
 20
-129.0939290041848
 30
0.0
 10
102.1277886029403
 20
-129.2451686959873
 30
0.0
 10
102.248366944924
 20
-129.3399088218317
 30
0.0
 10
102.248366944924
 20
-129.3399088218317
 30
0.0
 10
102.2307969579493
 20
-129.5280110353263
 30
0.0
 10
102.2307969579493
 20
-129.5280110353263
 30
0.0
 10
102.2307969579493
 20
-129.5280110353263
 30
0.0
 10
101.4384249963418
 20
-129.3988199546295
 30
0.0
 10
101.4384249963418
 20
-129.3988199546295
 30
0.0
 10
101.4384249963418
 20
-129.3988199546295
 30
0.0
 10
101.4384249963418
 20
-128.5668293949416
 30
0.0
 10
101.4384249963418
 20
-128.5668293949416
 30
0.0
 10
101.4384249963418
 20
-128.5668293949416
 30
0.0
 10
101.6206705475115
 20
-128.5668293949416
 30
0.0
 10
101.6206705475115
 20
-128.5668293949416
 30
0.0
 10
101.6206705475115
 20
-128.5668293949416
 30
0.0
 10
101.6206705475115
 20
-129.2248426326244
 30
0.0
 10
101.6206705475115
 20
-129.2248426326244
 30
0.0
 10
101.6206705475115
 20
-129.2248426326244
 30
0.0
 10
102.0168565283152
 20
-129.2951225805234
 30
0.0
 10
102.0168565283152
 20
-129.2951225805234
 30
0.0
 10
101.9851616498509
 20
-129.2293212567552
 30
0.0
 10
101.9472655995132
 20
-129.1411268123328
 30
0.0
 10
101.9472655995132
 20
-129.0146918080241
 30
0.0
 10
101.9472655995132
 20
-128.7432182837864
 30
0.0
 10
102.1215874310668
 20
-128.4900037656206
 30
0.0
 10
102.4151095664101
 20
-128.4900037656206
 30
0.0
 10
102.7120767972387
 20
-128.4900037656206
 30
0.0
 10
102.9318738891976
 20
-128.729782411394
 30
0.0
 10
102.9318738891976
 20
-129.0529323679104
 30
0.0
  0
HATCH
  5
B5
330
A5
100
AcDbEntity
  8
_U+30EC_U+30A4_U+30E4_U+30FC 1
 62
   179
420
  2234388
100
AcDbHatch
 10
0.0
 20
0.0
 30
0.0
210
0.0
220
0.0
230
1.0
  2
SOLID
 70
     1
 71
     0
 91
        1
 92
        1
 93
        1
 72
     4
 94
        3
 73
     0
 74
     1
 95
       53
 96
       49
 40
0.0
 40
0.0
 40
0.0
 40
0.0
 40
1.0
 40
1.0
 40
1.0
 40
2.0
 40
2.0
 40
2.0
 40
3.0
 40
3.0
 40
3.0
 40
4.0
 40
4.0
 40
4.0
 40
5.0
 40
5.0
 40
5.0
 40
6.0
 40
6.0
 40
6.0
 40
7.0
 40
7.0
 40
7.0
 40
8.0
 40
8.0
 40
8.0
 40
9.0
 40
9.0
 40
9.0
 40
10.0
 40
10.0
 40
10.0
 40
11.0
 40
11.0
 40
11.0
 40
12.0
 40
12.0
 40
12.0
 40
13.0
 40
13.0
 40
13.0
 40
14.0
 40
14.0
 40
14.0
 40
15.0
 40
15.0
 40
15.0
 40
16.0
 40
16.0
 40
16.0
 40
16.0
 10
102.9318738891976
 20
-129.0529323679104
 10
102.9318738891976
 20
-129.1366481882019
 10
102.9160264499654
 20
-129.2451686959873
 10
102.8567708076191
 20
-129.3536892037727
 10
102.7537624526102
 20
-129.5390353408791
 10
102.6307725437868
 20
-129.5617729710818
 10
102.5301757556175
 20
-129.5820990344448
 10
102.5301757556175
 20
-129.5820990344448
 10
102.5301757556175
 20
-129.344731955511
 10
102.5301757556175
 20
-129.344731955511
 10
102.716210911821
 20
-129.2858208227133
 10
102.7437716757029
 20
-129.150428570143
 10
102.7437716757029
 20
-129.0505208010707
 10
102.7437716757029
 20
-128.9016926761079
 10
102.6507540976012
 20
-128.7387396596556
 10
102.4330240629334
 20
-128.7387396596556
 10
102.19324541716
 20
-128.7387396596556
 10
102.1277886029403
 20
-128.9309759877326
 10
102.1277886029403
 20
-129.0598225588809
 10
102.1277886029403
 20
-129.0939290041848
 10
102.1277886029403
 20
-129.2451686959873
 10
102.248366944924
 20
-129.3399088218317
 10
102.248366944924
 20
-129.3399088218317
 10
102.2307969579493
 20
-129.5280110353263
 10
102.2307969579493
 20
-129.5280110353263
 10
102.2307969579493
 20
-129.5280110353263
 10
101.4384249963418
 20
-129.3988199546295
 10
101.4384249963418
 20
-129.3988199546295
 10
101.4384249963418
 20
-129.3988199546295
 10
101.4384249963418
 20
-128.5668293949416
 10
101.4384249963418
 20
-128.5668293949416
 10
101.4384249963418
 20
-128.5668293949416
 10
101.6206705475115
 20
-128.5668293949416
 10
101.6206705475115
 20
-128.5668293949416
 10
101.6206705475115
 20
-128.5668293949416
 10
101.6206705475115
 20
-129.2248426326244
 10
101.6206705475115
 20
-129.2248426326244
 10
101.6206705475115
 20
-129.2248426326244
 10
102.0168565283152
 20
-129.2951225805234
 10
102.0168565283152
 20
-129.2951225805234
 10
101.9851616498509
 20
-129.2293212567552
 10
101.9472655995132
 20
-129.1411268123328
 10
101.9472655995132
 20
-129.0146918080241
 10
101.9472655995132
 20
-128.7432182837864
 10
102.1215874310668
 20
-128.4900037656206
 10
102.4151095664101
 20
-128.4900037656206
 10
102.7120767972387
 20
-128.4900037656206
 10
102.9318738891976
 20
-128.729782411394
 10
102.9318738891976
 20
-129.0529323679104
 97
        0
 97
        0
 75
     2
 76
     1
 98
        0
  0
ENDBLK
  5
A8
330
A5
100
AcDbEntity
  8
0
100
AcDbBlockEnd
  0
BLOCK
  5
C7
330
C5
100
AcDbEntity
  8
0
100
AcDbBlockBegin
  2
block 5
 70
     0
 10
0.0
 20
0.0
 30
0.0
  3
block 5
  1

  0
SPLINE
  5
C9
330
C5
100
AcDbEntity
  8
_U+30EC_U+30A4_U+30E4_U+30FC 1
370
     0
100
AcDbSpline
210
0.0
220
0.0
230
1.0
 70
    11
 71
     3
 72
    29
 73
    25
 74
     0
 42
0.0000000001
 43
0.0000000001
 12
1.0
 22
0.0
 32
0.0
 13
1.0
 23
0.0
 33
0.0
 40
0.0
 40
0.0
 40
0.0
 40
0.0
 40
1.0
 40
1.0
 40
1.0
 40
2.0
 40
2.0
 40
2.0
 40
3.0
 40
3.0
 40
3.0
 40
4.0
 40
4.0
 40
4.0
 40
5.0
 40
5.0
 40
5.0
 40
6.0
 40
6.0
 40
6.0
 40
7.0
 40
7.0
 40
7.0
 40
8.0
 40
8.0
 40
8.0
 40
8.0
 10
90.3383273428668
 20
-120.8065795596421
 30
0.0
 10
90.11990828910197
 20
-120.6241617536981
 30
0.0
 10
90.00001896621528
 20
-120.3444200002958
 30
0.0
 10
90.22395017275652
 20
-120.0765638263177
 30
0.0
 10
90.38828122740293
 20
-119.8801933836584
 30
0.0
 10
90.56535913534478
 20
-119.9044813068294
 30
0.0
 10
90.69144963010491
 20
-119.9299750134203
 30
0.0
 10
90.62737085407927
 20
-119.7990613849808
 30
0.0
 10
90.63805065008354
 20
-119.6590182535054
 30
0.0
 10
90.74105900509252
 20
-119.5356838351334
 30
0.0
 10
90.91744789393731
 20
-119.3246717366619
 30
0.0
 10
91.16721731661792
 20
-119.3572278889975
 30
0.0
 10
91.39287107090179
 20
-119.5456746120407
 30
0.0
 10
91.62541501615615
 20
-119.7403225069573
 30
0.0
 10
91.68880477308474
 20
-119.9811346813762
 30
0.0
 10
91.51792803701636
 20
-120.1856010984258
 30
0.0
 10
91.41491968200738
 20
-120.3089355167978
 30
0.0
 10
91.27780488169444
 20
-120.3430419621018
 30
0.0
 10
91.13690047634772
 20
-120.3025620901501
 30
0.0
 10
91.17755260307368
 20
-120.4024698592223
 30
0.0
 10
91.24645451277867
 20
-120.5843709008435
 30
0.0
 10
91.07798934354994
 20
-120.7857367319563
 30
0.0
 10
90.83786618822803
 20
-121.0728854406519
 30
0.0
 10
90.53435327597752
 20
-120.9707383595143
 30
0.0
 10
90.3383273428668
 20
-120.8065795596421
 30
0.0
  0
SPLINE
  5
CA
330
C5
100
AcDbEntity
  8
_U+30EC_U+30A4_U+30E4_U+30FC 1
370
     0
100
AcDbSpline
210
0.0
220
0.0
230
1.0
 70
    11
 71
     3
 72
    17
 73
    13
 74
     0
 42
0.0000000001
 43
0.0000000001
 12
1.0
 22
0.0
 32
0.0
 13
1.0
 23
0.0
 33
0.0
 40
0.0
 40
0.0
 40
0.0
 40
0.0
 40
1.0
 40
1.0
 40
1.0
 40
2.0
 40
2.0
 40
2.0
 40
3.0
 40
3.0
 40
3.0
 40
4.0
 40
4.0
 40
4.0
 40
4.0
 10
90.84613441739263
 20
-120.1997259899154
 30
0.0
 10
90.7283121517971
 20
-120.1011962590372
 30
0.0
 10
90.54778914837
 20
-120.0633002086995
 30
0.0
 10
90.41756453902755
 20
-120.2190185246327
 30
0.0
 10
90.28596189149101
 20
-120.3764593883087
 30
0.0
 10
90.32454696092582
 20
-120.5413072072779
 30
0.0
 10
90.46338430898138
 20
-120.6572346703565
 30
0.0
 10
90.61600203897795
 20
-120.7850477128593
 30
0.0
 10
90.78481171775519
 20
-120.766444197239
 30
0.0
 10
90.89884437831697
 20
-120.6301906707973
 30
0.0
 10
91.0414713314063
 20
-120.4596584442775
 30
0.0
 10
90.95534394427506
 20
-120.291365529823
 30
0.0
 10
90.84613441739263
 20
-120.1997259899154
 30
0.0
  0
SPLINE
  5
CB
330
C5
100
AcDbEntity
  8
_U+30EC_U+30A4_U+30E4_U+30FC 1
370
     0
100
AcDbSpline
210
0.0
220
0.0
230
1.0
 70
    11
 71
     3
 72
    17
 73
    13
 74
     0
 42
0.0000000001
 43
0.0000000001
 12
1.0
 22
0.0
 32
0.0
 13
1.0
 23
0.0
 33
0.0
 40
0.0
 40
0.0
 40
0.0
 40
0.0
 40
1.0
 40
1.0
 40
1.0
 40
2.0
 40
2.0
 40
2.0
 40
3.0
 40
3.0
 40
3.0
 40
4.0
 40
4.0
 40
4.0
 40
4.0
 10
91.26953665252984
 20
-119.6934692083579
 30
0.0
 10
91.13414439995952
 20
-119.5802978216674
 30
0.0
 10
91.00357528106855
 20
-119.5954562418025
 30
0.0
 10
90.91675887484026
 20
-119.6991536159086
 30
0.0
 10
90.83821069777656
 20
-119.7933769774301
 30
0.0
 10
90.82098522035031
 20
-119.9334201089055
 30
0.0
 10
90.96671275937638
 20
-120.0552042343091
 30
0.0
 10
91.11244029840245
 20
-120.1773328692612
 30
0.0
 10
91.24748804142425
 20
-120.135819468664
 30
0.0
 10
91.32603621848794
 20
-120.0415961071424
 30
0.0
 10
91.41285262471624
 20
-119.9378987330364
 30
0.0
 10
91.40320635735753
 20
-119.8054348116285
 30
0.0
 10
91.26953665252984
 20
-119.6934692083579
 30
0.0
  0
HATCH
  5
CC
330
C5
100
AcDbEntity
  8
_U+30EC_U+30A4_U+30E4_U+30FC 1
 62
   179
420
  2234388
100
AcDbHatch
 10
0.0
 20
0.0
 30
0.0
210
0.0
220
0.0
230
1.0
  2
SOLID
 70
     1
 71
     0
 91
        3
 92
        1
 93
        1
 72
     4
 94
        3
 73
     0
 74
     1
 95
       29
 96
       25
 40
0.0
 40
0.0
 40
0.0
 40
0.0
 40
1.0
 40
1.0
 40
1.0
 40
2.0
 40
2.0
 40
2.0
 40
3.0
 40
3.0
 40
3.0
 40
4.0
 40
4.0
 40
4.0
 40
5.0
 40
5.0
 40
5.0
 40
6.0
 40
6.0
 40
6.0
 40
7.0
 40
7.0
 40
7.0
 40
8.0
 40
8.0
 40
8.0
 40
8.0
 10
90.3383273428668
 20
-120.8065795596421
 10
90.11990828910197
 20
-120.6241617536981
 10
90.00001896621528
 20
-120.3444200002958
 10
90.22395017275652
 20
-120.0765638263177
 10
90.38828122740293
 20
-119.8801933836584
 10
90.56535913534478
 20
-119.9044813068294
 10
90.69144963010491
 20
-119.9299750134203
 10
90.62737085407927
 20
-119.7990613849808
 10
90.63805065008354
 20
-119.6590182535054
 10
90.74105900509252
 20
-119.5356838351334
 10
90.91744789393731
 20
-119.3246717366619
 10
91.16721731661792
 20
-119.3572278889975
 10
91.39287107090179
 20
-119.5456746120407
 10
91.62541501615615
 20
-119.7403225069573
 10
91.68880477308474
 20
-119.9811346813762
 10
91.51792803701636
 20
-120.1856010984258
 10
91.41491968200738
 20
-120.3089355167978
 10
91.27780488169444
 20
-120.3430419621018
 10
91.13690047634772
 20
-120.3025620901501
 10
91.17755260307368
 20
-120.4024698592223
 10
91.24645451277867
 20
-120.5843709008435
 10
91.07798934354994
 20
-120.7857367319563
 10
90.83786618822803
 20
-121.0728854406519
 10
90.53435327597752
 20
-120.9707383595143
 10
90.3383273428668
 20
-120.8065795596421
 97
        0
 97
        0
 92
        1
 93
        1
 72
     4
 94
        3
 73
     0
 74
     1
 95
       17
 96
       13
 40
0.0
 40
0.0
 40
0.0
 40
0.0
 40
1.0
 40
1.0
 40
1.0
 40
2.0
 40
2.0
 40
2.0
 40
3.0
 40
3.0
 40
3.0
 40
4.0
 40
4.0
 40
4.0
 40
4.0
 10
90.84613441739263
 20
-120.1997259899154
 10
90.7283121517971
 20
-120.1011962590372
 10
90.54778914837
 20
-120.0633002086995
 10
90.41756453902755
 20
-120.2190185246327
 10
90.28596189149101
 20
-120.3764593883087
 10
90.32454696092582
 20
-120.5413072072779
 10
90.46338430898138
 20
-120.6572346703565
 10
90.61600203897795
 20
-120.7850477128593
 10
90.78481171775519
 20
-120.766444197239
 10
90.89884437831697
 20
-120.6301906707973
 10
91.0414713314063
 20
-120.4596584442775
 10
90.95534394427506
 20
-120.291365529823
 10
90.84613441739263
 20
-120.1997259899154
 97
        0
 97
        0
 92
        1
 93
        1
 72
     4
 94
        3
 73
     0
 74
     1
 95
       17
 96
       13
 40
0.0
 40
0.0
 40
0.0
 40
0.0
 40
1.0
 40
1.0
 40
1.0
 40
2.0
 40
2.0
 40
2.0
 40
3.0
 40
3.0
 40
3.0
 40
4.0
 40
4.0
 40
4.0
 40
4.0
 10
91.26953665252984
 20
-119.6934692083579
 10
91.13414439995952
 20
-119.5802978216674
 10
91.00357528106855
 20
-119.5954562418025
 10
90.91675887484026
 20
-119.6991536159086
 10
90.83821069777656
 20
-119.7933769774301
 10
90.82098522035031
 20
-119.9334201089055
 10
90.96671275937638
 20
-120.0552042343091
 10
91.11244029840245
 20
-120.1773328692612
 10
91.24748804142425
 20
-120.135819468664
 10
91.32603621848794
 20
-120.0415961071424
 10
91.41285262471624
 20
-119.9378987330364
 10
91.40320635735753
 20
-119.8054348116285
 10
91.26953665252984
 20
-119.6934692083579
 97
        0
 97
        0
 75
     2
 76
     1
 98
        0
  0
ENDBLK
  5
C8
330
C5
100
AcDbEntity
  8
0
100
AcDbBlockEnd
  0
BLOCK
  5
DB
330
D9
100
AcDbEntity
  8
0
100
AcDbBlockBegin
  2
block 6
 70
     0
 10
0.0
 20
0.0
 30
0.0
  3
block 6
  1

  0
SPLINE
  5
DD
330
D9
100
AcDbEntity
  8
_U+30EC_U+30A4_U+30E4_U+30FC 1
370
     0
100
AcDbSpline
210
0.0
220
0.0
230
1.0
 70
    11
 71
     3
 72
    26
 73
    22
 74
     0
 42
0.0000000001
 43
0.0000000001
 12
1.0
 22
0.0
 32
0.0
 13
1.0
 23
0.0
 33
0.0
 40
0.0
 40
0.0
 40
0.0
 40
0.0
 40
1.0
 40
1.0
 40
1.0
 40
2.0
 40
2.0
 40
2.0
 40
3.0
 40
3.0
 40
3.0
 40
4.0
 40
4.0
 40
4.0
 40
5.0
 40
5.0
 40
5.0
 40
6.0
 40
6.0
 40
6.0
 40
7.0
 40
7.0
 40
7.0
 40
7.0
 10
102.8839870619526
 20
-135.2172417196679
 30
0.0
 10
102.8839870619526
 20
-135.2172417196679
 30
0.0
 10
101.8501139068291
 20
-135.2172417196679
 30
0.0
 10
101.8501139068291
 20
-135.2172417196679
 30
0.0
 10
101.8501139068291
 20
-135.2172417196679
 30
0.0
 10
101.8501139068291
 20
-135.5700194973575
 30
0.0
 10
101.8501139068291
 20
-135.5700194973575
 30
0.0
 10
101.8501139068291
 20
-135.5700194973575
 30
0.0
 10
101.7112765587736
 20
-135.5700194973575
 30
0.0
 10
101.7112765587736
 20
-135.5700194973575
 30
0.0
 10
101.697151667284
 20
-135.2148301528283
 30
0.0
 10
101.544878446836
 20
-135.1648762682921
 30
0.0
 10
101.4380804867933
 20
-135.1335258993763
 30
0.0
 10
101.4380804867933
 20
-135.1335258993763
 30
0.0
 10
101.4380804867933
 20
-134.9774630738945
 30
0.0
 10
101.4380804867933
 20
-134.9774630738945
 30
0.0
 10
101.4380804867933
 20
-134.9774630738945
 30
0.0
 10
102.8839870619526
 20
-134.9774630738945
 30
0.0
 10
102.8839870619526
 20
-134.9774630738945
 30
0.0
 10
102.8839870619526
 20
-134.9774630738945
 30
0.0
 10
102.8839870619526
 20
-135.2172417196679
 30
0.0
 10
102.8839870619526
 20
-135.2172417196679
 30
0.0
  0
HATCH
  5
DE
330
D9
100
AcDbEntity
  8
_U+30EC_U+30A4_U+30E4_U+30FC 1
 62
   179
420
  2234388
100
AcDbHatch
 10
0.0
 20
0.0
 30
0.0
210
0.0
220
0.0
230
1.0
  2
SOLID
 70
     1
 71
     0
 91
        1
 92
        1
 93
        1
 72
     4
 94
        3
 73
     0
 74
     1
 95
       26
 96
       22
 40
0.0
 40
0.0
 40
0.0
 40
0.0
 40
1.0
 40
1.0
 40
1.0
 40
2.0
 40
2.0
 40
2.0
 40
3.0
 40
3.0
 40
3.0
 40
4.0
 40
4.0
 40
4.0
 40
5.0
 40
5.0
 40
5.0
 40
6.0
 40
6.0
 40
6.0
 40
7.0
 40
7.0
 40
7.0
 40
7.0
 10
102.8839870619526
 20
-135.2172417196679
 10
102.8839870619526
 20
-135.2172417196679
 10
101.8501139068291
 20
-135.2172417196679
 10
101.8501139068291
 20
-135.2172417196679
 10
101.8501139068291
 20
-135.2172417196679
 10
101.8501139068291
 20
-135.5700194973575
 10
101.8501139068291
 20
-135.5700194973575
 10
101.8501139068291
 20
-135.5700194973575
 10
101.7112765587736
 20
-135.5700194973575
 10
101.7112765587736
 20
-135.5700194973575
 10
101.697151667284
 20
-135.2148301528283
 10
101.544878446836
 20
-135.1648762682921
 10
101.4380804867933
 20
-135.1335258993763
 10
101.4380804867933
 20
-135.1335258993763
 10
101.4380804867933
 20
-134.9774630738945
 10
101.4380804867933
 20
-134.9774630738945
 10
101.4380804867933
 20
-134.9774630738945
 10
102.8839870619526
 20
-134.9774630738945
 10
102.8839870619526
 20
-134.9774630738945
 10
102.8839870619526
 20
-134.9774630738945
 10
102.8839870619526
 20
-135.2172417196679
 10
102.8839870619526
 20
-135.2172417196679
 97
        0
 97
        0
 75
     2
 76
     1
 98
        0
  0
ENDBLK
  5
DC
330
D9
100
AcDbEntity
  8
0
100
AcDbBlockEnd
  0
ENDSEC
  0
SECTION
  2
ENTITIES
  0
SPLINE
  5
41
330
1F
100
AcDbEntity
  8
_U+30EC_U+30A4_U+30E4_U+30FC 1
370
     0
100
AcDbSpline
210
0.0
220
0.0
230
1.0
 70
    11
 71
     3
 72
    47
 73
    43
 74
     0
 42
0.0000000001
 43
0.0000000001
 12
1.0
 22
0.0
 32
0.0
 13
1.0
 23
0.0
 33
0.0
 40
0.0
 40
0.0
 40
0.0
 40
0.0
 40
1.0
 40
1.0
 40
1.0
 40
2.0
 40
2.0
 40
2.0
 40
3.0
 40
3.0
 40
3.0
 40
4.0
 40
4.0
 40
4.0
 40
5.0
 40
5.0
 40
5.0
 40
6.0
 40
6.0
 40
6.0
 40
7.0
 40
7.0
 40
7.0
 40
8.0
 40
8.0
 40
8.0
 40
9.0
 40
9.0
 40
9.0
 40
10.0
 40
10.0
 40
10.0
 40
11.0
 40
11.0
 40
11.0
 40
12.0
 40
12.0
 40
12.0
 40
13.0
 40
13.0
 40
13.0
 40
14.0
 40
14.0
 40
14.0
 40
14.0
 10
96.38241664257076
 20
-134.1792394108996
 30
0.0
 10
96.38241664257076
 20
-134.1792394108996
 30
0.0
 10
95.49253228600476
 20
-133.2290677444704
 30
0.0
 10
95.49253228600476
 20
-133.2290677444704
 30
0.0
 10
95.48667617504304
 20
-133.2352766333581
 30
0.0
 10
95.47842117525366
 20
-133.2394041333567
 30
0.0
 10
95.4694606199267
 20
-133.2394041333567
 30
0.0
 10
95.45118673150402
 20
-133.2394041333567
 30
0.0
 10
95.43672284298414
 20
-133.2235644111389
 30
0.0
 10
95.43672284298414
 20
-133.204267466699
 30
0.0
 10
95.43672284298414
 20
-133.204267466699
 30
0.0
 10
85.36929198871458
 20
-133.204267466699
 30
0.0
 10
85.36929198871458
 20
-133.204267466699
 30
0.0
 10
85.36929198871458
 20
-133.204267466699
 30
0.0
 10
85.36929198871458
 20
-123.3447635802751
 30
0.0
 10
85.36929198871458
 20
-123.3447635802751
 30
0.0
 10
85.36929198871458
 20
-123.3447635802751
 30
0.0
 10
89.52339132717913
 20
-126.7040546905463
 30
0.0
 10
89.52339132717913
 20
-126.7040546905463
 30
0.0
 10
89.52339132717913
 20
-126.7040546905463
 30
0.0
 10
90.92088518041497
 20
-126.7040546905463
 30
0.0
 10
90.92088518041497
 20
-126.7040546905463
 30
0.0
 10
90.92088518041497
 20
-126.6968227461035
 30
0.0
 10
90.77120157312261
 20
-126.5164827461486
 30
0.0
 10
90.77515268413292
 20
-126.5109794128167
 30
0.0
 10
90.77515268413292
 20
-126.5109794128167
 30
0.0
 10
84.45891367860693
 20
-121.223440247472
 30
0.0
 10
84.45891367860693
 20
-121.223440247472
 30
0.0
 10
84.45305756764522
 20
-121.2330710808028
 30
0.0
 10
84.44462617897143
 20
-121.2403030252456
 30
0.0
 10
84.43309034593241
 20
-121.2403030252456
 30
0.0
 10
84.43309034593241
 20
-121.2403030252456
 30
0.0
 10
84.43309034593241
 20
-134.1689030220132
 30
0.0
 10
84.43309034593241
 20
-134.1689030220132
 30
0.0
 10
84.45101145658631
 20
-134.1689030220132
 30
0.0
 10
84.46600451175937
 20
-134.1847427442317
 30
0.0
 10
84.46600451175937
 20
-134.2040396886709
 30
0.0
 10
84.46600451175937
 20
-134.2040396886709
 30
0.0
 10
96.57291664252344
 20
-134.2040396886709
 30
0.0
 10
96.57291664252344
 20
-134.2040396886709
 30
0.0
 10
96.57291664252344
 20
-134.1944088553401
 30
0.0
 10
96.37655809678472
 20
-134.1854482997873
 30
0.0
 10
96.38241664257076
 20
-134.1792394108996
 30
0.0
  0
HATCH
  5
42
330
1F
100
AcDbEntity
  8
_U+30EC_U+30A4_U+30E4_U+30FC 1
 62
   253
420
 11711154
100
AcDbHatch
 10
0.0
 20
0.0
 30
0.0
210
0.0
220
0.0
230
1.0
  2
SOLID
 70
     1
 71
     0
 91
        1
 92
        1
 93
        1
 72
     4
 94
        3
 73
     0
 74
     1
 95
       47
 96
       43
 40
0.0
 40
0.0
 40
0.0
 40
0.0
 40
1.0
 40
1.0
 40
1.0
 40
2.0
 40
2.0
 40
2.0
 40
3.0
 40
3.0
 40
3.0
 40
4.0
 40
4.0
 40
4.0
 40
5.0
 40
5.0
 40
5.0
 40
6.0
 40
6.0
 40
6.0
 40
7.0
 40
7.0
 40
7.0
 40
8.0
 40
8.0
 40
8.0
 40
9.0
 40
9.0
 40
9.0
 40
10.0
 40
10.0
 40
10.0
 40
11.0
 40
11.0
 40
11.0
 40
12.0
 40
12.0
 40
12.0
 40
13.0
 40
13.0
 40
13.0
 40
14.0
 40
14.0
 40
14.0
 40
14.0
 10
96.38241664257076
 20
-134.1792394108996
 10
96.38241664257076
 20
-134.1792394108996
 10
95.49253228600476
 20
-133.2290677444704
 10
95.49253228600476
 20
-133.2290677444704
 10
95.48667617504304
 20
-133.2352766333581
 10
95.47842117525366
 20
-133.2394041333567
 10
95.4694606199267
 20
-133.2394041333567
 10
95.45118673150402
 20
-133.2394041333567
 10
95.43672284298414
 20
-133.2235644111389
 10
95.43672284298414
 20
-133.204267466699
 10
95.43672284298414
 20
-133.204267466699
 10
85.36929198871458
 20
-133.204267466699
 10
85.36929198871458
 20
-133.204267466699
 10
85.36929198871458
 20
-133.204267466699
 10
85.36929198871458
 20
-123.3447635802751
 10
85.36929198871458
 20
-123.3447635802751
 10
85.36929198871458
 20
-123.3447635802751
 10
89.52339132717913
 20
-126.7040546905463
 10
89.52339132717913
 20
-126.7040546905463
 10
89.52339132717913
 20
-126.7040546905463
 10
90.92088518041497
 20
-126.7040546905463
 10
90.92088518041497
 20
-126.7040546905463
 10
90.92088518041497
 20
-126.6968227461035
 10
90.77120157312261
 20
-126.5164827461486
 10
90.77515268413292
 20
-126.5109794128167
 10
90.77515268413292
 20
-126.5109794128167
 10
84.45891367860693
 20
-121.223440247472
 10
84.45891367860693
 20
-121.223440247472
 10
84.45305756764522
 20
-121.2330710808028
 10
84.44462617897143
 20
-121.2403030252456
 10
84.43309034593241
 20
-121.2403030252456
 10
84.43309034593241
 20
-121.2403030252456
 10
84.43309034593241
 20
-134.1689030220132
 10
84.43309034593241
 20
-134.1689030220132
 10
84.45101145658631
 20
-134.1689030220132
 10
84.46600451175937
 20
-134.1847427442317
 10
84.46600451175937
 20
-134.2040396886709
 10
84.46600451175937
 20
-134.2040396886709
 10
96.57291664252344
 20
-134.2040396886709
 10
96.57291664252344
 20
-134.2040396886709
 10
96.57291664252344
 20
-134.1944088553401
 10
96.37655809678472
 20
-134.1854482997873
 10
96.38241664257076
 20
-134.1792394108996
 97
        0
 97
        0
 75
     2
 76
     1
 98
        0
  0
POLYLINE
  5
43
330
1F
100
AcDbEntity
  8
_U+30EC_U+30A4_U+30E4_U+30FC 1
 62
   179
420
  2234388
370
    25
100
AcDb2dPolyline
 66
     1
 10
0.0
 20
0.0
 30
0.0
  0
VERTEX
  5
44
330
43
100
AcDbEntity
  8
_U+30EC_U+30A4_U+30E4_U+30FC 1
 62
   179
420
  2234388
370
    25
100
AcDbVertex
100
AcDb2dVertex
 10
85.36929198871458
 20
-133.204267466699
 30
0.0
  0
VERTEX
  5
45
330
43
100
AcDbEntity
  8
_U+30EC_U+30A4_U+30E4_U+30FC 1
 62
   179
420
  2234388
370
    25
100
AcDbVertex
100
AcDb2dVertex
 10
95.4694606199267
 20
-133.204267466699
 30
0.0
  0
SEQEND
  5
46
330
43
100
AcDbEntity
  8
_U+30EC_U+30A4_U+30E4_U+30FC 1
 62
   179
420
  2234388
370
    25
  0
POLYLINE
  5
47
330
1F
100
AcDbEntity
  8
_U+30EC_U+30A4_U+30E4_U+30FC 1
 62
   179
420
  2234388
370
    25
100
AcDb2dPolyline
 66
     1
 10
0.0
 20
0.0
 30
0.0
  0
VERTEX
  5
48
330
47
100
AcDbEntity
  8
_U+30EC_U+30A4_U+30E4_U+30FC 1
 62
   179
420
  2234388
370
    25
100
AcDbVertex
100
AcDb2dVertex
 10
84.43309034593241
 20
-121.2048488585877
 30
0.0
  0
VERTEX
  5
49
330
47
100
AcDbEntity
  8
_U+30EC_U+30A4_U+30E4_U+30FC 1
 62
   179
420
  2234388
370
    25
100
AcDbVertex
100
AcDb2dVertex
 10
84.43309034593241
 20
-134.2040396886709
 30
0.0
  0
SEQEND
  5
4A
330
47
100
AcDbEntity
  8
_U+30EC_U+30A4_U+30E4_U+30FC 1
 62
   179
420
  2234388
370
    25
  0
POLYLINE
  5
4B
330
1F
100
AcDbEntity
  8
_U+30EC_U+30A4_U+30E4_U+30FC 1
 62
   179
420
  2234388
370
    25
100
AcDb2dPolyline
 66
     1
 10
0.0
 20
0.0
 30
0.0
  0
VERTEX
  5
4C
330
4B
100
AcDbEntity
  8
_U+30EC_U+30A4_U+30E4_U+30FC 1
 62
   179
420
  2234388
370
    25
100
AcDbVertex
100
AcDb2dVertex
 10
84.43309034593241
 20
-134.2040396886709
 30
0.0
  0
VERTEX
  5
4D
330
4B
100
AcDbEntity
  8
_U+30EC_U+30A4_U+30E4_U+30FC 1
 62
   179
420
  2234388
370
    25
100
AcDbVertex
100
AcDb2dVertex
 10
96.43303781756602
 20
-134.2040396886709
 30
0.0
  0
SEQEND
  5
4E
330
4B
100
AcDbEntity
  8
_U+30EC_U+30A4_U+30E4_U+30FC 1
 62
   179
420
  2234388
370
    25
  0
POLYLINE
  5
4F
330
1F
100
AcDbEntity
  8
_U+30EC_U+30A4_U+30E4_U+30FC 1
 62
   179
420
  2234388
370
    25
100
AcDb2dPolyline
 66
     1
 10
0.0
 20
0.0
 30
0.0
  0
VERTEX
  5
50
330
4F
100
AcDbEntity
  8
_U+30EC_U+30A4_U+30E4_U+30FC 1
 62
   179
420
  2234388
370
    25
100
AcDbVertex
100
AcDb2dVertex
 10
85.43286254264832
 20
-123.3447635802751
 30
0.0
  0
VERTEX
  5
51
330
4F
100
AcDbEntity
  8
_U+30EC_U+30A4_U+30E4_U+30FC 1
 62
   179
420
  2234388
370
    25
100
AcDbVertex
100
AcDb2dVertex
 10
85.43286254264832
 20
-133.204267466699
 30
0.0
  0
SEQEND
  5
52
330
4F
100
AcDbEntity
  8
_U+30EC_U+30A4_U+30E4_U+30FC 1
 62
   179
420
  2234388
370
    25
  0
POLYLINE
  5
53
330
1F
100
AcDbEntity
  8
_U+30EC_U+30A4_U+30E4_U+30FC 1
 62
   179
420
  2234388
370
    25
100
AcDb2dPolyline
 66
     1
 10
0.0
 20
0.0
 30
0.0
  0
VERTEX
  5
54
330
53
100
AcDbEntity
  8
_U+30EC_U+30A4_U+30E4_U+30FC 1
 62
   179
420
  2234388
370
    25
100
AcDbVertex
100
AcDb2dVertex
 10
95.4694606199267
 20
-133.204267466699
 30
0.0
  0
VERTEX
  5
55
330
53
100
AcDbEntity
  8
_U+30EC_U+30A4_U+30E4_U+30FC 1
 62
   179
420
  2234388
370
    25
100
AcDbVertex
100
AcDb2dVertex
 10
96.40548587382449
 20
-134.2040396886709
 30
0.0
  0
SEQEND
  5
56
330
53
100
AcDbEntity
  8
_U+30EC_U+30A4_U+30E4_U+30FC 1
 62
   179
420
  2234388
370
    25
  0
POLYLINE
  5
57
330
1F
100
AcDbEntity
  8
_U+30EC_U+30A4_U+30E4_U+30FC 1
 62
   179
420
  2234388
370
    25
100
AcDb2dPolyline
 66
     1
 10
0.0
 20
0.0
 30
0.0
  0
VERTEX
  5
58
330
57
100
AcDbEntity
  8
_U+30EC_U+30A4_U+30E4_U+30FC 1
 62
   179
420
  2234388
370
    25
100
AcDbVertex
100
AcDb2dVertex
 10
89.5201104939295
 20
-126.7040546905463
 30
0.0
  0
VERTEX
  5
59
330
57
100
AcDbEntity
  8
_U+30EC_U+30A4_U+30E4_U+30FC 1
 62
   179
420
  2234388
370
    25
100
AcDbVertex
100
AcDb2dVertex
 10
91.04767351051366
 20
-126.7040546905463
 30
0.0
  0
SEQEND
  5
5A
330
57
100
AcDbEntity
  8
_U+30EC_U+30A4_U+30E4_U+30FC 1
 62
   179
420
  2234388
370
    25
  0
POLYLINE
  5
5B
330
1F
100
AcDbEntity
  8
_U+30EC_U+30A4_U+30E4_U+30FC 1
 62
   179
420
  2234388
370
    25
100
AcDb2dPolyline
 66
     1
 10
0.0
 20
0.0
 30
0.0
  0
VERTEX
  5
5C
330
5B
100
AcDbEntity
  8
_U+30EC_U+30A4_U+30E4_U+30FC 1
 62
   179
420
  2234388
370
    25
100
AcDbVertex
100
AcDb2dVertex
 10
84.43309034593241
 20
-121.2048488585877
 30
0.0
  0
VERTEX
  5
5D
330
5B
100
AcDbEntity
  8
_U+30EC_U+30A4_U+30E4_U+30FC 1
 62
   179
420
  2234388
370
    25
100
AcDbVertex
100
AcDb2dVertex
 10
91.04767351051366
 20
-126.7040546905463
 30
0.0
  0
SEQEND
  5
5E
330
5B
100
AcDbEntity
  8
_U+30EC_U+30A4_U+30E4_U+30FC 1
 62
   179
420
  2234388
370
    25
  0
POLYLINE
  5
5F
330
1F
100
AcDbEntity
  8
_U+30EC_U+30A4_U+30E4_U+30FC 1
 62
   179
420
  2234388
370
    25
100
AcDb2dPolyline
 66
     1
 10
0.0
 20
0.0
 30
0.0
  0
VERTEX
  5
60
330
5F
100
AcDbEntity
  8
_U+30EC_U+30A4_U+30E4_U+30FC 1
 62
   179
420
  2234388
370
    25
100
AcDbVertex
100
AcDb2dVertex
 10
85.43286254264832
 20
-123.3447635802751
 30
0.0
  0
VERTEX
  5
61
330
5F
100
AcDbEntity
  8
_U+30EC_U+30A4_U+30E4_U+30FC 1
 62
   179
420
  2234388
370
    25
100
AcDbVertex
100
AcDb2dVertex
 10
89.5201104939295
 20
-126.7040546905463
 30
0.0
  0
SEQEND
  5
62
330
5F
100
AcDbEntity
  8
_U+30EC_U+30A4_U+30E4_U+30FC 1
 62
   179
420
  2234388
370
    25
  0
SPLINE
  5
63
330
1F
100
AcDbEntity
  8
_U+30EC_U+30A4_U+30E4_U+30FC 1
 62
   179
420
  2234388
370
     9
100
AcDbSpline
210
0.0
220
0.0
230
1.0
 70
    11
 71
     3
 72
    17
 73
    13
 74
     0
 42
0.0000000001
 43
0.0000000001
 12
1.0
 22
0.0
 32
0.0
 13
1.0
 23
0.0
 33
0.0
 40
0.0
 40
0.0
 40
0.0
 40
0.0
 40
1.0
 40
1.0
 40
1.0
 40
2.0
 40
2.0
 40
2.0
 40
3.0
 40
3.0
 40
3.0
 40
4.0
 40
4.0
 40
4.0
 40
4.0
 10
80.53323794542594
 20
-134.2040396886709
 30
0.0
 10
80.53323794542594
 20
-134.1489005220185
 30
0.0
 10
80.48847044656804
 20
-134.1041330220293
 30
0.0
 10
80.433333313225
 20
-134.1041330220293
 30
0.0
 10
80.37822739382503
 20
-134.1041330220293
 30
0.0
 10
80.33342461719026
 20
-134.1489005220185
 30
0.0
 10
80.33342461719026
 20
-134.2040396886709
 30
0.0
 10
80.33342461719026
 20
-134.2591435775465
 30
0.0
 10
80.37822739382503
 20
-134.3039463553132
 30
0.0
 10
80.433333313225
 20
-134.3039463553132
 30
0.0
 10
80.48847044656804
 20
-134.3039463553132
 30
0.0
 10
80.53323794542594
 20
-134.2591435775465
 30
0.0
 10
80.53323794542594
 20
-134.2040396886709
 30
0.0
  0
SPLINE
  5
64
330
1F
100
AcDbEntity
  8
_U+30EC_U+30A4_U+30E4_U+30FC 1
 62
   179
420
  2234388
370
     9
100
AcDbSpline
210
0.0
220
0.0
230
1.0
 70
    11
 71
     3
 72
    17
 73
    13
 74
     0
 42
0.0000000001
 43
0.0000000001
 12
1.0
 22
0.0
 32
0.0
 13
1.0
 23
0.0
 33
0.0
 40
0.0
 40
0.0
 40
0.0
 40
0.0
 40
1.0
 40
1.0
 40
1.0
 40
2.0
 40
2.0
 40
2.0
 40
3.0
 40
3.0
 40
3.0
 40
4.0
 40
4.0
 40
4.0
 40
4.0
 10
84.53299701005024
 20
-138.2037988543378
 30
0.0
 10
84.53299701005024
 20
-138.1486596876854
 30
0.0
 10
84.48819423341548
 20
-138.1038921876962
 30
0.0
 10
84.43309034593241
 20
-138.1038921876962
 30
0.0
 10
84.37795118067245
 20
-138.1038921876962
 30
0.0
 10
84.33318368181457
 20
-138.1486596876854
 30
0.0
 10
84.33318368181457
 20
-138.2037988543378
 30
0.0
 10
84.33318368181457
 20
-138.2596082987683
 30
0.0
 10
84.37795118067245
 20
-138.3043757987575
 30
0.0
 10
84.43309034593241
 20
-138.3043757987575
 30
0.0
 10
84.48819423341548
 20
-138.3043757987575
 30
0.0
 10
84.53299701005024
 20
-138.2596082987683
 30
0.0
 10
84.53299701005024
 20
-138.2037988543378
 30
0.0
  0
SPLINE
  5
65
330
1F
100
AcDbEntity
  8
_U+30EC_U+30A4_U+30E4_U+30FC 1
 62
   179
420
  2234388
370
     9
100
AcDbSpline
210
0.0
220
0.0
230
1.0
 70
    11
 71
     3
 72
    17
 73
    13
 74
     0
 42
0.0000000001
 43
0.0000000001
 12
1.0
 22
0.0
 32
0.0
 13
1.0
 23
0.0
 33
0.0
 40
0.0
 40
0.0
 40
0.0
 40
0.0
 40
1.0
 40
1.0
 40
1.0
 40
2.0
 40
2.0
 40
2.0
 40
3.0
 40
3.0
 40
3.0
 40
4.0
 40
4.0
 40
4.0
 40
4.0
 10
100.2446957758781
 20
-133.204267466699
 30
0.0
 10
100.2446957758781
 20
-133.1491635778241
 30
0.0
 10
100.2026799436167
 20
-133.1043608000574
 30
0.0
 10
100.1506452227219
 20
-133.1043608000574
 30
0.0
 10
100.098963279596
 20
-133.1043608000574
 30
0.0
 10
100.0573027527636
 20
-133.1491635778241
 30
0.0
 10
100.0573027527636
 20
-133.204267466699
 30
0.0
 10
100.0573027527636
 20
-133.2594066333521
 30
0.0
 10
100.098963279596
 20
-133.3041741333407
 30
0.0
 10
100.1506452227219
 20
-133.3041741333407
 30
0.0
 10
100.2026799436167
 20
-133.3041741333407
 30
0.0
 10
100.2446957758781
 20
-133.2594066333521
 30
0.0
 10
100.2446957758781
 20
-133.204267466699
 30
0.0
  0
SPLINE
  5
66
330
1F
100
AcDbEntity
  8
_U+30EC_U+30A4_U+30E4_U+30FC 1
 62
   179
420
  2234388
370
     9
100
AcDbSpline
210
0.0
220
0.0
230
1.0
 70
    11
 71
     3
 72
    17
 73
    13
 74
     0
 42
0.0000000001
 43
0.0000000001
 12
1.0
 22
0.0
 32
0.0
 13
1.0
 23
0.0
 33
0.0
 40
0.0
 40
0.0
 40
0.0
 40
0.0
 40
1.0
 40
1.0
 40
1.0
 40
2.0
 40
2.0
 40
2.0
 40
3.0
 40
3.0
 40
3.0
 40
4.0
 40
4.0
 40
4.0
 40
4.0
 10
96.49918608698606
 20
-138.2037988543378
 30
0.0
 10
96.49918608698606
 20
-138.1486596876854
 30
0.0
 10
96.45716781695042
 20
-138.1038921876962
 30
0.0
 10
96.40548587382449
 20
-138.1038921876962
 30
0.0
 10
96.35380393069856
 20
-138.1038921876962
 30
0.0
 10
96.31178809843713
 20
-138.1486596876854
 30
0.0
 10
96.31178809843713
 20
-138.2037988543378
 30
0.0
 10
96.31178809843713
 20
-138.2596082987683
 30
0.0
 10
96.35380393069856
 20
-138.3043757987575
 30
0.0
 10
96.40548587382449
 20
-138.3043757987575
 30
0.0
 10
96.45716781695042
 20
-138.3043757987575
 30
0.0
 10
96.49918608698606
 20
-138.2596082987683
 30
0.0
 10
96.49918608698606
 20
-138.2037988543378
 30
0.0
  0
SPLINE
  5
67
330
1F
100
AcDbEntity
  8
_U+30EC_U+30A4_U+30E4_U+30FC 1
 62
   179
420
  2234388
370
     9
100
AcDbSpline
210
0.0
220
0.0
230
1.0
 70
    11
 71
     3
 72
    17
 73
    13
 74
     0
 42
0.0000000001
 43
0.0000000001
 12
1.0
 22
0.0
 32
0.0
 13
1.0
 23
0.0
 33
0.0
 40
0.0
 40
0.0
 40
0.0
 40
0.0
 40
1.0
 40
1.0
 40
1.0
 40
2.0
 40
2.0
 40
2.0
 40
3.0
 40
3.0
 40
3.0
 40
4.0
 40
4.0
 40
4.0
 40
4.0
 10
80.53323794542594
 20
-121.204319691921
 30
0.0
 10
80.53323794542594
 20
-121.1491805252682
 30
0.0
 10
80.48847044656804
 20
-121.1044130252794
 30
0.0
 10
80.433333313225
 20
-121.1044130252794
 30
0.0
 10
80.37822739382503
 20
-121.1044130252794
 30
0.0
 10
80.33342461719026
 20
-121.1491805252682
 30
0.0
 10
80.33342461719026
 20
-121.204319691921
 30
0.0
 10
80.33342461719026
 20
-121.259776358574
 30
0.0
 10
80.37822739382503
 20
-121.3045791363404
 30
0.0
 10
80.433333313225
 20
-121.3045791363404
 30
0.0
 10
80.48847044656804
 20
-121.3045791363404
 30
0.0
 10
80.53323794542594
 20
-121.259776358574
 30
0.0
 10
80.53323794542594
 20
-121.204319691921
 30
0.0
  0
SPLINE
  5
68
330
1F
100
AcDbEntity
  8
_U+30EC_U+30A4_U+30E4_U+30FC 1
 62
   179
420
  2234388
370
     9
100
AcDbSpline
210
0.0
220
0.0
230
1.0
 70
    11
 71
     3
 72
    17
 73
    13
 74
     0
 42
0.0000000001
 43
0.0000000001
 12
1.0
 22
0.0
 32
0.0
 13
1.0
 23
0.0
 33
0.0
 40
0.0
 40
0.0
 40
0.0
 40
0.0
 40
1.0
 40
1.0
 40
1.0
 40
2.0
 40
2.0
 40
2.0
 40
3.0
 40
3.0
 40
3.0
 40
4.0
 40
4.0
 40
4.0
 40
4.0
 10
93.28252067572019
 20
-123.6306899690923
 30
0.0
 10
93.28767123114434
 20
-123.575762469106
 30
0.0
 10
93.24770150994183
 20
-123.5270085802295
 30
0.0
 10
93.19259997670174
 20
-123.5216463580084
 30
0.0
 10
93.13781123496759
 20
-123.5159666357876
 30
0.0
 10
93.08888331006105
 20
-123.555759969111
 30
0.0
 10
93.08337762524519
 20
-123.611216635764
 30
0.0
 10
93.07787429205226
 20
-123.6658266357504
 30
0.0
 10
93.11784401325477
 20
-123.7151096912935
 30
0.0
 10
93.17294790073784
 20
-123.7204366357365
 30
0.0
 10
93.22773428822902
 20
-123.7261163579572
 30
0.0
 10
93.27698206475037
 20
-123.6858291357451
 30
0.0
 10
93.28252067572019
 20
-123.6306899690923
 30
0.0
  0
SPLINE
  5
69
330
1F
100
AcDbEntity
  8
_U+30EC_U+30A4_U+30E4_U+30FC 1
 62
   179
420
  2234388
370
     9
100
AcDbSpline
210
0.0
220
0.0
230
1.0
 70
    11
 71
     3
 72
    17
 73
    13
 74
     0
 42
0.0000000001
 43
0.0000000001
 12
1.0
 22
0.0
 32
0.0
 13
1.0
 23
0.0
 33
0.0
 40
0.0
 40
0.0
 40
0.0
 40
0.0
 40
1.0
 40
1.0
 40
1.0
 40
2.0
 40
2.0
 40
2.0
 40
3.0
 40
3.0
 40
3.0
 40
4.0
 40
4.0
 40
4.0
 40
4.0
 10
87.14884416553664
 20
-118.4952685814873
 30
0.0
 10
87.15438277650645
 20
-118.4403058037234
 30
0.0
 10
87.11370749976639
 20
-118.3910580259578
 30
0.0
 10
87.05962666781278
 20
-118.3853783037371
 30
0.0
 10
87.0038194226935
 20
-118.3800160815163
 30
0.0
 10
86.95456944827079
 20
-118.4203385815059
 30
0.0
 10
86.94938361506975
 20
-118.4752660814923
 30
0.0
 10
86.9442330596456
 20
-118.5304052481454
 30
0.0
 10
86.98349722531056
 20
-118.5791591370218
 30
0.0
 10
87.03930666833118
 20
-118.5848388592426
 30
0.0
 10
87.09441055581425
 20
-118.5901658036859
 30
0.0
 10
87.14334083234371
 20
-118.5503724703625
 30
0.0
 10
87.14884416553664
 20
-118.4952685814873
 30
0.0
  0
SPLINE
  5
6A
330
1F
100
AcDbEntity
  8
_U+30EC_U+30A4_U+30E4_U+30FC 1
 62
   179
420
  2234388
370
     9
100
AcDbSpline
210
0.0
220
0.0
230
1.0
 70
    11
 71
     3
 72
    17
 73
    13
 74
     0
 42
0.0000000001
 43
0.0000000001
 12
1.0
 22
0.0
 32
0.0
 13
1.0
 23
0.0
 33
0.0
 40
0.0
 40
0.0
 40
0.0
 40
0.0
 40
1.0
 40
1.0
 40
1.0
 40
2.0
 40
2.0
 40
2.0
 40
3.0
 40
3.0
 40
3.0
 40
4.0
 40
4.0
 40
4.0
 40
4.0
 10
100.2446957758781
 20
-126.7040546905463
 30
0.0
 10
100.2446957758781
 20
-126.6489508016711
 30
0.0
 10
100.2026799436167
 20
-126.6041480239047
 30
0.0
 10
100.1506452227219
 20
-126.6041480239047
 30
0.0
 10
100.098963279596
 20
-126.6041480239047
 30
0.0
 10
100.0573027527636
 20
-126.6489508016711
 30
0.0
 10
100.0573027527636
 20
-126.7040546905463
 30
0.0
 10
100.0573027527636
 20
-126.7595466349768
 30
0.0
 10
100.098963279596
 20
-126.8043141349657
 30
0.0
 10
100.1506452227219
 20
-126.8043141349657
 30
0.0
 10
100.2026799436167
 20
-126.8043141349657
 30
0.0
 10
100.2446957758781
 20
-126.7595466349768
 30
0.0
 10
100.2446957758781
 20
-126.7040546905463
 30
0.0
  0
POLYLINE
  5
6B
330
1F
100
AcDbEntity
  8
_U+30EC_U+30A4_U+30E4_U+30FC 1
 62
   179
420
  2234388
370
     9
100
AcDb2dPolyline
 66
     1
 10
0.0
 20
0.0
 30
0.0
  0
VERTEX
  5
6C
330
6B
100
AcDbEntity
  8
_U+30EC_U+30A4_U+30E4_U+30FC 1
 62
   179
420
  2234388
370
     9
100
AcDbVertex
100
AcDb2dVertex
 10
84.43309034593241
 20
-138.2037988543378
 30
0.0
  0
VERTEX
  5
6D
330
6B
100
AcDbEntity
  8
_U+30EC_U+30A4_U+30E4_U+30FC 1
 62
   179
420
  2234388
370
     9
100
AcDbVertex
100
AcDb2dVertex
 10
96.43303781756602
 20
-138.2037988543378
 30
0.0
  0
SEQEND
  5
6E
330
6B
100
AcDbEntity
  8
_U+30EC_U+30A4_U+30E4_U+30FC 1
 62
   179
420
  2234388
370
     9
  0
POLYLINE
  5
6F
330
1F
100
AcDbEntity
  8
_U+30EC_U+30A4_U+30E4_U+30FC 1
 62
   179
420
  2234388
370
     9
100
AcDb2dPolyline
 66
     1
 10
0.0
 20
0.0
 30
0.0
  0
VERTEX
  5
70
330
6F
100
AcDbEntity
  8
_U+30EC_U+30A4_U+30E4_U+30FC 1
 62
   179
420
  2234388
370
     9
100
AcDbVertex
100
AcDb2dVertex
 10
84.43309034593241
 20
-136.7437574658141
 30
0.0
  0
VERTEX
  5
71
330
6F
100
AcDbEntity
  8
_U+30EC_U+30A4_U+30E4_U+30FC 1
 62
   179
420
  2234388
370
     9
100
AcDbVertex
100
AcDb2dVertex
 10
84.43309034593241
 20
-139.2042413540877
 30
0.0
  0
SEQEND
  5
72
330
6F
100
AcDbEntity
  8
_U+30EC_U+30A4_U+30E4_U+30FC 1
 62
   179
420
  2234388
370
     9
  0
POLYLINE
  5
73
330
1F
100
AcDbEntity
  8
_U+30EC_U+30A4_U+30E4_U+30FC 1
 62
   179
420
  2234388
370
     9
100
AcDb2dPolyline
 66
     1
 10
0.0
 20
0.0
 30
0.0
  0
VERTEX
  5
74
330
73
100
AcDbEntity
  8
_U+30EC_U+30A4_U+30E4_U+30FC 1
 62
   179
420
  2234388
370
     9
100
AcDbVertex
100
AcDb2dVertex
 10
96.40548587382449
 20
-136.7437574658141
 30
0.0
  0
VERTEX
  5
75
330
73
100
AcDbEntity
  8
_U+30EC_U+30A4_U+30E4_U+30FC 1
 62
   179
420
  2234388
370
     9
100
AcDbVertex
100
AcDb2dVertex
 10
96.40548587382449
 20
-139.2042413540877
 30
0.0
  0
SEQEND
  5
76
330
73
100
AcDbEntity
  8
_U+30EC_U+30A4_U+30E4_U+30FC 1
 62
   179
420
  2234388
370
     9
  0
INSERT
  5
78
330
1F
100
AcDbEntity
  8
_U+30EC_U+30A4_U+30E4_U+30FC 1
100
AcDbBlockReference
  2
block 2
 10
0.0
 20
0.0
 30
0.0
  0
SPLINE
  5
7F
330
1F
100
AcDbEntity
  8
_U+30EC_U+30A4_U+30E4_U+30FC 1
 62
   179
420
  2234388
370
    25
100
AcDbSpline
210
0.0
220
0.0
230
1.0
 70
    11
 71
     3
 72
    17
 73
    13
 74
     0
 42
0.0000000001
 43
0.0000000001
 12
1.0
 22
0.0
 32
0.0
 13
1.0
 23
0.0
 33
0.0
 40
0.0
 40
0.0
 40
0.0
 40
0.0
 40
1.0
 40
1.0
 40
1.0
 40
2.0
 40
2.0
 40
2.0
 40
3.0
 40
3.0
 40
3.0
 40
4.0
 40
4.0
 40
4.0
 40
4.0
 10
84.46822701170267
 20
-134.2040396886709
 30
0.0
 10
84.46822701170267
 20
-134.2233366331108
 30
0.0
 10
84.45238728988454
 20
-134.2391763553293
 30
0.0
 10
84.43309034593241
 20
-134.2391763553293
 30
0.0
 10
84.41379340198027
 20
-134.2391763553293
 30
0.0
 10
84.39795368016215
 20
-134.2233366331108
 30
0.0
 10
84.39795368016215
 20
-134.2040396886709
 30
0.0
 10
84.39795368016215
 20
-134.1847427442317
 30
0.0
 10
84.41379340198027
 20
-134.1689030220132
 30
0.0
 10
84.43309034593241
 20
-134.1689030220132
 30
0.0
 10
84.45238728988454
 20
-134.1689030220132
 30
0.0
 10
84.46822701170267
 20
-134.1847427442317
 30
0.0
 10
84.46822701170267
 20
-134.2040396886709
 30
0.0
  0
SPLINE
  5
80
330
1F
100
AcDbEntity
  8
_U+30EC_U+30A4_U+30E4_U+30FC 1
 62
   179
420
  2234388
370
    25
100
AcDbSpline
210
0.0
220
0.0
230
1.0
 70
    11
 71
     3
 72
    17
 73
    13
 74
     0
 42
0.0000000001
 43
0.0000000001
 12
1.0
 22
0.0
 32
0.0
 13
1.0
 23
0.0
 33
0.0
 40
0.0
 40
0.0
 40
0.0
 40
0.0
 40
1.0
 40
1.0
 40
1.0
 40
2.0
 40
2.0
 40
2.0
 40
3.0
 40
3.0
 40
3.0
 40
4.0
 40
4.0
 40
4.0
 40
4.0
 10
96.43854115075895
 20
-134.2040396886709
 30
0.0
 10
96.43854115075895
 20
-134.2233366331108
 30
0.0
 10
96.42340698447839
 20
-134.2391763553293
 30
0.0
 10
96.40548587382449
 20
-134.2391763553293
 30
0.0
 10
96.38756476317057
 20
-134.2391763553293
 30
0.0
 10
96.37239531911314
 20
-134.2233366331108
 30
0.0
 10
96.37239531911314
 20
-134.2040396886709
 30
0.0
 10
96.37239531911314
 20
-134.1847427442317
 30
0.0
 10
96.38756476317057
 20
-134.1689030220132
 30
0.0
 10
96.40548587382449
 20
-134.1689030220132
 30
0.0
 10
96.42340698447839
 20
-134.1689030220132
 30
0.0
 10
96.43854115075895
 20
-134.1847427442317
 30
0.0
 10
96.43854115075895
 20
-134.2040396886709
 30
0.0
  0
SPLINE
  5
81
330
1F
100
AcDbEntity
  8
_U+30EC_U+30A4_U+30E4_U+30FC 1
 62
   179
420
  2234388
370
     9
100
AcDbSpline
210
0.0
220
0.0
230
1.0
 70
    11
 71
     3
 72
    17
 73
    13
 74
     0
 42
0.0000000001
 43
0.0000000001
 12
1.0
 22
0.0
 32
0.0
 13
1.0
 23
0.0
 33
0.0
 40
0.0
 40
0.0
 40
0.0
 40
0.0
 40
1.0
 40
1.0
 40
1.0
 40
2.0
 40
2.0
 40
2.0
 40
3.0
 40
3.0
 40
3.0
 40
4.0
 40
4.0
 40
4.0
 40
4.0
 10
96.43854115075895
 20
-138.2037988543378
 30
0.0
 10
96.43854115075895
 20
-138.223766076555
 30
0.0
 10
96.42340698447839
 20
-138.2396410765511
 30
0.0
 10
96.40548587382449
 20
-138.2396410765511
 30
0.0
 10
96.38756476317057
 20
-138.2396410765511
 30
0.0
 10
96.37239531911314
 20
-138.223766076555
 30
0.0
 10
96.37239531911314
 20
-138.2037988543378
 30
0.0
 10
96.37239531911314
 20
-138.1845019098986
 30
0.0
 10
96.38756476317057
 20
-138.1686621876801
 30
0.0
 10
96.40548587382449
 20
-138.1686621876801
 30
0.0
 10
96.42340698447839
 20
-138.1686621876801
 30
0.0
 10
96.43854115075895
 20
-138.1845019098986
 30
0.0
 10
96.43854115075895
 20
-138.2037988543378
 30
0.0
  0
POLYLINE
  5
82
330
1F
100
AcDbEntity
  8
_U+30EC_U+30A4_U+30E4_U+30FC 1
 62
   179
420
  2234388
370
     9
100
AcDb2dPolyline
 66
     1
 10
0.0
 20
0.0
 30
0.0
  0
VERTEX
  5
83
330
82
100
AcDbEntity
  8
_U+30EC_U+30A4_U+30E4_U+30FC 1
 62
   179
420
  2234388
370
     9
100
AcDbVertex
100
AcDb2dVertex
 10
80.433333313225
 20
-121.204319691921
 30
0.0
  0
VERTEX
  5
84
330
82
100
AcDbEntity
  8
_U+30EC_U+30A4_U+30E4_U+30FC 1
 62
   179
420
  2234388
370
     9
100
AcDbVertex
100
AcDb2dVertex
 10
80.433333313225
 20
-134.2040396886709
 30
0.0
  0
SEQEND
  5
85
330
82
100
AcDbEntity
  8
_U+30EC_U+30A4_U+30E4_U+30FC 1
 62
   179
420
  2234388
370
     9
  0
POLYLINE
  5
86
330
1F
100
AcDbEntity
  8
_U+30EC_U+30A4_U+30E4_U+30FC 1
 62
   179
420
  2234388
370
     9
100
AcDb2dPolyline
 66
     1
 10
0.0
 20
0.0
 30
0.0
  0
VERTEX
  5
87
330
86
100
AcDbEntity
  8
_U+30EC_U+30A4_U+30E4_U+30FC 1
 62
   179
420
  2234388
370
     9
100
AcDbVertex
100
AcDb2dVertex
 10
81.89337263294823
 20
-121.204319691921
 30
0.0
  0
VERTEX
  5
88
330
86
100
AcDbEntity
  8
_U+30EC_U+30A4_U+30E4_U+30FC 1
 62
   179
420
  2234388
370
     9
100
AcDbVertex
100
AcDb2dVertex
 10
79.43288880683151
 20
-121.204319691921
 30
0.0
  0
SEQEND
  5
89
330
86
100
AcDbEntity
  8
_U+30EC_U+30A4_U+30E4_U+30FC 1
 62
   179
420
  2234388
370
     9
  0
POLYLINE
  5
8A
330
1F
100
AcDbEntity
  8
_U+30EC_U+30A4_U+30E4_U+30FC 1
 62
   179
420
  2234388
370
     9
100
AcDb2dPolyline
 66
     1
 10
0.0
 20
0.0
 30
0.0
  0
VERTEX
  5
8B
330
8A
100
AcDbEntity
  8
_U+30EC_U+30A4_U+30E4_U+30FC 1
 62
   179
420
  2234388
370
     9
100
AcDbVertex
100
AcDb2dVertex
 10
81.89337263294823
 20
-134.2040396886709
 30
0.0
  0
VERTEX
  5
8C
330
8A
100
AcDbEntity
  8
_U+30EC_U+30A4_U+30E4_U+30FC 1
 62
   179
420
  2234388
370
     9
100
AcDbVertex
100
AcDb2dVertex
 10
79.43288880683151
 20
-134.2040396886709
 30
0.0
  0
SEQEND
  5
8D
330
8A
100
AcDbEntity
  8
_U+30EC_U+30A4_U+30E4_U+30FC 1
 62
   179
420
  2234388
370
     9
  0
INSERT
  5
8F
330
1F
100
AcDbEntity
  8
_U+30EC_U+30A4_U+30E4_U+30FC 1
100
AcDbBlockReference
  2
block 3
 10
0.0
 20
0.0
 30
0.0
  0
SPLINE
  5
96
330
1F
100
AcDbEntity
  8
_U+30EC_U+30A4_U+30E4_U+30FC 1
 62
   179
420
  2234388
370
    25
100
AcDbSpline
210
0.0
220
0.0
230
1.0
 70
    11
 71
     3
 72
    17
 73
    13
 74
     0
 42
0.0000000001
 43
0.0000000001
 12
1.0
 22
0.0
 32
0.0
 13
1.0
 23
0.0
 33
0.0
 40
0.0
 40
0.0
 40
0.0
 40
0.0
 40
1.0
 40
1.0
 40
1.0
 40
2.0
 40
2.0
 40
2.0
 40
3.0
 40
3.0
 40
3.0
 40
4.0
 40
4.0
 40
4.0
 40
4.0
 10
84.46822701170267
 20
-121.2048488585877
 30
0.0
 10
84.46822701170267
 20
-121.2244633030271
 30
0.0
 10
84.45238728988454
 20
-121.2403030252456
 30
0.0
 10
84.43309034593241
 20
-121.2403030252456
 30
0.0
 10
84.41379340198027
 20
-121.2403030252456
 30
0.0
 10
84.39795368016215
 20
-121.2244633030271
 30
0.0
 10
84.39795368016215
 20
-121.2048488585877
 30
0.0
 10
84.39795368016215
 20
-121.1855519141481
 30
0.0
 10
84.41379340198027
 20
-121.1696769141521
 30
0.0
 10
84.43309034593241
 20
-121.1696769141521
 30
0.0
 10
84.45238728988454
 20
-121.1696769141521
 30
0.0
 10
84.46822701170267
 20
-121.1855519141481
 30
0.0
 10
84.46822701170267
 20
-121.2048488585877
 30
0.0
  0
SPLINE
  5
97
330
1F
100
AcDbEntity
  8
_U+30EC_U+30A4_U+30E4_U+30FC 1
 62
   179
420
  2234388
370
    25
100
AcDbSpline
210
0.0
220
0.0
230
1.0
 70
    11
 71
     3
 72
    17
 73
    13
 74
     0
 42
0.0000000001
 43
0.0000000001
 12
1.0
 22
0.0
 32
0.0
 13
1.0
 23
0.0
 33
0.0
 40
0.0
 40
0.0
 40
0.0
 40
0.0
 40
1.0
 40
1.0
 40
1.0
 40
2.0
 40
2.0
 40
2.0
 40
3.0
 40
3.0
 40
3.0
 40
4.0
 40
4.0
 40
4.0
 40
4.0
 10
84.46822701170267
 20
-134.2040396886709
 30
0.0
 10
84.46822701170267
 20
-134.2233366331108
 30
0.0
 10
84.45238728988454
 20
-134.2391763553293
 30
0.0
 10
84.43309034593241
 20
-134.2391763553293
 30
0.0
 10
84.41379340198027
 20
-134.2391763553293
 30
0.0
 10
84.39795368016215
 20
-134.2233366331108
 30
0.0
 10
84.39795368016215
 20
-134.2040396886709
 30
0.0
 10
84.39795368016215
 20
-134.1847427442317
 30
0.0
 10
84.41379340198027
 20
-134.1689030220132
 30
0.0
 10
84.43309034593241
 20
-134.1689030220132
 30
0.0
 10
84.45238728988454
 20
-134.1689030220132
 30
0.0
 10
84.46822701170267
 20
-134.1847427442317
 30
0.0
 10
84.46822701170267
 20
-134.2040396886709
 30
0.0
  0
SPLINE
  5
98
330
1F
100
AcDbEntity
  8
_U+30EC_U+30A4_U+30E4_U+30FC 1
 62
   179
420
  2234388
370
     9
100
AcDbSpline
210
0.0
220
0.0
230
1.0
 70
    11
 71
     3
 72
    17
 73
    13
 74
     0
 42
0.0000000001
 43
0.0000000001
 12
1.0
 22
0.0
 32
0.0
 13
1.0
 23
0.0
 33
0.0
 40
0.0
 40
0.0
 40
0.0
 40
0.0
 40
1.0
 40
1.0
 40
1.0
 40
2.0
 40
2.0
 40
2.0
 40
3.0
 40
3.0
 40
3.0
 40
4.0
 40
4.0
 40
4.0
 40
4.0
 10
80.46846794707835
 20
-134.2040396886709
 30
0.0
 10
80.46846794707835
 20
-134.2233366331108
 30
0.0
 10
80.45262822526024
 20
-134.2391763553293
 30
0.0
 10
80.433333313225
 20
-134.2391763553293
 30
0.0
 10
80.41336405959528
 20
-134.2391763553293
 30
0.0
 10
80.39819461553785
 20
-134.2233366331108
 30
0.0
 10
80.39819461553785
 20
-134.2040396886709
 30
0.0
 10
80.39819461553785
 20
-134.1847427442317
 30
0.0
 10
80.41336405959528
 20
-134.1689030220132
 30
0.0
 10
80.433333313225
 20
-134.1689030220132
 30
0.0
 10
80.45262822526024
 20
-134.1689030220132
 30
0.0
 10
80.46846794707835
 20
-134.1847427442317
 30
0.0
 10
80.46846794707835
 20
-134.2040396886709
 30
0.0
  0
POLYLINE
  5
99
330
1F
100
AcDbEntity
  8
_U+30EC_U+30A4_U+30E4_U+30FC 1
 62
   179
420
  2234388
370
     9
100
AcDb2dPolyline
 66
     1
 10
0.0
 20
0.0
 30
0.0
  0
VERTEX
  5
9A
330
99
100
AcDbEntity
  8
_U+30EC_U+30A4_U+30E4_U+30FC 1
 62
   179
420
  2234388
370
     9
100
AcDbVertex
100
AcDb2dVertex
 10
100.1506452227219
 20
-133.204267466699
 30
0.0
  0
VERTEX
  5
9B
330
99
100
AcDbEntity
  8
_U+30EC_U+30A4_U+30E4_U+30FC 1
 62
   179
420
  2234388
370
     9
100
AcDbVertex
100
AcDb2dVertex
 10
100.1506452227219
 20
-126.7040546905463
 30
0.0
  0
SEQEND
  5
9C
330
99
100
AcDbEntity
  8
_U+30EC_U+30A4_U+30E4_U+30FC 1
 62
   179
420
  2234388
370
     9
  0
POLYLINE
  5
9D
330
1F
100
AcDbEntity
  8
_U+30EC_U+30A4_U+30E4_U+30FC 1
 62
   179
420
  2234388
370
     9
100
AcDb2dPolyline
 66
     1
 10
0.0
 20
0.0
 30
0.0
  0
VERTEX
  5
9E
330
9D
100
AcDbEntity
  8
_U+30EC_U+30A4_U+30E4_U+30FC 1
 62
   179
420
  2234388
370
     9
100
AcDbVertex
100
AcDb2dVertex
 10
97.84760611481072
 20
-133.204267466699
 30
0.0
  0
VERTEX
  5
9F
330
9D
100
AcDbEntity
  8
_U+30EC_U+30A4_U+30E4_U+30FC 1
 62
   179
420
  2234388
370
     9
100
AcDbVertex
100
AcDb2dVertex
 10
101.0873760321573
 20
-133.204267466699
 30
0.0
  0
SEQEND
  5
A0
330
9D
100
AcDbEntity
  8
_U+30EC_U+30A4_U+30E4_U+30FC 1
 62
   179
420
  2234388
370
     9
  0
POLYLINE
  5
A1
330
1F
100
AcDbEntity
  8
_U+30EC_U+30A4_U+30E4_U+30FC 1
 62
   179
420
  2234388
370
     9
100
AcDb2dPolyline
 66
     1
 10
0.0
 20
0.0
 30
0.0
  0
VERTEX
  5
A2
330
A1
100
AcDbEntity
  8
_U+30EC_U+30A4_U+30E4_U+30FC 1
 62
   179
420
  2234388
370
     9
100
AcDbVertex
100
AcDb2dVertex
 10
93.7410612195774
 20
-126.7040546905463
 30
0.0
  0
VERTEX
  5
A3
330
A1
100
AcDbEntity
  8
_U+30EC_U+30A4_U+30E4_U+30FC 1
 62
   179
420
  2234388
370
     9
100
AcDbVertex
100
AcDb2dVertex
 10
101.0873760321573
 20
-126.7040546905463
 30
0.0
  0
SEQEND
  5
A4
330
A1
100
AcDbEntity
  8
_U+30EC_U+30A4_U+30E4_U+30FC 1
 62
   179
420
  2234388
370
     9
  0
INSERT
  5
A6
330
1F
100
AcDbEntity
  8
_U+30EC_U+30A4_U+30E4_U+30FC 1
100
AcDbBlockReference
  2
block 4
 10
0.0
 20
0.0
 30
0.0
  0
SPLINE
  5
B6
330
1F
100
AcDbEntity
  8
_U+30EC_U+30A4_U+30E4_U+30FC 1
 62
   179
420
  2234388
370
    25
100
AcDbSpline
210
0.0
220
0.0
230
1.0
 70
    11
 71
     3
 72
    17
 73
    13
 74
     0
 42
0.0000000001
 43
0.0000000001
 12
1.0
 22
0.0
 32
0.0
 13
1.0
 23
0.0
 33
0.0
 40
0.0
 40
0.0
 40
0.0
 40
0.0
 40
1.0
 40
1.0
 40
1.0
 40
2.0
 40
2.0
 40
2.0
 40
3.0
 40
3.0
 40
3.0
 40
4.0
 40
4.0
 40
4.0
 40
4.0
 10
95.50216311909239
 20
-133.204267466699
 30
0.0
 10
95.50216311909239
 20
-133.2235644111389
 30
0.0
 10
95.48738173058061
 20
-133.2394041333567
 30
0.0
 10
95.4694606199267
 20
-133.2394041333567
 30
0.0
 10
95.45118673150402
 20
-133.2394041333567
 30
0.0
 10
95.43672284298414
 20
-133.2235644111389
 30
0.0
 10
95.43672284298414
 20
-133.204267466699
 30
0.0
 10
95.43672284298414
 20
-133.1843002444818
 30
0.0
 10
95.45118673150402
 20
-133.1684605222633
 30
0.0
 10
95.4694606199267
 20
-133.1684605222633
 30
0.0
 10
95.48738173058061
 20
-133.1684605222633
 30
0.0
 10
95.50216311909239
 20
-133.1843002444818
 30
0.0
 10
95.50216311909239
 20
-133.204267466699
 30
0.0
  0
SPLINE
  5
B7
330
1F
100
AcDbEntity
  8
_U+30EC_U+30A4_U+30E4_U+30FC 1
 62
   179
420
  2234388
370
    25
100
AcDbSpline
210
0.0
220
0.0
230
1.0
 70
    11
 71
     3
 72
    17
 73
    13
 74
     0
 42
0.0000000001
 43
0.0000000001
 12
1.0
 22
0.0
 32
0.0
 13
1.0
 23
0.0
 33
0.0
 40
0.0
 40
0.0
 40
0.0
 40
0.0
 40
1.0
 40
1.0
 40
1.0
 40
2.0
 40
2.0
 40
2.0
 40
3.0
 40
3.0
 40
3.0
 40
4.0
 40
4.0
 40
4.0
 40
4.0
 10
91.08281017628393
 20
-126.7040546905463
 30
0.0
 10
91.08281017628393
 20
-126.7237044127636
 30
0.0
 10
91.0669704544658
 20
-126.7395441349818
 30
0.0
 10
91.04767351051366
 20
-126.7395441349818
 30
0.0
 10
91.02770628880086
 20
-126.7395441349818
 30
0.0
 10
91.01253684474341
 20
-126.7237044127636
 30
0.0
 10
91.01253684474341
 20
-126.7040546905463
 30
0.0
 10
91.01253684474341
 20
-126.6847577461065
 30
0.0
 10
91.02770628880086
 20
-126.6689180238883
 30
0.0
 10
91.04767351051366
 20
-126.6689180238883
 30
0.0
 10
91.0669704544658
 20
-126.6689180238883
 30
0.0
 10
91.08281017628393
 20
-126.6847577461065
 30
0.0
 10
91.08281017628393
 20
-126.7040546905463
 30
0.0
  0
SPLINE
  5
B8
330
1F
100
AcDbEntity
  8
_U+30EC_U+30A4_U+30E4_U+30FC 1
 62
   179
420
  2234388
370
     9
100
AcDbSpline
210
0.0
220
0.0
230
1.0
 70
    11
 71
     3
 72
    17
 73
    13
 74
     0
 42
0.0000000001
 43
0.0000000001
 12
1.0
 22
0.0
 32
0.0
 13
1.0
 23
0.0
 33
0.0
 40
0.0
 40
0.0
 40
0.0
 40
0.0
 40
1.0
 40
1.0
 40
1.0
 40
2.0
 40
2.0
 40
2.0
 40
3.0
 40
3.0
 40
3.0
 40
4.0
 40
4.0
 40
4.0
 40
4.0
 10
100.1840532774252
 20
-126.7040546905463
 30
0.0
 10
100.1840532774252
 20
-126.7237044127636
 30
0.0
 10
100.1692366111365
 20
-126.7395441349818
 30
0.0
 10
100.1506452227219
 20
-126.7395441349818
 30
0.0
 10
100.1323713342993
 20
-126.7395441349818
 30
0.0
 10
100.1179074457794
 20
-126.7237044127636
 30
0.0
 10
100.1179074457794
 20
-126.7040546905463
 30
0.0
 10
100.1179074457794
 20
-126.6847577461065
 30
0.0
 10
100.1323713342993
 20
-126.6689180238883
 30
0.0
 10
100.1506452227219
 20
-126.6689180238883
 30
0.0
 10
100.1692366111365
 20
-126.6689180238883
 30
0.0
 10
100.1840532774252
 20
-126.6847577461065
 30
0.0
 10
100.1840532774252
 20
-126.7040546905463
 30
0.0
  0
POLYLINE
  5
B9
330
1F
100
AcDbEntity
  8
_U+30EC_U+30A4_U+30E4_U+30FC 1
 62
   179
420
  2234388
370
     9
100
AcDb2dPolyline
 66
     1
 10
0.0
 20
0.0
 30
0.0
  0
VERTEX
  5
BA
330
B9
100
AcDbEntity
  8
_U+30EC_U+30A4_U+30E4_U+30FC 1
 62
   179
420
  2234388
370
     9
100
AcDbVertex
100
AcDb2dVertex
 10
87.04964305695637
 20
-118.4854613592676
 30
0.0
  0
VERTEX
  5
BB
330
B9
100
AcDbEntity
  8
_U+30EC_U+30A4_U+30E4_U+30FC 1
 62
   179
420
  2234388
370
     9
100
AcDbVertex
100
AcDb2dVertex
 10
93.18257873382548
 20
-123.6210591357615
 30
0.0
  0
SEQEND
  5
BC
330
B9
100
AcDbEntity
  8
_U+30EC_U+30A4_U+30E4_U+30FC 1
 62
   179
420
  2234388
370
     9
  0
POLYLINE
  5
BD
330
1F
100
AcDbEntity
  8
_U+30EC_U+30A4_U+30E4_U+30FC 1
 62
   179
420
  2234388
370
     9
100
AcDb2dPolyline
 66
     1
 10
0.0
 20
0.0
 30
0.0
  0
VERTEX
  5
BE
330
BD
100
AcDbEntity
  8
_U+30EC_U+30A4_U+30E4_U+30FC 1
 62
   179
420
  2234388
370
     9
100
AcDbVertex
100
AcDb2dVertex
 10
86.11224196976035
 20
-119.6049310812098
 30
0.0
  0
VERTEX
  5
BF
330
BD
100
AcDbEntity
  8
_U+30EC_U+30A4_U+30E4_U+30FC 1
 62
   179
420
  2234388
370
     9
100
AcDbVertex
100
AcDb2dVertex
 10
87.6910988739248
 20
-117.7185577483483
 30
0.0
  0
SEQEND
  5
C0
330
BD
100
AcDbEntity
  8
_U+30EC_U+30A4_U+30E4_U+30FC 1
 62
   179
420
  2234388
370
     9
  0
POLYLINE
  5
C1
330
1F
100
AcDbEntity
  8
_U+30EC_U+30A4_U+30E4_U+30FC 1
 62
   179
420
  2234388
370
     9
100
AcDb2dPolyline
 66
     1
 10
0.0
 20
0.0
 30
0.0
  0
VERTEX
  5
C2
330
C1
100
AcDbEntity
  8
_U+30EC_U+30A4_U+30E4_U+30FC 1
 62
   179
420
  2234388
370
     9
100
AcDbVertex
100
AcDb2dVertex
 10
92.24482486886068
 20
-124.7403524688148
 30
0.0
  0
VERTEX
  5
C3
330
C1
100
AcDbEntity
  8
_U+30EC_U+30A4_U+30E4_U+30FC 1
 62
   179
420
  2234388
370
     9
100
AcDbVertex
100
AcDb2dVertex
 10
93.82509288410024
 20
-122.8543319137308
 30
0.0
  0
SEQEND
  5
C4
330
C1
100
AcDbEntity
  8
_U+30EC_U+30A4_U+30E4_U+30FC 1
 62
   179
420
  2234388
370
     9
  0
INSERT
  5
C6
330
1F
100
AcDbEntity
  8
_U+30EC_U+30A4_U+30E4_U+30FC 1
100
AcDbBlockReference
  2
block 5
 10
0.0
 20
0.0
 30
0.0
  0
SPLINE
  5
CD
330
1F
100
AcDbEntity
  8
_U+30EC_U+30A4_U+30E4_U+30FC 1
 62
   179
420
  2234388
370
    25
100
AcDbSpline
210
0.0
220
0.0
230
1.0
 70
    11
 71
     3
 72
    17
 73
    13
 74
     0
 42
0.0000000001
 43
0.0000000001
 12
1.0
 22
0.0
 32
0.0
 13
1.0
 23
0.0
 33
0.0
 40
0.0
 40
0.0
 40
0.0
 40
0.0
 40
1.0
 40
1.0
 40
1.0
 40
2.0
 40
2.0
 40
2.0
 40
3.0
 40
3.0
 40
3.0
 40
4.0
 40
4.0
 40
4.0
 40
4.0
 10
84.46822701170267
 20
-121.2048488585877
 30
0.0
 10
84.46822701170267
 20
-121.2244633030271
 30
0.0
 10
84.45238728988454
 20
-121.2403030252456
 30
0.0
 10
84.43309034593241
 20
-121.2403030252456
 30
0.0
 10
84.41379340198027
 20
-121.2403030252456
 30
0.0
 10
84.39795368016215
 20
-121.2244633030271
 30
0.0
 10
84.39795368016215
 20
-121.2048488585877
 30
0.0
 10
84.39795368016215
 20
-121.1855519141481
 30
0.0
 10
84.41379340198027
 20
-121.1696769141521
 30
0.0
 10
84.43309034593241
 20
-121.1696769141521
 30
0.0
 10
84.45238728988454
 20
-121.1696769141521
 30
0.0
 10
84.46822701170267
 20
-121.1855519141481
 30
0.0
 10
84.46822701170267
 20
-121.2048488585877
 30
0.0
  0
SPLINE
  5
CE
330
1F
100
AcDbEntity
  8
_U+30EC_U+30A4_U+30E4_U+30FC 1
 62
   179
420
  2234388
370
    25
100
AcDbSpline
210
0.0
220
0.0
230
1.0
 70
    11
 71
     3
 72
    17
 73
    13
 74
     0
 42
0.0000000001
 43
0.0000000001
 12
1.0
 22
0.0
 32
0.0
 13
1.0
 23
0.0
 33
0.0
 40
0.0
 40
0.0
 40
0.0
 40
0.0
 40
1.0
 40
1.0
 40
1.0
 40
2.0
 40
2.0
 40
2.0
 40
3.0
 40
3.0
 40
3.0
 40
4.0
 40
4.0
 40
4.0
 40
4.0
 10
91.08281017628393
 20
-126.7040546905463
 30
0.0
 10
91.08281017628393
 20
-126.7237044127636
 30
0.0
 10
91.0669704544658
 20
-126.7395441349818
 30
0.0
 10
91.04767351051366
 20
-126.7395441349818
 30
0.0
 10
91.02770628880086
 20
-126.7395441349818
 30
0.0
 10
91.01253684474341
 20
-126.7237044127636
 30
0.0
 10
91.01253684474341
 20
-126.7040546905463
 30
0.0
 10
91.01253684474341
 20
-126.6847577461065
 30
0.0
 10
91.02770628880086
 20
-126.6689180238883
 30
0.0
 10
91.04767351051366
 20
-126.6689180238883
 30
0.0
 10
91.0669704544658
 20
-126.6689180238883
 30
0.0
 10
91.08281017628393
 20
-126.6847577461065
 30
0.0
 10
91.08281017628393
 20
-126.7040546905463
 30
0.0
  0
SPLINE
  5
CF
330
1F
100
AcDbEntity
  8
_U+30EC_U+30A4_U+30E4_U+30FC 1
 62
   179
420
  2234388
370
     9
100
AcDbSpline
210
0.0
220
0.0
230
1.0
 70
    11
 71
     3
 72
    17
 73
    13
 74
     0
 42
0.0000000001
 43
0.0000000001
 12
1.0
 22
0.0
 32
0.0
 13
1.0
 23
0.0
 33
0.0
 40
0.0
 40
0.0
 40
0.0
 40
0.0
 40
1.0
 40
1.0
 40
1.0
 40
2.0
 40
2.0
 40
2.0
 40
3.0
 40
3.0
 40
3.0
 40
4.0
 40
4.0
 40
4.0
 40
4.0
 10
93.71795427572246
 20
-123.124594969219
 30
0.0
 10
93.71590816466355
 20
-123.1438919136585
 30
0.0
 10
93.69936288730788
 20
-123.1580383025439
 30
0.0
 10
93.67939566559507
 20
-123.1561333025444
 30
0.0
 10
93.66009872164292
 20
-123.1544046914338
 30
0.0
 10
93.64630511088372
 20
-123.1368363581046
 30
0.0
 10
93.64838886547649
 20
-123.1175394136651
 30
0.0
 10
93.65007983300964
 20
-123.0982424692256
 30
0.0
 10
93.66697788813408
 20
-123.0837785803402
 30
0.0
 10
93.68627483208623
 20
-123.0856835803397
 30
0.0
 10
93.70624442101781
 20
-123.0879060803392
 30
0.0
 10
93.72003566455825
 20
-123.1049805247793
 30
0.0
 10
93.71795427572246
 20
-123.124594969219
 30
0.0
  0
POLYLINE
  5
D0
330
1F
100
AcDbEntity
  8
_U+30EC_U+30A4_U+30E4_U+30FC 1
 62
   179
420
  2234388
370
     9
100
AcDb2dPolyline
 66
     1
 10
0.0
 20
0.0
 30
0.0
  0
VERTEX
  5
D1
330
D0
100
AcDbEntity
  8
_U+30EC_U+30A4_U+30E4_U+30FC 1
 62
   179
420
  2234388
370
     9
100
AcDbVertex
100
AcDb2dVertex
 10
100.1499396671844
 20
-136.0723155215375
 30
0.0
  0
VERTEX
  5
D2
330
D0
100
AcDbEntity
  8
_U+30EC_U+30A4_U+30E4_U+30FC 1
 62
   179
420
  2234388
370
     9
100
AcDbVertex
100
AcDb2dVertex
 10
100.1499396671844
 20
-129.7050999675736
 30
0.0
  0
SEQEND
  5
D3
330
D0
100
AcDbEntity
  8
_U+30EC_U+30A4_U+30E4_U+30FC 1
 62
   179
420
  2234388
370
     9
  0
SPLINE
  5
D4
330
1F
100
AcDbEntity
  8
_U+30EC_U+30A4_U+30E4_U+30FC 1
 62
   179
420
  2234388
370
     9
100
AcDbSpline
210
0.0
220
0.0
230
1.0
 70
    11
 71
     3
 72
    17
 73
    13
 74
     0
 42
0.0000000001
 43
0.0000000001
 12
1.0
 22
0.0
 32
0.0
 13
1.0
 23
0.0
 33
0.0
 40
0.0
 40
0.0
 40
0.0
 40
0.0
 40
1.0
 40
1.0
 40
1.0
 40
2.0
 40
2.0
 40
2.0
 40
3.0
 40
3.0
 40
3.0
 40
4.0
 40
4.0
 40
4.0
 40
4.0
 10
100.2433199425798
 20
-134.2050627442267
 30
0.0
 10
100.2433199425798
 20
-134.1499588553511
 30
0.0
 10
100.2013041103184
 20
-134.1051560775851
 30
0.0
 10
100.1499396671844
 20
-134.1051560775851
 30
0.0
 10
100.0982930018353
 20
-134.1051560775851
 30
0.0
 10
100.0565971972081
 20
-134.1499588553511
 30
0.0
 10
100.0565971972081
 20
-134.2050627442267
 30
0.0
 10
100.0565971972081
 20
-134.2602019108791
 30
0.0
 10
100.0982930018353
 20
-134.3049694108683
 30
0.0
 10
100.1499396671844
 20
-134.3049694108683
 30
0.0
 10
100.2013041103184
 20
-134.3049694108683
 30
0.0
 10
100.2433199425798
 20
-134.2602019108791
 30
0.0
 10
100.2433199425798
 20
-134.2050627442267
 30
0.0
  0
POLYLINE
  5
D5
330
1F
100
AcDbEntity
  8
_U+30EC_U+30A4_U+30E4_U+30FC 1
 62
   179
420
  2234388
370
     9
100
AcDb2dPolyline
 66
     1
 10
0.0
 20
0.0
 30
0.0
  0
VERTEX
  5
D6
330
D5
100
AcDbEntity
  8
_U+30EC_U+30A4_U+30E4_U+30FC 1
 62
   179
420
  2234388
370
     9
100
AcDbVertex
100
AcDb2dVertex
 10
97.84760611481072
 20
-134.2050627442267
 30
0.0
  0
VERTEX
  5
D7
330
D5
100
AcDbEntity
  8
_U+30EC_U+30A4_U+30E4_U+30FC 1
 62
   179
420
  2234388
370
     9
100
AcDbVertex
100
AcDb2dVertex
 10
101.0866704766197
 20
-134.2050627442267
 30
0.0
  0
SEQEND
  5
D8
330
D5
100
AcDbEntity
  8
_U+30EC_U+30A4_U+30E4_U+30FC 1
 62
   179
420
  2234388
370
     9
  0
INSERT
  5
DA
330
1F
100
AcDbEntity
  8
_U+30EC_U+30A4_U+30E4_U+30FC 1
100
AcDbBlockReference
  2
block 6
 10
0.0
 20
0.0
 30
0.0
  0
ENDSEC
  0
SECTION
  2
OBJECTS
  0
DICTIONARY
  5
C
330
0
100
AcDbDictionary
281
     1
  3
ACAD_GROUP
350
D
  3
ACAD_LAYOUT
350
1A
  3
ACAD_MATERIAL
350
3B
  3
ACAD_MLEADERSTYLE
350
E0
  3
ACAD_MLINESTYLE
350
17
  3
ACAD_PLOTSETTINGS
350
19
  3
ACAD_PLOTSTYLENAME
350
E
  3
ACAD_TABLESTYLE
350
DF
  3
ACAD_VISUALSTYLE
350
2A
  0
SUN
  5
3F
330
29
100
AcDbSun
 90
        1
290
     0
 63
     7
421
 16777215
 40
1.0
291
     1
 91
  2455826
 92
 54000000
292
     0
 70
     2
 71
   256
280
     1
  0
DICTIONARY
  5
D
102
{ACAD_REACTORS
330
C
102
}
330
C
100
AcDbDictionary
281
     1
  0
DICTIONARY
  5
1A
102
{ACAD_REACTORS
330
C
102
}
330
C
100
AcDbDictionary
281
     1
  3
Layout1
350
1E
  3
Layout2
350
26
  3
Model
350
22
  0
DICTIONARY
  5
3B
102
{ACAD_REACTORS
330
C
102
}
330
C
100
AcDbDictionary
281
     1
  3
ByBlock
350
3D
  3
ByLayer
350
3C
  3
Global
350
3E
  0
DICTIONARY
  5
E0
102
{ACAD_REACTORS
330
C
102
}
330
C
100
AcDbDictionary
281
     1
  0
DICTIONARY
  5
17
102
{ACAD_REACTORS
330
C
102
}
330
C
100
AcDbDictionary
281
     1
  3
Standard
350
18
  0
DICTIONARY
  5
19
102
{ACAD_REACTORS
330
C
102
}
330
C
100
AcDbDictionary
281
     1
  0
ACDBDICTIONARYWDFLT
  5
E
102
{ACAD_REACTORS
330
C
102
}
330
C
100
AcDbDictionary
281
     1
  3
Normal
350
F
100
AcDbDictionaryWithDefault
340
F
  0
DICTIONARY
  5
DF
102
{ACAD_REACTORS
330
C
102
}
330
C
100
AcDbDictionary
281
     1
  0
DICTIONARY
  5
2A
102
{ACAD_REACTORS
330
C
102
}
330
C
100
AcDbDictionary
281
     1
  3
2dWireframe
350
2F
  3
3D Hidden
350
31
  3
3dWireframe
350
30
  3
Basic
350
32
  3
Brighten
350
36
  3
ColorChange
350
3A
  3
Conceptual
350
34
  3
Dim
350
35
  3
Facepattern
350
39
  3
Flat
350
2B
  3
FlatWithEdges
350
2C
  3
Gouraud
350
2D
  3
GouraudWithEdges
350
2E
  3
Linepattern
350
38
  3
Realistic
350
33
  3
Thicken
350
37
  0
LAYOUT
  5
1E
102
{ACAD_REACTORS
330
1A
102
}
330
1A
100
AcDbPlotSettings
  1

  2
none_device
  4

  6

 40
0.0
 41
0.0
 42
0.0
 43
0.0
 44
0.0
 45
0.0
 46
0.0
 47
0.0
 48
0.0
 49
0.0
140
0.0
141
0.0
142
1.0
143
1.0
 70
   688
 72
     0
 73
     0
 74
     5
  7

 75
    16
 76
     0
 77
     2
 78
   300
147
1.0
148
0.0
149
0.0
100
AcDbLayout
  1
Layout1
 70
     1
 71
     1
 10
0.0
 20
0.0
 11
12.0
 21
9.0
 12
0.0
 22
0.0
 32
0.0
 14
1.000000000000000E+20
 24
1.000000000000000E+20
 34
1.000000000000000E+20
 15
-1.000000000000000E+20
 25
-1.000000000000000E+20
 35
-1.000000000000000E+20
146
0.0
 13
0.0
 23
0.0
 33
0.0
 16
1.0
 26
0.0
 36
0.0
 17
0.0
 27
1.0
 37
0.0
 76
     0
330
1B
  0
LAYOUT
  5
26
102
{ACAD_REACTORS
330
1A
102
}
330
1A
100
AcDbPlotSettings
  1

  2
none_device
  4

  6

 40
0.0
 41
0.0
 42
0.0
 43
0.0
 44
0.0
 45
0.0
 46
0.0
 47
0.0
 48
0.0
 49
0.0
140
0.0
141
0.0
142
1.0
143
1.0
 70
   688
 72
     0
 73
     0
 74
     5
  7

 75
    16
 76
     0
 77
     2
 78
   300
147
1.0
148
0.0
149
0.0
100
AcDbLayout
  1
Layout2
 70
     1
 71
     2
 10
0.0
 20
0.0
 11
0.0
 21
0.0
 12
0.0
 22
0.0
 32
0.0
 14
0.0
 24
0.0
 34
0.0
 15
0.0
 25
0.0
 35
0.0
146
0.0
 13
0.0
 23
0.0
 33
0.0
 16
1.0
 26
0.0
 36
0.0
 17
0.0
 27
1.0
 37
0.0
 76
     0
330
23
  0
LAYOUT
  5
22
102
{ACAD_REACTORS
330
1A
102
}
330
1A
100
AcDbPlotSettings
  1

  2
none_device
  4

  6

 40
0.0
 41
0.0
 42
0.0
 43
0.0
 44
0.0
 45
0.0
 46
0.0
 47
0.0
 48
0.0
 49
0.0
140
0.0
141
0.0
142
1.0
143
1.0
 70
  1712
 72
     0
 73
     0
 74
     0
  7

 75
     0
 76
     0
 77
     2
 78
   300
147
1.0
148
0.0
149
0.0
100
AcDbLayout
  1
Model
 70
     1
 71
     0
 10
0.0
 20
0.0
 11
12.0
 21
9.0
 12
0.0
 22
0.0
 32
0.0
 14
1.000000000000000E+20
 24
1.000000000000000E+20
 34
1.000000000000000E+20
 15
-1.000000000000000E+20
 25
-1.000000000000000E+20
 35
-1.000000000000000E+20
146
0.0
 13
0.0
 23
0.0
 33
0.0
 16
1.0
 26
0.0
 36
0.0
 17
0.0
 27
1.0
 37
0.0
 76
     0
330
1F
331
29
  0
MATERIAL
  5
3D
102
{ACAD_REACTORS
330
3B
102
}
330
3B
100
AcDbMaterial
  1
ByBlock
 72
     1
 94
      127
  0
MATERIAL
  5
3C
102
{ACAD_REACTORS
330
3B
102
}
330
3B
100
AcDbMaterial
  1
ByLayer
 72
     1
 94
      127
  0
MATERIAL
  5
3E
102
{ACAD_REACTORS
330
3B
102
}
330
3B
100
AcDbMaterial
  1
Global
 72
     1
 94
      127
  0
MLINESTYLE
  5
18
102
{ACAD_REACTORS
330
17
102
}
330
17
100
AcDbMlineStyle
  2
Standard
 70
     0
  3

 62
   256
 51
90.0
 52
90.0
 71
     2
 49
0.5
 62
   256
  6
BYLAYER
 49
-0.5
 62
   256
  6
BYLAYER
  0
ACDBPLACEHOLDER
  5
F
102
{ACAD_REACTORS
330
E
102
}
330
E
  0
VISUALSTYLE
  5
2F
102
{ACAD_REACTORS
330
2A
102
}
330
2A
100
AcDbVisualStyle
  2
2dWireframe
 70
     4
177
     2
291
     0
 71
     0
176
     1
 72
     2
176
     1
 73
     0
176
     1
 90
        0
176
     1
 40
-0.6
176
     1
 41
-30.0
176
     1
 62
     5
 63
     7
421
 16777215
176
     1
 74
     1
176
     1
 91
        4
176
     1
 64
     7
176
     1
 65
   257
176
     1
 75
     1
176
     1
175
     1
176
     1
 42
1.0
176
     1
 92
        0
176
     1
 66
   257
176
     1
 43
1.0
176
     1
 76
     1
176
     1
 77
     6
176
     1
 78
     2
176
     1
 67
     7
176
     1
 79
     5
176
     1
170
     0
176
     1
171
     0
176
     1
290
     0
176
     1
 93
        1
176
     1
 44
0.0
176
     1
173
     0
176
     1
  0
VISUALSTYLE
  5
31
102
{ACAD_REACTORS
330
2A
102
}
330
2A
100
AcDbVisualStyle
  2
3D Hidden
 70
     6
177
     2
291
     0
 71
     1
176
     1
 72
     2
176
     1
 73
     2
176
     1
 90
        0
176
     1
 40
-0.6
176
     1
 41
-30.0
176
     1
 62
     5
 63
     7
421
 16777215
176
     1
 74
     2
176
     1
 91
        2
176
     1
 64
     7
176
     1
 65
   257
176
     1
 75
     2
176
     1
175
     1
176
     1
 42
40.0
176
     1
 92
        0
176
     1
 66
   257
176
     1
 43
1.0
176
     1
 76
     1
176
     1
 77
     6
176
     1
 78
     2
176
     1
 67
     7
176
     1
 79
     3
176
     1
170
     0
176
     1
171
     0
176
     1
290
     0
176
     1
 93
        1
176
     1
 44
0.0
176
     1
173
     0
176
     1
  0
VISUALSTYLE
  5
30
102
{ACAD_REACTORS
330
2A
102
}
330
2A
100
AcDbVisualStyle
  2
3dWireframe
 70
     5
177
     2
291
     0
 71
     0
176
     1
 72
     2
176
     1
 73
     0
176
     1
 90
        0
176
     1
 40
-0.6
176
     1
 41
-30.0
176
     1
 62
     5
 63
     7
421
 16777215
176
     1
 74
     1
176
     1
 91
        4
176
     1
 64
     7
176
     1
 65
   257
176
     1
 75
     1
176
     1
175
     1
176
     1
 42
1.0
176
     1
 92
        0
176
     1
 66
   257
176
     1
 43
1.0
176
     1
 76
     1
176
     1
 77
     6
176
     1
 78
     2
176
     1
 67
     7
176
     1
 79
     5
176
     1
170
     0
176
     1
171
     0
176
     1
290
     0
176
     1
 93
        1
176
     1
 44
0.0
176
     1
173
     0
176
     1
  0
VISUALSTYLE
  5
32
102
{ACAD_REACTORS
330
2A
102
}
330
2A
100
AcDbVisualStyle
  2
Basic
 70
     7
177
     2
291
     1
 71
     1
176
     1
 72
     0
176
     1
 73
     1
176
     1
 90
        0
176
     1
 40
-0.6
176
     1
 41
-30.0
176
     1
 62
     5
 63
     7
421
 16777215
176
     1
 74
     0
176
     1
 91
        4
176
     1
 64
     7
176
     1
 65
   257
176
     1
 75
     1
176
     1
175
     1
176
     1
 42
1.0
176
     1
 92
        8
176
     1
 66
     7
176
     1
 43
1.0
176
     1
 76
     1
176
     1
 77
     6
176
     1
 78
     2
176
     1
 67
     7
176
     1
 79
     5
176
     1
170
     0
176
     1
171
     0
176
     1
290
     0
176
     1
 93
        1
176
     1
 44
0.0
176
     1
173
     0
176
     1
  0
VISUALSTYLE
  5
36
102
{ACAD_REACTORS
330
2A
102
}
330
2A
100
AcDbVisualStyle
  2
Brighten
 70
    12
177
     2
291
     1
 71
     2
176
     1
 72
     2
176
     1
 73
     0
176
     1
 90
        0
176
     1
 40
-0.6
176
     1
 41
-30.0
176
     1
 62
     5
 63
     7
421
 16777215
176
     1
 74
     1
176
     1
 91
        4
176
     1
 64
     7
176
     1
 65
   257
176
     1
 75
     1
176
     1
175
     1
176
     1
 42
1.0
176
     1
 92
        8
176
     1
 66
     7
176
     1
 43
1.0
176
     1
 76
     1
176
     1
 77
     6
176
     1
 78
     2
176
     1
 67
     7
176
     1
 79
     5
176
     1
170
     0
176
     1
171
     0
176
     1
290
     0
176
     1
 93
        1
176
     1
 44
50.0
176
     1
173
     0
176
     1
  0
VISUALSTYLE
  5
3A
102
{ACAD_REACTORS
330
2A
102
}
330
2A
100
AcDbVisualStyle
  2
ColorChange
 70
    16
177
     2
291
     1
 71
     2
176
     1
 72
     2
176
     1
 73
     3
176
     1
 90
        0
176
     1
 40
-0.6
176
     1
 41
-30.0
176
     1
 62
     5
 63
     8
421
  8421504
176
     1
 74
     1
176
     1
 91
        4
176
     1
 64
     7
176
     1
 65
   257
176
     1
 75
     1
176
     1
175
     1
176
     1
 42
1.0
176
     1
 92
        8
176
     1
 66
     8
424
  8421504
176
     1
 43
1.0
176
     1
 76
     1
176
     1
 77
     6
176
     1
 78
     2
176
     1
 67
     7
176
     1
 79
     5
176
     1
170
     0
176
     1
171
     0
176
     1
290
     0
176
     1
 93
        1
176
     1
 44
0.0
176
     1
173
     0
176
     1
  0
VISUALSTYLE
  5
34
102
{ACAD_REACTORS
330
2A
102
}
330
2A
100
AcDbVisualStyle
  2
Conceptual
 70
     9
177
     2
291
     0
 71
     3
176
     1
 72
     2
176
     1
 73
     0
176
     1
 90
        0
176
     1
 40
-0.6
176
     1
 41
-30.0
176
     1
 62
     5
 63
     7
421
 16777215
176
     1
 74
     2
176
     1
 91
        2
176
     1
 64
     7
176
     1
 65
   257
176
     1
 75
     1
176
     1
175
     1
176
     1
 42
40.0
176
     1
 92
        8
176
     1
 66
     7
176
     1
 43
1.0
176
     1
 76
     1
176
     1
 77
     6
176
     1
 78
     2
176
     1
 67
     7
176
     1
 79
     3
176
     1
170
     0
176
     1
171
     0
176
     1
290
     0
176
     1
 93
        1
176
     1
 44
0.0
176
     1
173
     0
176
     1
  0
VISUALSTYLE
  5
35
102
{ACAD_REACTORS
330
2A
102
}
330
2A
100
AcDbVisualStyle
  2
Dim
 70
    11
177
     2
291
     1
 71
     2
176
     1
 72
     2
176
     1
 73
     0
176
     1
 90
        0
176
     1
 40
-0.6
176
     1
 41
-30.0
176
     1
 62
     5
 63
     7
421
 16777215
176
     1
 74
     1
176
     1
 91
        4
176
     1
 64
     7
176
     1
 65
   257
176
     1
 75
     1
176
     1
175
     1
176
     1
 42
1.0
176
     1
 92
        8
176
     1
 66
     7
176
     1
 43
1.0
176
     1
 76
     1
176
     1
 77
     6
176
     1
 78
     2
176
     1
 67
     7
176
     1
 79
     5
176
     1
170
     0
176
     1
171
     0
176
     1
290
     0
176
     1
 93
        1
176
     1
 44
-50.0
176
     1
173
     0
176
     1
  0
VISUALSTYLE
  5
39
102
{ACAD_REACTORS
330
2A
102
}
330
2A
100
AcDbVisualStyle
  2
Facepattern
 70
    15
177
     2
291
     1
 71
     2
176
     1
 72
     2
176
     1
 73
     0
176
     1
 90
        0
176
     1
 40
-0.6
176
     1
 41
-30.0
176
     1
 62
     5
 63
     7
421
 16777215
176
     1
 74
     1
176
     1
 91
        4
176
     1
 64
     7
176
     1
 65
   257
176
     1
 75
     1
176
     1
175
     1
176
     1
 42
1.0
176
     1
 92
        8
176
     1
 66
     7
176
     1
 43
1.0
176
     1
 76
     1
176
     1
 77
     6
176
     1
 78
     2
176
     1
 67
     7
176
     1
 79
     5
176
     1
170
     0
176
     1
171
     0
176
     1
290
     0
176
     1
 93
        1
176
     1
 44
0.0
176
     1
173
     0
176
     1
  0
VISUALSTYLE
  5
2B
102
{ACAD_REACTORS
330
2A
102
}
330
2A
100
AcDbVisualStyle
  2
Flat
 70
     0
177
     2
291
     1
 71
     2
176
     1
 72
     1
176
     1
 73
     1
176
     1
 90
        2
176
     1
 40
-0.6
176
     1
 41
30.0
176
     1
 62
     5
 63
     7
421
 16777215
176
     1
 74
     0
176
     1
 91
        4
176
     1
 64
     7
176
     1
 65
   257
176
     1
 75
     1
176
     1
175
     1
176
     1
 42
1.0
176
     1
 92
        8
176
     1
 66
     7
176
     1
 43
1.0
176
     1
 76
     1
176
     1
 77
     6
176
     1
 78
     2
176
     1
 67
     7
176
     1
 79
     5
176
     1
170
     0
176
     1
171
     0
176
     1
290
     0
176
     1
 93
       13
176
     1
 44
0.0
176
     1
173
     0
176
     1
  0
VISUALSTYLE
  5
2C
102
{ACAD_REACTORS
330
2A
102
}
330
2A
100
AcDbVisualStyle
  2
FlatWithEdges
 70
     1
177
     2
291
     1
 71
     2
176
     1
 72
     1
176
     1
 73
     1
176
     1
 90
        2
176
     1
 40
-0.6
176
     1
 41
30.0
176
     1
 62
     5
 63
     7
421
 16777215
176
     1
 74
     1
176
     1
 91
        4
176
     1
 64
     7
176
     1
 65
   257
176
     1
 75
     1
176
     1
175
     1
176
     1
 42
1.0
176
     1
 92
        0
176
     1
 66
   257
176
     1
 43
1.0
176
     1
 76
     1
176
     1
 77
     6
176
     1
 78
     2
176
     1
 67
     7
176
     1
 79
     5
176
     1
170
     0
176
     1
171
     0
176
     1
290
     0
176
     1
 93
       13
176
     1
 44
0.0
176
     1
173
     0
176
     1
  0
VISUALSTYLE
  5
2D
102
{ACAD_REACTORS
330
2A
102
}
330
2A
100
AcDbVisualStyle
  2
Gouraud
 70
     2
177
     2
291
     1
 71
     2
176
     1
 72
     2
176
     1
 73
     1
176
     1
 90
        2
176
     1
 40
-0.6
176
     1
 41
30.0
176
     1
 62
     5
 63
     7
421
 16777215
176
     1
 74
     0
176
     1
 91
        4
176
     1
 64
     7
176
     1
 65
   257
176
     1
 75
     1
176
     1
175
     1
176
     1
 42
1.0
176
     1
 92
        0
176
     1
 66
     7
176
     1
 43
1.0
176
     1
 76
     1
176
     1
 77
     6
176
     1
 78
     2
176
     1
 67
     7
176
     1
 79
     5
176
     1
170
     0
176
     1
171
     0
176
     1
290
     0
176
     1
 93
       13
176
     1
 44
0.0
176
     1
173
     0
176
     1
  0
VISUALSTYLE
  5
2E
102
{ACAD_REACTORS
330
2A
102
}
330
2A
100
AcDbVisualStyle
  2
GouraudWithEdges
 70
     3
177
     2
291
     1
 71
     2
176
     1
 72
     2
176
     1
 73
     1
176
     1
 90
        2
176
     1
 40
-0.6
176
     1
 41
30.0
176
     1
 62
     5
 63
     7
421
 16777215
176
     1
 74
     1
176
     1
 91
        4
176
     1
 64
     7
176
     1
 65
   257
176
     1
 75
     1
176
     1
175
     1
176
     1
 42
1.0
176
     1
 92
        0
176
     1
 66
   257
176
     1
 43
1.0
176
     1
 76
     1
176
     1
 77
     6
176
     1
 78
     2
176
     1
 67
     7
176
     1
 79
     5
176
     1
170
     0
176
     1
171
     0
176
     1
290
     0
176
     1
 93
       13
176
     1
 44
0.0
176
     1
173
     0
176
     1
  0
VISUALSTYLE
  5
38
102
{ACAD_REACTORS
330
2A
102
}
330
2A
100
AcDbVisualStyle
  2
Linepattern
 70
    14
177
     2
291
     1
 71
     2
176
     1
 72
     2
176
     1
 73
     0
176
     1
 90
        0
176
     1
 40
-0.6
176
     1
 41
-30.0
176
     1
 62
     5
 63
     7
421
 16777215
176
     1
 74
     1
176
     1
 91
        4
176
     1
 64
     7
176
     1
 65
   257
176
     1
 75
     7
176
     1
175
     7
176
     1
 42
1.0
176
     1
 92
        8
176
     1
 66
     7
176
     1
 43
1.0
176
     1
 76
     1
176
     1
 77
     6
176
     1
 78
     2
176
     1
 67
     7
176
     1
 79
     5
176
     1
170
     0
176
     1
171
     0
176
     1
290
     0
176
     1
 93
        1
176
     1
 44
0.0
176
     1
173
     0
176
     1
  0
VISUALSTYLE
  5
33
102
{ACAD_REACTORS
330
2A
102
}
330
2A
100
AcDbVisualStyle
  2
Realistic
 70
     8
177
     2
291
     0
 71
     2
176
     1
 72
     2
176
     1
 73
     0
176
     1
 90
        0
176
     1
 40
-0.6
176
     1
 41
-30.0
176
     1
 62
     5
 63
     7
421
 16777215
176
     1
 74
     1
176
     1
 91
        0
176
     1
 64
     7
176
     1
 65
   257
176
     1
 75
     1
176
     1
175
     1
176
     1
 42
1.0
176
     1
 92
        8
176
     1
 66
     8
424
  7895160
176
     1
 43
1.0
176
     1
 76
     1
176
     1
 77
     6
176
     1
 78
     2
176
     1
 67
     7
176
     1
 79
     5
176
     1
170
     0
176
     1
171
     0
176
     1
290
     0
176
     1
 93
       13
176
     1
 44
0.0
176
     1
173
     0
176
     1
  0
VISUALSTYLE
  5
37
102
{ACAD_REACTORS
330
2A
102
}
330
2A
100
AcDbVisualStyle
  2
Thicken
 70
    13
177
     2
291
     1
 71
     2
176
     1
 72
     2
176
     1
 73
     0
176
     1
 90
        0
176
     1
 40
-0.6
176
     1
 41
-30.0
176
     1
 62
     5
 63
     7
421
 16777215
176
     1
 74
     1
176
     1
 91
        4
176
     1
 64
     7
176
     1
 65
   257
176
     1
 75
     1
176
     1
175
     1
176
     1
 42
1.0
176
     1
 92
       12
176
     1
 66
     7
176
     1
 43
1.0
176
     1
 76
     1
176
     1
 77
     6
176
     1
 78
     2
176
     1
 67
     7
176
     1
 79
     5
176
     1
170
     0
176
     1
171
     0
176
     1
290
     0
176
     1
 93
        1
176
     1
 44
0.0
176
     1
173
     0
176
     1
  0
ENDSEC
  0
EOF
