  0
SECTION
  2
HEADER
  9
$ACADVER
  1
AC1024
  9
$ACADMAINTVER
 70
     6
  9
$DWGCODEPAGE
  3
UNDEFINED
  9
$INSBASE
 10
0.0
 20
0.0
 30
0.0
  9
$EXTMIN
 10
1.000000000000000E+20
 20
1.000000000000000E+20
 30
1.000000000000000E+20
  9
$EXTMAX
 10
-1.000000000000000E+20
 20
-1.000000000000000E+20
 30
-1.000000000000000E+20
  9
$LIMMIN
 10
0.0
 20
0.0
  9
$LIMMAX
 10
12.0
 20
9.0
  9
$ORTHOMODE
 70
     0
  9
$REGENMODE
 70
     1
  9
$FILLMODE
 70
     1
  9
$QTEXTMODE
 70
     0
  9
$MIRRTEXT
 70
     1
  9
$LTSCALE
 40
1.0
  9
$ATTMODE
 70
     1
  9
$TEXTSIZE
 40
0.2
  9
$TRACEWID
 40
0.05
  9
$TEXTSTYLE
  7
Standard
  9
$CLAYER
  8
0
  9
$CELTYPE
  6
ByLayer
  9
$CECOLOR
 62
   256
  9
$CELTSCALE
 40
1.0
  9
$DISPSILH
 70
     0
  9
$DIMSCALE
 40
1.0
  9
$DIMASZ
 40
0.18
  9
$DIMEXO
 40
0.0625
  9
$DIMDLI
 40
0.38
  9
$DIMRND
 40
0.0
  9
$DIMDLE
 40
0.0
  9
$DIMEXE
 40
0.18
  9
$DIMTP
 40
0.0
  9
$DIMTM
 40
0.0
  9
$DIMTXT
 40
0.18
  9
$DIMCEN
 40
0.09
  9
$DIMTSZ
 40
0.0
  9
$DIMTOL
 70
     0
  9
$DIMLIM
 70
     0
  9
$DIMTIH
 70
     1
  9
$DIMTOH
 70
     1
  9
$DIMSE1
 70
     0
  9
$DIMSE2
 70
     0
  9
$DIMTAD
 70
     0
  9
$DIMZIN
 70
     0
  9
$DIMBLK
  1

  9
$DIMASO
 70
     1
  9
$DIMSHO
 70
     1
  9
$DIMPOST
  1

  9
$DIMAPOST
  1

  9
$DIMALT
 70
     0
  9
$DIMALTD
 70
     2
  9
$DIMALTF
 40
25.4
  9
$DIMLFAC
 40
1.0
  9
$DIMTOFL
 70
     0
  9
$DIMTVP
 40
0.0
  9
$DIMTIX
 70
     0
  9
$DIMSOXD
 70
     0
  9
$DIMSAH
 70
     0
  9
$DIMBLK1
  1

  9
$DIMBLK2
  1

  9
$DIMSTYLE
  2
Standard
  9
$DIMCLRD
 70
     0
  9
$DIMCLRE
 70
     0
  9
$DIMCLRT
 70
     0
  9
$DIMTFAC
 40
1.0
  9
$DIMGAP
 40
0.09
  9
$DIMJUST
 70
     0
  9
$DIMSD1
 70
     0
  9
$DIMSD2
 70
     0
  9
$DIMTOLJ
 70
     1
  9
$DIMTZIN
 70
     0
  9
$DIMALTZ
 70
     0
  9
$DIMALTTZ
 70
     0
  9
$DIMUPT
 70
     0
  9
$DIMDEC
 70
     4
  9
$DIMTDEC
 70
     4
  9
$DIMALTU
 70
     2
  9
$DIMALTTD
 70
     2
  9
$DIMTXSTY
  7
Standard
  9
$DIMAUNIT
 70
     0
  9
$DIMADEC
 70
     0
  9
$DIMALTRND
 40
0.0
  9
$DIMAZIN
 70
     0
  9
$DIMDSEP
 70
    46
  9
$DIMATFIT
 70
     3
  9
$DIMFRAC
 70
     0
  9
$DIMLDRBLK
  1

  9
$DIMLUNIT
 70
     2
  9
$DIMLWD
 70
    -2
  9
$DIMLWE
 70
    -2
  9
$DIMTMOVE
 70
     0
  9
$DIMFXL
 40
1.0
  9
$DIMFXLON
 70
     0
  9
$DIMJOGANG
 40
0.7853981633974483
  9
$DIMTFILL
 70
     0
  9
$DIMTFILLCLR
 70
     0
  9
$DIMARCSYM
 70
     0
  9
$DIMLTYPE
  6

  9
$DIMLTEX1
  6

  9
$DIMLTEX2
  6

  9
$DIMTXTDIRECTION
 70
     0
  9
$LUNITS
 70
     2
  9
$LUPREC
 70
     4
  9
$SKETCHINC
 40
0.1
  9
$FILLETRAD
 40
0.5
  9
$AUNITS
 70
     0
  9
$AUPREC
 70
     0
  9
$MENU
  1
.
  9
$ELEVATION
 40
0.0
  9
$PELEVATION
 40
0.0
  9
$THICKNESS
 40
0.0
  9
$LIMCHECK
 70
     0
  9
$CHAMFERA
 40
0.5
  9
$CHAMFERB
 40
0.5
  9
$CHAMFERC
 40
1.0
  9
$CHAMFERD
 40
0.0
  9
$SKPOLY
 70
     0
  9
$TDCREATE
 40
2457917.619687488
  9
$TDUCREATE
 40
2457917.2446875
  9
$TDUPDATE
 40
2457917.619687488
  9
$TDUUPDATE
 40
2457917.2446875
  9
$TDINDWG
 40
0.0000000116
  9
$TDUSRTIMER
 40
0.0000000116
  9
$USRTIMER
 70
     1
  9
$ANGBASE
 50
0.0
  9
$ANGDIR
 70
     0
  9
$PDMODE
 70
     0
  9
$PDSIZE
 40
0.0
  9
$PLINEWID
 40
0.0
  9
$SPLFRAME
 70
     0
  9
$SPLINETYPE
 70
     6
  9
$SPLINESEGS
 70
     8
  9
$HANDSEED
  5
DC
  9
$SURFTAB1
 70
     6
  9
$SURFTAB2
 70
     6
  9
$SURFTYPE
 70
     6
  9
$SURFU
 70
     6
  9
$SURFV
 70
     6
  9
$UCSBASE
  2

  9
$UCSNAME
  2

  9
$UCSORG
 10
0.0
 20
0.0
 30
0.0
  9
$UCSXDIR
 10
1.0
 20
0.0
 30
0.0
  9
$UCSYDIR
 10
0.0
 20
1.0
 30
0.0
  9
$UCSORTHOREF
  2

  9
$UCSORTHOVIEW
 70
     0
  9
$UCSORGTOP
 10
0.0
 20
0.0
 30
0.0
  9
$UCSORGBOTTOM
 10
0.0
 20
0.0
 30
0.0
  9
$UCSORGLEFT
 10
0.0
 20
0.0
 30
0.0
  9
$UCSORGRIGHT
 10
0.0
 20
0.0
 30
0.0
  9
$UCSORGFRONT
 10
0.0
 20
0.0
 30
0.0
  9
$UCSORGBACK
 10
0.0
 20
0.0
 30
0.0
  9
$PUCSBASE
  2

  9
$PUCSNAME
  2

  9
$PUCSORG
 10
0.0
 20
0.0
 30
0.0
  9
$PUCSXDIR
 10
1.0
 20
0.0
 30
0.0
  9
$PUCSYDIR
 10
0.0
 20
1.0
 30
0.0
  9
$PUCSORTHOREF
  2

  9
$PUCSORTHOVIEW
 70
     0
  9
$PUCSORGTOP
 10
0.0
 20
0.0
 30
0.0
  9
$PUCSORGBOTTOM
 10
0.0
 20
0.0
 30
0.0
  9
$PUCSORGLEFT
 10
0.0
 20
0.0
 30
0.0
  9
$PUCSORGRIGHT
 10
0.0
 20
0.0
 30
0.0
  9
$PUCSORGFRONT
 10
0.0
 20
0.0
 30
0.0
  9
$PUCSORGBACK
 10
0.0
 20
0.0
 30
0.0
  9
$USERI1
 70
     0
  9
$USERI2
 70
     0
  9
$USERI3
 70
     0
  9
$USERI4
 70
     0
  9
$USERI5
 70
     0
  9
$USERR1
 40
0.0
  9
$USERR2
 40
0.0
  9
$USERR3
 40
0.0
  9
$USERR4
 40
0.0
  9
$USERR5
 40
0.0
  9
$WORLDVIEW
 70
     1
  9
$SHADEDGE
 70
     3
  9
$SHADEDIF
 70
    70
  9
$TILEMODE
 70
     1
  9
$MAXACTVP
 70
    64
  9
$PINSBASE
 10
0.0
 20
0.0
 30
0.0
  9
$PLIMCHECK
 70
     0
  9
$PEXTMIN
 10
1.000000000000000E+20
 20
1.000000000000000E+20
 30
1.000000000000000E+20
  9
$PEXTMAX
 10
-1.000000000000000E+20
 20
-1.000000000000000E+20
 30
-1.000000000000000E+20
  9
$PLIMMIN
 10
0.0
 20
0.0
  9
$PLIMMAX
 10
12.0
 20
9.0
  9
$UNITMODE
 70
     0
  9
$VISRETAIN
 70
     1
  9
$PLINEGEN
 70
     0
  9
$PSLTSCALE
 70
     1
  9
$TREEDEPTH
 70
  3020
  9
$CMLSTYLE
  2
Standard
  9
$CMLJUST
 70
     0
  9
$CMLSCALE
 40
1.0
  9
$PROXYGRAPHICS
 70
     1
  9
$MEASUREMENT
 70
     0
  9
$CELWEIGHT
370
    -1
  9
$ENDCAPS
280
     0
  9
$JOINSTYLE
280
     0
  9
$LWDISPLAY
290
     1
  9
$INSUNITS
 70
     1
  9
$HYPERLINKBASE
  1

  9
$STYLESHEET
  1

  9
$XEDIT
290
     1
  9
$CEPSNTYPE
380
     0
  9
$PSTYLEMODE
290
     1
  9
$FINGERPRINTGUID
  2
{28C0C959-A293-211F-F47F-59417C3F4DCB}
  9
$VERSIONGUID
  2
{FAEB1C32-E019-11D5-929B-00C0DF256EC4}
  9
$EXTNAMES
290
     1
  9
$PSVPSCALE
 40
0.0
  9
$OLESTARTUP
290
     0
  9
$SORTENTS
280
   127
  9
$INDEXCTL
280
     0
  9
$HIDETEXT
280
     1
  9
$XCLIPFRAME
280
     2
  9
$HALOGAP
280
     0
  9
$OBSCOLOR
 70
   257
  9
$OBSLTYPE
280
     0
  9
$INTERSECTIONDISPLAY
280
     0
  9
$INTERSECTIONCOLOR
 70
   257
  9
$DIMASSOC
280
     2
  9
$PROJECTNAME
  1

  9
$CAMERADISPLAY
290
     0
  9
$LENSLENGTH
 40
50.0
  9
$CAMERAHEIGHT
 40
0.0
  9
$STEPSPERSEC
 40
2.0
  9
$STEPSIZE
 40
6.0
  9
$3DDWFPREC
 40
2.0
  9
$PSOLWIDTH
 40
0.25
  9
$PSOLHEIGHT
 40
4.0
  9
$LOFTANG1
 40
1.570796326794897
  9
$LOFTANG2
 40
1.570796326794897
  9
$LOFTMAG1
 40
0.0
  9
$LOFTMAG2
 40
0.0
  9
$LOFTPARAM
 70
     7
  9
$LOFTNORMALS
280
     1
  9
$LATITUDE
 40
37.795
  9
$LONGITUDE
 40
-122.394
  9
$NORTHDIRECTION
 40
0.0
  9
$TIMEZONE
 70
 -8000
  9
$LIGHTGLYPHDISPLAY
280
     1
  9
$TILEMODELIGHTSYNCH
280
     1
  9
$CMATERIAL
347
3C
  9
$SOLIDHIST
280
     1
  9
$SHOWHIST
280
     1
  9
$DWFFRAME
280
     2
  9
$DGNFRAME
280
     2
  9
$REALWORLDSCALE
290
     1
  9
$INTERFERECOLOR
 62
   256
  9
$CSHADOW
280
     0
  9
$SHADOWPLANELOCATION
 40
0.0
  0
ENDSEC
  0
SECTION
  2
CLASSES
  0
CLASS
  1
ACDBDICTIONARYWDFLT
  2
AcDbDictionaryWithDefault
  3
ObjectDBX Classes
 90
        0
 91
        4
280
     0
281
     0
  0
CLASS
  1
VISUALSTYLE
  2
AcDbVisualStyle
  3
ObjectDBX Classes
 90
     4095
 91
        4
280
     0
281
     0
  0
CLASS
  1
MATERIAL
  2
AcDbMaterial
  3
ObjectDBX Classes
 90
     1153
 91
        4
280
     0
281
     0
  0
CLASS
  1
SUN
  2
AcDbSun
  3
SCENEOE
 90
     1024
 91
        4
280
     0
281
     0
  0
ENDSEC
  0
SECTION
  2
TABLES
  0
TABLE
  2
VPORT
  5
8
330
0
100
AcDbSymbolTable
 70
     1
  0
VPORT
  5
29
330
8
100
AcDbSymbolTableRecord
100
AcDbViewportTableRecord
  2
*Active
 70
     0
 10
0.0
 20
0.0
 11
1.0
 21
1.0
 12
0.0
 22
0.0
 13
0.0
 23
0.0
 14
0.5
 24
0.5
 15
0.5
 25
0.5
 16
0.0
 26
0.0
 36
1.0
 17
91.00082462281999
 27
-128.4993055234307
 37
0.0
 40
256.9986110468615
 41
0.7081814508812795
 42
50.0
 43
0.0
 44
0.0
 50
0.0
 51
0.0
 71
     0
 72
   100
 73
     1
 74
     3
 75
     0
 76
     0
 77
     0
 78
     0
281
     0
 65
     1
110
0.0
120
0.0
130
0.0
111
1.0
121
0.0
131
0.0
112
0.0
122
1.0
132
0.0
 79
     0
146
0.0
 60
     3
 61
     5
292
     1
282
     1
141
0.0
142
0.0
 63
   250
361
3F
  0
ENDTAB
  0
TABLE
  2
LTYPE
  5
5
330
0
100
AcDbSymbolTable
 70
     2
  0
LTYPE
  5
14
330
5
100
AcDbSymbolTableRecord
100
AcDbLinetypeTableRecord
  2
ByBlock
 70
     0
  3

 72
    65
 73
     0
 40
0.0
  0
LTYPE
  5
15
330
5
100
AcDbSymbolTableRecord
100
AcDbLinetypeTableRecord
  2
ByLayer
 70
     0
  3

 72
    65
 73
     0
 40
0.0
  0
LTYPE
  5
16
330
5
100
AcDbSymbolTableRecord
100
AcDbLinetypeTableRecord
  2
Continuous
 70
     0
  3
Solid line
 72
    65
 73
     0
 40
0.0
  0
LTYPE
  5
D8
330
5
100
AcDbSymbolTableRecord
100
AcDbLinetypeTableRecord
  2
AI-Linetype-1
 70
     0
  3
Adobe Illustrator Linetype No. 1
 72
    65
 73
     2
 40
1.411111110758333
 49
0.7055555553791667
 74
     0
 49
-0.7055555553791667
 74
     0
  0
ENDTAB
  0
TABLE
  2
LAYER
  5
2
330
0
100
AcDbSymbolTable
 70
     2
  0
LAYER
  5
10
330
2
100
AcDbSymbolTableRecord
100
AcDbLayerTableRecord
  2
0
 70
     0
 62
     7
  6
Continuous
370
    -3
390
F
347
3E
  0
LAYER
  5
40
330
2
100
AcDbSymbolTableRecord
100
AcDbLayerTableRecord
  2
_U+30EC_U+30A4_U+30E4_U+30FC 1
 70
     0
 62
     7
  6
Continuous
370
    -3
390
F
347
3E
  0
ENDTAB
  0
TABLE
  2
STYLE
  5
3
330
0
100
AcDbSymbolTable
 70
     1
  0
STYLE
  5
11
330
3
100
AcDbSymbolTableRecord
100
AcDbTextStyleTableRecord
  2
Standard
 70
     0
 40
0.0
 41
1.0
 50
0.0
 71
     0
 42
0.2
  3
txt
  4

  0
ENDTAB
  0
TABLE
  2
VIEW
  5
6
330
0
100
AcDbSymbolTable
 70
     0
  0
ENDTAB
  0
TABLE
  2
UCS
  5
7
330
0
100
AcDbSymbolTable
 70
     0
  0
ENDTAB
  0
TABLE
  2
APPID
  5
9
330
0
100
AcDbSymbolTable
 70
     1
  0
APPID
  5
12
330
9
100
AcDbSymbolTableRecord
100
AcDbRegAppTableRecord
  2
ACAD
 70
     0
  0
ENDTAB
  0
TABLE
  2
DIMSTYLE
  5
A
330
0
100
AcDbSymbolTable
 70
     1
100
AcDbDimStyleTable
  0
DIMSTYLE
105
27
330
A
100
AcDbSymbolTableRecord
100
AcDbDimStyleTableRecord
  2
Standard
 70
     0
178
     0
340
11
  0
ENDTAB
  0
TABLE
  2
BLOCK_RECORD
  5
1
330
0
100
AcDbSymbolTable
 70
     6
  0
BLOCK_RECORD
  5
1F
330
1
100
AcDbSymbolTableRecord
100
AcDbBlockTableRecord
  2
*Model_Space
340
22
 70
     0
280
     1
281
     0
  0
BLOCK_RECORD
  5
1B
330
1
100
AcDbSymbolTableRecord
100
AcDbBlockTableRecord
  2
*Paper_Space
340
1E
 70
     0
280
     1
281
     0
  0
BLOCK_RECORD
  5
23
330
1
100
AcDbSymbolTableRecord
100
AcDbBlockTableRecord
  2
*Paper_Space0
340
26
 70
     0
280
     1
281
     0
  0
BLOCK_RECORD
  5
62
330
1
100
AcDbSymbolTableRecord
100
AcDbBlockTableRecord
  2
block 2
340
0
102
{BLKREFS
331
63
102
}
 70
     0
280
     1
281
     0
  0
BLOCK_RECORD
  5
77
330
1
100
AcDbSymbolTableRecord
100
AcDbBlockTableRecord
  2
block 3
340
0
102
{BLKREFS
331
78
102
}
 70
     0
280
     1
281
     0
  0
BLOCK_RECORD
  5
A7
330
1
100
AcDbSymbolTableRecord
100
AcDbBlockTableRecord
  2
block 4
340
0
102
{BLKREFS
331
A8
102
}
 70
     0
280
     1
281
     0
  0
BLOCK_RECORD
  5
BC
330
1
100
AcDbSymbolTableRecord
100
AcDbBlockTableRecord
  2
block 5
340
0
102
{BLKREFS
331
BD
102
}
 70
     0
280
     1
281
     0
  0
BLOCK_RECORD
  5
CE
330
1
100
AcDbSymbolTableRecord
100
AcDbBlockTableRecord
  2
block 6
340
0
102
{BLKREFS
331
CF
102
}
 70
     0
280
     1
281
     0
  0
ENDTAB
  0
ENDSEC
  0
SECTION
  2
BLOCKS
  0
BLOCK
  5
20
330
1F
100
AcDbEntity
  8
0
100
AcDbBlockBegin
  2
*Model_Space
 70
     0
 10
0.0
 20
0.0
 30
0.0
  3
*Model_Space
  1

  0
ENDBLK
  5
21
330
1F
100
AcDbEntity
  8
0
100
AcDbBlockEnd
  0
BLOCK
  5
1C
330
1B
100
AcDbEntity
 67
     1
  8
0
100
AcDbBlockBegin
  2
*Paper_Space
 70
     0
 10
0.0
 20
0.0
 30
0.0
  3
*Paper_Space
  1

  0
ENDBLK
  5
1D
330
1B
100
AcDbEntity
 67
     1
  8
0
100
AcDbBlockEnd
  0
BLOCK
  5
24
330
23
100
AcDbEntity
  8
0
100
AcDbBlockBegin
  2
*Paper_Space0
 70
     0
 10
0.0
 20
0.0
 30
0.0
  3
*Paper_Space0
  1

  0
ENDBLK
  5
25
330
23
100
AcDbEntity
  8
0
100
AcDbBlockEnd
  0
BLOCK
  5
64
330
62
100
AcDbEntity
  8
0
100
AcDbBlockBegin
  2
block 2
 70
     0
 10
0.0
 20
0.0
 30
0.0
  3
block 2
  1

  0
SPLINE
  5
66
330
62
100
AcDbEntity
  8
_U+30EC_U+30A4_U+30E4_U+30FC 1
370
     0
100
AcDbSpline
210
0.0
220
0.0
230
1.0
 70
    11
 71
     3
 72
    26
 73
    22
 74
     0
 42
0.0000000001
 43
0.0000000001
 12
1.0
 22
0.0
 32
0.0
 13
1.0
 23
0.0
 33
0.0
 40
0.0
 40
0.0
 40
0.0
 40
0.0
 40
1.0
 40
1.0
 40
1.0
 40
2.0
 40
2.0
 40
2.0
 40
3.0
 40
3.0
 40
3.0
 40
4.0
 40
4.0
 40
4.0
 40
5.0
 40
5.0
 40
5.0
 40
6.0
 40
6.0
 40
6.0
 40
7.0
 40
7.0
 40
7.0
 40
7.0
 10
80.45710447207323
 20
-128.0535101676394
 30
0.0
 10
80.45710447207323
 20
-128.0535101676394
 30
0.0
 10
79.35277911427639
 20
-128.0535101676394
 30
0.0
 10
79.35277911427639
 20
-128.0535101676394
 30
0.0
 10
79.35277911427639
 20
-128.0535101676394
 30
0.0
 10
79.35277911427639
 20
-128.4061156905547
 30
0.0
 10
79.35277911427639
 20
-128.4061156905547
 30
0.0
 10
79.35277911427639
 20
-128.4061156905547
 30
0.0
 10
79.2048122631849
 20
-128.4061156905547
 30
0.0
 10
79.2048122631849
 20
-128.4061156905547
 30
0.0
 10
79.18999835259834
 20
-128.051270855574
 30
0.0
 10
79.02704533614602
 20
-128.0014892258121
 30
0.0
 10
78.91284042080999
 20
-127.9697943473478
 30
0.0
 10
78.91284042080999
 20
-127.9697943473478
 30
0.0
 10
78.91284042080999
 20
-127.8139037766403
 30
0.0
 10
78.91284042080999
 20
-127.8139037766403
 30
0.0
 10
78.91284042080999
 20
-127.8139037766403
 30
0.0
 10
80.45710447207323
 20
-127.8139037766403
 30
0.0
 10
80.45710447207323
 20
-127.8139037766403
 30
0.0
 10
80.45710447207323
 20
-127.8139037766403
 30
0.0
 10
80.45710447207323
 20
-128.0535101676394
 30
0.0
 10
80.45710447207323
 20
-128.0535101676394
 30
0.0
  0
HATCH
  5
67
330
62
100
AcDbEntity
  8
_U+30EC_U+30A4_U+30E4_U+30FC 1
 62
     7
420
 16777215
100
AcDbHatch
 10
0.0
 20
0.0
 30
0.0
210
0.0
220
0.0
230
1.0
  2
SOLID
 70
     1
 71
     0
 91
        1
 92
        1
 93
        1
 72
     4
 94
        3
 73
     0
 74
     1
 95
       26
 96
       22
 40
0.0
 40
0.0
 40
0.0
 40
0.0
 40
1.0
 40
1.0
 40
1.0
 40
2.0
 40
2.0
 40
2.0
 40
3.0
 40
3.0
 40
3.0
 40
4.0
 40
4.0
 40
4.0
 40
5.0
 40
5.0
 40
5.0
 40
6.0
 40
6.0
 40
6.0
 40
7.0
 40
7.0
 40
7.0
 40
7.0
 10
80.45710447207323
 20
-128.0535101676394
 10
80.45710447207323
 20
-128.0535101676394
 10
79.35277911427639
 20
-128.0535101676394
 10
79.35277911427639
 20
-128.0535101676394
 10
79.35277911427639
 20
-128.0535101676394
 10
79.35277911427639
 20
-128.4061156905547
 10
79.35277911427639
 20
-128.4061156905547
 10
79.35277911427639
 20
-128.4061156905547
 10
79.2048122631849
 20
-128.4061156905547
 10
79.2048122631849
 20
-128.4061156905547
 10
79.18999835259834
 20
-128.051270855574
 10
79.02704533614602
 20
-128.0014892258121
 10
78.91284042080999
 20
-127.9697943473478
 10
78.91284042080999
 20
-127.9697943473478
 10
78.91284042080999
 20
-127.8139037766403
 10
78.91284042080999
 20
-127.8139037766403
 10
78.91284042080999
 20
-127.8139037766403
 10
80.45710447207323
 20
-127.8139037766403
 10
80.45710447207323
 20
-127.8139037766403
 10
80.45710447207323
 20
-127.8139037766403
 10
80.45710447207323
 20
-128.0535101676394
 10
80.45710447207323
 20
-128.0535101676394
 97
        0
 97
        0
 75
     2
 76
     1
 98
        0
  0
SPLINE
  5
68
330
62
100
AcDbEntity
  8
_U+30EC_U+30A4_U+30E4_U+30FC 1
370
     0
100
AcDbSpline
210
0.0
220
0.0
230
1.0
 70
    11
 71
     3
 72
    26
 73
    22
 74
     0
 42
0.0000000001
 43
0.0000000001
 12
1.0
 22
0.0
 32
0.0
 13
1.0
 23
0.0
 33
0.0
 40
0.0
 40
0.0
 40
0.0
 40
0.0
 40
1.0
 40
1.0
 40
1.0
 40
2.0
 40
2.0
 40
2.0
 40
3.0
 40
3.0
 40
3.0
 40
4.0
 40
4.0
 40
4.0
 40
5.0
 40
5.0
 40
5.0
 40
6.0
 40
6.0
 40
6.0
 40
7.0
 40
7.0
 40
7.0
 40
7.0
 10
80.45710447207323
 20
-126.7957058059747
 30
0.0
 10
80.45710447207323
 20
-126.7957058059747
 30
0.0
 10
79.35277911427639
 20
-126.7957058059747
 30
0.0
 10
79.35277911427639
 20
-126.7957058059747
 30
0.0
 10
79.35277911427639
 20
-126.7957058059747
 30
0.0
 10
79.35277911427639
 20
-127.1484835836643
 30
0.0
 10
79.35277911427639
 20
-127.1484835836643
 30
0.0
 10
79.35277911427639
 20
-127.1484835836643
 30
0.0
 10
79.2048122631849
 20
-127.1484835836643
 30
0.0
 10
79.2048122631849
 20
-127.1484835836643
 30
0.0
 10
79.18999835259834
 20
-126.7934664939093
 30
0.0
 10
79.02704533614602
 20
-126.7436848641474
 30
0.0
 10
78.91284042080999
 20
-126.7119899856831
 30
0.0
 10
78.91284042080999
 20
-126.7119899856831
 30
0.0
 10
78.91284042080999
 20
-126.5560994149756
 30
0.0
 10
78.91284042080999
 20
-126.5560994149756
 30
0.0
 10
78.91284042080999
 20
-126.5560994149756
 30
0.0
 10
80.45710447207323
 20
-126.5560994149756
 30
0.0
 10
80.45710447207323
 20
-126.5560994149756
 30
0.0
 10
80.45710447207323
 20
-126.5560994149756
 30
0.0
 10
80.45710447207323
 20
-126.7957058059747
 30
0.0
 10
80.45710447207323
 20
-126.7957058059747
 30
0.0
  0
HATCH
  5
69
330
62
100
AcDbEntity
  8
_U+30EC_U+30A4_U+30E4_U+30FC 1
 62
     7
420
 16777215
100
AcDbHatch
 10
0.0
 20
0.0
 30
0.0
210
0.0
220
0.0
230
1.0
  2
SOLID
 70
     1
 71
     0
 91
        1
 92
        1
 93
        1
 72
     4
 94
        3
 73
     0
 74
     1
 95
       26
 96
       22
 40
0.0
 40
0.0
 40
0.0
 40
0.0
 40
1.0
 40
1.0
 40
1.0
 40
2.0
 40
2.0
 40
2.0
 40
3.0
 40
3.0
 40
3.0
 40
4.0
 40
4.0
 40
4.0
 40
5.0
 40
5.0
 40
5.0
 40
6.0
 40
6.0
 40
6.0
 40
7.0
 40
7.0
 40
7.0
 40
7.0
 10
80.45710447207323
 20
-126.7957058059747
 10
80.45710447207323
 20
-126.7957058059747
 10
79.35277911427639
 20
-126.7957058059747
 10
79.35277911427639
 20
-126.7957058059747
 10
79.35277911427639
 20
-126.7957058059747
 10
79.35277911427639
 20
-127.1484835836643
 10
79.35277911427639
 20
-127.1484835836643
 10
79.35277911427639
 20
-127.1484835836643
 10
79.2048122631849
 20
-127.1484835836643
 10
79.2048122631849
 20
-127.1484835836643
 10
79.18999835259834
 20
-126.7934664939093
 10
79.02704533614602
 20
-126.7436848641474
 10
78.91284042080999
 20
-126.7119899856831
 10
78.91284042080999
 20
-126.7119899856831
 10
78.91284042080999
 20
-126.5560994149756
 10
78.91284042080999
 20
-126.5560994149756
 10
78.91284042080999
 20
-126.5560994149756
 10
80.45710447207323
 20
-126.5560994149756
 10
80.45710447207323
 20
-126.5560994149756
 10
80.45710447207323
 20
-126.5560994149756
 10
80.45710447207323
 20
-126.7957058059747
 10
80.45710447207323
 20
-126.7957058059747
 97
        0
 97
        0
 75
     2
 76
     1
 98
        0
  0
ENDBLK
  5
65
330
62
100
AcDbEntity
  8
0
100
AcDbBlockEnd
  0
BLOCK
  5
79
330
77
100
AcDbEntity
  8
0
100
AcDbBlockBegin
  2
block 3
 70
     0
 10
0.0
 20
0.0
 30
0.0
  3
block 3
  1

  0
POLYLINE
  5
7B
330
77
100
AcDbEntity
  8
_U+30EC_U+30A4_U+30E4_U+30FC 1
370
     0
100
AcDb2dPolyline
 66
     1
 10
0.0
 20
0.0
 30
0.0
  0
VERTEX
  5
7C
330
7B
100
AcDbEntity
  8
_U+30EC_U+30A4_U+30E4_U+30FC 1
370
     0
100
AcDbVertex
100
AcDb2dVertex
 10
102.4037407513088
 20
-130.1140217773673
 30
0.0
  0
VERTEX
  5
7D
330
7B
100
AcDbEntity
  8
_U+30EC_U+30A4_U+30E4_U+30FC 1
370
     0
100
AcDbVertex
100
AcDb2dVertex
 10
102.7506618666735
 20
-130.1140217773673
 30
0.0
  0
VERTEX
  5
7E
330
7B
100
AcDbEntity
  8
_U+30EC_U+30A4_U+30E4_U+30FC 1
370
     0
100
AcDbVertex
100
AcDb2dVertex
 10
102.7506618666735
 20
-130.3465657226217
 30
0.0
  0
VERTEX
  5
7F
330
7B
100
AcDbEntity
  8
_U+30EC_U+30A4_U+30E4_U+30FC 1
370
     0
100
AcDbVertex
100
AcDb2dVertex
 10
102.4037407513088
 20
-130.3465657226217
 30
0.0
  0
VERTEX
  5
80
330
7B
100
AcDbEntity
  8
_U+30EC_U+30A4_U+30E4_U+30FC 1
370
     0
100
AcDbVertex
100
AcDb2dVertex
 10
102.4037407513088
 20
-131.04764265387
 30
0.0
  0
VERTEX
  5
81
330
7B
100
AcDbEntity
  8
_U+30EC_U+30A4_U+30E4_U+30FC 1
370
     0
100
AcDbVertex
100
AcDb2dVertex
 10
102.179465035219
 20
-131.04764265387
 30
0.0
  0
VERTEX
  5
82
330
7B
100
AcDbEntity
  8
_U+30EC_U+30A4_U+30E4_U+30FC 1
370
     0
100
AcDbVertex
100
AcDb2dVertex
 10
101.2062255606359
 20
-130.3217610351279
 30
0.0
  0
VERTEX
  5
83
330
7B
100
AcDbEntity
  8
_U+30EC_U+30A4_U+30E4_U+30FC 1
370
     0
100
AcDbVertex
100
AcDb2dVertex
 10
101.2062255606359
 20
-130.1140217773673
 30
0.0
  0
VERTEX
  5
84
330
7B
100
AcDbEntity
  8
_U+30EC_U+30A4_U+30E4_U+30FC 1
370
     0
100
AcDbVertex
100
AcDb2dVertex
 10
102.2046142322613
 20
-130.1140217773673
 30
0.0
  0
VERTEX
  5
85
330
7B
100
AcDbEntity
  8
_U+30EC_U+30A4_U+30E4_U+30FC 1
370
     0
100
AcDbVertex
100
AcDb2dVertex
 10
102.2046142322613
 20
-129.8921576281172
 30
0.0
  0
VERTEX
  5
86
330
7B
100
AcDbEntity
  8
_U+30EC_U+30A4_U+30E4_U+30FC 1
370
     0
100
AcDbVertex
100
AcDb2dVertex
 10
102.4037407513088
 20
-129.8921576281172
 30
0.0
  0
VERTEX
  5
87
330
7B
100
AcDbEntity
  8
_U+30EC_U+30A4_U+30E4_U+30FC 1
370
     0
100
AcDbVertex
100
AcDb2dVertex
 10
102.4037407513088
 20
-130.1140217773673
 30
0.0
  0
SEQEND
  5
88
330
7B
100
AcDbEntity
  8
_U+30EC_U+30A4_U+30E4_U+30FC 1
370
     0
  0
POLYLINE
  5
89
330
77
100
AcDbEntity
  8
_U+30EC_U+30A4_U+30E4_U+30FC 1
370
     0
100
AcDb2dPolyline
 66
     1
 10
0.0
 20
0.0
 30
0.0
  0
VERTEX
  5
8A
330
89
100
AcDbEntity
  8
_U+30EC_U+30A4_U+30E4_U+30FC 1
370
     0
100
AcDbVertex
100
AcDb2dVertex
 10
101.5490125614183
 20
-130.3465657226217
 30
0.0
  0
VERTEX
  5
8B
330
89
100
AcDbEntity
  8
_U+30EC_U+30A4_U+30E4_U+30FC 1
370
     0
100
AcDbVertex
100
AcDb2dVertex
 10
102.2046142322613
 20
-130.8350802624301
 30
0.0
  0
VERTEX
  5
8C
330
89
100
AcDbEntity
  8
_U+30EC_U+30A4_U+30E4_U+30FC 1
370
     0
100
AcDbVertex
100
AcDb2dVertex
 10
102.2046142322613
 20
-130.3465657226217
 30
0.0
  0
VERTEX
  5
8D
330
89
100
AcDbEntity
  8
_U+30EC_U+30A4_U+30E4_U+30FC 1
370
     0
100
AcDbVertex
100
AcDb2dVertex
 10
101.5490125614183
 20
-130.3465657226217
 30
0.0
  0
SEQEND
  5
8E
330
89
100
AcDbEntity
  8
_U+30EC_U+30A4_U+30E4_U+30FC 1
370
     0
  0
HATCH
  5
8F
330
77
100
AcDbEntity
  8
_U+30EC_U+30A4_U+30E4_U+30FC 1
 62
     7
420
 16777215
100
AcDbHatch
 10
0.0
 20
0.0
 30
0.0
210
0.0
220
0.0
230
1.0
  2
SOLID
 70
     1
 71
     0
 91
        2
 92
        1
 93
       11
 72
     1
 10
102.4037407513088
 20
-130.1140217773673
 11
102.7506618666735
 21
-130.1140217773673
 72
     1
 10
102.7506618666735
 20
-130.1140217773673
 11
102.7506618666735
 21
-130.3465657226217
 72
     1
 10
102.7506618666735
 20
-130.3465657226217
 11
102.4037407513088
 21
-130.3465657226217
 72
     1
 10
102.4037407513088
 20
-130.3465657226217
 11
102.4037407513088
 21
-131.04764265387
 72
     1
 10
102.4037407513088
 20
-131.04764265387
 11
102.179465035219
 21
-131.04764265387
 72
     1
 10
102.179465035219
 20
-131.04764265387
 11
101.2062255606359
 21
-130.3217610351279
 72
     1
 10
101.2062255606359
 20
-130.3217610351279
 11
101.2062255606359
 21
-130.1140217773673
 72
     1
 10
101.2062255606359
 20
-130.1140217773673
 11
102.2046142322613
 21
-130.1140217773673
 72
     1
 10
102.2046142322613
 20
-130.1140217773673
 11
102.2046142322613
 21
-129.8921576281172
 72
     1
 10
102.2046142322613
 20
-129.8921576281172
 11
102.4037407513088
 21
-129.8921576281172
 72
     1
 10
102.4037407513088
 20
-129.8921576281172
 11
102.4037407513088
 21
-130.1140217773673
 97
        0
 92
        1
 93
        3
 72
     1
 10
101.5490125614183
 20
-130.3465657226217
 11
102.2046142322613
 21
-130.8350802624301
 72
     1
 10
102.2046142322613
 20
-130.8350802624301
 11
102.2046142322613
 21
-130.3465657226217
 72
     1
 10
102.2046142322613
 20
-130.3465657226217
 11
101.5490125614183
 21
-130.3465657226217
 97
        0
 75
     2
 76
     1
 98
        0
  0
POLYLINE
  5
90
330
77
100
AcDbEntity
  8
_U+30EC_U+30A4_U+30E4_U+30FC 1
370
     0
100
AcDb2dPolyline
 66
     1
 10
0.0
 20
0.0
 30
0.0
  0
VERTEX
  5
91
330
90
100
AcDbEntity
  8
_U+30EC_U+30A4_U+30E4_U+30FC 1
370
     0
100
AcDbVertex
100
AcDb2dVertex
 10
102.7506618666735
 20
-129.6813177844199
 30
0.0
  0
VERTEX
  5
92
330
90
100
AcDbEntity
  8
_U+30EC_U+30A4_U+30E4_U+30FC 1
370
     0
100
AcDbVertex
100
AcDb2dVertex
 10
102.4988253867017
 20
-129.6813177844199
 30
0.0
  0
VERTEX
  5
93
330
90
100
AcDbEntity
  8
_U+30EC_U+30A4_U+30E4_U+30FC 1
370
     0
100
AcDbVertex
100
AcDb2dVertex
 10
102.4988253867017
 20
-129.4122558270219
 30
0.0
  0
VERTEX
  5
94
330
90
100
AcDbEntity
  8
_U+30EC_U+30A4_U+30E4_U+30FC 1
370
     0
100
AcDbVertex
100
AcDb2dVertex
 10
102.7506618666735
 20
-129.4122558270219
 30
0.0
  0
VERTEX
  5
95
330
90
100
AcDbEntity
  8
_U+30EC_U+30A4_U+30E4_U+30FC 1
370
     0
100
AcDbVertex
100
AcDb2dVertex
 10
102.7506618666735
 20
-129.6813177844199
 30
0.0
  0
SEQEND
  5
96
330
90
100
AcDbEntity
  8
_U+30EC_U+30A4_U+30E4_U+30FC 1
370
     0
  0
HATCH
  5
97
330
77
100
AcDbEntity
  8
_U+30EC_U+30A4_U+30E4_U+30FC 1
 62
     7
420
 16777215
100
AcDbHatch
 10
0.0
 20
0.0
 30
0.0
210
0.0
220
0.0
230
1.0
  2
SOLID
 70
     1
 71
     0
 91
        1
 92
        1
 93
        4
 72
     1
 10
102.7506618666735
 20
-129.6813177844199
 11
102.4988253867017
 21
-129.6813177844199
 72
     1
 10
102.4988253867017
 20
-129.6813177844199
 11
102.4988253867017
 21
-129.4122558270219
 72
     1
 10
102.4988253867017
 20
-129.4122558270219
 11
102.7506618666735
 21
-129.4122558270219
 72
     1
 10
102.7506618666735
 20
-129.4122558270219
 11
102.7506618666735
 21
-129.6813177844199
 97
        0
 75
     2
 76
     1
 98
        0
  0
SPLINE
  5
98
330
77
100
AcDbEntity
  8
_U+30EC_U+30A4_U+30E4_U+30FC 1
370
     0
100
AcDbSpline
210
0.0
220
0.0
230
1.0
 70
    11
 71
     3
 72
    53
 73
    49
 74
     0
 42
0.0000000001
 43
0.0000000001
 12
1.0
 22
0.0
 32
0.0
 13
1.0
 23
0.0
 33
0.0
 40
0.0
 40
0.0
 40
0.0
 40
0.0
 40
1.0
 40
1.0
 40
1.0
 40
2.0
 40
2.0
 40
2.0
 40
3.0
 40
3.0
 40
3.0
 40
4.0
 40
4.0
 40
4.0
 40
5.0
 40
5.0
 40
5.0
 40
6.0
 40
6.0
 40
6.0
 40
7.0
 40
7.0
 40
7.0
 40
8.0
 40
8.0
 40
8.0
 40
9.0
 40
9.0
 40
9.0
 40
10.0
 40
10.0
 40
10.0
 40
11.0
 40
11.0
 40
11.0
 40
12.0
 40
12.0
 40
12.0
 40
13.0
 40
13.0
 40
13.0
 40
14.0
 40
14.0
 40
14.0
 40
15.0
 40
15.0
 40
15.0
 40
16.0
 40
16.0
 40
16.0
 40
16.0
 10
102.8013047703066
 20
-128.6455498267796
 30
0.0
 10
102.8013047703066
 20
-128.7290933922969
 30
0.0
 10
102.7844238024289
 20
-128.8376139000823
 30
0.0
 10
102.7210340455003
 20
-128.9461344078676
 30
0.0
 10
102.6107909899723
 20
-129.1314805449741
 30
0.0
 10
102.4798773615328
 20
-129.1542181751767
 30
0.0
 10
102.371701363296
 20
-129.1745442385397
 30
0.0
 10
102.371701363296
 20
-129.1745442385397
 30
0.0
 10
102.371701363296
 20
-128.937177159606
 30
0.0
 10
102.371701363296
 20
-128.937177159606
 30
0.0
 10
102.5708278823434
 20
-128.8782660268082
 30
0.0
 10
102.6004557035166
 20
-128.7427015194636
 30
0.0
 10
102.6004557035166
 20
-128.6433105147142
 30
0.0
 10
102.6004557035166
 20
-128.4939656254286
 30
0.0
 10
102.5008924439928
 20
-128.3311848637505
 30
0.0
 10
102.2683484987385
 20
-128.3311848637505
 30
0.0
 10
102.0123779041844
 20
-128.3311848637505
 30
0.0
 10
101.9424424658338
 20
-128.5234211918275
 30
0.0
 10
101.9424424658338
 20
-128.6522677629758
 30
0.0
 10
101.9424424658338
 20
-128.6862019535055
 30
0.0
 10
101.9424424658338
 20
-128.8376139000823
 30
0.0
 10
102.0712890369822
 20
-128.9326985354752
 30
0.0
 10
102.0712890369822
 20
-128.9326985354752
 30
0.0
 10
102.0523410118133
 20
-129.1204562394213
 30
0.0
 10
102.0523410118133
 20
-129.1204562394213
 30
0.0
 10
102.0523410118133
 20
-129.1204562394213
 30
0.0
 10
101.2062255606359
 20
-128.9912651587244
 30
0.0
 10
101.2062255606359
 20
-128.9912651587244
 30
0.0
 10
101.2062255606359
 20
-128.9912651587244
 30
0.0
 10
101.2062255606359
 20
-128.1594468538108
 30
0.0
 10
101.2062255606359
 20
-128.1594468538108
 30
0.0
 10
101.2062255606359
 20
-128.1594468538108
 30
0.0
 10
101.4008734555526
 20
-128.1594468538108
 30
0.0
 10
101.4008734555526
 20
-128.1594468538108
 30
0.0
 10
101.4008734555526
 20
-128.1594468538108
 30
0.0
 10
101.4008734555526
 20
-128.8172878367193
 30
0.0
 10
101.4008734555526
 20
-128.8172878367193
 30
0.0
 10
101.4008734555526
 20
-128.8172878367193
 30
0.0
 10
101.8239311811412
 20
-128.8875677846184
 30
0.0
 10
101.8239311811412
 20
-128.8875677846184
 30
0.0
 10
101.7901692453858
 20
-128.8217664608501
 30
0.0
 10
101.7498616282084
 20
-128.733744271202
 30
0.0
 10
101.7498616282084
 20
-128.6071370121191
 30
0.0
 10
101.7498616282084
 20
-128.3358357426556
 30
0.0
 10
101.9358967844119
 20
-128.0826212244898
 30
0.0
 10
102.2490559640211
 20
-128.0826212244898
 30
0.0
 10
102.5663492582126
 20
-128.0826212244898
 30
0.0
 10
102.8013047703066
 20
-128.3222276154889
 30
0.0
 10
102.8013047703066
 20
-128.6455498267796
 30
0.0
  0
HATCH
  5
99
330
77
100
AcDbEntity
  8
_U+30EC_U+30A4_U+30E4_U+30FC 1
 62
     7
420
 16777215
100
AcDbHatch
 10
0.0
 20
0.0
 30
0.0
210
0.0
220
0.0
230
1.0
  2
SOLID
 70
     1
 71
     0
 91
        1
 92
        1
 93
        1
 72
     4
 94
        3
 73
     0
 74
     1
 95
       53
 96
       49
 40
0.0
 40
0.0
 40
0.0
 40
0.0
 40
1.0
 40
1.0
 40
1.0
 40
2.0
 40
2.0
 40
2.0
 40
3.0
 40
3.0
 40
3.0
 40
4.0
 40
4.0
 40
4.0
 40
5.0
 40
5.0
 40
5.0
 40
6.0
 40
6.0
 40
6.0
 40
7.0
 40
7.0
 40
7.0
 40
8.0
 40
8.0
 40
8.0
 40
9.0
 40
9.0
 40
9.0
 40
10.0
 40
10.0
 40
10.0
 40
11.0
 40
11.0
 40
11.0
 40
12.0
 40
12.0
 40
12.0
 40
13.0
 40
13.0
 40
13.0
 40
14.0
 40
14.0
 40
14.0
 40
15.0
 40
15.0
 40
15.0
 40
16.0
 40
16.0
 40
16.0
 40
16.0
 10
102.8013047703066
 20
-128.6455498267796
 10
102.8013047703066
 20
-128.7290933922969
 10
102.7844238024289
 20
-128.8376139000823
 10
102.7210340455003
 20
-128.9461344078676
 10
102.6107909899723
 20
-129.1314805449741
 10
102.4798773615328
 20
-129.1542181751767
 10
102.371701363296
 20
-129.1745442385397
 10
102.371701363296
 20
-129.1745442385397
 10
102.371701363296
 20
-128.937177159606
 10
102.371701363296
 20
-128.937177159606
 10
102.5708278823434
 20
-128.8782660268082
 10
102.6004557035166
 20
-128.7427015194636
 10
102.6004557035166
 20
-128.6433105147142
 10
102.6004557035166
 20
-128.4939656254286
 10
102.5008924439928
 20
-128.3311848637505
 10
102.2683484987385
 20
-128.3311848637505
 10
102.0123779041844
 20
-128.3311848637505
 10
101.9424424658338
 20
-128.5234211918275
 10
101.9424424658338
 20
-128.6522677629758
 10
101.9424424658338
 20
-128.6862019535055
 10
101.9424424658338
 20
-128.8376139000823
 10
102.0712890369822
 20
-128.9326985354752
 10
102.0712890369822
 20
-128.9326985354752
 10
102.0523410118133
 20
-129.1204562394213
 10
102.0523410118133
 20
-129.1204562394213
 10
102.0523410118133
 20
-129.1204562394213
 10
101.2062255606359
 20
-128.9912651587244
 10
101.2062255606359
 20
-128.9912651587244
 10
101.2062255606359
 20
-128.9912651587244
 10
101.2062255606359
 20
-128.1594468538108
 10
101.2062255606359
 20
-128.1594468538108
 10
101.2062255606359
 20
-128.1594468538108
 10
101.4008734555526
 20
-128.1594468538108
 10
101.4008734555526
 20
-128.1594468538108
 10
101.4008734555526
 20
-128.1594468538108
 10
101.4008734555526
 20
-128.8172878367193
 10
101.4008734555526
 20
-128.8172878367193
 10
101.4008734555526
 20
-128.8172878367193
 10
101.8239311811412
 20
-128.8875677846184
 10
101.8239311811412
 20
-128.8875677846184
 10
101.7901692453858
 20
-128.8217664608501
 10
101.7498616282084
 20
-128.733744271202
 10
101.7498616282084
 20
-128.6071370121191
 10
101.7498616282084
 20
-128.3358357426556
 10
101.9358967844119
 20
-128.0826212244898
 10
102.2490559640211
 20
-128.0826212244898
 10
102.5663492582126
 20
-128.0826212244898
 10
102.8013047703066
 20
-128.3222276154889
 10
102.8013047703066
 20
-128.6455498267796
 97
        0
 97
        0
 75
     2
 76
     1
 98
        0
  0
ENDBLK
  5
7A
330
77
100
AcDbEntity
  8
0
100
AcDbBlockEnd
  0
BLOCK
  5
A9
330
A7
100
AcDbEntity
  8
0
100
AcDbBlockBegin
  2
block 4
 70
     0
 10
0.0
 20
0.0
 30
0.0
  3
block 4
  1

  0
SPLINE
  5
AB
330
A7
100
AcDbEntity
  8
_U+30EC_U+30A4_U+30E4_U+30FC 1
370
     0
100
AcDbSpline
210
0.0
220
0.0
230
1.0
 70
    11
 71
     3
 72
    26
 73
    22
 74
     0
 42
0.0000000001
 43
0.0000000001
 12
1.0
 22
0.0
 32
0.0
 13
1.0
 23
0.0
 33
0.0
 40
0.0
 40
0.0
 40
0.0
 40
0.0
 40
1.0
 40
1.0
 40
1.0
 40
2.0
 40
2.0
 40
2.0
 40
3.0
 40
3.0
 40
3.0
 40
4.0
 40
4.0
 40
4.0
 40
5.0
 40
5.0
 40
5.0
 40
6.0
 40
6.0
 40
6.0
 40
7.0
 40
7.0
 40
7.0
 40
7.0
 10
89.64861922671979
 20
-136.4998507688264
 30
0.0
 10
89.64861922671979
 20
-136.4998507688264
 30
0.0
 10
89.64861922671979
 20
-135.3953531562553
 30
0.0
 10
89.64861922671979
 20
-135.3953531562553
 30
0.0
 10
89.64861922671979
 20
-135.3953531562553
 30
0.0
 10
89.29601370380448
 20
-135.3953531562553
 30
0.0
 10
89.29601370380448
 20
-135.3953531562553
 30
0.0
 10
89.29601370380448
 20
-135.3953531562553
 30
0.0
 10
89.29601370380448
 20
-135.2472140503896
 30
0.0
 10
89.29601370380448
 20
-135.2472140503896
 30
0.0
 10
89.6508585387852
 20
-135.232400139803
 30
0.0
 10
89.70064016854707
 20
-135.0697916328992
 30
0.0
 10
89.73233504701136
 20
-134.9554144627889
 30
0.0
 10
89.73233504701136
 20
-134.9554144627889
 30
0.0
 10
89.88822561771892
 20
-134.9554144627889
 30
0.0
 10
89.88822561771892
 20
-134.9554144627889
 30
0.0
 10
89.88822561771892
 20
-134.9554144627889
 30
0.0
 10
89.88822561771892
 20
-136.4998507688264
 30
0.0
 10
89.88822561771892
 20
-136.4998507688264
 30
0.0
 10
89.88822561771892
 20
-136.4998507688264
 30
0.0
 10
89.64861922671979
 20
-136.4998507688264
 30
0.0
 10
89.64861922671979
 20
-136.4998507688264
 30
0.0
  0
HATCH
  5
AC
330
A7
100
AcDbEntity
  8
_U+30EC_U+30A4_U+30E4_U+30FC 1
 62
     7
420
 16777215
100
AcDbHatch
 10
0.0
 20
0.0
 30
0.0
210
0.0
220
0.0
230
1.0
  2
SOLID
 70
     1
 71
     0
 91
        1
 92
        1
 93
        1
 72
     4
 94
        3
 73
     0
 74
     1
 95
       26
 96
       22
 40
0.0
 40
0.0
 40
0.0
 40
0.0
 40
1.0
 40
1.0
 40
1.0
 40
2.0
 40
2.0
 40
2.0
 40
3.0
 40
3.0
 40
3.0
 40
4.0
 40
4.0
 40
4.0
 40
5.0
 40
5.0
 40
5.0
 40
6.0
 40
6.0
 40
6.0
 40
7.0
 40
7.0
 40
7.0
 40
7.0
 10
89.64861922671979
 20
-136.4998507688264
 10
89.64861922671979
 20
-136.4998507688264
 10
89.64861922671979
 20
-135.3953531562553
 10
89.64861922671979
 20
-135.3953531562553
 10
89.64861922671979
 20
-135.3953531562553
 10
89.29601370380448
 20
-135.3953531562553
 10
89.29601370380448
 20
-135.3953531562553
 10
89.29601370380448
 20
-135.3953531562553
 10
89.29601370380448
 20
-135.2472140503896
 10
89.29601370380448
 20
-135.2472140503896
 10
89.6508585387852
 20
-135.232400139803
 10
89.70064016854707
 20
-135.0697916328992
 10
89.73233504701136
 20
-134.9554144627889
 10
89.73233504701136
 20
-134.9554144627889
 10
89.88822561771892
 20
-134.9554144627889
 10
89.88822561771892
 20
-134.9554144627889
 10
89.88822561771892
 20
-134.9554144627889
 10
89.88822561771892
 20
-136.4998507688264
 10
89.88822561771892
 20
-136.4998507688264
 10
89.88822561771892
 20
-136.4998507688264
 10
89.64861922671979
 20
-136.4998507688264
 10
89.64861922671979
 20
-136.4998507688264
 97
        0
 97
        0
 75
     2
 76
     1
 98
        0
  0
SPLINE
  5
AD
330
A7
100
AcDbEntity
  8
_U+30EC_U+30A4_U+30E4_U+30FC 1
370
     0
100
AcDbSpline
210
0.0
220
0.0
230
1.0
 70
    11
 71
     3
 72
    26
 73
    22
 74
     0
 42
0.0000000001
 43
0.0000000001
 12
1.0
 22
0.0
 32
0.0
 13
1.0
 23
0.0
 33
0.0
 40
0.0
 40
0.0
 40
0.0
 40
0.0
 40
1.0
 40
1.0
 40
1.0
 40
2.0
 40
2.0
 40
2.0
 40
3.0
 40
3.0
 40
3.0
 40
4.0
 40
4.0
 40
4.0
 40
5.0
 40
5.0
 40
5.0
 40
6.0
 40
6.0
 40
6.0
 40
7.0
 40
7.0
 40
7.0
 40
7.0
 10
90.90642358838451
 20
-136.4998507688264
 30
0.0
 10
90.90642358838451
 20
-136.4998507688264
 30
0.0
 10
90.90642358838451
 20
-135.3953531562553
 30
0.0
 10
90.90642358838451
 20
-135.3953531562553
 30
0.0
 10
90.90642358838451
 20
-135.3953531562553
 30
0.0
 10
90.55364581069493
 20
-135.3953531562553
 30
0.0
 10
90.55364581069493
 20
-135.3953531562553
 30
0.0
 10
90.55364581069493
 20
-135.3953531562553
 30
0.0
 10
90.55364581069493
 20
-135.2472140503896
 30
0.0
 10
90.55364581069493
 20
-135.2472140503896
 30
0.0
 10
90.90866290044993
 20
-135.232400139803
 30
0.0
 10
90.95844453021178
 20
-135.0697916328992
 30
0.0
 10
90.99013940867609
 20
-134.9554144627889
 30
0.0
 10
90.99013940867609
 20
-134.9554144627889
 30
0.0
 10
91.14602997938364
 20
-134.9554144627889
 30
0.0
 10
91.14602997938364
 20
-134.9554144627889
 30
0.0
 10
91.14602997938364
 20
-134.9554144627889
 30
0.0
 10
91.14602997938364
 20
-136.4998507688264
 30
0.0
 10
91.14602997938364
 20
-136.4998507688264
 30
0.0
 10
91.14602997938364
 20
-136.4998507688264
 30
0.0
 10
90.90642358838451
 20
-136.4998507688264
 30
0.0
 10
90.90642358838451
 20
-136.4998507688264
 30
0.0
  0
HATCH
  5
AE
330
A7
100
AcDbEntity
  8
_U+30EC_U+30A4_U+30E4_U+30FC 1
 62
     7
420
 16777215
100
AcDbHatch
 10
0.0
 20
0.0
 30
0.0
210
0.0
220
0.0
230
1.0
  2
SOLID
 70
     1
 71
     0
 91
        1
 92
        1
 93
        1
 72
     4
 94
        3
 73
     0
 74
     1
 95
       26
 96
       22
 40
0.0
 40
0.0
 40
0.0
 40
0.0
 40
1.0
 40
1.0
 40
1.0
 40
2.0
 40
2.0
 40
2.0
 40
3.0
 40
3.0
 40
3.0
 40
4.0
 40
4.0
 40
4.0
 40
5.0
 40
5.0
 40
5.0
 40
6.0
 40
6.0
 40
6.0
 40
7.0
 40
7.0
 40
7.0
 40
7.0
 10
90.90642358838451
 20
-136.4998507688264
 10
90.90642358838451
 20
-136.4998507688264
 10
90.90642358838451
 20
-135.3953531562553
 10
90.90642358838451
 20
-135.3953531562553
 10
90.90642358838451
 20
-135.3953531562553
 10
90.55364581069493
 20
-135.3953531562553
 10
90.55364581069493
 20
-135.3953531562553
 10
90.55364581069493
 20
-135.3953531562553
 10
90.55364581069493
 20
-135.2472140503896
 10
90.55364581069493
 20
-135.2472140503896
 10
90.90866290044993
 20
-135.232400139803
 10
90.95844453021178
 20
-135.0697916328992
 10
90.99013940867609
 20
-134.9554144627889
 10
90.99013940867609
 20
-134.9554144627889
 10
91.14602997938364
 20
-134.9554144627889
 10
91.14602997938364
 20
-134.9554144627889
 10
91.14602997938364
 20
-134.9554144627889
 10
91.14602997938364
 20
-136.4998507688264
 10
91.14602997938364
 20
-136.4998507688264
 10
91.14602997938364
 20
-136.4998507688264
 10
90.90642358838451
 20
-136.4998507688264
 10
90.90642358838451
 20
-136.4998507688264
 97
        0
 97
        0
 75
     2
 76
     1
 98
        0
  0
ENDBLK
  5
AA
330
A7
100
AcDbEntity
  8
0
100
AcDbBlockEnd
  0
BLOCK
  5
BE
330
BC
100
AcDbEntity
  8
0
100
AcDbBlockBegin
  2
block 5
 70
     0
 10
0.0
 20
0.0
 30
0.0
  3
block 5
  1

  0
SPLINE
  5
C0
330
BC
100
AcDbEntity
  8
_U+30EC_U+30A4_U+30E4_U+30FC 1
370
     0
100
AcDbSpline
210
0.0
220
0.0
230
1.0
 70
    11
 71
     3
 72
    29
 73
    25
 74
     0
 42
0.0000000001
 43
0.0000000001
 12
1.0
 22
0.0
 32
0.0
 13
1.0
 23
0.0
 33
0.0
 40
0.0
 40
0.0
 40
0.0
 40
0.0
 40
1.0
 40
1.0
 40
1.0
 40
2.0
 40
2.0
 40
2.0
 40
3.0
 40
3.0
 40
3.0
 40
4.0
 40
4.0
 40
4.0
 40
5.0
 40
5.0
 40
5.0
 40
6.0
 40
6.0
 40
6.0
 40
7.0
 40
7.0
 40
7.0
 40
8.0
 40
8.0
 40
8.0
 40
8.0
 10
90.70540226682019
 20
-121.4835408224937
 30
0.0
 10
90.49835202815666
 20
-121.2878593989315
 30
0.0
 10
90.39586043747049
 20
-121.001399709333
 30
0.0
 10
90.63563908324387
 20
-120.7478406816186
 30
0.0
 10
90.81151120776588
 20
-120.5618055254151
 30
0.0
 10
90.98703882273935
 20
-120.5967732445904
 30
0.0
 10
91.11123451498261
 20
-120.6298461612488
 30
0.0
 10
91.05507945857303
 20
-120.4951429277755
 30
0.0
 10
91.07437199329044
 20
-120.35630557972
 30
0.0
 10
91.1847873035927
 20
-120.2393445879957
 30
0.0
 10
91.37392304573291
 20
-120.0395290498512
 30
0.0
 10
91.62128090157385
 20
-120.0872436223219
 30
0.0
 10
91.83487682165934
 20
-120.2891262177576
 30
0.0
 10
92.0550184231668
 20
-120.4973822398409
 30
0.0
 10
92.10393877905736
 20
-120.7416395097452
 30
0.0
 10
91.92065969924207
 20
-120.9354261307905
 30
0.0
 10
91.81041664371406
 20
-121.0522148677404
 30
0.0
 10
91.67123478610998
 20
-121.0777085743313
 30
0.0
 10
91.53343096669998
 20
-121.0291327279892
 30
0.0
 10
91.56753741200396
 20
-121.1312798091269
 30
0.0
 10
91.62541501615615
 20
-121.3169704557819
 30
0.0
 10
91.44523652227758
 20
-121.5074842361162
 30
0.0
 10
91.18788788952942
 20
-121.7796467794509
 30
0.0
 10
90.89109291347515
 20
-121.6590684374672
 30
0.0
 10
90.70540226682019
 20
-121.4835408224937
 30
0.0
  0
SPLINE
  5
C1
330
BC
100
AcDbEntity
  8
_U+30EC_U+30A4_U+30E4_U+30FC 1
370
     0
100
AcDbSpline
210
0.0
220
0.0
230
1.0
 70
    11
 71
     3
 72
    17
 73
    13
 74
     0
 42
0.0000000001
 43
0.0000000001
 12
1.0
 22
0.0
 32
0.0
 13
1.0
 23
0.0
 33
0.0
 40
0.0
 40
0.0
 40
0.0
 40
0.0
 40
1.0
 40
1.0
 40
1.0
 40
2.0
 40
2.0
 40
2.0
 40
3.0
 40
3.0
 40
3.0
 40
4.0
 40
4.0
 40
4.0
 40
4.0
 10
91.24903833439261
 20
-120.9087266407798
 30
0.0
 10
91.13741724067052
 20
-120.8029622093826
 30
0.0
 10
90.95947805885736
 20
-120.7542141082663
 30
0.0
 10
90.81995169170474
 20
-120.9018364498093
 30
0.0
 10
90.67887503158376
 20
-121.0508368295463
 30
0.0
 10
90.7076415788856
 20
-121.2179239605809
 30
0.0
 10
90.83907197164787
 20
-121.3421196528242
 30
0.0
 10
90.98376598202837
 20
-121.4788899435886
 30
0.0
 10
91.15343693467692
 20
-121.4704494596498
 30
0.0
 10
91.27556556962902
 20
-121.3412583789529
 30
0.0
 10
91.42801104485133
 20
-121.1798556554689
 30
0.0
 10
91.35256345372436
 20
-121.0065673525609
 30
0.0
 10
91.24903833439261
 20
-120.9087266407798
 30
0.0
  0
SPLINE
  5
C2
330
BC
100
AcDbEntity
  8
_U+30EC_U+30A4_U+30E4_U+30FC 1
370
     0
100
AcDbSpline
210
0.0
220
0.0
230
1.0
 70
    11
 71
     3
 72
    17
 73
    13
 74
     0
 42
0.0000000001
 43
0.0000000001
 12
1.0
 22
0.0
 32
0.0
 13
1.0
 23
0.0
 33
0.0
 40
0.0
 40
0.0
 40
0.0
 40
0.0
 40
1.0
 40
1.0
 40
1.0
 40
2.0
 40
2.0
 40
2.0
 40
3.0
 40
3.0
 40
3.0
 40
4.0
 40
4.0
 40
4.0
 40
4.0
 10
91.70258515502574
 20
-120.4289970944587
 30
0.0
 10
91.57442760297445
 20
-120.3079019881522
 30
0.0
 10
91.44316946498644
 20
-120.314964433897
 30
0.0
 10
91.35032414165894
 20
-120.4133219100008
 30
0.0
 10
91.26591930227033
 20
-120.5023776282946
 30
0.0
 10
91.24042559567948
 20
-120.6413872311244
 30
0.0
 10
91.37840166986373
 20
-120.7717840952411
 30
0.0
 10
91.51654999882226
 20
-120.9023532141321
 30
0.0
 10
91.6536647991352
 20
-120.8691080426994
 30
0.0
 10
91.73806963852383
 20
-120.7798800696314
 30
0.0
 10
91.83108721662556
 20
-120.6815225935275
 30
0.0
 10
91.82902015933442
 20
-120.5487141625712
 30
0.0
 10
91.70258515502574
 20
-120.4289970944587
 30
0.0
  0
HATCH
  5
C3
330
BC
100
AcDbEntity
  8
_U+30EC_U+30A4_U+30E4_U+30FC 1
 62
     7
420
 16777215
100
AcDbHatch
 10
0.0
 20
0.0
 30
0.0
210
0.0
220
0.0
230
1.0
  2
SOLID
 70
     1
 71
     0
 91
        3
 92
        1
 93
        1
 72
     4
 94
        3
 73
     0
 74
     1
 95
       29
 96
       25
 40
0.0
 40
0.0
 40
0.0
 40
0.0
 40
1.0
 40
1.0
 40
1.0
 40
2.0
 40
2.0
 40
2.0
 40
3.0
 40
3.0
 40
3.0
 40
4.0
 40
4.0
 40
4.0
 40
5.0
 40
5.0
 40
5.0
 40
6.0
 40
6.0
 40
6.0
 40
7.0
 40
7.0
 40
7.0
 40
8.0
 40
8.0
 40
8.0
 40
8.0
 10
90.70540226682019
 20
-121.4835408224937
 10
90.49835202815666
 20
-121.2878593989315
 10
90.39586043747049
 20
-121.001399709333
 10
90.63563908324387
 20
-120.7478406816186
 10
90.81151120776588
 20
-120.5618055254151
 10
90.98703882273935
 20
-120.5967732445904
 10
91.11123451498261
 20
-120.6298461612488
 10
91.05507945857303
 20
-120.4951429277755
 10
91.07437199329044
 20
-120.35630557972
 10
91.1847873035927
 20
-120.2393445879957
 10
91.37392304573291
 20
-120.0395290498512
 10
91.62128090157385
 20
-120.0872436223219
 10
91.83487682165934
 20
-120.2891262177576
 10
92.0550184231668
 20
-120.4973822398409
 10
92.10393877905736
 20
-120.7416395097452
 10
91.92065969924207
 20
-120.9354261307905
 10
91.81041664371406
 20
-121.0522148677404
 10
91.67123478610998
 20
-121.0777085743313
 10
91.53343096669998
 20
-121.0291327279892
 10
91.56753741200396
 20
-121.1312798091269
 10
91.62541501615615
 20
-121.3169704557819
 10
91.44523652227758
 20
-121.5074842361162
 10
91.18788788952942
 20
-121.7796467794509
 10
90.89109291347515
 20
-121.6590684374672
 10
90.70540226682019
 20
-121.4835408224937
 97
        0
 97
        0
 92
        1
 93
        1
 72
     4
 94
        3
 73
     0
 74
     1
 95
       17
 96
       13
 40
0.0
 40
0.0
 40
0.0
 40
0.0
 40
1.0
 40
1.0
 40
1.0
 40
2.0
 40
2.0
 40
2.0
 40
3.0
 40
3.0
 40
3.0
 40
4.0
 40
4.0
 40
4.0
 40
4.0
 10
91.24903833439261
 20
-120.9087266407798
 10
91.13741724067052
 20
-120.8029622093826
 10
90.95947805885736
 20
-120.7542141082663
 10
90.81995169170474
 20
-120.9018364498093
 10
90.67887503158376
 20
-121.0508368295463
 10
90.7076415788856
 20
-121.2179239605809
 10
90.83907197164787
 20
-121.3421196528242
 10
90.98376598202837
 20
-121.4788899435886
 10
91.15343693467692
 20
-121.4704494596498
 10
91.27556556962902
 20
-121.3412583789529
 10
91.42801104485133
 20
-121.1798556554689
 10
91.35256345372436
 20
-121.0065673525609
 10
91.24903833439261
 20
-120.9087266407798
 97
        0
 97
        0
 92
        1
 93
        1
 72
     4
 94
        3
 73
     0
 74
     1
 95
       17
 96
       13
 40
0.0
 40
0.0
 40
0.0
 40
0.0
 40
1.0
 40
1.0
 40
1.0
 40
2.0
 40
2.0
 40
2.0
 40
3.0
 40
3.0
 40
3.0
 40
4.0
 40
4.0
 40
4.0
 40
4.0
 10
91.70258515502574
 20
-120.4289970944587
 10
91.57442760297445
 20
-120.3079019881522
 10
91.44316946498644
 20
-120.314964433897
 10
91.35032414165894
 20
-120.4133219100008
 10
91.26591930227033
 20
-120.5023776282946
 10
91.24042559567948
 20
-120.6413872311244
 10
91.37840166986373
 20
-120.7717840952411
 10
91.51654999882226
 20
-120.9023532141321
 10
91.6536647991352
 20
-120.8691080426994
 10
91.73806963852383
 20
-120.7798800696314
 10
91.83108721662556
 20
-120.6815225935275
 10
91.82902015933442
 20
-120.5487141625712
 10
91.70258515502574
 20
-120.4289970944587
 97
        0
 97
        0
 75
     2
 76
     1
 98
        0
  0
ENDBLK
  5
BF
330
BC
100
AcDbEntity
  8
0
100
AcDbBlockEnd
  0
BLOCK
  5
D0
330
CE
100
AcDbEntity
  8
0
100
AcDbBlockBegin
  2
block 6
 70
     0
 10
0.0
 20
0.0
 30
0.0
  3
block 6
  1

  0
SPLINE
  5
D2
330
CE
100
AcDbEntity
  8
_U+30EC_U+30A4_U+30E4_U+30FC 1
370
     0
100
AcDbSpline
210
0.0
220
0.0
230
1.0
 70
    11
 71
     3
 72
    26
 73
    22
 74
     0
 42
0.0000000001
 43
0.0000000001
 12
1.0
 22
0.0
 32
0.0
 13
1.0
 23
0.0
 33
0.0
 40
0.0
 40
0.0
 40
0.0
 40
0.0
 40
1.0
 40
1.0
 40
1.0
 40
2.0
 40
2.0
 40
2.0
 40
3.0
 40
3.0
 40
3.0
 40
4.0
 40
4.0
 40
4.0
 40
5.0
 40
5.0
 40
5.0
 40
6.0
 40
6.0
 40
6.0
 40
7.0
 40
7.0
 40
7.0
 40
7.0
 10
102.7499728475764
 20
-133.8777885950028
 30
0.0
 10
102.7499728475764
 20
-133.8777885950028
 30
0.0
 10
101.6454752350053
 20
-133.8777885950028
 30
0.0
 10
101.6454752350053
 20
-133.8777885950028
 30
0.0
 10
101.6454752350053
 20
-133.8777885950028
 30
0.0
 10
101.6454752350053
 20
-134.2302218631438
 30
0.0
 10
101.6454752350053
 20
-134.2302218631438
 30
0.0
 10
101.6454752350053
 20
-134.2302218631438
 30
0.0
 10
101.4973361291396
 20
-134.2302218631438
 30
0.0
 10
101.4973361291396
 20
-134.2302218631438
 30
0.0
 10
101.482522218553
 20
-133.8753770281631
 30
0.0
 10
101.3199137116492
 20
-133.8257676531755
 30
0.0
 10
101.2055365415389
 20
-133.7940727747112
 30
0.0
 10
101.2055365415389
 20
-133.7940727747112
 30
0.0
 10
101.2055365415389
 20
-133.6380099492294
 30
0.0
 10
101.2055365415389
 20
-133.6380099492294
 30
0.0
 10
101.2055365415389
 20
-133.6380099492294
 30
0.0
 10
102.7499728475764
 20
-133.6380099492294
 30
0.0
 10
102.7499728475764
 20
-133.6380099492294
 30
0.0
 10
102.7499728475764
 20
-133.6380099492294
 30
0.0
 10
102.7499728475764
 20
-133.8777885950028
 30
0.0
 10
102.7499728475764
 20
-133.8777885950028
 30
0.0
  0
HATCH
  5
D3
330
CE
100
AcDbEntity
  8
_U+30EC_U+30A4_U+30E4_U+30FC 1
 62
     7
420
 16777215
100
AcDbHatch
 10
0.0
 20
0.0
 30
0.0
210
0.0
220
0.0
230
1.0
  2
SOLID
 70
     1
 71
     0
 91
        1
 92
        1
 93
        1
 72
     4
 94
        3
 73
     0
 74
     1
 95
       26
 96
       22
 40
0.0
 40
0.0
 40
0.0
 40
0.0
 40
1.0
 40
1.0
 40
1.0
 40
2.0
 40
2.0
 40
2.0
 40
3.0
 40
3.0
 40
3.0
 40
4.0
 40
4.0
 40
4.0
 40
5.0
 40
5.0
 40
5.0
 40
6.0
 40
6.0
 40
6.0
 40
7.0
 40
7.0
 40
7.0
 40
7.0
 10
102.7499728475764
 20
-133.8777885950028
 10
102.7499728475764
 20
-133.8777885950028
 10
101.6454752350053
 20
-133.8777885950028
 10
101.6454752350053
 20
-133.8777885950028
 10
101.6454752350053
 20
-133.8777885950028
 10
101.6454752350053
 20
-134.2302218631438
 10
101.6454752350053
 20
-134.2302218631438
 10
101.6454752350053
 20
-134.2302218631438
 10
101.4973361291396
 20
-134.2302218631438
 10
101.4973361291396
 20
-134.2302218631438
 10
101.482522218553
 20
-133.8753770281631
 10
101.3199137116492
 20
-133.8257676531755
 10
101.2055365415389
 20
-133.7940727747112
 10
101.2055365415389
 20
-133.7940727747112
 10
101.2055365415389
 20
-133.6380099492294
 10
101.2055365415389
 20
-133.6380099492294
 10
101.2055365415389
 20
-133.6380099492294
 10
102.7499728475764
 20
-133.6380099492294
 10
102.7499728475764
 20
-133.6380099492294
 10
102.7499728475764
 20
-133.6380099492294
 10
102.7499728475764
 20
-133.8777885950028
 10
102.7499728475764
 20
-133.8777885950028
 97
        0
 97
        0
 75
     2
 76
     1
 98
        0
  0
ENDBLK
  5
D1
330
CE
100
AcDbEntity
  8
0
100
AcDbBlockEnd
  0
ENDSEC
  0
SECTION
  2
ENTITIES
  0
SPLINE
  5
41
330
1F
100
AcDbEntity
  8
_U+30EC_U+30A4_U+30E4_U+30FC 1
370
     0
100
AcDbSpline
210
0.0
220
0.0
230
1.0
 70
    11
 71
     3
 72
    56
 73
    52
 74
     0
 42
0.0000000001
 43
0.0000000001
 12
1.0
 22
0.0
 32
0.0
 13
1.0
 23
0.0
 33
0.0
 40
0.0
 40
0.0
 40
0.0
 40
0.0
 40
1.0
 40
1.0
 40
1.0
 40
2.0
 40
2.0
 40
2.0
 40
3.0
 40
3.0
 40
3.0
 40
4.0
 40
4.0
 40
4.0
 40
5.0
 40
5.0
 40
5.0
 40
6.0
 40
6.0
 40
6.0
 40
7.0
 40
7.0
 40
7.0
 40
8.0
 40
8.0
 40
8.0
 40
9.0
 40
9.0
 40
9.0
 40
10.0
 40
10.0
 40
10.0
 40
11.0
 40
11.0
 40
11.0
 40
12.0
 40
12.0
 40
12.0
 40
13.0
 40
13.0
 40
13.0
 40
14.0
 40
14.0
 40
14.0
 40
15.0
 40
15.0
 40
15.0
 40
16.0
 40
16.0
 40
16.0
 40
17.0
 40
17.0
 40
17.0
 40
17.0
 10
94.85520396893102
 20
-131.897190522581
 30
0.0
 10
94.84828952466299
 20
-131.9033994114687
 30
0.0
 10
94.84003452487359
 20
-131.9075269114673
 30
0.0
 10
94.8296981362484
 20
-131.9075269114673
 30
0.0
 10
94.81040119229627
 20
-131.9075269114673
 30
0.0
 10
94.79456386519051
 20
-131.8916871892494
 30
0.0
 10
94.79456386519051
 20
-131.8723902448096
 30
0.0
 10
94.79456386519051
 20
-131.8723902448096
 30
0.0
 10
85.8295611436388
 20
-131.8723902448096
 30
0.0
 10
85.8295611436388
 20
-131.8723902448096
 30
0.0
 10
85.8295611436388
 20
-131.8723902448096
 30
0.0
 10
85.8295611436388
 20
-124.1960516356177
 30
0.0
 10
85.8295611436388
 20
-124.1960516356177
 30
0.0
 10
85.8295611436388
 20
-124.1960516356177
 30
0.0
 10
89.18507744692134
 20
-127.3724274681569
 30
0.0
 10
89.18507744692134
 20
-127.3724274681569
 30
0.0
 10
89.18507744692134
 20
-127.3724274681569
 30
0.0
 10
90.29438714084272
 20
-127.3724274681569
 30
0.0
 10
90.29438714084272
 20
-127.3724274681569
 30
0.0
 10
90.29438714084272
 20
-127.3527777459396
 30
0.0
 10
90.31026214043771
 20
-127.3369380237214
 30
0.0
 10
90.32952380661297
 20
-127.3369380237214
 30
0.0
 10
90.34952630610266
 20
-127.3369380237214
 30
0.0
 10
90.36536602792079
 20
-127.3527777459396
 30
0.0
 10
90.36536602792079
 20
-127.3724274681569
 30
0.0
 10
90.36536602792079
 20
-127.3724274681569
 30
0.0
 10
90.60377324406073
 20
-127.3724274681569
 30
0.0
 10
90.60377324406073
 20
-127.3724274681569
 30
0.0
 10
90.60377324406073
 20
-127.3631141348259
 30
0.0
 10
90.60790074395543
 20
-127.3545063570502
 30
0.0
 10
90.61410963268591
 20
-127.3482974681629
 30
0.0
 10
90.61410963268591
 20
-127.3482974681629
 30
0.0
 10
84.85529477960552
 20
-121.8960816361925
 30
0.0
 10
84.85529477960552
 20
-121.8960816361925
 30
0.0
 10
84.84908589087503
 20
-121.9033135806354
 30
0.0
 10
84.84012533554808
 20
-121.9077938584121
 30
0.0
 10
84.82978894692289
 20
-121.9077938584121
 30
0.0
 10
84.82978894692289
 20
-121.9077938584121
 30
0.0
 10
84.82978894692289
 20
-132.8370258001238
 30
0.0
 10
84.82978894692289
 20
-132.8370258001238
 30
0.0
 10
84.84908589087503
 20
-132.8370258001238
 30
0.0
 10
84.86492775656151
 20
-132.8528655223423
 30
0.0
 10
84.86492775656151
 20
-132.8721624667822
 30
0.0
 10
84.86492775656151
 20
-132.8721624667822
 30
0.0
 10
95.79500394495473
 20
-132.8721624667822
 30
0.0
 10
95.79500394495473
 20
-132.8721624667822
 30
0.0
 10
95.79500394495473
 20
-132.8625316334513
 30
0.0
 10
95.79913144484944
 20
-132.8535710778978
 30
0.0
 10
95.80534033357992
 20
-132.8473621890101
 30
0.0
 10
95.80534033357992
 20
-132.8473621890101
 30
0.0
 10
94.85520396893102
 20
-131.897190522581
 30
0.0
 10
94.85520396893102
 20
-131.897190522581
 30
0.0
  0
HATCH
  5
42
330
1F
100
AcDbEntity
  8
_U+30EC_U+30A4_U+30E4_U+30FC 1
 62
   253
420
 11711154
100
AcDbHatch
 10
0.0
 20
0.0
 30
0.0
210
0.0
220
0.0
230
1.0
  2
SOLID
 70
     1
 71
     0
 91
        1
 92
        1
 93
        1
 72
     4
 94
        3
 73
     0
 74
     1
 95
       56
 96
       52
 40
0.0
 40
0.0
 40
0.0
 40
0.0
 40
1.0
 40
1.0
 40
1.0
 40
2.0
 40
2.0
 40
2.0
 40
3.0
 40
3.0
 40
3.0
 40
4.0
 40
4.0
 40
4.0
 40
5.0
 40
5.0
 40
5.0
 40
6.0
 40
6.0
 40
6.0
 40
7.0
 40
7.0
 40
7.0
 40
8.0
 40
8.0
 40
8.0
 40
9.0
 40
9.0
 40
9.0
 40
10.0
 40
10.0
 40
10.0
 40
11.0
 40
11.0
 40
11.0
 40
12.0
 40
12.0
 40
12.0
 40
13.0
 40
13.0
 40
13.0
 40
14.0
 40
14.0
 40
14.0
 40
15.0
 40
15.0
 40
15.0
 40
16.0
 40
16.0
 40
16.0
 40
17.0
 40
17.0
 40
17.0
 40
17.0
 10
94.85520396893102
 20
-131.897190522581
 10
94.84828952466299
 20
-131.9033994114687
 10
94.84003452487359
 20
-131.9075269114673
 10
94.8296981362484
 20
-131.9075269114673
 10
94.81040119229627
 20
-131.9075269114673
 10
94.79456386519051
 20
-131.8916871892494
 10
94.79456386519051
 20
-131.8723902448096
 10
94.79456386519051
 20
-131.8723902448096
 10
85.8295611436388
 20
-131.8723902448096
 10
85.8295611436388
 20
-131.8723902448096
 10
85.8295611436388
 20
-131.8723902448096
 10
85.8295611436388
 20
-124.1960516356177
 10
85.8295611436388
 20
-124.1960516356177
 10
85.8295611436388
 20
-124.1960516356177
 10
89.18507744692134
 20
-127.3724274681569
 10
89.18507744692134
 20
-127.3724274681569
 10
89.18507744692134
 20
-127.3724274681569
 10
90.29438714084272
 20
-127.3724274681569
 10
90.29438714084272
 20
-127.3724274681569
 10
90.29438714084272
 20
-127.3527777459396
 10
90.31026214043771
 20
-127.3369380237214
 10
90.32952380661297
 20
-127.3369380237214
 10
90.34952630610266
 20
-127.3369380237214
 10
90.36536602792079
 20
-127.3527777459396
 10
90.36536602792079
 20
-127.3724274681569
 10
90.36536602792079
 20
-127.3724274681569
 10
90.60377324406073
 20
-127.3724274681569
 10
90.60377324406073
 20
-127.3724274681569
 10
90.60377324406073
 20
-127.3631141348259
 10
90.60790074395543
 20
-127.3545063570502
 10
90.61410963268591
 20
-127.3482974681629
 10
90.61410963268591
 20
-127.3482974681629
 10
84.85529477960552
 20
-121.8960816361925
 10
84.85529477960552
 20
-121.8960816361925
 10
84.84908589087503
 20
-121.9033135806354
 10
84.84012533554808
 20
-121.9077938584121
 10
84.82978894692289
 20
-121.9077938584121
 10
84.82978894692289
 20
-121.9077938584121
 10
84.82978894692289
 20
-132.8370258001238
 10
84.82978894692289
 20
-132.8370258001238
 10
84.84908589087503
 20
-132.8370258001238
 10
84.86492775656151
 20
-132.8528655223423
 10
84.86492775656151
 20
-132.8721624667822
 10
84.86492775656151
 20
-132.8721624667822
 10
95.79500394495473
 20
-132.8721624667822
 10
95.79500394495473
 20
-132.8721624667822
 10
95.79500394495473
 20
-132.8625316334513
 10
95.79913144484944
 20
-132.8535710778978
 10
95.80534033357992
 20
-132.8473621890101
 10
95.80534033357992
 20
-132.8473621890101
 10
94.85520396893102
 20
-131.897190522581
 10
94.85520396893102
 20
-131.897190522581
 97
        0
 97
        0
 75
     2
 76
     1
 98
        0
  0
POLYLINE
  5
43
330
1F
100
AcDbEntity
  8
_U+30EC_U+30A4_U+30E4_U+30FC 1
 62
     7
420
 16777215
370
    25
100
AcDb2dPolyline
 66
     1
 10
0.0
 20
0.0
 30
0.0
  0
VERTEX
  5
44
330
43
100
AcDbEntity
  8
_U+30EC_U+30A4_U+30E4_U+30FC 1
 62
     7
420
 16777215
370
    25
100
AcDbVertex
100
AcDb2dVertex
 10
84.82978894692289
 20
-132.8721624667822
 30
0.0
  0
VERTEX
  5
45
330
43
100
AcDbEntity
  8
_U+30EC_U+30A4_U+30E4_U+30FC 1
 62
     7
420
 16777215
370
    25
100
AcDbVertex
100
AcDb2dVertex
 10
84.82978894692289
 20
-121.8723044139763
 30
0.0
  0
VERTEX
  5
46
330
43
100
AcDbEntity
  8
_U+30EC_U+30A4_U+30E4_U+30FC 1
 62
     7
420
 16777215
370
    25
100
AcDbVertex
100
AcDb2dVertex
 10
90.63961546536854
 20
-127.3724274681569
 30
0.0
  0
VERTEX
  5
47
330
43
100
AcDbEntity
  8
_U+30EC_U+30A4_U+30E4_U+30FC 1
 62
     7
420
 16777215
370
    25
100
AcDbVertex
100
AcDb2dVertex
 10
89.18507744692134
 20
-127.3724274681569
 30
0.0
  0
VERTEX
  5
48
330
43
100
AcDbEntity
  8
_U+30EC_U+30A4_U+30E4_U+30FC 1
 62
     7
420
 16777215
370
    25
100
AcDbVertex
100
AcDb2dVertex
 10
85.8295611436388
 20
-124.1960516356177
 30
0.0
  0
VERTEX
  5
49
330
43
100
AcDbEntity
  8
_U+30EC_U+30A4_U+30E4_U+30FC 1
 62
     7
420
 16777215
370
    25
100
AcDbVertex
100
AcDb2dVertex
 10
85.8295611436388
 20
-131.8723902448096
 30
0.0
  0
VERTEX
  5
4A
330
43
100
AcDbEntity
  8
_U+30EC_U+30A4_U+30E4_U+30FC 1
 62
     7
420
 16777215
370
    25
100
AcDbVertex
100
AcDb2dVertex
 10
94.8296981362484
 20
-131.8723902448096
 30
0.0
  0
VERTEX
  5
4B
330
43
100
AcDbEntity
  8
_U+30EC_U+30A4_U+30E4_U+30FC 1
 62
     7
420
 16777215
370
    25
100
AcDbVertex
100
AcDb2dVertex
 10
95.83014061072498
 20
-132.8721624667822
 30
0.0
  0
VERTEX
  5
4C
330
43
100
AcDbEntity
  8
_U+30EC_U+30A4_U+30E4_U+30FC 1
 62
     7
420
 16777215
370
    25
100
AcDbVertex
100
AcDb2dVertex
 10
84.82978894692289
 20
-132.8721624667822
 30
0.0
  0
SEQEND
  5
4D
330
43
100
AcDbEntity
  8
_U+30EC_U+30A4_U+30E4_U+30FC 1
 62
     7
420
 16777215
370
    25
  0
SPLINE
  5
4E
330
1F
100
AcDbEntity
  8
_U+30EC_U+30A4_U+30E4_U+30FC 1
 62
     7
420
 16777215
370
     9
100
AcDbSpline
210
0.0
220
0.0
230
1.0
 70
    11
 71
     3
 72
    17
 73
    13
 74
     0
 42
0.0000000001
 43
0.0000000001
 12
1.0
 22
0.0
 32
0.0
 13
1.0
 23
0.0
 33
0.0
 40
0.0
 40
0.0
 40
0.0
 40
0.0
 40
1.0
 40
1.0
 40
1.0
 40
2.0
 40
2.0
 40
2.0
 40
3.0
 40
3.0
 40
3.0
 40
4.0
 40
4.0
 40
4.0
 40
4.0
 10
80.92993654641641
 20
-121.8723044139763
 30
0.0
 10
80.92993654641641
 20
-121.8172005251014
 30
0.0
 10
80.88516904755853
 20
-121.7723977473347
 30
0.0
 10
80.83002988229859
 20
-121.7723977473347
 30
0.0
 10
80.77492599481552
 20
-121.7723977473347
 30
0.0
 10
80.73012321818075
 20
-121.8172005251014
 30
0.0
 10
80.73012321818075
 20
-121.8723044139763
 30
0.0
 10
80.73012321818075
 20
-121.9274435806294
 30
0.0
 10
80.77492599481552
 20
-121.9722110806179
 30
0.0
 10
80.83002988229859
 20
-121.9722110806179
 30
0.0
 10
80.88516904755853
 20
-121.9722110806179
 30
0.0
 10
80.92993654641641
 20
-121.9274435806294
 30
0.0
 10
80.92993654641641
 20
-121.8723044139763
 30
0.0
  0
SPLINE
  5
4F
330
1F
100
AcDbEntity
  8
_U+30EC_U+30A4_U+30E4_U+30FC 1
 62
     7
420
 16777215
370
     9
100
AcDbSpline
210
0.0
220
0.0
230
1.0
 70
    11
 71
     3
 72
    17
 73
    13
 74
     0
 42
0.0000000001
 43
0.0000000001
 12
1.0
 22
0.0
 32
0.0
 13
1.0
 23
0.0
 33
0.0
 40
0.0
 40
0.0
 40
0.0
 40
0.0
 40
1.0
 40
1.0
 40
1.0
 40
2.0
 40
2.0
 40
2.0
 40
3.0
 40
3.0
 40
3.0
 40
4.0
 40
4.0
 40
4.0
 40
4.0
 10
87.67956304088577
 20
-118.9677438591468
 30
0.0
 10
87.67956304088577
 20
-118.9122871924942
 30
0.0
 10
87.63479554202789
 20
-118.8675196925053
 30
0.0
 10
87.57965637676793
 20
-118.8675196925053
 30
0.0
 10
87.52455248928486
 20
-118.8675196925053
 30
0.0
 10
87.47974971265009
 20
-118.9122871924942
 30
0.0
 10
87.47974971265009
 20
-118.9677438591468
 30
0.0
 10
87.47974971265009
 20
-119.0228830257999
 30
0.0
 10
87.52455248928486
 20
-119.0676505257888
 30
0.0
 10
87.57965637676793
 20
-119.0676505257888
 30
0.0
 10
87.63479554202789
 20
-119.0676505257888
 30
0.0
 10
87.67956304088577
 20
-119.0228830257999
 30
0.0
 10
87.67956304088577
 20
-118.9677438591468
 30
0.0
  0
SPLINE
  5
50
330
1F
100
AcDbEntity
  8
_U+30EC_U+30A4_U+30E4_U+30FC 1
 62
     7
420
 16777215
370
     9
100
AcDbSpline
210
0.0
220
0.0
230
1.0
 70
    11
 71
     3
 72
    17
 73
    13
 74
     0
 42
0.0000000001
 43
0.0000000001
 12
1.0
 22
0.0
 32
0.0
 13
1.0
 23
0.0
 33
0.0
 40
0.0
 40
0.0
 40
0.0
 40
0.0
 40
1.0
 40
1.0
 40
1.0
 40
2.0
 40
2.0
 40
2.0
 40
3.0
 40
3.0
 40
3.0
 40
4.0
 40
4.0
 40
4.0
 40
4.0
 10
93.4895659482158
 20
-124.4675141355496
 30
0.0
 10
93.4895659482158
 20
-124.4123749688969
 30
0.0
 10
93.44476317158103
 20
-124.367607468908
 30
0.0
 10
93.38965928409796
 20
-124.367607468908
 30
0.0
 10
93.33452011883801
 20
-124.367607468908
 30
0.0
 10
93.28975261998013
 20
-124.4123749688969
 30
0.0
 10
93.28975261998013
 20
-124.4675141355496
 30
0.0
 10
93.28975261998013
 20
-124.5229708022027
 30
0.0
 10
93.33452011883801
 20
-124.5677735799691
 30
0.0
 10
93.38965928409796
 20
-124.5677735799691
 30
0.0
 10
93.44476317158103
 20
-124.5677735799691
 30
0.0
 10
93.4895659482158
 20
-124.5229708022027
 30
0.0
 10
93.4895659482158
 20
-124.4675141355496
 30
0.0
  0
SPLINE
  5
51
330
1F
100
AcDbEntity
  8
_U+30EC_U+30A4_U+30E4_U+30FC 1
 62
     7
420
 16777215
370
     9
100
AcDbSpline
210
0.0
220
0.0
230
1.0
 70
    11
 71
     3
 72
    17
 73
    13
 74
     0
 42
0.0000000001
 43
0.0000000001
 12
1.0
 22
0.0
 32
0.0
 13
1.0
 23
0.0
 33
0.0
 40
0.0
 40
0.0
 40
0.0
 40
0.0
 40
1.0
 40
1.0
 40
1.0
 40
2.0
 40
2.0
 40
2.0
 40
3.0
 40
3.0
 40
3.0
 40
4.0
 40
4.0
 40
4.0
 40
4.0
 10
80.92993654641641
 20
-132.8721624667822
 30
0.0
 10
80.92993654641641
 20
-132.8170585779066
 30
0.0
 10
80.88516904755853
 20
-132.7722558001405
 30
0.0
 10
80.83002988229859
 20
-132.7722558001405
 30
0.0
 10
80.77492599481552
 20
-132.7722558001405
 30
0.0
 10
80.73012321818075
 20
-132.8170585779066
 30
0.0
 10
80.73012321818075
 20
-132.8721624667822
 30
0.0
 10
80.73012321818075
 20
-132.9273016334346
 30
0.0
 10
80.77492599481552
 20
-132.9720691334238
 30
0.0
 10
80.83002988229859
 20
-132.9720691334238
 30
0.0
 10
80.88516904755853
 20
-132.9720691334238
 30
0.0
 10
80.92993654641641
 20
-132.9273016334346
 30
0.0
 10
80.92993654641641
 20
-132.8721624667822
 30
0.0
  0
SPLINE
  5
52
330
1F
100
AcDbEntity
  8
_U+30EC_U+30A4_U+30E4_U+30FC 1
 62
     7
420
 16777215
370
     9
100
AcDbSpline
210
0.0
220
0.0
230
1.0
 70
    11
 71
     3
 72
    17
 73
    13
 74
     0
 42
0.0000000001
 43
0.0000000001
 12
1.0
 22
0.0
 32
0.0
 13
1.0
 23
0.0
 33
0.0
 40
0.0
 40
0.0
 40
0.0
 40
0.0
 40
1.0
 40
1.0
 40
1.0
 40
2.0
 40
2.0
 40
2.0
 40
3.0
 40
3.0
 40
3.0
 40
4.0
 40
4.0
 40
4.0
 40
4.0
 10
84.92969561104073
 20
-136.8719216324484
 30
0.0
 10
84.92969561104073
 20
-136.816782465796
 30
0.0
 10
84.88492811218285
 20
-136.7720149658068
 30
0.0
 10
84.82978894692289
 20
-136.7720149658068
 30
0.0
 10
84.77468505943982
 20
-136.7720149658068
 30
0.0
 10
84.72988228280506
 20
-136.816782465796
 30
0.0
 10
84.72988228280506
 20
-136.8719216324484
 30
0.0
 10
84.72988228280506
 20
-136.9277310768795
 30
0.0
 10
84.77468505943982
 20
-136.9725338546455
 30
0.0
 10
84.82978894692289
 20
-136.9725338546455
 30
0.0
 10
84.88492811218285
 20
-136.9725338546455
 30
0.0
 10
84.92969561104073
 20
-136.9277310768795
 30
0.0
 10
84.92969561104073
 20
-136.8719216324484
 30
0.0
  0
SPLINE
  5
53
330
1F
100
AcDbEntity
  8
_U+30EC_U+30A4_U+30E4_U+30FC 1
 62
     7
420
 16777215
370
     9
100
AcDbSpline
210
0.0
220
0.0
230
1.0
 70
    11
 71
     3
 72
    17
 73
    13
 74
     0
 42
0.0000000001
 43
0.0000000001
 12
1.0
 22
0.0
 32
0.0
 13
1.0
 23
0.0
 33
0.0
 40
0.0
 40
0.0
 40
0.0
 40
0.0
 40
1.0
 40
1.0
 40
1.0
 40
2.0
 40
2.0
 40
2.0
 40
3.0
 40
3.0
 40
3.0
 40
4.0
 40
4.0
 40
4.0
 40
4.0
 10
95.93004727484282
 20
-136.8719216324484
 30
0.0
 10
95.93004727484282
 20
-136.816782465796
 30
0.0
 10
95.88527977598494
 20
-136.7720149658068
 30
0.0
 10
95.83014061072498
 20
-136.7720149658068
 30
0.0
 10
95.77503672324191
 20
-136.7720149658068
 30
0.0
 10
95.73023394660716
 20
-136.816782465796
 30
0.0
 10
95.73023394660716
 20
-136.8719216324484
 30
0.0
 10
95.73023394660716
 20
-136.9277310768795
 30
0.0
 10
95.77503672324191
 20
-136.9725338546455
 30
0.0
 10
95.83014061072498
 20
-136.9725338546455
 30
0.0
 10
95.88527977598494
 20
-136.9725338546455
 30
0.0
 10
95.93004727484282
 20
-136.9277310768795
 30
0.0
 10
95.93004727484282
 20
-136.8719216324484
 30
0.0
  0
SPLINE
  5
54
330
1F
100
AcDbEntity
  8
_U+30EC_U+30A4_U+30E4_U+30FC 1
 62
     7
420
 16777215
370
     9
100
AcDbSpline
210
0.0
220
0.0
230
1.0
 70
    11
 71
     3
 72
    17
 73
    13
 74
     0
 42
0.0000000001
 43
0.0000000001
 12
1.0
 22
0.0
 32
0.0
 13
1.0
 23
0.0
 33
0.0
 40
0.0
 40
0.0
 40
0.0
 40
0.0
 40
1.0
 40
1.0
 40
1.0
 40
2.0
 40
2.0
 40
2.0
 40
3.0
 40
3.0
 40
3.0
 40
4.0
 40
4.0
 40
4.0
 40
4.0
 10
99.92980633946713
 20
-131.8723902448096
 30
0.0
 10
99.92980633946713
 20
-131.8172863559347
 30
0.0
 10
99.88503884060925
 20
-131.772483578168
 30
0.0
 10
99.8298996753493
 20
-131.772483578168
 30
0.0
 10
99.77479578786622
 20
-131.772483578168
 30
0.0
 10
99.72999301123147
 20
-131.8172863559347
 30
0.0
 10
99.72999301123147
 20
-131.8723902448096
 30
0.0
 10
99.72999301123147
 20
-131.9275294114627
 30
0.0
 10
99.77479578786622
 20
-131.9722969114513
 30
0.0
 10
99.8298996753493
 20
-131.9722969114513
 30
0.0
 10
99.88503884060925
 20
-131.9722969114513
 30
0.0
 10
99.92980633946713
 20
-131.9275294114627
 30
0.0
 10
99.92980633946713
 20
-131.8723902448096
 30
0.0
  0
SPLINE
  5
55
330
1F
100
AcDbEntity
  8
_U+30EC_U+30A4_U+30E4_U+30FC 1
 62
     7
420
 16777215
370
     9
100
AcDbSpline
210
0.0
220
0.0
230
1.0
 70
    11
 71
     3
 72
    17
 73
    13
 74
     0
 42
0.0000000001
 43
0.0000000001
 12
1.0
 22
0.0
 32
0.0
 13
1.0
 23
0.0
 33
0.0
 40
0.0
 40
0.0
 40
0.0
 40
0.0
 40
1.0
 40
1.0
 40
1.0
 40
2.0
 40
2.0
 40
2.0
 40
3.0
 40
3.0
 40
3.0
 40
4.0
 40
4.0
 40
4.0
 40
4.0
 10
99.92980633946713
 20
-127.3724274681569
 30
0.0
 10
99.92980633946713
 20
-127.3172883015041
 30
0.0
 10
99.88503884060925
 20
-127.2725208015152
 30
0.0
 10
99.8298996753493
 20
-127.2725208015152
 30
0.0
 10
99.77479578786622
 20
-127.2725208015152
 30
0.0
 10
99.72999301123147
 20
-127.3172883015041
 30
0.0
 10
99.72999301123147
 20
-127.3724274681569
 30
0.0
 10
99.72999301123147
 20
-127.4275313570321
 30
0.0
 10
99.77479578786622
 20
-127.4723341347985
 30
0.0
 10
99.8298996753493
 20
-127.4723341347985
 30
0.0
 10
99.88503884060925
 20
-127.4723341347985
 30
0.0
 10
99.92980633946713
 20
-127.4275313570321
 30
0.0
 10
99.92980633946713
 20
-127.3724274681569
 30
0.0
  0
POLYLINE
  5
56
330
1F
100
AcDbEntity
  8
_U+30EC_U+30A4_U+30E4_U+30FC 1
 62
     7
420
 16777215
370
     9
100
AcDb2dPolyline
 66
     1
 10
0.0
 20
0.0
 30
0.0
  0
VERTEX
  5
57
330
56
100
AcDbEntity
  8
_U+30EC_U+30A4_U+30E4_U+30FC 1
 62
     7
420
 16777215
370
     9
100
AcDbVertex
100
AcDb2dVertex
 10
80.83002988229859
 20
-121.8723044139763
 30
0.0
  0
VERTEX
  5
58
330
56
100
AcDbEntity
  8
_U+30EC_U+30A4_U+30E4_U+30FC 1
 62
     7
420
 16777215
370
     9
100
AcDbVertex
100
AcDb2dVertex
 10
80.83002988229859
 20
-132.8721624667822
 30
0.0
  0
SEQEND
  5
59
330
56
100
AcDbEntity
  8
_U+30EC_U+30A4_U+30E4_U+30FC 1
 62
     7
420
 16777215
370
     9
  0
POLYLINE
  5
5A
330
1F
100
AcDbEntity
  8
_U+30EC_U+30A4_U+30E4_U+30FC 1
 62
     7
420
 16777215
370
     9
100
AcDb2dPolyline
 66
     1
 10
0.0
 20
0.0
 30
0.0
  0
VERTEX
  5
5B
330
5A
100
AcDbEntity
  8
_U+30EC_U+30A4_U+30E4_U+30FC 1
 62
     7
420
 16777215
370
     9
100
AcDbVertex
100
AcDb2dVertex
 10
82.29007123393872
 20
-121.8723044139763
 30
0.0
  0
VERTEX
  5
5C
330
5A
100
AcDbEntity
  8
_U+30EC_U+30A4_U+30E4_U+30FC 1
 62
     7
420
 16777215
370
     9
100
AcDbVertex
100
AcDb2dVertex
 10
79.829587407822
 20
-121.8723044139763
 30
0.0
  0
SEQEND
  5
5D
330
5A
100
AcDbEntity
  8
_U+30EC_U+30A4_U+30E4_U+30FC 1
 62
     7
420
 16777215
370
     9
  0
POLYLINE
  5
5E
330
1F
100
AcDbEntity
  8
_U+30EC_U+30A4_U+30E4_U+30FC 1
 62
     7
420
 16777215
370
     9
100
AcDb2dPolyline
 66
     1
 10
0.0
 20
0.0
 30
0.0
  0
VERTEX
  5
5F
330
5E
100
AcDbEntity
  8
_U+30EC_U+30A4_U+30E4_U+30FC 1
 62
     7
420
 16777215
370
     9
100
AcDbVertex
100
AcDb2dVertex
 10
82.29007123393872
 20
-132.8721624667822
 30
0.0
  0
VERTEX
  5
60
330
5E
100
AcDbEntity
  8
_U+30EC_U+30A4_U+30E4_U+30FC 1
 62
     7
420
 16777215
370
     9
100
AcDbVertex
100
AcDb2dVertex
 10
79.829587407822
 20
-132.8721624667822
 30
0.0
  0
SEQEND
  5
61
330
5E
100
AcDbEntity
  8
_U+30EC_U+30A4_U+30E4_U+30FC 1
 62
     7
420
 16777215
370
     9
  0
INSERT
  5
63
330
1F
100
AcDbEntity
  8
_U+30EC_U+30A4_U+30E4_U+30FC 1
100
AcDbBlockReference
  2
block 2
 10
0.0
 20
0.0
 30
0.0
  0
SPLINE
  5
6A
330
1F
100
AcDbEntity
  8
_U+30EC_U+30A4_U+30E4_U+30FC 1
 62
     7
420
 16777215
370
     9
100
AcDbSpline
210
0.0
220
0.0
230
1.0
 70
    11
 71
     3
 72
    17
 73
    13
 74
     0
 42
0.0000000001
 43
0.0000000001
 12
1.0
 22
0.0
 32
0.0
 13
1.0
 23
0.0
 33
0.0
 40
0.0
 40
0.0
 40
0.0
 40
0.0
 40
1.0
 40
1.0
 40
1.0
 40
2.0
 40
2.0
 40
2.0
 40
3.0
 40
3.0
 40
3.0
 40
4.0
 40
4.0
 40
4.0
 40
4.0
 10
80.86516654806884
 20
-132.8721624667822
 30
0.0
 10
80.86516654806884
 20
-132.8914594112213
 30
0.0
 10
80.84932682625072
 20
-132.9072991334399
 30
0.0
 10
80.83002988229859
 20
-132.9072991334399
 30
0.0
 10
80.81006266058577
 20
-132.9072991334399
 30
0.0
 10
80.79489321652832
 20
-132.8914594112213
 30
0.0
 10
80.79489321652832
 20
-132.8721624667822
 30
0.0
 10
80.79489321652832
 20
-132.8528655223423
 30
0.0
 10
80.81006266058577
 20
-132.8370258001238
 30
0.0
 10
80.83002988229859
 20
-132.8370258001238
 30
0.0
 10
80.84932682625072
 20
-132.8370258001238
 30
0.0
 10
80.86516654806884
 20
-132.8528655223423
 30
0.0
 10
80.86516654806884
 20
-132.8721624667822
 30
0.0
  0
POLYLINE
  5
6B
330
1F
100
AcDbEntity
  8
_U+30EC_U+30A4_U+30E4_U+30FC 1
 62
     7
420
 16777215
370
     9
100
AcDb2dPolyline
 66
     1
 10
0.0
 20
0.0
 30
0.0
  0
VERTEX
  5
6C
330
6B
100
AcDbEntity
  8
_U+30EC_U+30A4_U+30E4_U+30FC 1
 62
     7
420
 16777215
370
     9
100
AcDbVertex
100
AcDb2dVertex
 10
99.8298996753493
 20
-127.3724274681569
 30
0.0
  0
VERTEX
  5
6D
330
6B
100
AcDbEntity
  8
_U+30EC_U+30A4_U+30E4_U+30FC 1
 62
     7
420
 16777215
370
     9
100
AcDbVertex
100
AcDb2dVertex
 10
99.8298996753493
 20
-131.8723902448096
 30
0.0
  0
SEQEND
  5
6E
330
6B
100
AcDbEntity
  8
_U+30EC_U+30A4_U+30E4_U+30FC 1
 62
     7
420
 16777215
370
     9
  0
POLYLINE
  5
6F
330
1F
100
AcDbEntity
  8
_U+30EC_U+30A4_U+30E4_U+30FC 1
 62
     7
420
 16777215
370
     9
100
AcDb2dPolyline
 66
     1
 10
0.0
 20
0.0
 30
0.0
  0
VERTEX
  5
70
330
6F
100
AcDbEntity
  8
_U+30EC_U+30A4_U+30E4_U+30FC 1
 62
     7
420
 16777215
370
     9
100
AcDbVertex
100
AcDb2dVertex
 10
92.87012346401909
 20
-127.3724274681569
 30
0.0
  0
VERTEX
  5
71
330
6F
100
AcDbEntity
  8
_U+30EC_U+30A4_U+30E4_U+30FC 1
 62
     7
420
 16777215
370
     9
100
AcDbVertex
100
AcDb2dVertex
 10
100.8296718720652
 20
-127.3724274681569
 30
0.0
  0
SEQEND
  5
72
330
6F
100
AcDbEntity
  8
_U+30EC_U+30A4_U+30E4_U+30FC 1
 62
     7
420
 16777215
370
     9
  0
POLYLINE
  5
73
330
1F
100
AcDbEntity
  8
_U+30EC_U+30A4_U+30E4_U+30FC 1
 62
     7
420
 16777215
370
     9
100
AcDb2dPolyline
 66
     1
 10
0.0
 20
0.0
 30
0.0
  0
VERTEX
  5
74
330
73
100
AcDbEntity
  8
_U+30EC_U+30A4_U+30E4_U+30FC 1
 62
     7
420
 16777215
370
     9
100
AcDbVertex
100
AcDb2dVertex
 10
97.37012140477013
 20
-131.8723902448096
 30
0.0
  0
VERTEX
  5
75
330
73
100
AcDbEntity
  8
_U+30EC_U+30A4_U+30E4_U+30FC 1
 62
     7
420
 16777215
370
     9
100
AcDbVertex
100
AcDb2dVertex
 10
100.8296718720652
 20
-131.8723902448096
 30
0.0
  0
SEQEND
  5
76
330
73
100
AcDbEntity
  8
_U+30EC_U+30A4_U+30E4_U+30FC 1
 62
     7
420
 16777215
370
     9
  0
INSERT
  5
78
330
1F
100
AcDbEntity
  8
_U+30EC_U+30A4_U+30E4_U+30FC 1
100
AcDbBlockReference
  2
block 3
 10
0.0
 20
0.0
 30
0.0
  0
SPLINE
  5
9A
330
1F
100
AcDbEntity
  8
_U+30EC_U+30A4_U+30E4_U+30FC 1
 62
     7
420
 16777215
370
     9
100
AcDbSpline
210
0.0
220
0.0
230
1.0
 70
    11
 71
     3
 72
    17
 73
    13
 74
     0
 42
0.0000000001
 43
0.0000000001
 12
1.0
 22
0.0
 32
0.0
 13
1.0
 23
0.0
 33
0.0
 40
0.0
 40
0.0
 40
0.0
 40
0.0
 40
1.0
 40
1.0
 40
1.0
 40
2.0
 40
2.0
 40
2.0
 40
3.0
 40
3.0
 40
3.0
 40
4.0
 40
4.0
 40
4.0
 40
4.0
 10
99.86503886392275
 20
-131.8723902448096
 30
0.0
 10
99.86503886392275
 20
-131.8916871892494
 30
0.0
 10
99.84919661930144
 20
-131.9075269114673
 30
0.0
 10
99.8298996753493
 20
-131.9075269114673
 30
0.0
 10
99.81060273139717
 20
-131.9075269114673
 30
0.0
 10
99.79476300957904
 20
-131.8916871892494
 30
0.0
 10
99.79476300957904
 20
-131.8723902448096
 30
0.0
 10
99.79476300957904
 20
-131.8524230225924
 30
0.0
 10
99.81060273139717
 20
-131.8365833003739
 30
0.0
 10
99.8298996753493
 20
-131.8365833003739
 30
0.0
 10
99.84919661930144
 20
-131.8365833003739
 30
0.0
 10
99.86503886392275
 20
-131.8524230225924
 30
0.0
 10
99.86503886392275
 20
-131.8723902448096
 30
0.0
  0
POLYLINE
  5
9B
330
1F
100
AcDbEntity
  8
_U+30EC_U+30A4_U+30E4_U+30FC 1
 62
     7
420
 16777215
370
     9
100
AcDb2dPolyline
 66
     1
 10
0.0
 20
0.0
 30
0.0
  0
VERTEX
  5
9C
330
9B
100
AcDbEntity
  8
_U+30EC_U+30A4_U+30E4_U+30FC 1
 62
     7
420
 16777215
370
     9
100
AcDbVertex
100
AcDb2dVertex
 10
84.82978894692289
 20
-136.8719216324484
 30
0.0
  0
VERTEX
  5
9D
330
9B
100
AcDbEntity
  8
_U+30EC_U+30A4_U+30E4_U+30FC 1
 62
     7
420
 16777215
370
     9
100
AcDbVertex
100
AcDb2dVertex
 10
95.83014061072498
 20
-136.8719216324484
 30
0.0
  0
SEQEND
  5
9E
330
9B
100
AcDbEntity
  8
_U+30EC_U+30A4_U+30E4_U+30FC 1
 62
     7
420
 16777215
370
     9
  0
POLYLINE
  5
9F
330
1F
100
AcDbEntity
  8
_U+30EC_U+30A4_U+30E4_U+30FC 1
 62
     7
420
 16777215
370
     9
100
AcDb2dPolyline
 66
     1
 10
0.0
 20
0.0
 30
0.0
  0
VERTEX
  5
A0
330
9F
100
AcDbEntity
  8
_U+30EC_U+30A4_U+30E4_U+30FC 1
 62
     7
420
 16777215
370
     9
100
AcDbVertex
100
AcDb2dVertex
 10
84.82978894692289
 20
-135.4118802439247
 30
0.0
  0
VERTEX
  5
A1
330
9F
100
AcDbEntity
  8
_U+30EC_U+30A4_U+30E4_U+30FC 1
 62
     7
420
 16777215
370
     9
100
AcDbVertex
100
AcDb2dVertex
 10
84.82978894692289
 20
-137.8723641321983
 30
0.0
  0
SEQEND
  5
A2
330
9F
100
AcDbEntity
  8
_U+30EC_U+30A4_U+30E4_U+30FC 1
 62
     7
420
 16777215
370
     9
  0
POLYLINE
  5
A3
330
1F
100
AcDbEntity
  8
_U+30EC_U+30A4_U+30E4_U+30FC 1
 62
     7
420
 16777215
370
     9
100
AcDb2dPolyline
 66
     1
 10
0.0
 20
0.0
 30
0.0
  0
VERTEX
  5
A4
330
A3
100
AcDbEntity
  8
_U+30EC_U+30A4_U+30E4_U+30FC 1
 62
     7
420
 16777215
370
     9
100
AcDbVertex
100
AcDb2dVertex
 10
95.83014061072498
 20
-135.4118802439247
 30
0.0
  0
VERTEX
  5
A5
330
A3
100
AcDbEntity
  8
_U+30EC_U+30A4_U+30E4_U+30FC 1
 62
     7
420
 16777215
370
     9
100
AcDbVertex
100
AcDb2dVertex
 10
95.83014061072498
 20
-137.8723641321983
 30
0.0
  0
SEQEND
  5
A6
330
A3
100
AcDbEntity
  8
_U+30EC_U+30A4_U+30E4_U+30FC 1
 62
     7
420
 16777215
370
     9
  0
INSERT
  5
A8
330
1F
100
AcDbEntity
  8
_U+30EC_U+30A4_U+30E4_U+30FC 1
100
AcDbBlockReference
  2
block 4
 10
0.0
 20
0.0
 30
0.0
  0
SPLINE
  5
AF
330
1F
100
AcDbEntity
  8
_U+30EC_U+30A4_U+30E4_U+30FC 1
 62
     7
420
 16777215
370
     9
100
AcDbSpline
210
0.0
220
0.0
230
1.0
 70
    11
 71
     3
 72
    17
 73
    13
 74
     0
 42
0.0000000001
 43
0.0000000001
 12
1.0
 22
0.0
 32
0.0
 13
1.0
 23
0.0
 33
0.0
 40
0.0
 40
0.0
 40
0.0
 40
0.0
 40
1.0
 40
1.0
 40
1.0
 40
2.0
 40
2.0
 40
2.0
 40
3.0
 40
3.0
 40
3.0
 40
4.0
 40
4.0
 40
4.0
 40
4.0
 10
95.86527727649525
 20
-136.8719216324484
 30
0.0
 10
95.86527727649525
 20
-136.8918888546662
 30
0.0
 10
95.84943755467712
 20
-136.9077638546617
 30
0.0
 10
95.83014061072498
 20
-136.9077638546617
 30
0.0
 10
95.81084366677285
 20
-136.9077638546617
 30
0.0
 10
95.79500394495473
 20
-136.8918888546662
 30
0.0
 10
95.79500394495473
 20
-136.8719216324484
 30
0.0
 10
95.79500394495473
 20
-136.8526246880092
 30
0.0
 10
95.81084366677285
 20
-136.8367849657907
 30
0.0
 10
95.83014061072498
 20
-136.8367849657907
 30
0.0
 10
95.84943755467712
 20
-136.8367849657907
 30
0.0
 10
95.86527727649525
 20
-136.8526246880092
 30
0.0
 10
95.86527727649525
 20
-136.8719216324484
 30
0.0
  0
POLYLINE
  5
B0
330
1F
100
AcDbEntity
  8
_U+30EC_U+30A4_U+30E4_U+30FC 1
 62
     7
420
 16777215
370
     9
100
AcDb2dPolyline
 66
     1
 10
0.0
 20
0.0
 30
0.0
  0
VERTEX
  5
B1
330
B0
100
AcDbEntity
  8
_U+30EC_U+30A4_U+30E4_U+30FC 1
 62
     7
420
 16777215
370
     9
100
AcDbVertex
100
AcDb2dVertex
 10
87.57965637676793
 20
-118.9677438591468
 30
0.0
  0
VERTEX
  5
B2
330
B0
100
AcDbEntity
  8
_U+30EC_U+30A4_U+30E4_U+30FC 1
 62
     7
420
 16777215
370
     9
100
AcDbVertex
100
AcDb2dVertex
 10
93.38965928409796
 20
-124.4675141355496
 30
0.0
  0
SEQEND
  5
B3
330
B0
100
AcDbEntity
  8
_U+30EC_U+30A4_U+30E4_U+30FC 1
 62
     7
420
 16777215
370
     9
  0
POLYLINE
  5
B4
330
1F
100
AcDbEntity
  8
_U+30EC_U+30A4_U+30E4_U+30FC 1
 62
     7
420
 16777215
370
     9
100
AcDb2dPolyline
 66
     1
 10
0.0
 20
0.0
 30
0.0
  0
VERTEX
  5
B5
330
B4
100
AcDbEntity
  8
_U+30EC_U+30A4_U+30E4_U+30FC 1
 62
     7
420
 16777215
370
     9
100
AcDbVertex
100
AcDb2dVertex
 10
86.57575668015733
 20
-120.0278058033266
 30
0.0
  0
VERTEX
  5
B6
330
B4
100
AcDbEntity
  8
_U+30EC_U+30A4_U+30E4_U+30FC 1
 62
     7
420
 16777215
370
     9
100
AcDbVertex
100
AcDb2dVertex
 10
88.26729080366935
 20
-118.2415508037728
 30
0.0
  0
SEQEND
  5
B7
330
B4
100
AcDbEntity
  8
_U+30EC_U+30A4_U+30E4_U+30FC 1
 62
     7
420
 16777215
370
     9
  0
POLYLINE
  5
B8
330
1F
100
AcDbEntity
  8
_U+30EC_U+30A4_U+30E4_U+30FC 1
 62
     7
420
 16777215
370
     9
100
AcDb2dPolyline
 66
     1
 10
0.0
 20
0.0
 30
0.0
  0
VERTEX
  5
B9
330
B8
100
AcDbEntity
  8
_U+30EC_U+30A4_U+30E4_U+30FC 1
 62
     7
420
 16777215
370
     9
100
AcDbVertex
100
AcDb2dVertex
 10
92.38575958748736
 20
-125.5278935797293
 30
0.0
  0
VERTEX
  5
BA
330
B8
100
AcDbEntity
  8
_U+30EC_U+30A4_U+30E4_U+30FC 1
 62
     7
420
 16777215
370
     9
100
AcDbVertex
100
AcDb2dVertex
 10
94.0772937109994
 20
-123.7412858023981
 30
0.0
  0
SEQEND
  5
BB
330
B8
100
AcDbEntity
  8
_U+30EC_U+30A4_U+30E4_U+30FC 1
 62
     7
420
 16777215
370
     9
  0
INSERT
  5
BD
330
1F
100
AcDbEntity
  8
_U+30EC_U+30A4_U+30E4_U+30FC 1
100
AcDbBlockReference
  2
block 5
 10
0.0
 20
0.0
 30
0.0
  0
SPLINE
  5
C4
330
1F
100
AcDbEntity
  8
_U+30EC_U+30A4_U+30E4_U+30FC 1
 62
     7
420
 16777215
370
     9
100
AcDbSpline
210
0.0
220
0.0
230
1.0
 70
    11
 71
     3
 72
    17
 73
    13
 74
     0
 42
0.0000000001
 43
0.0000000001
 12
1.0
 22
0.0
 32
0.0
 13
1.0
 23
0.0
 33
0.0
 40
0.0
 40
0.0
 40
0.0
 40
0.0
 40
1.0
 40
1.0
 40
1.0
 40
2.0
 40
2.0
 40
2.0
 40
3.0
 40
3.0
 40
3.0
 40
4.0
 40
4.0
 40
4.0
 40
4.0
 10
93.42479594986823
 20
-124.4675141355496
 30
0.0
 10
93.42479594986823
 20
-124.4871638577672
 30
0.0
 10
93.4089562280501
 20
-124.5030035799855
 30
0.0
 10
93.38965928409796
 20
-124.5030035799855
 30
0.0
 10
93.36965678460827
 20
-124.5030035799855
 30
0.0
 10
93.35452497666152
 20
-124.4871638577672
 30
0.0
 10
93.35452497666152
 20
-124.4675141355496
 30
0.0
 10
93.35452497666152
 20
-124.4482171911101
 30
0.0
 10
93.36965678460827
 20
-124.4323774688919
 30
0.0
 10
93.38965928409796
 20
-124.4323774688919
 30
0.0
 10
93.4089562280501
 20
-124.4323774688919
 30
0.0
 10
93.42479594986823
 20
-124.4482171911101
 30
0.0
 10
93.42479594986823
 20
-124.4675141355496
 30
0.0
  0
POLYLINE
  5
C5
330
1F
100
AcDbEntity
  8
_U+30EC_U+30A4_U+30E4_U+30FC 1
 62
     7
420
 16777215
370
     9
100
AcDb2dPolyline
 66
     1
 10
0.0
 20
0.0
 30
0.0
  0
VERTEX
  5
C6
330
C5
100
AcDbEntity
  8
_U+30EC_U+30A4_U+30E4_U+30FC 1
 62
     7
420
 16777215
370
     9
100
AcDbVertex
100
AcDb2dVertex
 10
99.8298996753493
 20
-134.7332063552053
 30
0.0
  0
VERTEX
  5
C7
330
C5
100
AcDbEntity
  8
_U+30EC_U+30A4_U+30E4_U+30FC 1
 62
     7
420
 16777215
370
     9
100
AcDbVertex
100
AcDb2dVertex
 10
99.8298996753493
 20
-128.3656380234642
 30
0.0
  0
SEQEND
  5
C8
330
C5
100
AcDbEntity
  8
_U+30EC_U+30A4_U+30E4_U+30FC 1
 62
     7
420
 16777215
370
     9
  0
SPLINE
  5
C9
330
1F
100
AcDbEntity
  8
_U+30EC_U+30A4_U+30E4_U+30FC 1
 62
     7
420
 16777215
370
     9
100
AcDbSpline
210
0.0
220
0.0
230
1.0
 70
    11
 71
     3
 72
    17
 73
    13
 74
     0
 42
0.0000000001
 43
0.0000000001
 12
1.0
 22
0.0
 32
0.0
 13
1.0
 23
0.0
 33
0.0
 40
0.0
 40
0.0
 40
0.0
 40
0.0
 40
1.0
 40
1.0
 40
1.0
 40
2.0
 40
2.0
 40
2.0
 40
3.0
 40
3.0
 40
3.0
 40
4.0
 40
4.0
 40
4.0
 40
4.0
 10
99.92980633946713
 20
-132.8656360778949
 30
0.0
 10
99.92980633946713
 20
-132.8104969112418
 30
0.0
 10
99.88503884060925
 20
-132.7657294112532
 30
0.0
 10
99.8298996753493
 20
-132.7657294112532
 30
0.0
 10
99.77479578786622
 20
-132.7657294112532
 30
0.0
 10
99.72999301123147
 20
-132.8104969112418
 30
0.0
 10
99.72999301123147
 20
-132.8656360778949
 30
0.0
 10
99.72999301123147
 20
-132.9207399667698
 30
0.0
 10
99.77479578786622
 20
-132.9655427445365
 30
0.0
 10
99.8298996753493
 20
-132.9655427445365
 30
0.0
 10
99.88503884060925
 20
-132.9655427445365
 30
0.0
 10
99.92980633946713
 20
-132.9207399667698
 30
0.0
 10
99.92980633946713
 20
-132.8656360778949
 30
0.0
  0
POLYLINE
  5
CA
330
1F
100
AcDbEntity
  8
_U+30EC_U+30A4_U+30E4_U+30FC 1
 62
     7
420
 16777215
370
     9
100
AcDb2dPolyline
 66
     1
 10
0.0
 20
0.0
 30
0.0
  0
VERTEX
  5
CB
330
CA
100
AcDbEntity
  8
_U+30EC_U+30A4_U+30E4_U+30FC 1
 62
     7
420
 16777215
370
     9
100
AcDbVertex
100
AcDb2dVertex
 10
97.37012140477013
 20
-132.8721624667822
 30
0.0
  0
VERTEX
  5
CC
330
CA
100
AcDbEntity
  8
_U+30EC_U+30A4_U+30E4_U+30FC 1
 62
     7
420
 16777215
370
     9
100
AcDbVertex
100
AcDb2dVertex
 10
100.8303774276028
 20
-132.8656360778949
 30
0.0
  0
SEQEND
  5
CD
330
CA
100
AcDbEntity
  8
_U+30EC_U+30A4_U+30E4_U+30FC 1
 62
     7
420
 16777215
370
     9
  0
INSERT
  5
CF
330
1F
100
AcDbEntity
  8
_U+30EC_U+30A4_U+30E4_U+30FC 1
100
AcDbBlockReference
  2
block 6
 10
0.0
 20
0.0
 30
0.0
  0
POLYLINE
  5
D4
330
1F
100
AcDbEntity
  8
_U+30EC_U+30A4_U+30E4_U+30FC 1
  6
AI-Linetype-1
 62
   251
420
  5855577
370
    25
100
AcDb2dPolyline
 66
     1
 10
0.0
 20
0.0
 30
0.0
  0
VERTEX
  5
D5
330
D4
100
AcDbEntity
  8
_U+30EC_U+30A4_U+30E4_U+30FC 1
  6
AI-Linetype-1
 62
   251
420
  5855577
370
    25
100
AcDbVertex
100
AcDb2dVertex
 10
83.9445636917291
 20
-132.8721624667822
 30
0.0
  0
VERTEX
  5
D6
330
D4
100
AcDbEntity
  8
_U+30EC_U+30A4_U+30E4_U+30FC 1
  6
AI-Linetype-1
 62
   251
420
  5855577
370
    25
100
AcDbVertex
100
AcDb2dVertex
 10
83.9445636917291
 20
-119.8965724700259
 30
0.0
  0
VERTEX
  5
D7
330
D4
100
AcDbEntity
  8
_U+30EC_U+30A4_U+30E4_U+30FC 1
  6
AI-Linetype-1
 62
   251
420
  5855577
370
    25
100
AcDbVertex
100
AcDb2dVertex
 10
91.79319876927151
 20
-127.4418188570286
 30
0.0
  0
SEQEND
  5
D9
330
D4
100
AcDbEntity
  8
_U+30EC_U+30A4_U+30E4_U+30FC 1
  6
AI-Linetype-1
 62
   251
420
  5855577
370
    25
  0
ENDSEC
  0
SECTION
  2
OBJECTS
  0
DICTIONARY
  5
C
330
0
100
AcDbDictionary
281
     1
  3
ACAD_GROUP
350
D
  3
ACAD_LAYOUT
350
1A
  3
ACAD_MATERIAL
350
3B
  3
ACAD_MLEADERSTYLE
350
DB
  3
ACAD_MLINESTYLE
350
17
  3
ACAD_PLOTSETTINGS
350
19
  3
ACAD_PLOTSTYLENAME
350
E
  3
ACAD_TABLESTYLE
350
DA
  3
ACAD_VISUALSTYLE
350
2A
  0
SUN
  5
3F
330
29
100
AcDbSun
 90
        1
290
     0
 63
     7
421
 16777215
 40
1.0
291
     1
 91
  2455826
 92
 54000000
292
     0
 70
     2
 71
   256
280
     1
  0
DICTIONARY
  5
D
102
{ACAD_REACTORS
330
C
102
}
330
C
100
AcDbDictionary
281
     1
  0
DICTIONARY
  5
1A
102
{ACAD_REACTORS
330
C
102
}
330
C
100
AcDbDictionary
281
     1
  3
Layout1
350
1E
  3
Layout2
350
26
  3
Model
350
22
  0
DICTIONARY
  5
3B
102
{ACAD_REACTORS
330
C
102
}
330
C
100
AcDbDictionary
281
     1
  3
ByBlock
350
3D
  3
ByLayer
350
3C
  3
Global
350
3E
  0
DICTIONARY
  5
DB
102
{ACAD_REACTORS
330
C
102
}
330
C
100
AcDbDictionary
281
     1
  0
DICTIONARY
  5
17
102
{ACAD_REACTORS
330
C
102
}
330
C
100
AcDbDictionary
281
     1
  3
Standard
350
18
  0
DICTIONARY
  5
19
102
{ACAD_REACTORS
330
C
102
}
330
C
100
AcDbDictionary
281
     1
  0
ACDBDICTIONARYWDFLT
  5
E
102
{ACAD_REACTORS
330
C
102
}
330
C
100
AcDbDictionary
281
     1
  3
Normal
350
F
100
AcDbDictionaryWithDefault
340
F
  0
DICTIONARY
  5
DA
102
{ACAD_REACTORS
330
C
102
}
330
C
100
AcDbDictionary
281
     1
  0
DICTIONARY
  5
2A
102
{ACAD_REACTORS
330
C
102
}
330
C
100
AcDbDictionary
281
     1
  3
2dWireframe
350
2F
  3
3D Hidden
350
31
  3
3dWireframe
350
30
  3
Basic
350
32
  3
Brighten
350
36
  3
ColorChange
350
3A
  3
Conceptual
350
34
  3
Dim
350
35
  3
Facepattern
350
39
  3
Flat
350
2B
  3
FlatWithEdges
350
2C
  3
Gouraud
350
2D
  3
GouraudWithEdges
350
2E
  3
Linepattern
350
38
  3
Realistic
350
33
  3
Thicken
350
37
  0
LAYOUT
  5
1E
102
{ACAD_REACTORS
330
1A
102
}
330
1A
100
AcDbPlotSettings
  1

  2
none_device
  4

  6

 40
0.0
 41
0.0
 42
0.0
 43
0.0
 44
0.0
 45
0.0
 46
0.0
 47
0.0
 48
0.0
 49
0.0
140
0.0
141
0.0
142
1.0
143
1.0
 70
   688
 72
     0
 73
     0
 74
     5
  7

 75
    16
 76
     0
 77
     2
 78
   300
147
1.0
148
0.0
149
0.0
100
AcDbLayout
  1
Layout1
 70
     1
 71
     1
 10
0.0
 20
0.0
 11
12.0
 21
9.0
 12
0.0
 22
0.0
 32
0.0
 14
1.000000000000000E+20
 24
1.000000000000000E+20
 34
1.000000000000000E+20
 15
-1.000000000000000E+20
 25
-1.000000000000000E+20
 35
-1.000000000000000E+20
146
0.0
 13
0.0
 23
0.0
 33
0.0
 16
1.0
 26
0.0
 36
0.0
 17
0.0
 27
1.0
 37
0.0
 76
     0
330
1B
  0
LAYOUT
  5
26
102
{ACAD_REACTORS
330
1A
102
}
330
1A
100
AcDbPlotSettings
  1

  2
none_device
  4

  6

 40
0.0
 41
0.0
 42
0.0
 43
0.0
 44
0.0
 45
0.0
 46
0.0
 47
0.0
 48
0.0
 49
0.0
140
0.0
141
0.0
142
1.0
143
1.0
 70
   688
 72
     0
 73
     0
 74
     5
  7

 75
    16
 76
     0
 77
     2
 78
   300
147
1.0
148
0.0
149
0.0
100
AcDbLayout
  1
Layout2
 70
     1
 71
     2
 10
0.0
 20
0.0
 11
0.0
 21
0.0
 12
0.0
 22
0.0
 32
0.0
 14
0.0
 24
0.0
 34
0.0
 15
0.0
 25
0.0
 35
0.0
146
0.0
 13
0.0
 23
0.0
 33
0.0
 16
1.0
 26
0.0
 36
0.0
 17
0.0
 27
1.0
 37
0.0
 76
     0
330
23
  0
LAYOUT
  5
22
102
{ACAD_REACTORS
330
1A
102
}
330
1A
100
AcDbPlotSettings
  1

  2
none_device
  4

  6

 40
0.0
 41
0.0
 42
0.0
 43
0.0
 44
0.0
 45
0.0
 46
0.0
 47
0.0
 48
0.0
 49
0.0
140
0.0
141
0.0
142
1.0
143
1.0
 70
  1712
 72
     0
 73
     0
 74
     0
  7

 75
     0
 76
     0
 77
     2
 78
   300
147
1.0
148
0.0
149
0.0
100
AcDbLayout
  1
Model
 70
     1
 71
     0
 10
0.0
 20
0.0
 11
12.0
 21
9.0
 12
0.0
 22
0.0
 32
0.0
 14
1.000000000000000E+20
 24
1.000000000000000E+20
 34
1.000000000000000E+20
 15
-1.000000000000000E+20
 25
-1.000000000000000E+20
 35
-1.000000000000000E+20
146
0.0
 13
0.0
 23
0.0
 33
0.0
 16
1.0
 26
0.0
 36
0.0
 17
0.0
 27
1.0
 37
0.0
 76
     0
330
1F
331
29
  0
MATERIAL
  5
3D
102
{ACAD_REACTORS
330
3B
102
}
330
3B
100
AcDbMaterial
  1
ByBlock
 72
     1
 94
      127
  0
MATERIAL
  5
3C
102
{ACAD_REACTORS
330
3B
102
}
330
3B
100
AcDbMaterial
  1
ByLayer
 72
     1
 94
      127
  0
MATERIAL
  5
3E
102
{ACAD_REACTORS
330
3B
102
}
330
3B
100
AcDbMaterial
  1
Global
 72
     1
 94
      127
  0
MLINESTYLE
  5
18
102
{ACAD_REACTORS
330
17
102
}
330
17
100
AcDbMlineStyle
  2
Standard
 70
     0
  3

 62
   256
 51
90.0
 52
90.0
 71
     2
 49
0.5
 62
   256
  6
BYLAYER
 49
-0.5
 62
   256
  6
BYLAYER
  0
ACDBPLACEHOLDER
  5
F
102
{ACAD_REACTORS
330
E
102
}
330
E
  0
VISUALSTYLE
  5
2F
102
{ACAD_REACTORS
330
2A
102
}
330
2A
100
AcDbVisualStyle
  2
2dWireframe
 70
     4
177
     2
291
     0
 71
     0
176
     1
 72
     2
176
     1
 73
     0
176
     1
 90
        0
176
     1
 40
-0.6
176
     1
 41
-30.0
176
     1
 62
     5
 63
     7
421
 16777215
176
     1
 74
     1
176
     1
 91
        4
176
     1
 64
     7
176
     1
 65
   257
176
     1
 75
     1
176
     1
175
     1
176
     1
 42
1.0
176
     1
 92
        0
176
     1
 66
   257
176
     1
 43
1.0
176
     1
 76
     1
176
     1
 77
     6
176
     1
 78
     2
176
     1
 67
     7
176
     1
 79
     5
176
     1
170
     0
176
     1
171
     0
176
     1
290
     0
176
     1
 93
        1
176
     1
 44
0.0
176
     1
173
     0
176
     1
  0
VISUALSTYLE
  5
31
102
{ACAD_REACTORS
330
2A
102
}
330
2A
100
AcDbVisualStyle
  2
3D Hidden
 70
     6
177
     2
291
     0
 71
     1
176
     1
 72
     2
176
     1
 73
     2
176
     1
 90
        0
176
     1
 40
-0.6
176
     1
 41
-30.0
176
     1
 62
     5
 63
     7
421
 16777215
176
     1
 74
     2
176
     1
 91
        2
176
     1
 64
     7
176
     1
 65
   257
176
     1
 75
     2
176
     1
175
     1
176
     1
 42
40.0
176
     1
 92
        0
176
     1
 66
   257
176
     1
 43
1.0
176
     1
 76
     1
176
     1
 77
     6
176
     1
 78
     2
176
     1
 67
     7
176
     1
 79
     3
176
     1
170
     0
176
     1
171
     0
176
     1
290
     0
176
     1
 93
        1
176
     1
 44
0.0
176
     1
173
     0
176
     1
  0
VISUALSTYLE
  5
30
102
{ACAD_REACTORS
330
2A
102
}
330
2A
100
AcDbVisualStyle
  2
3dWireframe
 70
     5
177
     2
291
     0
 71
     0
176
     1
 72
     2
176
     1
 73
     0
176
     1
 90
        0
176
     1
 40
-0.6
176
     1
 41
-30.0
176
     1
 62
     5
 63
     7
421
 16777215
176
     1
 74
     1
176
     1
 91
        4
176
     1
 64
     7
176
     1
 65
   257
176
     1
 75
     1
176
     1
175
     1
176
     1
 42
1.0
176
     1
 92
        0
176
     1
 66
   257
176
     1
 43
1.0
176
     1
 76
     1
176
     1
 77
     6
176
     1
 78
     2
176
     1
 67
     7
176
     1
 79
     5
176
     1
170
     0
176
     1
171
     0
176
     1
290
     0
176
     1
 93
        1
176
     1
 44
0.0
176
     1
173
     0
176
     1
  0
VISUALSTYLE
  5
32
102
{ACAD_REACTORS
330
2A
102
}
330
2A
100
AcDbVisualStyle
  2
Basic
 70
     7
177
     2
291
     1
 71
     1
176
     1
 72
     0
176
     1
 73
     1
176
     1
 90
        0
176
     1
 40
-0.6
176
     1
 41
-30.0
176
     1
 62
     5
 63
     7
421
 16777215
176
     1
 74
     0
176
     1
 91
        4
176
     1
 64
     7
176
     1
 65
   257
176
     1
 75
     1
176
     1
175
     1
176
     1
 42
1.0
176
     1
 92
        8
176
     1
 66
     7
176
     1
 43
1.0
176
     1
 76
     1
176
     1
 77
     6
176
     1
 78
     2
176
     1
 67
     7
176
     1
 79
     5
176
     1
170
     0
176
     1
171
     0
176
     1
290
     0
176
     1
 93
        1
176
     1
 44
0.0
176
     1
173
     0
176
     1
  0
VISUALSTYLE
  5
36
102
{ACAD_REACTORS
330
2A
102
}
330
2A
100
AcDbVisualStyle
  2
Brighten
 70
    12
177
     2
291
     1
 71
     2
176
     1
 72
     2
176
     1
 73
     0
176
     1
 90
        0
176
     1
 40
-0.6
176
     1
 41
-30.0
176
     1
 62
     5
 63
     7
421
 16777215
176
     1
 74
     1
176
     1
 91
        4
176
     1
 64
     7
176
     1
 65
   257
176
     1
 75
     1
176
     1
175
     1
176
     1
 42
1.0
176
     1
 92
        8
176
     1
 66
     7
176
     1
 43
1.0
176
     1
 76
     1
176
     1
 77
     6
176
     1
 78
     2
176
     1
 67
     7
176
     1
 79
     5
176
     1
170
     0
176
     1
171
     0
176
     1
290
     0
176
     1
 93
        1
176
     1
 44
50.0
176
     1
173
     0
176
     1
  0
VISUALSTYLE
  5
3A
102
{ACAD_REACTORS
330
2A
102
}
330
2A
100
AcDbVisualStyle
  2
ColorChange
 70
    16
177
     2
291
     1
 71
     2
176
     1
 72
     2
176
     1
 73
     3
176
     1
 90
        0
176
     1
 40
-0.6
176
     1
 41
-30.0
176
     1
 62
     5
 63
     8
421
  8421504
176
     1
 74
     1
176
     1
 91
        4
176
     1
 64
     7
176
     1
 65
   257
176
     1
 75
     1
176
     1
175
     1
176
     1
 42
1.0
176
     1
 92
        8
176
     1
 66
     8
424
  8421504
176
     1
 43
1.0
176
     1
 76
     1
176
     1
 77
     6
176
     1
 78
     2
176
     1
 67
     7
176
     1
 79
     5
176
     1
170
     0
176
     1
171
     0
176
     1
290
     0
176
     1
 93
        1
176
     1
 44
0.0
176
     1
173
     0
176
     1
  0
VISUALSTYLE
  5
34
102
{ACAD_REACTORS
330
2A
102
}
330
2A
100
AcDbVisualStyle
  2
Conceptual
 70
     9
177
     2
291
     0
 71
     3
176
     1
 72
     2
176
     1
 73
     0
176
     1
 90
        0
176
     1
 40
-0.6
176
     1
 41
-30.0
176
     1
 62
     5
 63
     7
421
 16777215
176
     1
 74
     2
176
     1
 91
        2
176
     1
 64
     7
176
     1
 65
   257
176
     1
 75
     1
176
     1
175
     1
176
     1
 42
40.0
176
     1
 92
        8
176
     1
 66
     7
176
     1
 43
1.0
176
     1
 76
     1
176
     1
 77
     6
176
     1
 78
     2
176
     1
 67
     7
176
     1
 79
     3
176
     1
170
     0
176
     1
171
     0
176
     1
290
     0
176
     1
 93
        1
176
     1
 44
0.0
176
     1
173
     0
176
     1
  0
VISUALSTYLE
  5
35
102
{ACAD_REACTORS
330
2A
102
}
330
2A
100
AcDbVisualStyle
  2
Dim
 70
    11
177
     2
291
     1
 71
     2
176
     1
 72
     2
176
     1
 73
     0
176
     1
 90
        0
176
     1
 40
-0.6
176
     1
 41
-30.0
176
     1
 62
     5
 63
     7
421
 16777215
176
     1
 74
     1
176
     1
 91
        4
176
     1
 64
     7
176
     1
 65
   257
176
     1
 75
     1
176
     1
175
     1
176
     1
 42
1.0
176
     1
 92
        8
176
     1
 66
     7
176
     1
 43
1.0
176
     1
 76
     1
176
     1
 77
     6
176
     1
 78
     2
176
     1
 67
     7
176
     1
 79
     5
176
     1
170
     0
176
     1
171
     0
176
     1
290
     0
176
     1
 93
        1
176
     1
 44
-50.0
176
     1
173
     0
176
     1
  0
VISUALSTYLE
  5
39
102
{ACAD_REACTORS
330
2A
102
}
330
2A
100
AcDbVisualStyle
  2
Facepattern
 70
    15
177
     2
291
     1
 71
     2
176
     1
 72
     2
176
     1
 73
     0
176
     1
 90
        0
176
     1
 40
-0.6
176
     1
 41
-30.0
176
     1
 62
     5
 63
     7
421
 16777215
176
     1
 74
     1
176
     1
 91
        4
176
     1
 64
     7
176
     1
 65
   257
176
     1
 75
     1
176
     1
175
     1
176
     1
 42
1.0
176
     1
 92
        8
176
     1
 66
     7
176
     1
 43
1.0
176
     1
 76
     1
176
     1
 77
     6
176
     1
 78
     2
176
     1
 67
     7
176
     1
 79
     5
176
     1
170
     0
176
     1
171
     0
176
     1
290
     0
176
     1
 93
        1
176
     1
 44
0.0
176
     1
173
     0
176
     1
  0
VISUALSTYLE
  5
2B
102
{ACAD_REACTORS
330
2A
102
}
330
2A
100
AcDbVisualStyle
  2
Flat
 70
     0
177
     2
291
     1
 71
     2
176
     1
 72
     1
176
     1
 73
     1
176
     1
 90
        2
176
     1
 40
-0.6
176
     1
 41
30.0
176
     1
 62
     5
 63
     7
421
 16777215
176
     1
 74
     0
176
     1
 91
        4
176
     1
 64
     7
176
     1
 65
   257
176
     1
 75
     1
176
     1
175
     1
176
     1
 42
1.0
176
     1
 92
        8
176
     1
 66
     7
176
     1
 43
1.0
176
     1
 76
     1
176
     1
 77
     6
176
     1
 78
     2
176
     1
 67
     7
176
     1
 79
     5
176
     1
170
     0
176
     1
171
     0
176
     1
290
     0
176
     1
 93
       13
176
     1
 44
0.0
176
     1
173
     0
176
     1
  0
VISUALSTYLE
  5
2C
102
{ACAD_REACTORS
330
2A
102
}
330
2A
100
AcDbVisualStyle
  2
FlatWithEdges
 70
     1
177
     2
291
     1
 71
     2
176
     1
 72
     1
176
     1
 73
     1
176
     1
 90
        2
176
     1
 40
-0.6
176
     1
 41
30.0
176
     1
 62
     5
 63
     7
421
 16777215
176
     1
 74
     1
176
     1
 91
        4
176
     1
 64
     7
176
     1
 65
   257
176
     1
 75
     1
176
     1
175
     1
176
     1
 42
1.0
176
     1
 92
        0
176
     1
 66
   257
176
     1
 43
1.0
176
     1
 76
     1
176
     1
 77
     6
176
     1
 78
     2
176
     1
 67
     7
176
     1
 79
     5
176
     1
170
     0
176
     1
171
     0
176
     1
290
     0
176
     1
 93
       13
176
     1
 44
0.0
176
     1
173
     0
176
     1
  0
VISUALSTYLE
  5
2D
102
{ACAD_REACTORS
330
2A
102
}
330
2A
100
AcDbVisualStyle
  2
Gouraud
 70
     2
177
     2
291
     1
 71
     2
176
     1
 72
     2
176
     1
 73
     1
176
     1
 90
        2
176
     1
 40
-0.6
176
     1
 41
30.0
176
     1
 62
     5
 63
     7
421
 16777215
176
     1
 74
     0
176
     1
 91
        4
176
     1
 64
     7
176
     1
 65
   257
176
     1
 75
     1
176
     1
175
     1
176
     1
 42
1.0
176
     1
 92
        0
176
     1
 66
     7
176
     1
 43
1.0
176
     1
 76
     1
176
     1
 77
     6
176
     1
 78
     2
176
     1
 67
     7
176
     1
 79
     5
176
     1
170
     0
176
     1
171
     0
176
     1
290
     0
176
     1
 93
       13
176
     1
 44
0.0
176
     1
173
     0
176
     1
  0
VISUALSTYLE
  5
2E
102
{ACAD_REACTORS
330
2A
102
}
330
2A
100
AcDbVisualStyle
  2
GouraudWithEdges
 70
     3
177
     2
291
     1
 71
     2
176
     1
 72
     2
176
     1
 73
     1
176
     1
 90
        2
176
     1
 40
-0.6
176
     1
 41
30.0
176
     1
 62
     5
 63
     7
421
 16777215
176
     1
 74
     1
176
     1
 91
        4
176
     1
 64
     7
176
     1
 65
   257
176
     1
 75
     1
176
     1
175
     1
176
     1
 42
1.0
176
     1
 92
        0
176
     1
 66
   257
176
     1
 43
1.0
176
     1
 76
     1
176
     1
 77
     6
176
     1
 78
     2
176
     1
 67
     7
176
     1
 79
     5
176
     1
170
     0
176
     1
171
     0
176
     1
290
     0
176
     1
 93
       13
176
     1
 44
0.0
176
     1
173
     0
176
     1
  0
VISUALSTYLE
  5
38
102
{ACAD_REACTORS
330
2A
102
}
330
2A
100
AcDbVisualStyle
  2
Linepattern
 70
    14
177
     2
291
     1
 71
     2
176
     1
 72
     2
176
     1
 73
     0
176
     1
 90
        0
176
     1
 40
-0.6
176
     1
 41
-30.0
176
     1
 62
     5
 63
     7
421
 16777215
176
     1
 74
     1
176
     1
 91
        4
176
     1
 64
     7
176
     1
 65
   257
176
     1
 75
     7
176
     1
175
     7
176
     1
 42
1.0
176
     1
 92
        8
176
     1
 66
     7
176
     1
 43
1.0
176
     1
 76
     1
176
     1
 77
     6
176
     1
 78
     2
176
     1
 67
     7
176
     1
 79
     5
176
     1
170
     0
176
     1
171
     0
176
     1
290
     0
176
     1
 93
        1
176
     1
 44
0.0
176
     1
173
     0
176
     1
  0
VISUALSTYLE
  5
33
102
{ACAD_REACTORS
330
2A
102
}
330
2A
100
AcDbVisualStyle
  2
Realistic
 70
     8
177
     2
291
     0
 71
     2
176
     1
 72
     2
176
     1
 73
     0
176
     1
 90
        0
176
     1
 40
-0.6
176
     1
 41
-30.0
176
     1
 62
     5
 63
     7
421
 16777215
176
     1
 74
     1
176
     1
 91
        0
176
     1
 64
     7
176
     1
 65
   257
176
     1
 75
     1
176
     1
175
     1
176
     1
 42
1.0
176
     1
 92
        8
176
     1
 66
     8
424
  7895160
176
     1
 43
1.0
176
     1
 76
     1
176
     1
 77
     6
176
     1
 78
     2
176
     1
 67
     7
176
     1
 79
     5
176
     1
170
     0
176
     1
171
     0
176
     1
290
     0
176
     1
 93
       13
176
     1
 44
0.0
176
     1
173
     0
176
     1
  0
VISUALSTYLE
  5
37
102
{ACAD_REACTORS
330
2A
102
}
330
2A
100
AcDbVisualStyle
  2
Thicken
 70
    13
177
     2
291
     1
 71
     2
176
     1
 72
     2
176
     1
 73
     0
176
     1
 90
        0
176
     1
 40
-0.6
176
     1
 41
-30.0
176
     1
 62
     5
 63
     7
421
 16777215
176
     1
 74
     1
176
     1
 91
        4
176
     1
 64
     7
176
     1
 65
   257
176
     1
 75
     1
176
     1
175
     1
176
     1
 42
1.0
176
     1
 92
       12
176
     1
 66
     7
176
     1
 43
1.0
176
     1
 76
     1
176
     1
 77
     6
176
     1
 78
     2
176
     1
 67
     7
176
     1
 79
     5
176
     1
170
     0
176
     1
171
     0
176
     1
290
     0
176
     1
 93
        1
176
     1
 44
0.0
176
     1
173
     0
176
     1
  0
ENDSEC
  0
EOF
