  0
SECTION
  2
HEADER
  9
$ACADVER
  1
AC1024
  9
$ACADMAINTVER
 70
     6
  9
$DWGCODEPAGE
  3
UNDEFINED
  9
$INSBASE
 10
0.0
 20
0.0
 30
0.0
  9
$EXTMIN
 10
1.000000000000000E+20
 20
1.000000000000000E+20
 30
1.000000000000000E+20
  9
$EXTMAX
 10
-1.000000000000000E+20
 20
-1.000000000000000E+20
 30
-1.000000000000000E+20
  9
$LIMMIN
 10
0.0
 20
0.0
  9
$LIMMAX
 10
12.0
 20
9.0
  9
$ORTHOMODE
 70
     0
  9
$REGENMODE
 70
     1
  9
$FILLMODE
 70
     1
  9
$QTEXTMODE
 70
     0
  9
$MIRRTEXT
 70
     1
  9
$LTSCALE
 40
1.0
  9
$ATTMODE
 70
     1
  9
$TEXTSIZE
 40
0.2
  9
$TRACEWID
 40
0.05
  9
$TEXTSTYLE
  7
Standard
  9
$CLAYER
  8
0
  9
$CELTYPE
  6
ByLayer
  9
$CECOLOR
 62
   256
  9
$CELTSCALE
 40
1.0
  9
$DISPSILH
 70
     0
  9
$DIMSCALE
 40
1.0
  9
$DIMASZ
 40
0.18
  9
$DIMEXO
 40
0.0625
  9
$DIMDLI
 40
0.38
  9
$DIMRND
 40
0.0
  9
$DIMDLE
 40
0.0
  9
$DIMEXE
 40
0.18
  9
$DIMTP
 40
0.0
  9
$DIMTM
 40
0.0
  9
$DIMTXT
 40
0.18
  9
$DIMCEN
 40
0.09
  9
$DIMTSZ
 40
0.0
  9
$DIMTOL
 70
     0
  9
$DIMLIM
 70
     0
  9
$DIMTIH
 70
     1
  9
$DIMTOH
 70
     1
  9
$DIMSE1
 70
     0
  9
$DIMSE2
 70
     0
  9
$DIMTAD
 70
     0
  9
$DIMZIN
 70
     0
  9
$DIMBLK
  1

  9
$DIMASO
 70
     1
  9
$DIMSHO
 70
     1
  9
$DIMPOST
  1

  9
$DIMAPOST
  1

  9
$DIMALT
 70
     0
  9
$DIMALTD
 70
     2
  9
$DIMALTF
 40
25.4
  9
$DIMLFAC
 40
1.0
  9
$DIMTOFL
 70
     0
  9
$DIMTVP
 40
0.0
  9
$DIMTIX
 70
     0
  9
$DIMSOXD
 70
     0
  9
$DIMSAH
 70
     0
  9
$DIMBLK1
  1

  9
$DIMBLK2
  1

  9
$DIMSTYLE
  2
Standard
  9
$DIMCLRD
 70
     0
  9
$DIMCLRE
 70
     0
  9
$DIMCLRT
 70
     0
  9
$DIMTFAC
 40
1.0
  9
$DIMGAP
 40
0.09
  9
$DIMJUST
 70
     0
  9
$DIMSD1
 70
     0
  9
$DIMSD2
 70
     0
  9
$DIMTOLJ
 70
     1
  9
$DIMTZIN
 70
     0
  9
$DIMALTZ
 70
     0
  9
$DIMALTTZ
 70
     0
  9
$DIMUPT
 70
     0
  9
$DIMDEC
 70
     4
  9
$DIMTDEC
 70
     4
  9
$DIMALTU
 70
     2
  9
$DIMALTTD
 70
     2
  9
$DIMTXSTY
  7
Standard
  9
$DIMAUNIT
 70
     0
  9
$DIMADEC
 70
     0
  9
$DIMALTRND
 40
0.0
  9
$DIMAZIN
 70
     0
  9
$DIMDSEP
 70
    46
  9
$DIMATFIT
 70
     3
  9
$DIMFRAC
 70
     0
  9
$DIMLDRBLK
  1

  9
$DIMLUNIT
 70
     2
  9
$DIMLWD
 70
    -2
  9
$DIMLWE
 70
    -2
  9
$DIMTMOVE
 70
     0
  9
$DIMFXL
 40
1.0
  9
$DIMFXLON
 70
     0
  9
$DIMJOGANG
 40
0.7853981633974483
  9
$DIMTFILL
 70
     0
  9
$DIMTFILLCLR
 70
     0
  9
$DIMARCSYM
 70
     0
  9
$DIMLTYPE
  6

  9
$DIMLTEX1
  6

  9
$DIMLTEX2
  6

  9
$DIMTXTDIRECTION
 70
     0
  9
$LUNITS
 70
     2
  9
$LUPREC
 70
     4
  9
$SKETCHINC
 40
0.1
  9
$FILLETRAD
 40
0.5
  9
$AUNITS
 70
     0
  9
$AUPREC
 70
     0
  9
$MENU
  1
.
  9
$ELEVATION
 40
0.0
  9
$PELEVATION
 40
0.0
  9
$THICKNESS
 40
0.0
  9
$LIMCHECK
 70
     0
  9
$CHAMFERA
 40
0.5
  9
$CHAMFERB
 40
0.5
  9
$CHAMFERC
 40
1.0
  9
$CHAMFERD
 40
0.0
  9
$SKPOLY
 70
     0
  9
$TDCREATE
 40
2457917.619652778
  9
$TDUCREATE
 40
2457917.244652778
  9
$TDUPDATE
 40
2457917.619652778
  9
$TDUUPDATE
 40
2457917.244652778
  9
$TDINDWG
 40
0.0000000116
  9
$TDUSRTIMER
 40
0.0000000116
  9
$USRTIMER
 70
     1
  9
$ANGBASE
 50
0.0
  9
$ANGDIR
 70
     0
  9
$PDMODE
 70
     0
  9
$PDSIZE
 40
0.0
  9
$PLINEWID
 40
0.0
  9
$SPLFRAME
 70
     0
  9
$SPLINETYPE
 70
     6
  9
$SPLINESEGS
 70
     8
  9
$HANDSEED
  5
DB
  9
$SURFTAB1
 70
     6
  9
$SURFTAB2
 70
     6
  9
$SURFTYPE
 70
     6
  9
$SURFU
 70
     6
  9
$SURFV
 70
     6
  9
$UCSBASE
  2

  9
$UCSNAME
  2

  9
$UCSORG
 10
0.0
 20
0.0
 30
0.0
  9
$UCSXDIR
 10
1.0
 20
0.0
 30
0.0
  9
$UCSYDIR
 10
0.0
 20
1.0
 30
0.0
  9
$UCSORTHOREF
  2

  9
$UCSORTHOVIEW
 70
     0
  9
$UCSORGTOP
 10
0.0
 20
0.0
 30
0.0
  9
$UCSORGBOTTOM
 10
0.0
 20
0.0
 30
0.0
  9
$UCSORGLEFT
 10
0.0
 20
0.0
 30
0.0
  9
$UCSORGRIGHT
 10
0.0
 20
0.0
 30
0.0
  9
$UCSORGFRONT
 10
0.0
 20
0.0
 30
0.0
  9
$UCSORGBACK
 10
0.0
 20
0.0
 30
0.0
  9
$PUCSBASE
  2

  9
$PUCSNAME
  2

  9
$PUCSORG
 10
0.0
 20
0.0
 30
0.0
  9
$PUCSXDIR
 10
1.0
 20
0.0
 30
0.0
  9
$PUCSYDIR
 10
0.0
 20
1.0
 30
0.0
  9
$PUCSORTHOREF
  2

  9
$PUCSORTHOVIEW
 70
     0
  9
$PUCSORGTOP
 10
0.0
 20
0.0
 30
0.0
  9
$PUCSORGBOTTOM
 10
0.0
 20
0.0
 30
0.0
  9
$PUCSORGLEFT
 10
0.0
 20
0.0
 30
0.0
  9
$PUCSORGRIGHT
 10
0.0
 20
0.0
 30
0.0
  9
$PUCSORGFRONT
 10
0.0
 20
0.0
 30
0.0
  9
$PUCSORGBACK
 10
0.0
 20
0.0
 30
0.0
  9
$USERI1
 70
     0
  9
$USERI2
 70
     0
  9
$USERI3
 70
     0
  9
$USERI4
 70
     0
  9
$USERI5
 70
     0
  9
$USERR1
 40
0.0
  9
$USERR2
 40
0.0
  9
$USERR3
 40
0.0
  9
$USERR4
 40
0.0
  9
$USERR5
 40
0.0
  9
$WORLDVIEW
 70
     1
  9
$SHADEDGE
 70
     3
  9
$SHADEDIF
 70
    70
  9
$TILEMODE
 70
     1
  9
$MAXACTVP
 70
    64
  9
$PINSBASE
 10
0.0
 20
0.0
 30
0.0
  9
$PLIMCHECK
 70
     0
  9
$PEXTMIN
 10
1.000000000000000E+20
 20
1.000000000000000E+20
 30
1.000000000000000E+20
  9
$PEXTMAX
 10
-1.000000000000000E+20
 20
-1.000000000000000E+20
 30
-1.000000000000000E+20
  9
$PLIMMIN
 10
0.0
 20
0.0
  9
$PLIMMAX
 10
12.0
 20
9.0
  9
$UNITMODE
 70
     0
  9
$VISRETAIN
 70
     1
  9
$PLINEGEN
 70
     0
  9
$PSLTSCALE
 70
     1
  9
$TREEDEPTH
 70
  3020
  9
$CMLSTYLE
  2
Standard
  9
$CMLJUST
 70
     0
  9
$CMLSCALE
 40
1.0
  9
$PROXYGRAPHICS
 70
     1
  9
$MEASUREMENT
 70
     0
  9
$CELWEIGHT
370
    -1
  9
$ENDCAPS
280
     0
  9
$JOINSTYLE
280
     0
  9
$LWDISPLAY
290
     1
  9
$INSUNITS
 70
     1
  9
$HYPERLINKBASE
  1

  9
$STYLESHEET
  1

  9
$XEDIT
290
     1
  9
$CEPSNTYPE
380
     0
  9
$PSTYLEMODE
290
     1
  9
$FINGERPRINTGUID
  2
{6D0C5B90-02B3-D786-455C-BDA612DA7120}
  9
$VERSIONGUID
  2
{FAEB1C32-E019-11D5-929B-00C0DF256EC4}
  9
$EXTNAMES
290
     1
  9
$PSVPSCALE
 40
0.0
  9
$OLESTARTUP
290
     0
  9
$SORTENTS
280
   127
  9
$INDEXCTL
280
     0
  9
$HIDETEXT
280
     1
  9
$XCLIPFRAME
280
     2
  9
$HALOGAP
280
     0
  9
$OBSCOLOR
 70
   257
  9
$OBSLTYPE
280
     0
  9
$INTERSECTIONDISPLAY
280
     0
  9
$INTERSECTIONCOLOR
 70
   257
  9
$DIMASSOC
280
     2
  9
$PROJECTNAME
  1

  9
$CAMERADISPLAY
290
     0
  9
$LENSLENGTH
 40
50.0
  9
$CAMERAHEIGHT
 40
0.0
  9
$STEPSPERSEC
 40
2.0
  9
$STEPSIZE
 40
6.0
  9
$3DDWFPREC
 40
2.0
  9
$PSOLWIDTH
 40
0.25
  9
$PSOLHEIGHT
 40
4.0
  9
$LOFTANG1
 40
1.570796326794897
  9
$LOFTANG2
 40
1.570796326794897
  9
$LOFTMAG1
 40
0.0
  9
$LOFTMAG2
 40
0.0
  9
$LOFTPARAM
 70
     7
  9
$LOFTNORMALS
280
     1
  9
$LATITUDE
 40
37.795
  9
$LONGITUDE
 40
-122.394
  9
$NORTHDIRECTION
 40
0.0
  9
$TIMEZONE
 70
 -8000
  9
$LIGHTGLYPHDISPLAY
280
     1
  9
$TILEMODELIGHTSYNCH
280
     1
  9
$CMATERIAL
347
3C
  9
$SOLIDHIST
280
     1
  9
$SHOWHIST
280
     1
  9
$DWFFRAME
280
     2
  9
$DGNFRAME
280
     2
  9
$REALWORLDSCALE
290
     1
  9
$INTERFERECOLOR
 62
   256
  9
$CSHADOW
280
     0
  9
$SHADOWPLANELOCATION
 40
0.0
  0
ENDSEC
  0
SECTION
  2
CLASSES
  0
CLASS
  1
ACDBDICTIONARYWDFLT
  2
AcDbDictionaryWithDefault
  3
ObjectDBX Classes
 90
        0
 91
        4
280
     0
281
     0
  0
CLASS
  1
VISUALSTYLE
  2
AcDbVisualStyle
  3
ObjectDBX Classes
 90
     4095
 91
        4
280
     0
281
     0
  0
CLASS
  1
MATERIAL
  2
AcDbMaterial
  3
ObjectDBX Classes
 90
     1153
 91
        4
280
     0
281
     0
  0
CLASS
  1
SUN
  2
AcDbSun
  3
SCENEOE
 90
     1024
 91
        4
280
     0
281
     0
  0
ENDSEC
  0
SECTION
  2
TABLES
  0
TABLE
  2
VPORT
  5
8
330
0
100
AcDbSymbolTable
 70
     1
  0
VPORT
  5
29
330
8
100
AcDbSymbolTableRecord
100
AcDbViewportTableRecord
  2
*Active
 70
     0
 10
0.0
 20
0.0
 11
1.0
 21
1.0
 12
0.0
 22
0.0
 13
0.0
 23
0.0
 14
0.5
 24
0.5
 15
0.5
 25
0.5
 16
0.0
 26
0.0
 36
1.0
 17
91.00082462281999
 27
-128.4993055234307
 37
0.0
 40
256.9986110468615
 41
0.7081814508812795
 42
50.0
 43
0.0
 44
0.0
 50
0.0
 51
0.0
 71
     0
 72
   100
 73
     1
 74
     3
 75
     0
 76
     0
 77
     0
 78
     0
281
     0
 65
     1
110
0.0
120
0.0
130
0.0
111
1.0
121
0.0
131
0.0
112
0.0
122
1.0
132
0.0
 79
     0
146
0.0
 60
     3
 61
     5
292
     1
282
     1
141
0.0
142
0.0
 63
   250
361
3F
  0
ENDTAB
  0
TABLE
  2
LTYPE
  5
5
330
0
100
AcDbSymbolTable
 70
     2
  0
LTYPE
  5
14
330
5
100
AcDbSymbolTableRecord
100
AcDbLinetypeTableRecord
  2
ByBlock
 70
     0
  3

 72
    65
 73
     0
 40
0.0
  0
LTYPE
  5
15
330
5
100
AcDbSymbolTableRecord
100
AcDbLinetypeTableRecord
  2
ByLayer
 70
     0
  3

 72
    65
 73
     0
 40
0.0
  0
LTYPE
  5
16
330
5
100
AcDbSymbolTableRecord
100
AcDbLinetypeTableRecord
  2
Continuous
 70
     0
  3
Solid line
 72
    65
 73
     0
 40
0.0
  0
LTYPE
  5
D7
330
5
100
AcDbSymbolTableRecord
100
AcDbLinetypeTableRecord
  2
AI-Linetype-1
 70
     0
  3
Adobe Illustrator Linetype No. 1
 72
    65
 73
     2
 40
1.411111110758333
 49
0.7055555553791667
 74
     0
 49
-0.7055555553791667
 74
     0
  0
ENDTAB
  0
TABLE
  2
LAYER
  5
2
330
0
100
AcDbSymbolTable
 70
     2
  0
LAYER
  5
10
330
2
100
AcDbSymbolTableRecord
100
AcDbLayerTableRecord
  2
0
 70
     0
 62
     7
  6
Continuous
370
    -3
390
F
347
3E
  0
LAYER
  5
40
330
2
100
AcDbSymbolTableRecord
100
AcDbLayerTableRecord
  2
_U+30EC_U+30A4_U+30E4_U+30FC 1
 70
     0
 62
     7
  6
Continuous
370
    -3
390
F
347
3E
  0
ENDTAB
  0
TABLE
  2
STYLE
  5
3
330
0
100
AcDbSymbolTable
 70
     1
  0
STYLE
  5
11
330
3
100
AcDbSymbolTableRecord
100
AcDbTextStyleTableRecord
  2
Standard
 70
     0
 40
0.0
 41
1.0
 50
0.0
 71
     0
 42
0.2
  3
txt
  4

  0
ENDTAB
  0
TABLE
  2
VIEW
  5
6
330
0
100
AcDbSymbolTable
 70
     0
  0
ENDTAB
  0
TABLE
  2
UCS
  5
7
330
0
100
AcDbSymbolTable
 70
     0
  0
ENDTAB
  0
TABLE
  2
APPID
  5
9
330
0
100
AcDbSymbolTable
 70
     1
  0
APPID
  5
12
330
9
100
AcDbSymbolTableRecord
100
AcDbRegAppTableRecord
  2
ACAD
 70
     0
  0
ENDTAB
  0
TABLE
  2
DIMSTYLE
  5
A
330
0
100
AcDbSymbolTable
 70
     1
100
AcDbDimStyleTable
  0
DIMSTYLE
105
27
330
A
100
AcDbSymbolTableRecord
100
AcDbDimStyleTableRecord
  2
Standard
 70
     0
178
     0
340
11
  0
ENDTAB
  0
TABLE
  2
BLOCK_RECORD
  5
1
330
0
100
AcDbSymbolTable
 70
     6
  0
BLOCK_RECORD
  5
1F
330
1
100
AcDbSymbolTableRecord
100
AcDbBlockTableRecord
  2
*Model_Space
340
22
 70
     0
280
     1
281
     0
  0
BLOCK_RECORD
  5
1B
330
1
100
AcDbSymbolTableRecord
100
AcDbBlockTableRecord
  2
*Paper_Space
340
1E
 70
     0
280
     1
281
     0
  0
BLOCK_RECORD
  5
23
330
1
100
AcDbSymbolTableRecord
100
AcDbBlockTableRecord
  2
*Paper_Space0
340
26
 70
     0
280
     1
281
     0
  0
BLOCK_RECORD
  5
5E
330
1
100
AcDbSymbolTableRecord
100
AcDbBlockTableRecord
  2
block 2
340
0
102
{BLKREFS
331
5F
102
}
 70
     0
280
     1
281
     0
  0
BLOCK_RECORD
  5
77
330
1
100
AcDbSymbolTableRecord
100
AcDbBlockTableRecord
  2
block 3
340
0
102
{BLKREFS
331
78
102
}
 70
     0
280
     1
281
     0
  0
BLOCK_RECORD
  5
8A
330
1
100
AcDbSymbolTableRecord
100
AcDbBlockTableRecord
  2
block 4
340
0
102
{BLKREFS
331
8B
102
}
 70
     0
280
     1
281
     0
  0
BLOCK_RECORD
  5
9F
330
1
100
AcDbSymbolTableRecord
100
AcDbBlockTableRecord
  2
block 5
340
0
102
{BLKREFS
331
A0
102
}
 70
     0
280
     1
281
     0
  0
BLOCK_RECORD
  5
BF
330
1
100
AcDbSymbolTableRecord
100
AcDbBlockTableRecord
  2
block 6
340
0
102
{BLKREFS
331
C0
102
}
 70
     0
280
     1
281
     0
  0
ENDTAB
  0
ENDSEC
  0
SECTION
  2
BLOCKS
  0
BLOCK
  5
20
330
1F
100
AcDbEntity
  8
0
100
AcDbBlockBegin
  2
*Model_Space
 70
     0
 10
0.0
 20
0.0
 30
0.0
  3
*Model_Space
  1

  0
ENDBLK
  5
21
330
1F
100
AcDbEntity
  8
0
100
AcDbBlockEnd
  0
BLOCK
  5
1C
330
1B
100
AcDbEntity
 67
     1
  8
0
100
AcDbBlockBegin
  2
*Paper_Space
 70
     0
 10
0.0
 20
0.0
 30
0.0
  3
*Paper_Space
  1

  0
ENDBLK
  5
1D
330
1B
100
AcDbEntity
 67
     1
  8
0
100
AcDbBlockEnd
  0
BLOCK
  5
24
330
23
100
AcDbEntity
  8
0
100
AcDbBlockBegin
  2
*Paper_Space0
 70
     0
 10
0.0
 20
0.0
 30
0.0
  3
*Paper_Space0
  1

  0
ENDBLK
  5
25
330
23
100
AcDbEntity
  8
0
100
AcDbBlockEnd
  0
BLOCK
  5
60
330
5E
100
AcDbEntity
  8
0
100
AcDbBlockBegin
  2
block 2
 70
     0
 10
0.0
 20
0.0
 30
0.0
  3
block 2
  1

  0
SPLINE
  5
62
330
5E
100
AcDbEntity
  8
_U+30EC_U+30A4_U+30E4_U+30FC 1
370
     0
100
AcDbSpline
210
0.0
220
0.0
230
1.0
 70
    11
 71
     3
 72
    62
 73
    58
 74
     0
 42
0.0000000001
 43
0.0000000001
 12
1.0
 22
0.0
 32
0.0
 13
1.0
 23
0.0
 33
0.0
 40
0.0
 40
0.0
 40
0.0
 40
0.0
 40
1.0
 40
1.0
 40
1.0
 40
2.0
 40
2.0
 40
2.0
 40
3.0
 40
3.0
 40
3.0
 40
4.0
 40
4.0
 40
4.0
 40
5.0
 40
5.0
 40
5.0
 40
6.0
 40
6.0
 40
6.0
 40
7.0
 40
7.0
 40
7.0
 40
8.0
 40
8.0
 40
8.0
 40
9.0
 40
9.0
 40
9.0
 40
10.0
 40
10.0
 40
10.0
 40
11.0
 40
11.0
 40
11.0
 40
12.0
 40
12.0
 40
12.0
 40
13.0
 40
13.0
 40
13.0
 40
14.0
 40
14.0
 40
14.0
 40
15.0
 40
15.0
 40
15.0
 40
16.0
 40
16.0
 40
16.0
 40
17.0
 40
17.0
 40
17.0
 40
18.0
 40
18.0
 40
18.0
 40
19.0
 40
19.0
 40
19.0
 40
19.0
 10
102.4388807252583
 20
-130.5749755532938
 30
0.0
 10
102.4388807252583
 20
-130.6766058701086
 30
0.0
 10
102.4178656427983
 20
-130.9094943249115
 30
0.0
 10
102.2314859770463
 20
-131.0428195201907
 30
0.0
 10
102.1195203737757
 20
-131.1220567163514
 30
0.0
 10
102.019957114252
 20
-131.1265353404823
 30
0.0
 10
101.9355522748633
 20
-131.1310139646131
 30
0.0
 10
101.9355522748633
 20
-131.1310139646131
 30
0.0
 10
101.9355522748633
 20
-130.8957139429705
 30
0.0
 10
101.9355522748633
 20
-130.8957139429705
 30
0.0
 10
102.0092773182477
 20
-130.8936468856794
 30
0.0
 10
102.2442328303417
 20
-130.8822780705781
 30
0.0
 10
102.2442328303417
 20
-130.5794541774246
 30
0.0
 10
102.2442328303417
 20
-130.4323486002044
 30
0.0
 10
102.1742973919911
 20
-130.2697400933006
 30
0.0
 10
101.9458875613191
 20
-130.2697400933006
 30
0.0
 10
101.8294433339176
 20
-130.2697400933006
 30
0.0
 10
101.7808674875756
 20
-130.3103922200266
 30
0.0
 10
101.7491726091113
 20
-130.344154155782
 30
0.0
 10
101.6751030561785
 20
-130.4233913519428
 30
0.0
 10
101.662356202883
 20
-130.5477592989603
 30
0.0
 10
101.662356202883
 20
-130.6063259222095
 30
0.0
 10
101.662356202883
 20
-130.626996495121
 30
0.0
 10
101.6647677697227
 20
-130.6652370550073
 30
0.0
 10
101.668901884305
 20
-130.6945203666319
 30
0.0
 10
101.668901884305
 20
-130.6945203666319
 30
0.0
 10
101.4742539893884
 20
-130.6945203666319
 30
0.0
 10
101.4742539893884
 20
-130.6945203666319
 30
0.0
 10
101.4804551612618
 20
-130.653868239906
 30
0.0
 10
101.482522218553
 20
-130.6087374890492
 30
0.0
 10
101.482522218553
 20
-130.6018472980787
 30
0.0
 10
101.482522218553
 20
-130.5319118597281
 30
0.0
 10
101.461507136093
 20
-130.3193494682882
 30
0.0
 10
101.2244845667078
 20
-130.3193494682882
 30
0.0
 10
101.0467176396689
 20
-130.3193494682882
 30
0.0
 10
100.9919406214534
 20
-130.4595648545379
 30
0.0
 10
100.9919406214534
 20
-130.5770426105849
 30
0.0
 10
100.9919406214534
 20
-130.8595404403754
 30
0.0
 10
101.2244845667078
 20
-130.8688421981856
 30
0.0
 10
101.2964870623495
 20
-130.8733208223164
 30
0.0
 10
101.2964870623495
 20
-130.8733208223164
 30
0.0
 10
101.2964870623495
 20
-131.0903618378871
 30
0.0
 10
101.2964870623495
 20
-131.0903618378871
 30
0.0
 10
101.1717746057835
 20
-131.0814045896255
 30
0.0
 10
100.7952256692456
 20
-131.0517767684523
 30
0.0
 10
100.7952256692456
 20
-130.5636067381924
 30
0.0
 10
100.7952256692456
 20
-130.323828092419
 30
0.0
 10
100.9220051831028
 20
-130.0661349501223
 30
0.0
 10
101.2182833948343
 20
-130.0661349501223
 30
0.0
 10
101.4043185510378
 20
-130.0661349501223
 30
0.0
 10
101.4870008426838
 20
-130.1677652669372
 30
0.0
 10
101.5483235423213
 20
-130.2742187174314
 30
0.0
 10
101.5758843062032
 20
-130.2084173936632
 30
0.0
 10
101.6561550310096
 20
-130.0141140082951
 30
0.0
 10
101.9331407080237
 20
-130.0141140082951
 30
0.0
 10
102.2717935942237
 20
-130.0141140082951
 30
0.0
 10
102.4388807252583
 20
-130.2786973415623
 30
0.0
 10
102.4388807252583
 20
-130.5749755532938
 30
0.0
  0
HATCH
  5
63
330
5E
100
AcDbEntity
  8
_U+30EC_U+30A4_U+30E4_U+30FC 1
 62
     7
420
 16777215
100
AcDbHatch
 10
0.0
 20
0.0
 30
0.0
210
0.0
220
0.0
230
1.0
  2
SOLID
 70
     1
 71
     0
 91
        1
 92
        1
 93
        1
 72
     4
 94
        3
 73
     0
 74
     1
 95
       62
 96
       58
 40
0.0
 40
0.0
 40
0.0
 40
0.0
 40
1.0
 40
1.0
 40
1.0
 40
2.0
 40
2.0
 40
2.0
 40
3.0
 40
3.0
 40
3.0
 40
4.0
 40
4.0
 40
4.0
 40
5.0
 40
5.0
 40
5.0
 40
6.0
 40
6.0
 40
6.0
 40
7.0
 40
7.0
 40
7.0
 40
8.0
 40
8.0
 40
8.0
 40
9.0
 40
9.0
 40
9.0
 40
10.0
 40
10.0
 40
10.0
 40
11.0
 40
11.0
 40
11.0
 40
12.0
 40
12.0
 40
12.0
 40
13.0
 40
13.0
 40
13.0
 40
14.0
 40
14.0
 40
14.0
 40
15.0
 40
15.0
 40
15.0
 40
16.0
 40
16.0
 40
16.0
 40
17.0
 40
17.0
 40
17.0
 40
18.0
 40
18.0
 40
18.0
 40
19.0
 40
19.0
 40
19.0
 40
19.0
 10
102.4388807252583
 20
-130.5749755532938
 10
102.4388807252583
 20
-130.6766058701086
 10
102.4178656427983
 20
-130.9094943249115
 10
102.2314859770463
 20
-131.0428195201907
 10
102.1195203737757
 20
-131.1220567163514
 10
102.019957114252
 20
-131.1265353404823
 10
101.9355522748633
 20
-131.1310139646131
 10
101.9355522748633
 20
-131.1310139646131
 10
101.9355522748633
 20
-130.8957139429705
 10
101.9355522748633
 20
-130.8957139429705
 10
102.0092773182477
 20
-130.8936468856794
 10
102.2442328303417
 20
-130.8822780705781
 10
102.2442328303417
 20
-130.5794541774246
 10
102.2442328303417
 20
-130.4323486002044
 10
102.1742973919911
 20
-130.2697400933006
 10
101.9458875613191
 20
-130.2697400933006
 10
101.8294433339176
 20
-130.2697400933006
 10
101.7808674875756
 20
-130.3103922200266
 10
101.7491726091113
 20
-130.344154155782
 10
101.6751030561785
 20
-130.4233913519428
 10
101.662356202883
 20
-130.5477592989603
 10
101.662356202883
 20
-130.6063259222095
 10
101.662356202883
 20
-130.626996495121
 10
101.6647677697227
 20
-130.6652370550073
 10
101.668901884305
 20
-130.6945203666319
 10
101.668901884305
 20
-130.6945203666319
 10
101.4742539893884
 20
-130.6945203666319
 10
101.4742539893884
 20
-130.6945203666319
 10
101.4804551612618
 20
-130.653868239906
 10
101.482522218553
 20
-130.6087374890492
 10
101.482522218553
 20
-130.6018472980787
 10
101.482522218553
 20
-130.5319118597281
 10
101.461507136093
 20
-130.3193494682882
 10
101.2244845667078
 20
-130.3193494682882
 10
101.0467176396689
 20
-130.3193494682882
 10
100.9919406214534
 20
-130.4595648545379
 10
100.9919406214534
 20
-130.5770426105849
 10
100.9919406214534
 20
-130.8595404403754
 10
101.2244845667078
 20
-130.8688421981856
 10
101.2964870623495
 20
-130.8733208223164
 10
101.2964870623495
 20
-130.8733208223164
 10
101.2964870623495
 20
-131.0903618378871
 10
101.2964870623495
 20
-131.0903618378871
 10
101.1717746057835
 20
-131.0814045896255
 10
100.7952256692456
 20
-131.0517767684523
 10
100.7952256692456
 20
-130.5636067381924
 10
100.7952256692456
 20
-130.323828092419
 10
100.9220051831028
 20
-130.0661349501223
 10
101.2182833948343
 20
-130.0661349501223
 10
101.4043185510378
 20
-130.0661349501223
 10
101.4870008426838
 20
-130.1677652669372
 10
101.5483235423213
 20
-130.2742187174314
 10
101.5758843062032
 20
-130.2084173936632
 10
101.6561550310096
 20
-130.0141140082951
 10
101.9331407080237
 20
-130.0141140082951
 10
102.2717935942237
 20
-130.0141140082951
 10
102.4388807252583
 20
-130.2786973415623
 10
102.4388807252583
 20
-130.5749755532938
 97
        0
 97
        0
 75
     2
 76
     1
 98
        0
  0
POLYLINE
  5
64
330
5E
100
AcDbEntity
  8
_U+30EC_U+30A4_U+30E4_U+30FC 1
370
     0
100
AcDb2dPolyline
 66
     1
 10
0.0
 20
0.0
 30
0.0
  0
VERTEX
  5
65
330
64
100
AcDbEntity
  8
_U+30EC_U+30A4_U+30E4_U+30FC 1
370
     0
100
AcDbVertex
100
AcDb2dVertex
 10
102.3882378216252
 20
-129.7781249675555
 30
0.0
  0
VERTEX
  5
66
330
64
100
AcDbEntity
  8
_U+30EC_U+30A4_U+30E4_U+30FC 1
370
     0
100
AcDbVertex
100
AcDb2dVertex
 10
102.1364013416534
 20
-129.7781249675555
 30
0.0
  0
VERTEX
  5
67
330
64
100
AcDbEntity
  8
_U+30EC_U+30A4_U+30E4_U+30FC 1
370
     0
100
AcDbVertex
100
AcDb2dVertex
 10
102.1364013416534
 20
-129.5090630101575
 30
0.0
  0
VERTEX
  5
68
330
64
100
AcDbEntity
  8
_U+30EC_U+30A4_U+30E4_U+30FC 1
370
     0
100
AcDbVertex
100
AcDb2dVertex
 10
102.3882378216252
 20
-129.5090630101575
 30
0.0
  0
VERTEX
  5
69
330
64
100
AcDbEntity
  8
_U+30EC_U+30A4_U+30E4_U+30FC 1
370
     0
100
AcDbVertex
100
AcDb2dVertex
 10
102.3882378216252
 20
-129.7781249675555
 30
0.0
  0
SEQEND
  5
6A
330
64
100
AcDbEntity
  8
_U+30EC_U+30A4_U+30E4_U+30FC 1
370
     0
  0
HATCH
  5
6B
330
5E
100
AcDbEntity
  8
_U+30EC_U+30A4_U+30E4_U+30FC 1
 62
     7
420
 16777215
100
AcDbHatch
 10
0.0
 20
0.0
 30
0.0
210
0.0
220
0.0
230
1.0
  2
SOLID
 70
     1
 71
     0
 91
        1
 92
        1
 93
        4
 72
     1
 10
102.3882378216252
 20
-129.7781249675555
 11
102.1364013416534
 21
-129.7781249675555
 72
     1
 10
102.1364013416534
 20
-129.7781249675555
 11
102.1364013416534
 21
-129.5090630101575
 72
     1
 10
102.1364013416534
 20
-129.5090630101575
 11
102.3882378216252
 21
-129.5090630101575
 72
     1
 10
102.3882378216252
 20
-129.5090630101575
 11
102.3882378216252
 21
-129.7781249675555
 97
        0
 75
     2
 76
     1
 98
        0
  0
SPLINE
  5
6C
330
5E
100
AcDbEntity
  8
_U+30EC_U+30A4_U+30E4_U+30FC 1
370
     0
100
AcDbSpline
210
0.0
220
0.0
230
1.0
 70
    11
 71
     3
 72
    53
 73
    49
 74
     0
 42
0.0000000001
 43
0.0000000001
 12
1.0
 22
0.0
 32
0.0
 13
1.0
 23
0.0
 33
0.0
 40
0.0
 40
0.0
 40
0.0
 40
0.0
 40
1.0
 40
1.0
 40
1.0
 40
2.0
 40
2.0
 40
2.0
 40
3.0
 40
3.0
 40
3.0
 40
4.0
 40
4.0
 40
4.0
 40
5.0
 40
5.0
 40
5.0
 40
6.0
 40
6.0
 40
6.0
 40
7.0
 40
7.0
 40
7.0
 40
8.0
 40
8.0
 40
8.0
 40
9.0
 40
9.0
 40
9.0
 40
10.0
 40
10.0
 40
10.0
 40
11.0
 40
11.0
 40
11.0
 40
12.0
 40
12.0
 40
12.0
 40
13.0
 40
13.0
 40
13.0
 40
14.0
 40
14.0
 40
14.0
 40
15.0
 40
15.0
 40
15.0
 40
16.0
 40
16.0
 40
16.0
 40
16.0
 10
102.4388807252583
 20
-128.7425292646894
 30
0.0
 10
102.4388807252583
 20
-128.8262450849809
 30
0.0
 10
102.4219997573806
 20
-128.9347655927663
 30
0.0
 10
102.358610000452
 20
-129.0432861005517
 30
0.0
 10
102.248366944924
 20
-129.2286322376581
 30
0.0
 10
102.1174533164845
 20
-129.2510253583123
 30
0.0
 10
102.0092773182477
 20
-129.2716959312237
 30
0.0
 10
102.0092773182477
 20
-129.2716959312237
 30
0.0
 10
102.0092773182477
 20
-129.0339843427415
 30
0.0
 10
102.0092773182477
 20
-129.0339843427415
 30
0.0
 10
102.2084038372951
 20
-128.9754177194923
 30
0.0
 10
102.2380316584683
 20
-128.8396809573734
 30
0.0
 10
102.2380316584683
 20
-128.740289952624
 30
0.0
 10
102.2380316584683
 20
-128.5909450633384
 30
0.0
 10
102.1384683989446
 20
-128.4281643016603
 30
0.0
 10
101.9059244536902
 20
-128.4281643016603
 30
0.0
 10
101.6499538591361
 20
-128.4281643016603
 30
0.0
 10
101.5800184207855
 20
-128.6204006297373
 30
0.0
 10
101.5800184207855
 20
-128.7492472008856
 30
0.0
 10
101.5800184207855
 20
-128.7831813914153
 30
0.0
 10
101.5800184207855
 20
-128.9347655927663
 30
0.0
 10
101.7088649919339
 20
-129.0295057186107
 30
0.0
 10
101.7088649919339
 20
-129.0295057186107
 30
0.0
 10
101.689916966765
 20
-129.2172634225568
 30
0.0
 10
101.689916966765
 20
-129.2172634225568
 30
0.0
 10
101.689916966765
 20
-129.2172634225568
 30
0.0
 10
100.8438015155877
 20
-129.0884168514085
 30
0.0
 10
100.8438015155877
 20
-129.0884168514085
 30
0.0
 10
100.8438015155877
 20
-129.0884168514085
 30
0.0
 10
100.8438015155877
 20
-128.2564262917206
 30
0.0
 10
100.8438015155877
 20
-128.2564262917206
 30
0.0
 10
100.8438015155877
 20
-128.2564262917206
 30
0.0
 10
101.0384494105043
 20
-128.2564262917206
 30
0.0
 10
101.0384494105043
 20
-128.2564262917206
 30
0.0
 10
101.0384494105043
 20
-128.2564262917206
 30
0.0
 10
101.0384494105043
 20
-128.9144395294034
 30
0.0
 10
101.0384494105043
 20
-128.9144395294034
 30
0.0
 10
101.0384494105043
 20
-128.9144395294034
 30
0.0
 10
101.461507136093
 20
-128.9843749677539
 30
0.0
 10
101.461507136093
 20
-128.9843749677539
 30
0.0
 10
101.4277452003375
 20
-128.9189181535342
 30
0.0
 10
101.3874375831601
 20
-128.8307237091118
 30
0.0
 10
101.3874375831601
 20
-128.7041164500288
 30
0.0
 10
101.3874375831601
 20
-128.4328151805654
 30
0.0
 10
101.5734727393636
 20
-128.1796006623995
 30
0.0
 10
101.8866319189728
 20
-128.1796006623995
 30
0.0
 10
102.2039252131643
 20
-128.1796006623995
 30
0.0
 10
102.4388807252583
 20
-128.4192070533987
 30
0.0
 10
102.4388807252583
 20
-128.7425292646894
 30
0.0
  0
HATCH
  5
6D
330
5E
100
AcDbEntity
  8
_U+30EC_U+30A4_U+30E4_U+30FC 1
 62
     7
420
 16777215
100
AcDbHatch
 10
0.0
 20
0.0
 30
0.0
210
0.0
220
0.0
230
1.0
  2
SOLID
 70
     1
 71
     0
 91
        1
 92
        1
 93
        1
 72
     4
 94
        3
 73
     0
 74
     1
 95
       53
 96
       49
 40
0.0
 40
0.0
 40
0.0
 40
0.0
 40
1.0
 40
1.0
 40
1.0
 40
2.0
 40
2.0
 40
2.0
 40
3.0
 40
3.0
 40
3.0
 40
4.0
 40
4.0
 40
4.0
 40
5.0
 40
5.0
 40
5.0
 40
6.0
 40
6.0
 40
6.0
 40
7.0
 40
7.0
 40
7.0
 40
8.0
 40
8.0
 40
8.0
 40
9.0
 40
9.0
 40
9.0
 40
10.0
 40
10.0
 40
10.0
 40
11.0
 40
11.0
 40
11.0
 40
12.0
 40
12.0
 40
12.0
 40
13.0
 40
13.0
 40
13.0
 40
14.0
 40
14.0
 40
14.0
 40
15.0
 40
15.0
 40
15.0
 40
16.0
 40
16.0
 40
16.0
 40
16.0
 10
102.4388807252583
 20
-128.7425292646894
 10
102.4388807252583
 20
-128.8262450849809
 10
102.4219997573806
 20
-128.9347655927663
 10
102.358610000452
 20
-129.0432861005517
 10
102.248366944924
 20
-129.2286322376581
 10
102.1174533164845
 20
-129.2510253583123
 10
102.0092773182477
 20
-129.2716959312237
 10
102.0092773182477
 20
-129.2716959312237
 10
102.0092773182477
 20
-129.0339843427415
 10
102.0092773182477
 20
-129.0339843427415
 10
102.2084038372951
 20
-128.9754177194923
 10
102.2380316584683
 20
-128.8396809573734
 10
102.2380316584683
 20
-128.740289952624
 10
102.2380316584683
 20
-128.5909450633384
 10
102.1384683989446
 20
-128.4281643016603
 10
101.9059244536902
 20
-128.4281643016603
 10
101.6499538591361
 20
-128.4281643016603
 10
101.5800184207855
 20
-128.6204006297373
 10
101.5800184207855
 20
-128.7492472008856
 10
101.5800184207855
 20
-128.7831813914153
 10
101.5800184207855
 20
-128.9347655927663
 10
101.7088649919339
 20
-129.0295057186107
 10
101.7088649919339
 20
-129.0295057186107
 10
101.689916966765
 20
-129.2172634225568
 10
101.689916966765
 20
-129.2172634225568
 10
101.689916966765
 20
-129.2172634225568
 10
100.8438015155877
 20
-129.0884168514085
 10
100.8438015155877
 20
-129.0884168514085
 10
100.8438015155877
 20
-129.0884168514085
 10
100.8438015155877
 20
-128.2564262917206
 10
100.8438015155877
 20
-128.2564262917206
 10
100.8438015155877
 20
-128.2564262917206
 10
101.0384494105043
 20
-128.2564262917206
 10
101.0384494105043
 20
-128.2564262917206
 10
101.0384494105043
 20
-128.2564262917206
 10
101.0384494105043
 20
-128.9144395294034
 10
101.0384494105043
 20
-128.9144395294034
 10
101.0384494105043
 20
-128.9144395294034
 10
101.461507136093
 20
-128.9843749677539
 10
101.461507136093
 20
-128.9843749677539
 10
101.4277452003375
 20
-128.9189181535342
 10
101.3874375831601
 20
-128.8307237091118
 10
101.3874375831601
 20
-128.7041164500288
 10
101.3874375831601
 20
-128.4328151805654
 10
101.5734727393636
 20
-128.1796006623995
 10
101.8866319189728
 20
-128.1796006623995
 10
102.2039252131643
 20
-128.1796006623995
 10
102.4388807252583
 20
-128.4192070533987
 10
102.4388807252583
 20
-128.7425292646894
 97
        0
 97
        0
 75
     2
 76
     1
 98
        0
  0
ENDBLK
  5
61
330
5E
100
AcDbEntity
  8
0
100
AcDbBlockEnd
  0
BLOCK
  5
79
330
77
100
AcDbEntity
  8
0
100
AcDbBlockBegin
  2
block 3
 70
     0
 10
0.0
 20
0.0
 30
0.0
  3
block 3
  1

  0
SPLINE
  5
7B
330
77
100
AcDbEntity
  8
_U+30EC_U+30A4_U+30E4_U+30FC 1
370
     0
100
AcDbSpline
210
0.0
220
0.0
230
1.0
 70
    11
 71
     3
 72
    26
 73
    22
 74
     0
 42
0.0000000001
 43
0.0000000001
 12
1.0
 22
0.0
 32
0.0
 13
1.0
 23
0.0
 33
0.0
 40
0.0
 40
0.0
 40
0.0
 40
0.0
 40
1.0
 40
1.0
 40
1.0
 40
2.0
 40
2.0
 40
2.0
 40
3.0
 40
3.0
 40
3.0
 40
4.0
 40
4.0
 40
4.0
 40
5.0
 40
5.0
 40
5.0
 40
6.0
 40
6.0
 40
6.0
 40
7.0
 40
7.0
 40
7.0
 40
7.0
 10
102.3882378216252
 20
-133.3348415465274
 30
0.0
 10
102.3882378216252
 20
-133.3348415465274
 30
0.0
 10
101.2837402090541
 20
-133.3348415465274
 30
0.0
 10
101.2837402090541
 20
-133.3348415465274
 30
0.0
 10
101.2837402090541
 20
-133.3348415465274
 30
0.0
 10
101.2837402090541
 20
-133.6872748146685
 30
0.0
 10
101.2837402090541
 20
-133.6872748146685
 30
0.0
 10
101.2837402090541
 20
-133.6872748146685
 30
0.0
 10
101.1356011031883
 20
-133.6872748146685
 30
0.0
 10
101.1356011031883
 20
-133.6872748146685
 30
0.0
 10
101.1207871926018
 20
-133.3324299796877
 30
0.0
 10
100.958178685698
 20
-133.2828206047001
 30
0.0
 10
100.8438015155877
 20
-133.2511257262358
 30
0.0
 10
100.8438015155877
 20
-133.2511257262358
 30
0.0
 10
100.8438015155877
 20
-133.095062900754
 30
0.0
 10
100.8438015155877
 20
-133.095062900754
 30
0.0
 10
100.8438015155877
 20
-133.095062900754
 30
0.0
 10
102.3882378216252
 20
-133.095062900754
 30
0.0
 10
102.3882378216252
 20
-133.095062900754
 30
0.0
 10
102.3882378216252
 20
-133.095062900754
 30
0.0
 10
102.3882378216252
 20
-133.3348415465274
 30
0.0
 10
102.3882378216252
 20
-133.3348415465274
 30
0.0
  0
HATCH
  5
7C
330
77
100
AcDbEntity
  8
_U+30EC_U+30A4_U+30E4_U+30FC 1
 62
     7
420
 16777215
100
AcDbHatch
 10
0.0
 20
0.0
 30
0.0
210
0.0
220
0.0
230
1.0
  2
SOLID
 70
     1
 71
     0
 91
        1
 92
        1
 93
        1
 72
     4
 94
        3
 73
     0
 74
     1
 95
       26
 96
       22
 40
0.0
 40
0.0
 40
0.0
 40
0.0
 40
1.0
 40
1.0
 40
1.0
 40
2.0
 40
2.0
 40
2.0
 40
3.0
 40
3.0
 40
3.0
 40
4.0
 40
4.0
 40
4.0
 40
5.0
 40
5.0
 40
5.0
 40
6.0
 40
6.0
 40
6.0
 40
7.0
 40
7.0
 40
7.0
 40
7.0
 10
102.3882378216252
 20
-133.3348415465274
 10
102.3882378216252
 20
-133.3348415465274
 10
101.2837402090541
 20
-133.3348415465274
 10
101.2837402090541
 20
-133.3348415465274
 10
101.2837402090541
 20
-133.3348415465274
 10
101.2837402090541
 20
-133.6872748146685
 10
101.2837402090541
 20
-133.6872748146685
 10
101.2837402090541
 20
-133.6872748146685
 10
101.1356011031883
 20
-133.6872748146685
 10
101.1356011031883
 20
-133.6872748146685
 10
101.1207871926018
 20
-133.3324299796877
 10
100.958178685698
 20
-133.2828206047001
 10
100.8438015155877
 20
-133.2511257262358
 10
100.8438015155877
 20
-133.2511257262358
 10
100.8438015155877
 20
-133.095062900754
 10
100.8438015155877
 20
-133.095062900754
 10
100.8438015155877
 20
-133.095062900754
 10
102.3882378216252
 20
-133.095062900754
 10
102.3882378216252
 20
-133.095062900754
 10
102.3882378216252
 20
-133.095062900754
 10
102.3882378216252
 20
-133.3348415465274
 10
102.3882378216252
 20
-133.3348415465274
 97
        0
 97
        0
 75
     2
 76
     1
 98
        0
  0
ENDBLK
  5
7A
330
77
100
AcDbEntity
  8
0
100
AcDbBlockEnd
  0
BLOCK
  5
8C
330
8A
100
AcDbEntity
  8
0
100
AcDbBlockBegin
  2
block 4
 70
     0
 10
0.0
 20
0.0
 30
0.0
  3
block 4
  1

  0
SPLINE
  5
8E
330
8A
100
AcDbEntity
  8
_U+30EC_U+30A4_U+30E4_U+30FC 1
370
     0
100
AcDbSpline
210
0.0
220
0.0
230
1.0
 70
    11
 71
     3
 72
    29
 73
    25
 74
     0
 42
0.0000000001
 43
0.0000000001
 12
1.0
 22
0.0
 32
0.0
 13
1.0
 23
0.0
 33
0.0
 40
0.0
 40
0.0
 40
0.0
 40
0.0
 40
1.0
 40
1.0
 40
1.0
 40
2.0
 40
2.0
 40
2.0
 40
3.0
 40
3.0
 40
3.0
 40
4.0
 40
4.0
 40
4.0
 40
5.0
 40
5.0
 40
5.0
 40
6.0
 40
6.0
 40
6.0
 40
7.0
 40
7.0
 40
7.0
 40
8.0
 40
8.0
 40
8.0
 40
8.0
 10
91.40320635735753
 20
-121.963442623589
 30
0.0
 10
91.21493188908863
 20
-121.7496744487293
 30
0.0
 10
91.13862302409035
 20
-121.4552910395146
 30
0.0
 10
91.40045028096934
 20
-121.2244696420029
 30
0.0
 10
91.59234209949776
 20
-121.0551431989029
 30
0.0
 10
91.76390785466319
 20
-121.1057861025361
 30
0.0
 10
91.88483070619546
 20
-121.1500555795215
 30
0.0
 10
91.84107799353279
 20
-121.0108737219174
 30
0.0
 10
91.87277287199709
 20
-120.8742756859273
 30
0.0
 10
91.99369572352936
 20
-120.767822235433
 30
0.0
 10
92.1997124335473
 20
-120.5860934485861
 30
0.0
 10
92.44190264616036
 20
-120.6558566321624
 30
0.0
 10
92.63620603152846
 20
-120.8763427432184
 30
0.0
 10
92.83671058876999
 20
-121.1035467904706
 30
0.0
 10
92.86323782400642
 20
-121.3514214106344
 30
0.0
 10
92.66342228586193
 20
-121.5276380447049
 30
0.0
 10
92.54284394387818
 20
-121.6339192404249
 30
0.0
 10
92.40159502898294
 20
-121.6468383484945
 30
0.0
 10
92.26895885280082
 20
-121.5858601584056
 30
0.0
 10
92.29376354029462
 20
-121.6907633159315
 30
0.0
 10
92.33441566702056
 20
-121.880760331943
 30
0.0
 10
92.1377007148128
 20
-122.0542208896253
 30
0.0
 10
91.85692543276494
 20
-122.3019232550148
 30
0.0
 10
91.57236054568331
 20
-122.1549899325689
 30
0.0
 10
91.40320635735753
 20
-121.963442623589
 30
0.0
  0
SPLINE
  5
8F
330
8A
100
AcDbEntity
  8
_U+30EC_U+30A4_U+30E4_U+30FC 1
370
     0
100
AcDbSpline
210
0.0
220
0.0
230
1.0
 70
    11
 71
     3
 72
    17
 73
    13
 74
     0
 42
0.0000000001
 43
0.0000000001
 12
1.0
 22
0.0
 32
0.0
 13
1.0
 23
0.0
 33
0.0
 40
0.0
 40
0.0
 40
0.0
 40
0.0
 40
1.0
 40
1.0
 40
1.0
 40
2.0
 40
2.0
 40
2.0
 40
3.0
 40
3.0
 40
3.0
 40
4.0
 40
4.0
 40
4.0
 40
4.0
 10
91.99679630946608
 20
-121.4401326193796
 30
0.0
 10
91.89516599265121
 20
-121.3248941753979
 30
0.0
 10
91.72256670884019
 20
-121.2601263802753
 30
0.0
 10
91.56994897884363
 20
-121.3944851042
 30
0.0
 10
91.41629772020148
 20
-121.5300496115446
 30
0.0
 10
91.42973359259396
 20
-121.6990315450961
 30
0.0
 10
91.54927840593213
 20
-121.8345960524407
 30
0.0
 10
91.68088105346867
 20
-121.9839409417262
 30
0.0
 10
91.8507242608915
 20
-121.991003387471
 30
0.0
 10
91.98404945617065
 20
-121.8733533766497
 30
0.0
 10
92.15044756810822
 20
-121.7265923089781
 30
0.0
 10
92.0908474162134
 20
-121.5469305794223
 30
0.0
 10
91.99679630946608
 20
-121.4401326193796
 30
0.0
  0
SPLINE
  5
90
330
8A
100
AcDbEntity
  8
_U+30EC_U+30A4_U+30E4_U+30FC 1
370
     0
100
AcDbSpline
210
0.0
220
0.0
230
1.0
 70
    11
 71
     3
 72
    17
 73
    13
 74
     0
 42
0.0000000001
 43
0.0000000001
 12
1.0
 22
0.0
 32
0.0
 13
1.0
 23
0.0
 33
0.0
 40
0.0
 40
0.0
 40
0.0
 40
0.0
 40
1.0
 40
1.0
 40
1.0
 40
2.0
 40
2.0
 40
2.0
 40
3.0
 40
3.0
 40
3.0
 40
4.0
 40
4.0
 40
4.0
 40
4.0
 10
92.49185653069648
 20
-121.0036390213984
 30
0.0
 10
92.37541230329504
 20
-120.8713473547648
 30
0.0
 10
92.24415416530702
 20
-120.8665242210855
 30
0.0
 10
92.14252384849215
 20
-120.956096703702
 30
0.0
 10
92.05053979903597
 20
-121.0372287023796
 30
0.0
 10
92.01229923914971
 20
-121.1731377192727
 30
0.0
 10
92.13804522436132
 20
-121.3155924175878
 30
0.0
 10
92.26344670002442
 20
-121.4580471159029
 30
0.0
 10
92.40331757672557
 20
-121.4373765429914
 30
0.0
 10
92.49530162618173
 20
-121.3562445443137
 30
0.0
 10
92.5969319429966
 20
-121.2666720616972
 30
0.0
 10
92.60692271990384
 20
-121.1342081402894
 30
0.0
 10
92.49185653069648
 20
-121.0036390213984
 30
0.0
  0
HATCH
  5
91
330
8A
100
AcDbEntity
  8
_U+30EC_U+30A4_U+30E4_U+30FC 1
 62
     7
420
 16777215
100
AcDbHatch
 10
0.0
 20
0.0
 30
0.0
210
0.0
220
0.0
230
1.0
  2
SOLID
 70
     1
 71
     0
 91
        3
 92
        1
 93
        1
 72
     4
 94
        3
 73
     0
 74
     1
 95
       29
 96
       25
 40
0.0
 40
0.0
 40
0.0
 40
0.0
 40
1.0
 40
1.0
 40
1.0
 40
2.0
 40
2.0
 40
2.0
 40
3.0
 40
3.0
 40
3.0
 40
4.0
 40
4.0
 40
4.0
 40
5.0
 40
5.0
 40
5.0
 40
6.0
 40
6.0
 40
6.0
 40
7.0
 40
7.0
 40
7.0
 40
8.0
 40
8.0
 40
8.0
 40
8.0
 10
91.40320635735753
 20
-121.963442623589
 10
91.21493188908863
 20
-121.7496744487293
 10
91.13862302409035
 20
-121.4552910395146
 10
91.40045028096934
 20
-121.2244696420029
 10
91.59234209949776
 20
-121.0551431989029
 10
91.76390785466319
 20
-121.1057861025361
 10
91.88483070619546
 20
-121.1500555795215
 10
91.84107799353279
 20
-121.0108737219174
 10
91.87277287199709
 20
-120.8742756859273
 10
91.99369572352936
 20
-120.767822235433
 10
92.1997124335473
 20
-120.5860934485861
 10
92.44190264616036
 20
-120.6558566321624
 10
92.63620603152846
 20
-120.8763427432184
 10
92.83671058876999
 20
-121.1035467904706
 10
92.86323782400642
 20
-121.3514214106344
 10
92.66342228586193
 20
-121.5276380447049
 10
92.54284394387818
 20
-121.6339192404249
 10
92.40159502898294
 20
-121.6468383484945
 10
92.26895885280082
 20
-121.5858601584056
 10
92.29376354029462
 20
-121.6907633159315
 10
92.33441566702056
 20
-121.880760331943
 10
92.1377007148128
 20
-122.0542208896253
 10
91.85692543276494
 20
-122.3019232550148
 10
91.57236054568331
 20
-122.1549899325689
 10
91.40320635735753
 20
-121.963442623589
 97
        0
 97
        0
 92
        1
 93
        1
 72
     4
 94
        3
 73
     0
 74
     1
 95
       17
 96
       13
 40
0.0
 40
0.0
 40
0.0
 40
0.0
 40
1.0
 40
1.0
 40
1.0
 40
2.0
 40
2.0
 40
2.0
 40
3.0
 40
3.0
 40
3.0
 40
4.0
 40
4.0
 40
4.0
 40
4.0
 10
91.99679630946608
 20
-121.4401326193796
 10
91.89516599265121
 20
-121.3248941753979
 10
91.72256670884019
 20
-121.2601263802753
 10
91.56994897884363
 20
-121.3944851042
 10
91.41629772020148
 20
-121.5300496115446
 10
91.42973359259396
 20
-121.6990315450961
 10
91.54927840593213
 20
-121.8345960524407
 10
91.68088105346867
 20
-121.9839409417262
 10
91.8507242608915
 20
-121.991003387471
 10
91.98404945617065
 20
-121.8733533766497
 10
92.15044756810822
 20
-121.7265923089781
 10
92.0908474162134
 20
-121.5469305794223
 10
91.99679630946608
 20
-121.4401326193796
 97
        0
 97
        0
 92
        1
 93
        1
 72
     4
 94
        3
 73
     0
 74
     1
 95
       17
 96
       13
 40
0.0
 40
0.0
 40
0.0
 40
0.0
 40
1.0
 40
1.0
 40
1.0
 40
2.0
 40
2.0
 40
2.0
 40
3.0
 40
3.0
 40
3.0
 40
4.0
 40
4.0
 40
4.0
 40
4.0
 10
92.49185653069648
 20
-121.0036390213984
 10
92.37541230329504
 20
-120.8713473547648
 10
92.24415416530702
 20
-120.8665242210855
 10
92.14252384849215
 20
-120.956096703702
 10
92.05053979903597
 20
-121.0372287023796
 10
92.01229923914971
 20
-121.1731377192727
 10
92.13804522436132
 20
-121.3155924175878
 10
92.26344670002442
 20
-121.4580471159029
 10
92.40331757672557
 20
-121.4373765429914
 10
92.49530162618173
 20
-121.3562445443137
 10
92.5969319429966
 20
-121.2666720616972
 10
92.60692271990384
 20
-121.1342081402894
 10
92.49185653069648
 20
-121.0036390213984
 97
        0
 97
        0
 75
     2
 76
     1
 98
        0
  0
ENDBLK
  5
8D
330
8A
100
AcDbEntity
  8
0
100
AcDbBlockEnd
  0
BLOCK
  5
A1
330
9F
100
AcDbEntity
  8
0
100
AcDbBlockBegin
  2
block 5
 70
     0
 10
0.0
 20
0.0
 30
0.0
  3
block 5
  1

  0
SPLINE
  5
A3
330
9F
100
AcDbEntity
  8
_U+30EC_U+30A4_U+30E4_U+30FC 1
370
     0
100
AcDbSpline
210
0.0
220
0.0
230
1.0
 70
    11
 71
     3
 72
    26
 73
    22
 74
     0
 42
0.0000000001
 43
0.0000000001
 12
1.0
 22
0.0
 32
0.0
 13
1.0
 23
0.0
 33
0.0
 40
0.0
 40
0.0
 40
0.0
 40
0.0
 40
1.0
 40
1.0
 40
1.0
 40
2.0
 40
2.0
 40
2.0
 40
3.0
 40
3.0
 40
3.0
 40
4.0
 40
4.0
 40
4.0
 40
5.0
 40
5.0
 40
5.0
 40
6.0
 40
6.0
 40
6.0
 40
7.0
 40
7.0
 40
7.0
 40
7.0
 10
89.4129746955287
 20
-135.9503580389291
 30
0.0
 10
89.4129746955287
 20
-135.9503580389291
 30
0.0
 10
89.4129746955287
 20
-134.845860426358
 30
0.0
 10
89.4129746955287
 20
-134.845860426358
 30
0.0
 10
89.4129746955287
 20
-134.845860426358
 30
0.0
 10
89.06019691783912
 20
-134.845860426358
 30
0.0
 10
89.06019691783912
 20
-134.845860426358
 30
0.0
 10
89.06019691783912
 20
-134.845860426358
 30
0.0
 10
89.06019691783912
 20
-134.6977213204922
 30
0.0
 10
89.06019691783912
 20
-134.6977213204922
 30
0.0
 10
89.41521400759412
 20
-134.6829074099057
 30
0.0
 10
89.46482338258171
 20
-134.5202989030019
 30
0.0
 10
89.49651826104602
 20
-134.4059217328916
 30
0.0
 10
89.49651826104602
 20
-134.4059217328916
 30
0.0
 10
89.65258108652783
 20
-134.4059217328916
 30
0.0
 10
89.65258108652783
 20
-134.4059217328916
 30
0.0
 10
89.65258108652783
 20
-134.4059217328916
 30
0.0
 10
89.65258108652783
 20
-135.9503580389291
 30
0.0
 10
89.65258108652783
 20
-135.9503580389291
 30
0.0
 10
89.65258108652783
 20
-135.9503580389291
 30
0.0
 10
89.4129746955287
 20
-135.9503580389291
 30
0.0
 10
89.4129746955287
 20
-135.9503580389291
 30
0.0
  0
HATCH
  5
A4
330
9F
100
AcDbEntity
  8
_U+30EC_U+30A4_U+30E4_U+30FC 1
 62
     7
420
 16777215
100
AcDbHatch
 10
0.0
 20
0.0
 30
0.0
210
0.0
220
0.0
230
1.0
  2
SOLID
 70
     1
 71
     0
 91
        1
 92
        1
 93
        1
 72
     4
 94
        3
 73
     0
 74
     1
 95
       26
 96
       22
 40
0.0
 40
0.0
 40
0.0
 40
0.0
 40
1.0
 40
1.0
 40
1.0
 40
2.0
 40
2.0
 40
2.0
 40
3.0
 40
3.0
 40
3.0
 40
4.0
 40
4.0
 40
4.0
 40
5.0
 40
5.0
 40
5.0
 40
6.0
 40
6.0
 40
6.0
 40
7.0
 40
7.0
 40
7.0
 40
7.0
 10
89.4129746955287
 20
-135.9503580389291
 10
89.4129746955287
 20
-135.9503580389291
 10
89.4129746955287
 20
-134.845860426358
 10
89.4129746955287
 20
-134.845860426358
 10
89.4129746955287
 20
-134.845860426358
 10
89.06019691783912
 20
-134.845860426358
 10
89.06019691783912
 20
-134.845860426358
 10
89.06019691783912
 20
-134.845860426358
 10
89.06019691783912
 20
-134.6977213204922
 10
89.06019691783912
 20
-134.6977213204922
 10
89.41521400759412
 20
-134.6829074099057
 10
89.46482338258171
 20
-134.5202989030019
 10
89.49651826104602
 20
-134.4059217328916
 10
89.49651826104602
 20
-134.4059217328916
 10
89.65258108652783
 20
-134.4059217328916
 10
89.65258108652783
 20
-134.4059217328916
 10
89.65258108652783
 20
-134.4059217328916
 10
89.65258108652783
 20
-135.9503580389291
 10
89.65258108652783
 20
-135.9503580389291
 10
89.65258108652783
 20
-135.9503580389291
 10
89.4129746955287
 20
-135.9503580389291
 10
89.4129746955287
 20
-135.9503580389291
 97
        0
 97
        0
 75
     2
 76
     1
 98
        0
  0
SPLINE
  5
A5
330
9F
100
AcDbEntity
  8
_U+30EC_U+30A4_U+30E4_U+30FC 1
370
     0
100
AcDbSpline
210
0.0
220
0.0
230
1.0
 70
    11
 71
     3
 72
    29
 73
    25
 74
     0
 42
0.0000000001
 43
0.0000000001
 12
1.0
 22
0.0
 32
0.0
 13
1.0
 23
0.0
 33
0.0
 40
0.0
 40
0.0
 40
0.0
 40
0.0
 40
1.0
 40
1.0
 40
1.0
 40
2.0
 40
2.0
 40
2.0
 40
3.0
 40
3.0
 40
3.0
 40
4.0
 40
4.0
 40
4.0
 40
5.0
 40
5.0
 40
5.0
 40
6.0
 40
6.0
 40
6.0
 40
7.0
 40
7.0
 40
7.0
 40
8.0
 40
8.0
 40
8.0
 40
8.0
 10
91.14775252712626
 20
-135.7725911118902
 30
0.0
 10
91.03234182837039
 20
-135.9820529173934
 30
0.0
 10
90.84699569126396
 20
-136.0010009425623
 30
0.0
 10
90.72262774424642
 20
-136.0010009425623
 30
0.0
 10
90.55088973430672
 20
-136.0010009425623
 30
0.0
 10
90.39930553295574
 20
-135.9544921535114
 30
0.0
 10
90.29767521614086
 20
-135.7725911118902
 30
0.0
 10
90.18691539629008
 20
-135.5779432169736
 30
0.0
 10
90.16641707815285
 20
-135.3409206475884
 30
0.0
 10
90.16641707815285
 20
-135.1779676311361
 30
0.0
 10
90.16641707815285
 20
-135.0343071494011
 30
0.0
 10
90.1845038294504
 20
-134.7824706694294
 30
0.0
 10
90.29767521614086
 20
-134.5836886599305
 30
0.0
 10
90.41291366012247
 20
-134.3804280263007
 30
0.0
 10
90.58482392483644
 20
-134.3573458865496
 30
0.0
 10
90.72262774424642
 20
-134.3573458865496
 30
0.0
 10
90.89229869689498
 20
-134.3573458865496
 30
0.0
 10
91.04594995553713
 20
-134.4017876183093
 30
0.0
 10
91.14775252712626
 20
-134.5836886599305
 30
0.0
 10
91.25403372284622
 20
-134.7762694975559
 30
0.0
 10
91.27883841034001
 20
-135.004679328228
 30
0.0
 10
91.27883841034001
 20
-135.1779676311361
 30
0.0
 10
91.27883841034001
 20
-135.3495333863015
 30
0.0
 10
91.25627303491163
 20
-135.5800102742647
 30
0.0
 10
91.14775252712626
 20
-135.7725911118902
 30
0.0
  0
SPLINE
  5
A6
330
9F
100
AcDbEntity
  8
_U+30EC_U+30A4_U+30E4_U+30FC 1
370
     0
100
AcDbSpline
210
0.0
220
0.0
230
1.0
 70
    11
 71
     3
 72
    17
 73
    13
 74
     0
 42
0.0000000001
 43
0.0000000001
 12
1.0
 22
0.0
 32
0.0
 13
1.0
 23
0.0
 33
0.0
 40
0.0
 40
0.0
 40
0.0
 40
0.0
 40
1.0
 40
1.0
 40
1.0
 40
2.0
 40
2.0
 40
2.0
 40
3.0
 40
3.0
 40
3.0
 40
4.0
 40
4.0
 40
4.0
 40
4.0
 10
90.72262774424642
 20
-134.5495822146265
 30
0.0
 10
90.45580509891383
 20
-134.5495822146265
 30
0.0
 10
90.40619572392623
 20
-134.8331135730625
 30
0.0
 10
90.40619572392623
 20
-135.1779676311361
 30
0.0
 10
90.40619572392623
 20
-135.4976724921673
 30
0.0
 10
90.44460853858676
 20
-135.8063530476456
 30
0.0
 10
90.72262774424642
 20
-135.8063530476456
 30
0.0
 10
90.98721107751362
 20
-135.8063530476456
 30
0.0
 10
91.03923201934089
 20
-135.5248887465007
 30
0.0
 10
91.03923201934089
 20
-135.1779676311361
 30
0.0
 10
91.03923201934089
 20
-134.8586072796534
 30
0.0
 10
90.99840763784069
 20
-134.5495822146265
 30
0.0
 10
90.72262774424642
 20
-134.5495822146265
 30
0.0
  0
HATCH
  5
A7
330
9F
100
AcDbEntity
  8
_U+30EC_U+30A4_U+30E4_U+30FC 1
 62
     7
420
 16777215
100
AcDbHatch
 10
0.0
 20
0.0
 30
0.0
210
0.0
220
0.0
230
1.0
  2
SOLID
 70
     1
 71
     0
 91
        2
 92
        1
 93
        1
 72
     4
 94
        3
 73
     0
 74
     1
 95
       29
 96
       25
 40
0.0
 40
0.0
 40
0.0
 40
0.0
 40
1.0
 40
1.0
 40
1.0
 40
2.0
 40
2.0
 40
2.0
 40
3.0
 40
3.0
 40
3.0
 40
4.0
 40
4.0
 40
4.0
 40
5.0
 40
5.0
 40
5.0
 40
6.0
 40
6.0
 40
6.0
 40
7.0
 40
7.0
 40
7.0
 40
8.0
 40
8.0
 40
8.0
 40
8.0
 10
91.14775252712626
 20
-135.7725911118902
 10
91.03234182837039
 20
-135.9820529173934
 10
90.84699569126396
 20
-136.0010009425623
 10
90.72262774424642
 20
-136.0010009425623
 10
90.55088973430672
 20
-136.0010009425623
 10
90.39930553295574
 20
-135.9544921535114
 10
90.29767521614086
 20
-135.7725911118902
 10
90.18691539629008
 20
-135.5779432169736
 10
90.16641707815285
 20
-135.3409206475884
 10
90.16641707815285
 20
-135.1779676311361
 10
90.16641707815285
 20
-135.0343071494011
 10
90.1845038294504
 20
-134.7824706694294
 10
90.29767521614086
 20
-134.5836886599305
 10
90.41291366012247
 20
-134.3804280263007
 10
90.58482392483644
 20
-134.3573458865496
 10
90.72262774424642
 20
-134.3573458865496
 10
90.89229869689498
 20
-134.3573458865496
 10
91.04594995553713
 20
-134.4017876183093
 10
91.14775252712626
 20
-134.5836886599305
 10
91.25403372284622
 20
-134.7762694975559
 10
91.27883841034001
 20
-135.004679328228
 10
91.27883841034001
 20
-135.1779676311361
 10
91.27883841034001
 20
-135.3495333863015
 10
91.25627303491163
 20
-135.5800102742647
 10
91.14775252712626
 20
-135.7725911118902
 97
        0
 97
        0
 92
        1
 93
        1
 72
     4
 94
        3
 73
     0
 74
     1
 95
       17
 96
       13
 40
0.0
 40
0.0
 40
0.0
 40
0.0
 40
1.0
 40
1.0
 40
1.0
 40
2.0
 40
2.0
 40
2.0
 40
3.0
 40
3.0
 40
3.0
 40
4.0
 40
4.0
 40
4.0
 40
4.0
 10
90.72262774424642
 20
-134.5495822146265
 10
90.45580509891383
 20
-134.5495822146265
 10
90.40619572392623
 20
-134.8331135730625
 10
90.40619572392623
 20
-135.1779676311361
 10
90.40619572392623
 20
-135.4976724921673
 10
90.44460853858676
 20
-135.8063530476456
 10
90.72262774424642
 20
-135.8063530476456
 10
90.98721107751362
 20
-135.8063530476456
 10
91.03923201934089
 20
-135.5248887465007
 10
91.03923201934089
 20
-135.1779676311361
 10
91.03923201934089
 20
-134.8586072796534
 10
90.99840763784069
 20
-134.5495822146265
 10
90.72262774424642
 20
-134.5495822146265
 97
        0
 97
        0
 75
     2
 76
     1
 98
        0
  0
POLYLINE
  5
A8
330
9F
100
AcDbEntity
  8
_U+30EC_U+30A4_U+30E4_U+30FC 1
370
     0
100
AcDb2dPolyline
 66
     1
 10
0.0
 20
0.0
 30
0.0
  0
VERTEX
  5
A9
330
A8
100
AcDbEntity
  8
_U+30EC_U+30A4_U+30E4_U+30FC 1
370
     0
100
AcDbVertex
100
AcDb2dVertex
 10
91.5103488269488
 20
-135.9503580389291
 30
0.0
  0
VERTEX
  5
AA
330
A8
100
AcDbEntity
  8
_U+30EC_U+30A4_U+30E4_U+30FC 1
370
     0
100
AcDbVertex
100
AcDb2dVertex
 10
91.5103488269488
 20
-135.6985215589573
 30
0.0
  0
VERTEX
  5
AB
330
A8
100
AcDbEntity
  8
_U+30EC_U+30A4_U+30E4_U+30FC 1
370
     0
100
AcDbVertex
100
AcDb2dVertex
 10
91.7790662747983
 20
-135.6985215589573
 30
0.0
  0
VERTEX
  5
AC
330
A8
100
AcDbEntity
  8
_U+30EC_U+30A4_U+30E4_U+30FC 1
370
     0
100
AcDbVertex
100
AcDb2dVertex
 10
91.7790662747983
 20
-135.9503580389291
 30
0.0
  0
VERTEX
  5
AD
330
A8
100
AcDbEntity
  8
_U+30EC_U+30A4_U+30E4_U+30FC 1
370
     0
100
AcDbVertex
100
AcDb2dVertex
 10
91.5103488269488
 20
-135.9503580389291
 30
0.0
  0
SEQEND
  5
AE
330
A8
100
AcDbEntity
  8
_U+30EC_U+30A4_U+30E4_U+30FC 1
370
     0
  0
HATCH
  5
AF
330
9F
100
AcDbEntity
  8
_U+30EC_U+30A4_U+30E4_U+30FC 1
 62
     7
420
 16777215
100
AcDbHatch
 10
0.0
 20
0.0
 30
0.0
210
0.0
220
0.0
230
1.0
  2
SOLID
 70
     1
 71
     0
 91
        1
 92
        1
 93
        4
 72
     1
 10
91.5103488269488
 20
-135.9503580389291
 11
91.5103488269488
 21
-135.6985215589573
 72
     1
 10
91.5103488269488
 20
-135.6985215589573
 11
91.7790662747983
 21
-135.6985215589573
 72
     1
 10
91.7790662747983
 20
-135.6985215589573
 11
91.7790662747983
 21
-135.9503580389291
 72
     1
 10
91.7790662747983
 20
-135.9503580389291
 11
91.5103488269488
 21
-135.9503580389291
 97
        0
 75
     2
 76
     1
 98
        0
  0
SPLINE
  5
B0
330
9F
100
AcDbEntity
  8
_U+30EC_U+30A4_U+30E4_U+30FC 1
370
     0
100
AcDbSpline
210
0.0
220
0.0
230
1.0
 70
    11
 71
     3
 72
    53
 73
    49
 74
     0
 42
0.0000000001
 43
0.0000000001
 12
1.0
 22
0.0
 32
0.0
 13
1.0
 23
0.0
 33
0.0
 40
0.0
 40
0.0
 40
0.0
 40
0.0
 40
1.0
 40
1.0
 40
1.0
 40
2.0
 40
2.0
 40
2.0
 40
3.0
 40
3.0
 40
3.0
 40
4.0
 40
4.0
 40
4.0
 40
5.0
 40
5.0
 40
5.0
 40
6.0
 40
6.0
 40
6.0
 40
7.0
 40
7.0
 40
7.0
 40
8.0
 40
8.0
 40
8.0
 40
9.0
 40
9.0
 40
9.0
 40
10.0
 40
10.0
 40
10.0
 40
11.0
 40
11.0
 40
11.0
 40
12.0
 40
12.0
 40
12.0
 40
13.0
 40
13.0
 40
13.0
 40
14.0
 40
14.0
 40
14.0
 40
15.0
 40
15.0
 40
15.0
 40
16.0
 40
16.0
 40
16.0
 40
16.0
 10
92.5459445298149
 20
-136.0010009425623
 30
0.0
 10
92.46222870952333
 20
-136.0010009425623
 30
0.0
 10
92.35370820173797
 20
-135.9841199746845
 30
0.0
 10
92.2451876939526
 20
-135.9207302177559
 30
0.0
 10
92.05984155684615
 20
-135.8104871622279
 30
0.0
 10
92.03710392664351
 20
-135.6795735337884
 30
0.0
 10
92.01677786328054
 20
-135.5713975355516
 30
0.0
 10
92.01677786328054
 20
-135.5713975355516
 30
0.0
 10
92.25414494221424
 20
-135.5713975355516
 30
0.0
 10
92.25414494221424
 20
-135.5713975355516
 30
0.0
 10
92.31305607501201
 20
-135.770524054599
 30
0.0
 10
92.44879283713087
 20
-135.8001518757722
 30
0.0
 10
92.54835609665459
 20
-135.8001518757722
 30
0.0
 10
92.6975287311659
 20
-135.8001518757722
 30
0.0
 10
92.8601372380697
 20
-135.7005886162485
 30
0.0
 10
92.8601372380697
 20
-135.4680446709941
 30
0.0
 10
92.8601372380697
 20
-135.21207407644
 30
0.0
 10
92.66790090999275
 20
-135.1421386380895
 30
0.0
 10
92.53905433884441
 20
-135.1421386380895
 30
0.0
 10
92.50529240308896
 20
-135.1421386380895
 30
0.0
 10
92.35370820173797
 20
-135.1421386380895
 30
0.0
 10
92.25896807589359
 20
-135.2709852092378
 30
0.0
 10
92.25896807589359
 20
-135.2709852092378
 30
0.0
 10
92.07121037194747
 20
-135.2520371840689
 30
0.0
 10
92.07121037194747
 20
-135.2520371840689
 30
0.0
 10
92.07121037194747
 20
-135.2520371840689
 30
0.0
 10
92.20005694309582
 20
-134.4059217328916
 30
0.0
 10
92.20005694309582
 20
-134.4059217328916
 30
0.0
 10
92.20005694309582
 20
-134.4059217328916
 30
0.0
 10
93.03204750278366
 20
-134.4059217328916
 30
0.0
 10
93.03204750278366
 20
-134.4059217328916
 30
0.0
 10
93.03204750278366
 20
-134.4059217328916
 30
0.0
 10
93.03204750278366
 20
-134.6005696278082
 30
0.0
 10
93.03204750278366
 20
-134.6005696278082
 30
0.0
 10
93.03204750278366
 20
-134.6005696278082
 30
0.0
 10
92.37403426510095
 20
-134.6005696278082
 30
0.0
 10
92.37403426510095
 20
-134.6005696278082
 30
0.0
 10
92.37403426510095
 20
-134.6005696278082
 30
0.0
 10
92.30409882675036
 20
-135.0236273533969
 30
0.0
 10
92.30409882675036
 20
-135.0236273533969
 30
0.0
 10
92.36955564097012
 20
-134.9898654176414
 30
0.0
 10
92.4577500853925
 20
-134.949557800464
 30
0.0
 10
92.5845295992497
 20
-134.949557800464
 30
0.0
 10
92.85565861393887
 20
-134.949557800464
 30
0.0
 10
93.10887313210473
 20
-135.1355929566675
 30
0.0
 10
93.10887313210473
 20
-135.4487521362767
 30
0.0
 10
93.10887313210473
 20
-135.7660454304682
 30
0.0
 10
92.86943899587986
 20
-136.0010009425623
 30
0.0
 10
92.5459445298149
 20
-136.0010009425623
 30
0.0
  0
HATCH
  5
B1
330
9F
100
AcDbEntity
  8
_U+30EC_U+30A4_U+30E4_U+30FC 1
 62
     7
420
 16777215
100
AcDbHatch
 10
0.0
 20
0.0
 30
0.0
210
0.0
220
0.0
230
1.0
  2
SOLID
 70
     1
 71
     0
 91
        1
 92
        1
 93
        1
 72
     4
 94
        3
 73
     0
 74
     1
 95
       53
 96
       49
 40
0.0
 40
0.0
 40
0.0
 40
0.0
 40
1.0
 40
1.0
 40
1.0
 40
2.0
 40
2.0
 40
2.0
 40
3.0
 40
3.0
 40
3.0
 40
4.0
 40
4.0
 40
4.0
 40
5.0
 40
5.0
 40
5.0
 40
6.0
 40
6.0
 40
6.0
 40
7.0
 40
7.0
 40
7.0
 40
8.0
 40
8.0
 40
8.0
 40
9.0
 40
9.0
 40
9.0
 40
10.0
 40
10.0
 40
10.0
 40
11.0
 40
11.0
 40
11.0
 40
12.0
 40
12.0
 40
12.0
 40
13.0
 40
13.0
 40
13.0
 40
14.0
 40
14.0
 40
14.0
 40
15.0
 40
15.0
 40
15.0
 40
16.0
 40
16.0
 40
16.0
 40
16.0
 10
92.5459445298149
 20
-136.0010009425623
 10
92.46222870952333
 20
-136.0010009425623
 10
92.35370820173797
 20
-135.9841199746845
 10
92.2451876939526
 20
-135.9207302177559
 10
92.05984155684615
 20
-135.8104871622279
 10
92.03710392664351
 20
-135.6795735337884
 10
92.01677786328054
 20
-135.5713975355516
 10
92.01677786328054
 20
-135.5713975355516
 10
92.25414494221424
 20
-135.5713975355516
 10
92.25414494221424
 20
-135.5713975355516
 10
92.31305607501201
 20
-135.770524054599
 10
92.44879283713087
 20
-135.8001518757722
 10
92.54835609665459
 20
-135.8001518757722
 10
92.6975287311659
 20
-135.8001518757722
 10
92.8601372380697
 20
-135.7005886162485
 10
92.8601372380697
 20
-135.4680446709941
 10
92.8601372380697
 20
-135.21207407644
 10
92.66790090999275
 20
-135.1421386380895
 10
92.53905433884441
 20
-135.1421386380895
 10
92.50529240308896
 20
-135.1421386380895
 10
92.35370820173797
 20
-135.1421386380895
 10
92.25896807589359
 20
-135.2709852092378
 10
92.25896807589359
 20
-135.2709852092378
 10
92.07121037194747
 20
-135.2520371840689
 10
92.07121037194747
 20
-135.2520371840689
 10
92.07121037194747
 20
-135.2520371840689
 10
92.20005694309582
 20
-134.4059217328916
 10
92.20005694309582
 20
-134.4059217328916
 10
92.20005694309582
 20
-134.4059217328916
 10
93.03204750278366
 20
-134.4059217328916
 10
93.03204750278366
 20
-134.4059217328916
 10
93.03204750278366
 20
-134.4059217328916
 10
93.03204750278366
 20
-134.6005696278082
 10
93.03204750278366
 20
-134.6005696278082
 10
93.03204750278366
 20
-134.6005696278082
 10
92.37403426510095
 20
-134.6005696278082
 10
92.37403426510095
 20
-134.6005696278082
 10
92.37403426510095
 20
-134.6005696278082
 10
92.30409882675036
 20
-135.0236273533969
 10
92.30409882675036
 20
-135.0236273533969
 10
92.36955564097012
 20
-134.9898654176414
 10
92.4577500853925
 20
-134.949557800464
 10
92.5845295992497
 20
-134.949557800464
 10
92.85565861393887
 20
-134.949557800464
 10
93.10887313210473
 20
-135.1355929566675
 10
93.10887313210473
 20
-135.4487521362767
 10
93.10887313210473
 20
-135.7660454304682
 10
92.86943899587986
 20
-136.0010009425623
 10
92.5459445298149
 20
-136.0010009425623
 97
        0
 97
        0
 75
     2
 76
     1
 98
        0
  0
ENDBLK
  5
A2
330
9F
100
AcDbEntity
  8
0
100
AcDbBlockEnd
  0
BLOCK
  5
C1
330
BF
100
AcDbEntity
  8
0
100
AcDbBlockBegin
  2
block 6
 70
     0
 10
0.0
 20
0.0
 30
0.0
  3
block 6
  1

  0
SPLINE
  5
C3
330
BF
100
AcDbEntity
  8
_U+30EC_U+30A4_U+30E4_U+30FC 1
370
     0
100
AcDbSpline
210
0.0
220
0.0
230
1.0
 70
    11
 71
     3
 72
    26
 73
    22
 74
     0
 42
0.0000000001
 43
0.0000000001
 12
1.0
 22
0.0
 32
0.0
 13
1.0
 23
0.0
 33
0.0
 40
0.0
 40
0.0
 40
0.0
 40
0.0
 40
1.0
 40
1.0
 40
1.0
 40
2.0
 40
2.0
 40
2.0
 40
3.0
 40
3.0
 40
3.0
 40
4.0
 40
4.0
 40
4.0
 40
5.0
 40
5.0
 40
5.0
 40
6.0
 40
6.0
 40
6.0
 40
7.0
 40
7.0
 40
7.0
 40
7.0
 10
81.14285072841221
 20
-128.6758666670498
 30
0.0
 10
81.14285072841221
 20
-128.6758666670498
 30
0.0
 10
80.03852537061537
 20
-128.6758666670498
 30
0.0
 10
80.03852537061537
 20
-128.6758666670498
 30
0.0
 10
80.03852537061537
 20
-128.6758666670498
 30
0.0
 10
80.03852537061537
 20
-129.0284721899651
 30
0.0
 10
80.03852537061537
 20
-129.0284721899651
 30
0.0
 10
80.03852537061537
 20
-129.0284721899651
 30
0.0
 10
79.89055851952389
 20
-129.0284721899651
 30
0.0
 10
79.89055851952389
 20
-129.0284721899651
 30
0.0
 10
79.87574460893731
 20
-128.6736273549844
 30
0.0
 10
79.712791592485
 20
-128.6240179799968
 30
0.0
 10
79.59858667714897
 20
-128.5923231015325
 30
0.0
 10
79.59858667714897
 20
-128.5923231015325
 30
0.0
 10
79.59858667714897
 20
-128.4362602760507
 30
0.0
 10
79.59858667714897
 20
-128.4362602760507
 30
0.0
 10
79.59858667714897
 20
-128.4362602760507
 30
0.0
 10
81.14285072841221
 20
-128.4362602760507
 30
0.0
 10
81.14285072841221
 20
-128.4362602760507
 30
0.0
 10
81.14285072841221
 20
-128.4362602760507
 30
0.0
 10
81.14285072841221
 20
-128.6758666670498
 30
0.0
 10
81.14285072841221
 20
-128.6758666670498
 30
0.0
  0
HATCH
  5
C4
330
BF
100
AcDbEntity
  8
_U+30EC_U+30A4_U+30E4_U+30FC 1
 62
     7
420
 16777215
100
AcDbHatch
 10
0.0
 20
0.0
 30
0.0
210
0.0
220
0.0
230
1.0
  2
SOLID
 70
     1
 71
     0
 91
        1
 92
        1
 93
        1
 72
     4
 94
        3
 73
     0
 74
     1
 95
       26
 96
       22
 40
0.0
 40
0.0
 40
0.0
 40
0.0
 40
1.0
 40
1.0
 40
1.0
 40
2.0
 40
2.0
 40
2.0
 40
3.0
 40
3.0
 40
3.0
 40
4.0
 40
4.0
 40
4.0
 40
5.0
 40
5.0
 40
5.0
 40
6.0
 40
6.0
 40
6.0
 40
7.0
 40
7.0
 40
7.0
 40
7.0
 10
81.14285072841221
 20
-128.6758666670498
 10
81.14285072841221
 20
-128.6758666670498
 10
80.03852537061537
 20
-128.6758666670498
 10
80.03852537061537
 20
-128.6758666670498
 10
80.03852537061537
 20
-128.6758666670498
 10
80.03852537061537
 20
-129.0284721899651
 10
80.03852537061537
 20
-129.0284721899651
 10
80.03852537061537
 20
-129.0284721899651
 10
79.89055851952389
 20
-129.0284721899651
 10
79.89055851952389
 20
-129.0284721899651
 10
79.87574460893731
 20
-128.6736273549844
 10
79.712791592485
 20
-128.6240179799968
 10
79.59858667714897
 20
-128.5923231015325
 10
79.59858667714897
 20
-128.5923231015325
 10
79.59858667714897
 20
-128.4362602760507
 10
79.59858667714897
 20
-128.4362602760507
 10
79.59858667714897
 20
-128.4362602760507
 10
81.14285072841221
 20
-128.4362602760507
 10
81.14285072841221
 20
-128.4362602760507
 10
81.14285072841221
 20
-128.4362602760507
 10
81.14285072841221
 20
-128.6758666670498
 10
81.14285072841221
 20
-128.6758666670498
 97
        0
 97
        0
 75
     2
 76
     1
 98
        0
  0
SPLINE
  5
C5
330
BF
100
AcDbEntity
  8
_U+30EC_U+30A4_U+30E4_U+30FC 1
370
     0
100
AcDbSpline
210
0.0
220
0.0
230
1.0
 70
    11
 71
     3
 72
    29
 73
    25
 74
     0
 42
0.0000000001
 43
0.0000000001
 12
1.0
 22
0.0
 32
0.0
 13
1.0
 23
0.0
 33
0.0
 40
0.0
 40
0.0
 40
0.0
 40
0.0
 40
1.0
 40
1.0
 40
1.0
 40
2.0
 40
2.0
 40
2.0
 40
3.0
 40
3.0
 40
3.0
 40
4.0
 40
4.0
 40
4.0
 40
5.0
 40
5.0
 40
5.0
 40
6.0
 40
6.0
 40
6.0
 40
7.0
 40
7.0
 40
7.0
 40
8.0
 40
8.0
 40
8.0
 40
8.0
 10
80.96525605614758
 20
-126.9410888354522
 30
0.0
 10
81.1745456068765
 20
-127.0564995342081
 30
0.0
 10
81.19366588681964
 20
-127.2418456713146
 30
0.0
 10
81.19366588681964
 20
-127.3662136183321
 30
0.0
 10
81.19366588681964
 20
-127.5379516282718
 30
0.0
 10
81.14715709776877
 20
-127.6895358296228
 30
0.0
 10
80.96525605614758
 20
-127.7911661464376
 30
0.0
 10
80.77060816123097
 20
-127.9019259662884
 30
0.0
 10
80.53358559184578
 20
-127.9224242844256
 30
0.0
 10
80.37080483016771
 20
-127.9224242844256
 30
0.0
 10
80.22679983888428
 20
-127.9224242844256
 30
0.0
 10
79.97513561368677
 20
-127.9043375331281
 30
0.0
 10
79.77635360418786
 20
-127.7911661464376
 30
0.0
 10
79.57309297055812
 20
-127.675927702456
 30
0.0
 10
79.54983857603268
 20
-127.5040174377421
 30
0.0
 10
79.54983857603268
 20
-127.3662136183321
 30
0.0
 10
79.54983857603268
 20
-127.1965426656835
 30
0.0
 10
79.5942803077924
 20
-127.0428914070414
 30
0.0
 10
79.77635360418786
 20
-126.9410888354522
 30
0.0
 10
79.96876218703906
 20
-126.8348076397323
 30
0.0
 10
80.19717201771113
 20
-126.8100029522385
 30
0.0
 10
80.37080483016771
 20
-126.8100029522385
 30
0.0
 10
80.54202607578463
 20
-126.8100029522385
 30
0.0
 10
80.77267521852211
 20
-126.8325683276669
 30
0.0
 10
80.96525605614758
 20
-126.9410888354522
 30
0.0
  0
SPLINE
  5
C6
330
BF
100
AcDbEntity
  8
_U+30EC_U+30A4_U+30E4_U+30FC 1
370
     0
100
AcDbSpline
210
0.0
220
0.0
230
1.0
 70
    11
 71
     3
 72
    17
 73
    13
 74
     0
 42
0.0000000001
 43
0.0000000001
 12
1.0
 22
0.0
 32
0.0
 13
1.0
 23
0.0
 33
0.0
 40
0.0
 40
0.0
 40
0.0
 40
0.0
 40
1.0
 40
1.0
 40
1.0
 40
2.0
 40
2.0
 40
2.0
 40
3.0
 40
3.0
 40
3.0
 40
4.0
 40
4.0
 40
4.0
 40
4.0
 10
79.74241941365815
 20
-127.3662136183321
 30
0.0
 10
79.74241941365815
 20
-127.6330362636647
 30
0.0
 10
80.0259507720942
 20
-127.6826456386523
 30
0.0
 10
80.37080483016771
 20
-127.6826456386523
 30
0.0
 10
80.69016518165039
 20
-127.6826456386523
 30
0.0
 10
80.99901799190303
 20
-127.6442328239917
 30
0.0
 10
80.99901799190303
 20
-127.3662136183321
 30
0.0
 10
80.99901799190303
 20
-127.1016302850649
 30
0.0
 10
80.71772594553238
 20
-127.0496093432376
 30
0.0
 10
80.37080483016771
 20
-127.0496093432376
 30
0.0
 10
80.0512722239108
 20
-127.0496093432376
 30
0.0
 10
79.74241941365815
 20
-127.0904337247378
 30
0.0
 10
79.74241941365815
 20
-127.3662136183321
 30
0.0
  0
HATCH
  5
C7
330
BF
100
AcDbEntity
  8
_U+30EC_U+30A4_U+30E4_U+30FC 1
 62
     7
420
 16777215
100
AcDbHatch
 10
0.0
 20
0.0
 30
0.0
210
0.0
220
0.0
230
1.0
  2
SOLID
 70
     1
 71
     0
 91
        2
 92
        1
 93
        1
 72
     4
 94
        3
 73
     0
 74
     1
 95
       29
 96
       25
 40
0.0
 40
0.0
 40
0.0
 40
0.0
 40
1.0
 40
1.0
 40
1.0
 40
2.0
 40
2.0
 40
2.0
 40
3.0
 40
3.0
 40
3.0
 40
4.0
 40
4.0
 40
4.0
 40
5.0
 40
5.0
 40
5.0
 40
6.0
 40
6.0
 40
6.0
 40
7.0
 40
7.0
 40
7.0
 40
8.0
 40
8.0
 40
8.0
 40
8.0
 10
80.96525605614758
 20
-126.9410888354522
 10
81.1745456068765
 20
-127.0564995342081
 10
81.19366588681964
 20
-127.2418456713146
 10
81.19366588681964
 20
-127.3662136183321
 10
81.19366588681964
 20
-127.5379516282718
 10
81.14715709776877
 20
-127.6895358296228
 10
80.96525605614758
 20
-127.7911661464376
 10
80.77060816123097
 20
-127.9019259662884
 10
80.53358559184578
 20
-127.9224242844256
 10
80.37080483016771
 20
-127.9224242844256
 10
80.22679983888428
 20
-127.9224242844256
 10
79.97513561368677
 20
-127.9043375331281
 10
79.77635360418786
 20
-127.7911661464376
 10
79.57309297055812
 20
-127.675927702456
 10
79.54983857603268
 20
-127.5040174377421
 10
79.54983857603268
 20
-127.3662136183321
 10
79.54983857603268
 20
-127.1965426656835
 10
79.5942803077924
 20
-127.0428914070414
 10
79.77635360418786
 20
-126.9410888354522
 10
79.96876218703906
 20
-126.8348076397323
 10
80.19717201771113
 20
-126.8100029522385
 10
80.37080483016771
 20
-126.8100029522385
 10
80.54202607578463
 20
-126.8100029522385
 10
80.77267521852211
 20
-126.8325683276669
 10
80.96525605614758
 20
-126.9410888354522
 97
        0
 97
        0
 92
        1
 93
        1
 72
     4
 94
        3
 73
     0
 74
     1
 95
       17
 96
       13
 40
0.0
 40
0.0
 40
0.0
 40
0.0
 40
1.0
 40
1.0
 40
1.0
 40
2.0
 40
2.0
 40
2.0
 40
3.0
 40
3.0
 40
3.0
 40
4.0
 40
4.0
 40
4.0
 40
4.0
 10
79.74241941365815
 20
-127.3662136183321
 10
79.74241941365815
 20
-127.6330362636647
 10
80.0259507720942
 20
-127.6826456386523
 10
80.37080483016771
 20
-127.6826456386523
 10
80.69016518165039
 20
-127.6826456386523
 10
80.99901799190303
 20
-127.6442328239917
 10
80.99901799190303
 20
-127.3662136183321
 10
80.99901799190303
 20
-127.1016302850649
 10
80.71772594553238
 20
-127.0496093432376
 10
80.37080483016771
 20
-127.0496093432376
 10
80.0512722239108
 20
-127.0496093432376
 10
79.74241941365815
 20
-127.0904337247378
 10
79.74241941365815
 20
-127.3662136183321
 97
        0
 97
        0
 75
     2
 76
     1
 98
        0
  0
POLYLINE
  5
C8
330
BF
100
AcDbEntity
  8
_U+30EC_U+30A4_U+30E4_U+30FC 1
370
     0
100
AcDb2dPolyline
 66
     1
 10
0.0
 20
0.0
 30
0.0
  0
VERTEX
  5
C9
330
C8
100
AcDbEntity
  8
_U+30EC_U+30A4_U+30E4_U+30FC 1
370
     0
100
AcDbVertex
100
AcDb2dVertex
 10
81.14285072841221
 20
-126.5786647904039
 30
0.0
  0
VERTEX
  5
CA
330
C8
100
AcDbEntity
  8
_U+30EC_U+30A4_U+30E4_U+30FC 1
370
     0
100
AcDbVertex
100
AcDb2dVertex
 10
80.89118650321471
 20
-126.5786647904039
 30
0.0
  0
VERTEX
  5
CB
330
C8
100
AcDbEntity
  8
_U+30EC_U+30A4_U+30E4_U+30FC 1
370
     0
100
AcDbVertex
100
AcDb2dVertex
 10
80.89118650321471
 20
-126.3096028330059
 30
0.0
  0
VERTEX
  5
CC
330
C8
100
AcDbEntity
  8
_U+30EC_U+30A4_U+30E4_U+30FC 1
370
     0
100
AcDbVertex
100
AcDb2dVertex
 10
81.14285072841221
 20
-126.3096028330059
 30
0.0
  0
VERTEX
  5
CD
330
C8
100
AcDbEntity
  8
_U+30EC_U+30A4_U+30E4_U+30FC 1
370
     0
100
AcDbVertex
100
AcDb2dVertex
 10
81.14285072841221
 20
-126.5786647904039
 30
0.0
  0
SEQEND
  5
CE
330
C8
100
AcDbEntity
  8
_U+30EC_U+30A4_U+30E4_U+30FC 1
370
     0
  0
HATCH
  5
CF
330
BF
100
AcDbEntity
  8
_U+30EC_U+30A4_U+30E4_U+30FC 1
 62
     7
420
 16777215
100
AcDbHatch
 10
0.0
 20
0.0
 30
0.0
210
0.0
220
0.0
230
1.0
  2
SOLID
 70
     1
 71
     0
 91
        1
 92
        1
 93
        4
 72
     1
 10
81.14285072841221
 20
-126.5786647904039
 11
80.89118650321471
 21
-126.5786647904039
 72
     1
 10
80.89118650321471
 20
-126.5786647904039
 11
80.89118650321471
 21
-126.3096028330059
 72
     1
 10
80.89118650321471
 20
-126.3096028330059
 11
81.14285072841221
 21
-126.3096028330059
 72
     1
 10
81.14285072841221
 20
-126.3096028330059
 11
81.14285072841221
 21
-126.5786647904039
 97
        0
 75
     2
 76
     1
 98
        0
  0
SPLINE
  5
D0
330
BF
100
AcDbEntity
  8
_U+30EC_U+30A4_U+30E4_U+30FC 1
370
     0
100
AcDbSpline
210
0.0
220
0.0
230
1.0
 70
    11
 71
     3
 72
    53
 73
    49
 74
     0
 42
0.0000000001
 43
0.0000000001
 12
1.0
 22
0.0
 32
0.0
 13
1.0
 23
0.0
 33
0.0
 40
0.0
 40
0.0
 40
0.0
 40
0.0
 40
1.0
 40
1.0
 40
1.0
 40
2.0
 40
2.0
 40
2.0
 40
3.0
 40
3.0
 40
3.0
 40
4.0
 40
4.0
 40
4.0
 40
5.0
 40
5.0
 40
5.0
 40
6.0
 40
6.0
 40
6.0
 40
7.0
 40
7.0
 40
7.0
 40
8.0
 40
8.0
 40
8.0
 40
9.0
 40
9.0
 40
9.0
 40
10.0
 40
10.0
 40
10.0
 40
11.0
 40
11.0
 40
11.0
 40
12.0
 40
12.0
 40
12.0
 40
13.0
 40
13.0
 40
13.0
 40
14.0
 40
14.0
 40
14.0
 40
15.0
 40
15.0
 40
15.0
 40
16.0
 40
16.0
 40
16.0
 40
16.0
 10
81.19366588681964
 20
-125.5428968327636
 30
0.0
 10
81.19366588681964
 20
-125.6264403982809
 30
0.0
 10
81.17678491894192
 20
-125.7349609060663
 30
0.0
 10
81.11322290723906
 20
-125.8434814138516
 30
0.0
 10
81.00332436125959
 20
-126.0289998057323
 30
0.0
 10
80.87206622327157
 20
-126.0515651811607
 30
0.0
 10
80.76423473458325
 20
-126.0718912445237
 30
0.0
 10
80.76423473458325
 20
-126.0718912445237
 30
0.0
 10
80.76423473458325
 20
-125.83452416559
 30
0.0
 10
80.76423473458325
 20
-125.83452416559
 30
0.0
 10
80.96301674408217
 20
-125.7757852875665
 30
0.0
 10
80.99264456525532
 20
-125.6400485254476
 30
0.0
 10
80.99264456525532
 20
-125.5406575206982
 30
0.0
 10
80.99264456525532
 20
-125.3913126314126
 30
0.0
 10
80.89325356050585
 20
-125.2285318697345
 30
0.0
 10
80.66053736047724
 20
-125.2285318697345
 30
0.0
 10
80.40456676592316
 20
-125.2285318697345
 30
0.0
 10
80.33480358234686
 20
-125.4207681978115
 30
0.0
 10
80.33480358234686
 20
-125.5496147689598
 30
0.0
 10
80.33480358234686
 20
-125.5835489594895
 30
0.0
 10
80.33480358234686
 20
-125.7349609060663
 30
0.0
 10
80.46382240826946
 20
-125.8300455414592
 30
0.0
 10
80.46382240826946
 20
-125.8300455414592
 30
0.0
 10
80.44470212832633
 20
-126.017630990631
 30
0.0
 10
80.44470212832633
 20
-126.017630990631
 30
0.0
 10
80.44470212832633
 20
-126.017630990631
 30
0.0
 10
79.59858667714897
 20
-125.8887844194827
 30
0.0
 10
79.59858667714897
 20
-125.8887844194827
 30
0.0
 10
79.59858667714897
 20
-125.8887844194827
 30
0.0
 10
79.59858667714897
 20
-125.0567938597948
 30
0.0
 10
79.59858667714897
 20
-125.0567938597948
 30
0.0
 10
79.59858667714897
 20
-125.0567938597948
 30
0.0
 10
79.79323457206559
 20
-125.0567938597948
 30
0.0
 10
79.79323457206559
 20
-125.0567938597948
 30
0.0
 10
79.79323457206559
 20
-125.0567938597948
 30
0.0
 10
79.79323457206559
 20
-125.7146348427033
 30
0.0
 10
79.79323457206559
 20
-125.7146348427033
 30
0.0
 10
79.79323457206559
 20
-125.7146348427033
 30
0.0
 10
80.21629229765426
 20
-125.7847425358281
 30
0.0
 10
80.21629229765426
 20
-125.7847425358281
 30
0.0
 10
80.18253036189881
 20
-125.7192857216084
 30
0.0
 10
80.1422227447214
 20
-125.631091277186
 30
0.0
 10
80.1422227447214
 20
-125.5044840181031
 30
0.0
 10
80.1422227447214
 20
-125.2331827486396
 30
0.0
 10
80.32843015569915
 20
-124.9799682304738
 30
0.0
 10
80.64158933530835
 20
-124.9799682304738
 30
0.0
 10
80.95888262949987
 20
-124.9799682304738
 30
0.0
 10
81.19366588681964
 20
-125.2195746214729
 30
0.0
 10
81.19366588681964
 20
-125.5428968327636
 30
0.0
  0
HATCH
  5
D1
330
BF
100
AcDbEntity
  8
_U+30EC_U+30A4_U+30E4_U+30FC 1
 62
     7
420
 16777215
100
AcDbHatch
 10
0.0
 20
0.0
 30
0.0
210
0.0
220
0.0
230
1.0
  2
SOLID
 70
     1
 71
     0
 91
        1
 92
        1
 93
        1
 72
     4
 94
        3
 73
     0
 74
     1
 95
       53
 96
       49
 40
0.0
 40
0.0
 40
0.0
 40
0.0
 40
1.0
 40
1.0
 40
1.0
 40
2.0
 40
2.0
 40
2.0
 40
3.0
 40
3.0
 40
3.0
 40
4.0
 40
4.0
 40
4.0
 40
5.0
 40
5.0
 40
5.0
 40
6.0
 40
6.0
 40
6.0
 40
7.0
 40
7.0
 40
7.0
 40
8.0
 40
8.0
 40
8.0
 40
9.0
 40
9.0
 40
9.0
 40
10.0
 40
10.0
 40
10.0
 40
11.0
 40
11.0
 40
11.0
 40
12.0
 40
12.0
 40
12.0
 40
13.0
 40
13.0
 40
13.0
 40
14.0
 40
14.0
 40
14.0
 40
15.0
 40
15.0
 40
15.0
 40
16.0
 40
16.0
 40
16.0
 40
16.0
 10
81.19366588681964
 20
-125.5428968327636
 10
81.19366588681964
 20
-125.6264403982809
 10
81.17678491894192
 20
-125.7349609060663
 10
81.11322290723906
 20
-125.8434814138516
 10
81.00332436125959
 20
-126.0289998057323
 10
80.87206622327157
 20
-126.0515651811607
 10
80.76423473458325
 20
-126.0718912445237
 10
80.76423473458325
 20
-126.0718912445237
 10
80.76423473458325
 20
-125.83452416559
 10
80.76423473458325
 20
-125.83452416559
 10
80.96301674408217
 20
-125.7757852875665
 10
80.99264456525532
 20
-125.6400485254476
 10
80.99264456525532
 20
-125.5406575206982
 10
80.99264456525532
 20
-125.3913126314126
 10
80.89325356050585
 20
-125.2285318697345
 10
80.66053736047724
 20
-125.2285318697345
 10
80.40456676592316
 20
-125.2285318697345
 10
80.33480358234686
 20
-125.4207681978115
 10
80.33480358234686
 20
-125.5496147689598
 10
80.33480358234686
 20
-125.5835489594895
 10
80.33480358234686
 20
-125.7349609060663
 10
80.46382240826946
 20
-125.8300455414592
 10
80.46382240826946
 20
-125.8300455414592
 10
80.44470212832633
 20
-126.017630990631
 10
80.44470212832633
 20
-126.017630990631
 10
80.44470212832633
 20
-126.017630990631
 10
79.59858667714897
 20
-125.8887844194827
 10
79.59858667714897
 20
-125.8887844194827
 10
79.59858667714897
 20
-125.8887844194827
 10
79.59858667714897
 20
-125.0567938597948
 10
79.59858667714897
 20
-125.0567938597948
 10
79.59858667714897
 20
-125.0567938597948
 10
79.79323457206559
 20
-125.0567938597948
 10
79.79323457206559
 20
-125.0567938597948
 10
79.79323457206559
 20
-125.0567938597948
 10
79.79323457206559
 20
-125.7146348427033
 10
79.79323457206559
 20
-125.7146348427033
 10
79.79323457206559
 20
-125.7146348427033
 10
80.21629229765426
 20
-125.7847425358281
 10
80.21629229765426
 20
-125.7847425358281
 10
80.18253036189881
 20
-125.7192857216084
 10
80.1422227447214
 20
-125.631091277186
 10
80.1422227447214
 20
-125.5044840181031
 10
80.1422227447214
 20
-125.2331827486396
 10
80.32843015569915
 20
-124.9799682304738
 10
80.64158933530835
 20
-124.9799682304738
 10
80.95888262949987
 20
-124.9799682304738
 10
81.19366588681964
 20
-125.2195746214729
 10
81.19366588681964
 20
-125.5428968327636
 97
        0
 97
        0
 75
     2
 76
     1
 98
        0
  0
ENDBLK
  5
C2
330
BF
100
AcDbEntity
  8
0
100
AcDbBlockEnd
  0
ENDSEC
  0
SECTION
  2
ENTITIES
  0
SPLINE
  5
41
330
1F
100
AcDbEntity
  8
_U+30EC_U+30A4_U+30E4_U+30FC 1
370
     0
100
AcDbSpline
210
0.0
220
0.0
230
1.0
 70
    11
 71
     3
 72
    47
 73
    43
 74
     0
 42
0.0000000001
 43
0.0000000001
 12
1.0
 22
0.0
 32
0.0
 13
1.0
 23
0.0
 33
0.0
 40
0.0
 40
0.0
 40
0.0
 40
0.0
 40
1.0
 40
1.0
 40
1.0
 40
2.0
 40
2.0
 40
2.0
 40
3.0
 40
3.0
 40
3.0
 40
4.0
 40
4.0
 40
4.0
 40
5.0
 40
5.0
 40
5.0
 40
6.0
 40
6.0
 40
6.0
 40
7.0
 40
7.0
 40
7.0
 40
8.0
 40
8.0
 40
8.0
 40
9.0
 40
9.0
 40
9.0
 40
10.0
 40
10.0
 40
10.0
 40
11.0
 40
11.0
 40
11.0
 40
12.0
 40
12.0
 40
12.0
 40
13.0
 40
13.0
 40
13.0
 40
14.0
 40
14.0
 40
14.0
 40
14.0
 10
95.49355534153422
 20
-131.3470335782743
 30
0.0
 10
95.48702895281183
 20
-131.3539127449394
 30
0.0
 10
95.47806839748488
 20
-131.358040244938
 30
0.0
 10
95.46840228662037
 20
-131.358040244938
 30
0.0
 10
95.4491406204451
 20
-131.358040244938
 30
0.0
 10
95.43326562085011
 20
-131.3422005227201
 30
0.0
 10
95.43326562085011
 20
-131.3229035782803
 30
0.0
 10
95.43326562085011
 20
-131.3229035782803
 30
0.0
 10
86.51599612612638
 20
-131.3229035782803
 30
0.0
 10
86.51599612612638
 20
-131.3229035782803
 30
0.0
 10
86.51599612612638
 20
-131.3229035782803
 30
0.0
 10
86.51599612612638
 20
-124.4680433022163
 30
0.0
 10
86.51599612612638
 20
-124.4680433022163
 30
0.0
 10
86.51599612612638
 20
-124.4680433022163
 30
0.0
 10
89.5077279942454
 20
-127.8225013569334
 30
0.0
 10
89.5077279942454
 20
-127.8225013569334
 30
0.0
 10
89.5077279942454
 20
-127.8225013569334
 30
0.0
 10
90.77204823976767
 20
-127.8225013569334
 30
0.0
 10
90.77204823976767
 20
-127.8225013569334
 30
0.0
 10
90.77204823976767
 20
-127.8118474680471
 30
0.0
 10
90.77723407296871
 20
-127.8032396902714
 30
0.0
 10
90.78446601722865
 20
-127.7966780236065
 30
0.0
 10
90.78446601722865
 20
-127.7966780236065
 30
0.0
 10
85.53897809549665
 20
-121.8480333028712
 30
0.0
 10
85.53897809549665
 20
-121.8480333028712
 30
0.0
 10
85.53276920676615
 20
-121.8535366362034
 30
0.0
 10
85.52518448473744
 20
-121.8576641362024
 30
0.0
 10
85.51622392941049
 20
-121.8576641362024
 30
0.0
 10
85.51622392941049
 20
-121.8576641362024
 30
0.0
 10
85.51622392941049
 20
-132.2875391335951
 30
0.0
 10
85.51622392941049
 20
-132.2875391335951
 30
0.0
 10
85.53552087336261
 20
-132.2875391335951
 30
0.0
 10
85.55136059518074
 20
-132.303378855813
 30
0.0
 10
85.55136059518074
 20
-132.3226758002528
 30
0.0
 10
85.55136059518074
 20
-132.3226758002528
 30
0.0
 10
96.48059226079725
 20
-132.3226758002528
 30
0.0
 10
96.48059226079725
 20
-132.3226758002528
 30
0.0
 10
96.48059226079725
 20
-132.3130096891438
 30
0.0
 10
96.48472219810104
 20
-132.3047546891459
 30
0.0
 10
96.49092864942243
 20
-132.2985458002588
 30
0.0
 10
96.49092864942243
 20
-132.2985458002588
 30
0.0
 10
95.49355534153422
 20
-131.3470335782743
 30
0.0
 10
95.49355534153422
 20
-131.3470335782743
 30
0.0
  0
HATCH
  5
42
330
1F
100
AcDbEntity
  8
_U+30EC_U+30A4_U+30E4_U+30FC 1
 62
   253
420
 11711154
100
AcDbHatch
 10
0.0
 20
0.0
 30
0.0
210
0.0
220
0.0
230
1.0
  2
SOLID
 70
     1
 71
     0
 91
        1
 92
        1
 93
        1
 72
     4
 94
        3
 73
     0
 74
     1
 95
       47
 96
       43
 40
0.0
 40
0.0
 40
0.0
 40
0.0
 40
1.0
 40
1.0
 40
1.0
 40
2.0
 40
2.0
 40
2.0
 40
3.0
 40
3.0
 40
3.0
 40
4.0
 40
4.0
 40
4.0
 40
5.0
 40
5.0
 40
5.0
 40
6.0
 40
6.0
 40
6.0
 40
7.0
 40
7.0
 40
7.0
 40
8.0
 40
8.0
 40
8.0
 40
9.0
 40
9.0
 40
9.0
 40
10.0
 40
10.0
 40
10.0
 40
11.0
 40
11.0
 40
11.0
 40
12.0
 40
12.0
 40
12.0
 40
13.0
 40
13.0
 40
13.0
 40
14.0
 40
14.0
 40
14.0
 40
14.0
 10
95.49355534153422
 20
-131.3470335782743
 10
95.48702895281183
 20
-131.3539127449394
 10
95.47806839748488
 20
-131.358040244938
 10
95.46840228662037
 20
-131.358040244938
 10
95.4491406204451
 20
-131.358040244938
 10
95.43326562085011
 20
-131.3422005227201
 10
95.43326562085011
 20
-131.3229035782803
 10
95.43326562085011
 20
-131.3229035782803
 10
86.51599612612638
 20
-131.3229035782803
 10
86.51599612612638
 20
-131.3229035782803
 10
86.51599612612638
 20
-131.3229035782803
 10
86.51599612612638
 20
-124.4680433022163
 10
86.51599612612638
 20
-124.4680433022163
 10
86.51599612612638
 20
-124.4680433022163
 10
89.5077279942454
 20
-127.8225013569334
 10
89.5077279942454
 20
-127.8225013569334
 10
89.5077279942454
 20
-127.8225013569334
 10
90.77204823976767
 20
-127.8225013569334
 10
90.77204823976767
 20
-127.8225013569334
 10
90.77204823976767
 20
-127.8118474680471
 10
90.77723407296871
 20
-127.8032396902714
 10
90.78446601722865
 20
-127.7966780236065
 10
90.78446601722865
 20
-127.7966780236065
 10
85.53897809549665
 20
-121.8480333028712
 10
85.53897809549665
 20
-121.8480333028712
 10
85.53276920676615
 20
-121.8535366362034
 10
85.52518448473744
 20
-121.8576641362024
 10
85.51622392941049
 20
-121.8576641362024
 10
85.51622392941049
 20
-121.8576641362024
 10
85.51622392941049
 20
-132.2875391335951
 10
85.51622392941049
 20
-132.2875391335951
 10
85.53552087336261
 20
-132.2875391335951
 10
85.55136059518074
 20
-132.303378855813
 10
85.55136059518074
 20
-132.3226758002528
 10
85.55136059518074
 20
-132.3226758002528
 10
96.48059226079725
 20
-132.3226758002528
 10
96.48059226079725
 20
-132.3226758002528
 10
96.48059226079725
 20
-132.3130096891438
 10
96.48472219810104
 20
-132.3047546891459
 10
96.49092864942243
 20
-132.2985458002588
 10
96.49092864942243
 20
-132.2985458002588
 10
95.49355534153422
 20
-131.3470335782743
 10
95.49355534153422
 20
-131.3470335782743
 97
        0
 97
        0
 75
     2
 76
     1
 98
        0
  0
POLYLINE
  5
43
330
1F
100
AcDbEntity
  8
_U+30EC_U+30A4_U+30E4_U+30FC 1
 62
     7
420
 16777215
370
    25
100
AcDb2dPolyline
 66
     1
 10
0.0
 20
0.0
 30
0.0
  0
VERTEX
  5
44
330
43
100
AcDbEntity
  8
_U+30EC_U+30A4_U+30E4_U+30FC 1
 62
     7
420
 16777215
370
    25
100
AcDbVertex
100
AcDb2dVertex
 10
89.5077279942454
 20
-127.8225013569334
 30
0.0
  0
VERTEX
  5
45
330
43
100
AcDbEntity
  8
_U+30EC_U+30A4_U+30E4_U+30FC 1
 62
     7
420
 16777215
370
    25
100
AcDbVertex
100
AcDb2dVertex
 10
90.80722018331481
 20
-127.8225013569334
 30
0.0
  0
VERTEX
  5
46
330
43
100
AcDbEntity
  8
_U+30EC_U+30A4_U+30E4_U+30FC 1
 62
     7
420
 16777215
370
    25
100
AcDbVertex
100
AcDb2dVertex
 10
85.51622392941049
 20
-121.8222099695444
 30
0.0
  0
VERTEX
  5
47
330
43
100
AcDbEntity
  8
_U+30EC_U+30A4_U+30E4_U+30FC 1
 62
     7
420
 16777215
370
    25
100
AcDbVertex
100
AcDb2dVertex
 10
85.51622392941049
 20
-132.3226758002528
 30
0.0
  0
VERTEX
  5
48
330
43
100
AcDbEntity
  8
_U+30EC_U+30A4_U+30E4_U+30FC 1
 62
     7
420
 16777215
370
    25
100
AcDbVertex
100
AcDb2dVertex
 10
96.5157289265675
 20
-132.3226758002528
 30
0.0
  0
VERTEX
  5
49
330
43
100
AcDbEntity
  8
_U+30EC_U+30A4_U+30E4_U+30FC 1
 62
     7
420
 16777215
370
    25
100
AcDbVertex
100
AcDb2dVertex
 10
95.46840228662037
 20
-131.3229035782803
 30
0.0
  0
VERTEX
  5
4A
330
43
100
AcDbEntity
  8
_U+30EC_U+30A4_U+30E4_U+30FC 1
 62
     7
420
 16777215
370
    25
100
AcDbVertex
100
AcDb2dVertex
 10
86.51599612612638
 20
-131.3229035782803
 30
0.0
  0
VERTEX
  5
4B
330
43
100
AcDbEntity
  8
_U+30EC_U+30A4_U+30E4_U+30FC 1
 62
     7
420
 16777215
370
    25
100
AcDbVertex
100
AcDb2dVertex
 10
86.51599612612638
 20
-124.4680433022163
 30
0.0
  0
VERTEX
  5
4C
330
43
100
AcDbEntity
  8
_U+30EC_U+30A4_U+30E4_U+30FC 1
 62
     7
420
 16777215
370
    25
100
AcDbVertex
100
AcDb2dVertex
 10
89.5077279942454
 20
-127.8225013569334
 30
0.0
  0
SEQEND
  5
4D
330
43
100
AcDbEntity
  8
_U+30EC_U+30A4_U+30E4_U+30FC 1
 62
     7
420
 16777215
370
    25
  0
SPLINE
  5
4E
330
1F
100
AcDbEntity
  8
_U+30EC_U+30A4_U+30E4_U+30FC 1
 62
     7
420
 16777215
370
     9
100
AcDbSpline
210
0.0
220
0.0
230
1.0
 70
    11
 71
     3
 72
    17
 73
    13
 74
     0
 42
0.0000000001
 43
0.0000000001
 12
1.0
 22
0.0
 32
0.0
 13
1.0
 23
0.0
 33
0.0
 40
0.0
 40
0.0
 40
0.0
 40
0.0
 40
1.0
 40
1.0
 40
1.0
 40
2.0
 40
2.0
 40
2.0
 40
3.0
 40
3.0
 40
3.0
 40
4.0
 40
4.0
 40
4.0
 40
4.0
 10
99.56806801536251
 20
-127.8225013569334
 30
0.0
 10
99.56806801536251
 20
-127.7670446902804
 30
0.0
 10
99.52330051650463
 20
-127.7222771902918
 30
0.0
 10
99.46816386402197
 20
-127.7222771902918
 30
0.0
 10
99.4130574637616
 20
-127.7222771902918
 30
0.0
 10
99.36825468712685
 20
-127.7670446902804
 30
0.0
 10
99.36825468712685
 20
-127.8225013569334
 30
0.0
 10
99.36825468712685
 20
-127.8776405235861
 30
0.0
 10
99.4130574637616
 20
-127.922408023575
 30
0.0
 10
99.46816386402197
 20
-127.922408023575
 30
0.0
 10
99.52330051650463
 20
-127.922408023575
 30
0.0
 10
99.56806801536251
 20
-127.8776405235861
 30
0.0
 10
99.56806801536251
 20
-127.8225013569334
 30
0.0
  0
SPLINE
  5
4F
330
1F
100
AcDbEntity
  8
_U+30EC_U+30A4_U+30E4_U+30FC 1
 62
     7
420
 16777215
370
     9
100
AcDbSpline
210
0.0
220
0.0
230
1.0
 70
    11
 71
     3
 72
    17
 73
    13
 74
     0
 42
0.0000000001
 43
0.0000000001
 12
1.0
 22
0.0
 32
0.0
 13
1.0
 23
0.0
 33
0.0
 40
0.0
 40
0.0
 40
0.0
 40
0.0
 40
1.0
 40
1.0
 40
1.0
 40
2.0
 40
2.0
 40
2.0
 40
3.0
 40
3.0
 40
3.0
 40
4.0
 40
4.0
 40
4.0
 40
4.0
 10
99.56806801536251
 20
-131.3229035782803
 30
0.0
 10
99.56806801536251
 20
-131.2677996894054
 30
0.0
 10
99.52330051650463
 20
-131.2229969116387
 30
0.0
 10
99.46816386402197
 20
-131.2229969116387
 30
0.0
 10
99.4130574637616
 20
-131.2229969116387
 30
0.0
 10
99.36825468712685
 20
-131.2677996894054
 30
0.0
 10
99.36825468712685
 20
-131.3229035782803
 30
0.0
 10
99.36825468712685
 20
-131.3780427449334
 30
0.0
 10
99.4130574637616
 20
-131.4228102449219
 30
0.0
 10
99.46816386402197
 20
-131.4228102449219
 30
0.0
 10
99.52330051650463
 20
-131.4228102449219
 30
0.0
 10
99.56806801536251
 20
-131.3780427449334
 30
0.0
 10
99.56806801536251
 20
-131.3229035782803
 30
0.0
  0
SPLINE
  5
50
330
1F
100
AcDbEntity
  8
_U+30EC_U+30A4_U+30E4_U+30FC 1
 62
     7
420
 16777215
370
     9
100
AcDbSpline
210
0.0
220
0.0
230
1.0
 70
    11
 71
     3
 72
    17
 73
    13
 74
     0
 42
0.0000000001
 43
0.0000000001
 12
1.0
 22
0.0
 32
0.0
 13
1.0
 23
0.0
 33
0.0
 40
0.0
 40
0.0
 40
0.0
 40
0.0
 40
1.0
 40
1.0
 40
1.0
 40
2.0
 40
2.0
 40
2.0
 40
3.0
 40
3.0
 40
3.0
 40
4.0
 40
4.0
 40
4.0
 40
4.0
 10
93.90711371534104
 20
-125.1766680242615
 30
0.0
 10
93.90711371534104
 20
-125.1212113576085
 30
0.0
 10
93.86301649424384
 20
-125.0764438576199
 30
0.0
 10
93.80720705122322
 20
-125.0764438576199
 30
0.0
 10
93.75206788596326
 20
-125.0764438576199
 30
0.0
 10
93.7073027543511
 20
-125.1212113576085
 30
0.0
 10
93.7073027543511
 20
-125.1766680242615
 30
0.0
 10
93.7073027543511
 20
-125.2318071909142
 30
0.0
 10
93.75206788596326
 20
-125.2765746909031
 30
0.0
 10
93.80720705122322
 20
-125.2765746909031
 30
0.0
 10
93.86301649424384
 20
-125.2765746909031
 30
0.0
 10
93.90711371534104
 20
-125.2318071909142
 30
0.0
 10
93.90711371534104
 20
-125.1766680242615
 30
0.0
  0
SPLINE
  5
51
330
1F
100
AcDbEntity
  8
_U+30EC_U+30A4_U+30E4_U+30FC 1
 62
     7
420
 16777215
370
     9
100
AcDbSpline
210
0.0
220
0.0
230
1.0
 70
    11
 71
     3
 72
    17
 73
    13
 74
     0
 42
0.0000000001
 43
0.0000000001
 12
1.0
 22
0.0
 32
0.0
 13
1.0
 23
0.0
 33
0.0
 40
0.0
 40
0.0
 40
0.0
 40
0.0
 40
1.0
 40
1.0
 40
1.0
 40
2.0
 40
2.0
 40
2.0
 40
3.0
 40
3.0
 40
3.0
 40
4.0
 40
4.0
 40
4.0
 40
4.0
 10
88.61611746143672
 20
-119.1766941368725
 30
0.0
 10
88.61611746143672
 20
-119.1212374702198
 30
0.0
 10
88.57134996257884
 20
-119.0764699702309
 30
0.0
 10
88.51621079731888
 20
-119.0764699702309
 30
0.0
 10
88.46040135429826
 20
-119.0764699702309
 30
0.0
 10
88.41563608900735
 20
-119.1212374702198
 30
0.0
 10
88.41563608900735
 20
-119.1766941368725
 30
0.0
 10
88.41563608900735
 20
-119.2318333035252
 30
0.0
 10
88.46040135429826
 20
-119.2766008035141
 30
0.0
 10
88.51621079731888
 20
-119.2766008035141
 30
0.0
 10
88.57134996257884
 20
-119.2766008035141
 30
0.0
 10
88.61611746143672
 20
-119.2318333035252
 30
0.0
 10
88.61611746143672
 20
-119.1766941368725
 30
0.0
  0
SPLINE
  5
52
330
1F
100
AcDbEntity
  8
_U+30EC_U+30A4_U+30E4_U+30FC 1
 62
     7
420
 16777215
370
     9
100
AcDbSpline
210
0.0
220
0.0
230
1.0
 70
    11
 71
     3
 72
    17
 73
    13
 74
     0
 42
0.0000000001
 43
0.0000000001
 12
1.0
 22
0.0
 32
0.0
 13
1.0
 23
0.0
 33
0.0
 40
0.0
 40
0.0
 40
0.0
 40
0.0
 40
1.0
 40
1.0
 40
1.0
 40
2.0
 40
2.0
 40
2.0
 40
3.0
 40
3.0
 40
3.0
 40
4.0
 40
4.0
 40
4.0
 40
4.0
 10
81.61570125114332
 20
-132.3226758002528
 30
0.0
 10
81.61570125114332
 20
-132.2675366335997
 30
0.0
 10
81.57089847450857
 20
-132.2227691336112
 30
0.0
 10
81.5157945870255
 20
-132.2227691336112
 30
0.0
 10
81.46065542176554
 20
-132.2227691336112
 30
0.0
 10
81.41588792290766
 20
-132.2675366335997
 30
0.0
 10
81.41588792290766
 20
-132.3226758002528
 30
0.0
 10
81.41588792290766
 20
-132.3777796891277
 30
0.0
 10
81.46065542176554
 20
-132.4225824668945
 30
0.0
 10
81.5157945870255
 20
-132.4225824668945
 30
0.0
 10
81.57089847450857
 20
-132.4225824668945
 30
0.0
 10
81.61570125114332
 20
-132.3777796891277
 30
0.0
 10
81.61570125114332
 20
-132.3226758002528
 30
0.0
  0
SPLINE
  5
53
330
1F
100
AcDbEntity
  8
_U+30EC_U+30A4_U+30E4_U+30FC 1
 62
     7
420
 16777215
370
     9
100
AcDbSpline
210
0.0
220
0.0
230
1.0
 70
    11
 71
     3
 72
    17
 73
    13
 74
     0
 42
0.0000000001
 43
0.0000000001
 12
1.0
 22
0.0
 32
0.0
 13
1.0
 23
0.0
 33
0.0
 40
0.0
 40
0.0
 40
0.0
 40
0.0
 40
1.0
 40
1.0
 40
1.0
 40
2.0
 40
2.0
 40
2.0
 40
3.0
 40
3.0
 40
3.0
 40
4.0
 40
4.0
 40
4.0
 40
4.0
 10
81.61570125114332
 20
-121.8222099695444
 30
0.0
 10
81.61570125114332
 20
-121.7670708028917
 30
0.0
 10
81.57089847450857
 20
-121.7223033029028
 30
0.0
 10
81.5157945870255
 20
-121.7223033029028
 30
0.0
 10
81.46065542176554
 20
-121.7223033029028
 30
0.0
 10
81.41588792290766
 20
-121.7670708028917
 30
0.0
 10
81.41588792290766
 20
-121.8222099695444
 30
0.0
 10
81.41588792290766
 20
-121.8776666361971
 30
0.0
 10
81.46065542176554
 20
-121.922434136186
 30
0.0
 10
81.5157945870255
 20
-121.922434136186
 30
0.0
 10
81.57089847450857
 20
-121.922434136186
 30
0.0
 10
81.61570125114332
 20
-121.8776666361971
 30
0.0
 10
81.61570125114332
 20
-121.8222099695444
 30
0.0
  0
SPLINE
  5
54
330
1F
100
AcDbEntity
  8
_U+30EC_U+30A4_U+30E4_U+30FC 1
 62
     7
420
 16777215
370
     9
100
AcDbSpline
210
0.0
220
0.0
230
1.0
 70
    11
 71
     3
 72
    17
 73
    13
 74
     0
 42
0.0000000001
 43
0.0000000001
 12
1.0
 22
0.0
 32
0.0
 13
1.0
 23
0.0
 33
0.0
 40
0.0
 40
0.0
 40
0.0
 40
0.0
 40
1.0
 40
1.0
 40
1.0
 40
2.0
 40
2.0
 40
2.0
 40
3.0
 40
3.0
 40
3.0
 40
4.0
 40
4.0
 40
4.0
 40
4.0
 10
85.61613059352831
 20
-136.3224349659197
 30
0.0
 10
85.61613059352831
 20
-136.2672957992666
 30
0.0
 10
85.57136309467043
 20
-136.2225282992774
 30
0.0
 10
85.51622392941049
 20
-136.2225282992774
 30
0.0
 10
85.46041664530156
 20
-136.2225282992774
 30
0.0
 10
85.41561386753484
 20
-136.2672957992666
 30
0.0
 10
85.41561386753484
 20
-136.3224349659197
 30
0.0
 10
85.41561386753484
 20
-136.3782444103502
 30
0.0
 10
85.46041664530156
 20
-136.4230119103387
 30
0.0
 10
85.51622392941049
 20
-136.4230119103387
 30
0.0
 10
85.57136309467043
 20
-136.4230119103387
 30
0.0
 10
85.61613059352831
 20
-136.3782444103502
 30
0.0
 10
85.61613059352831
 20
-136.3224349659197
 30
0.0
  0
SPLINE
  5
55
330
1F
100
AcDbEntity
  8
_U+30EC_U+30A4_U+30E4_U+30FC 1
 62
     7
420
 16777215
370
     9
100
AcDbSpline
210
0.0
220
0.0
230
1.0
 70
    11
 71
     3
 72
    17
 73
    13
 74
     0
 42
0.0000000001
 43
0.0000000001
 12
1.0
 22
0.0
 32
0.0
 13
1.0
 23
0.0
 33
0.0
 40
0.0
 40
0.0
 40
0.0
 40
0.0
 40
1.0
 40
1.0
 40
1.0
 40
2.0
 40
2.0
 40
2.0
 40
3.0
 40
3.0
 40
3.0
 40
4.0
 40
4.0
 40
4.0
 40
4.0
 10
96.61563559068534
 20
-136.3224349659197
 30
0.0
 10
96.61563559068534
 20
-136.2672957992666
 30
0.0
 10
96.57083281405058
 20
-136.2225282992774
 30
0.0
 10
96.5157289265675
 20
-136.2225282992774
 30
0.0
 10
96.46058976130756
 20
-136.2225282992774
 30
0.0
 10
96.41582226244967
 20
-136.2672957992666
 30
0.0
 10
96.41582226244967
 20
-136.3224349659197
 30
0.0
 10
96.41582226244967
 20
-136.3782444103502
 30
0.0
 10
96.46058976130756
 20
-136.4230119103387
 30
0.0
 10
96.5157289265675
 20
-136.4230119103387
 30
0.0
 10
96.57083281405058
 20
-136.4230119103387
 30
0.0
 10
96.61563559068534
 20
-136.3782444103502
 30
0.0
 10
96.61563559068534
 20
-136.3224349659197
 30
0.0
  0
POLYLINE
  5
56
330
1F
100
AcDbEntity
  8
_U+30EC_U+30A4_U+30E4_U+30FC 1
 62
     7
420
 16777215
370
     9
100
AcDb2dPolyline
 66
     1
 10
0.0
 20
0.0
 30
0.0
  0
VERTEX
  5
57
330
56
100
AcDbEntity
  8
_U+30EC_U+30A4_U+30E4_U+30FC 1
 62
     7
420
 16777215
370
     9
100
AcDbVertex
100
AcDb2dVertex
 10
98.00815527738143
 20
-131.3229035782803
 30
0.0
  0
VERTEX
  5
58
330
56
100
AcDbEntity
  8
_U+30EC_U+30A4_U+30E4_U+30FC 1
 62
     7
420
 16777215
370
     9
100
AcDbVertex
100
AcDb2dVertex
 10
100.4686416415494
 20
-131.3229035782803
 30
0.0
  0
SEQEND
  5
59
330
56
100
AcDbEntity
  8
_U+30EC_U+30A4_U+30E4_U+30FC 1
 62
     7
420
 16777215
370
     9
  0
POLYLINE
  5
5A
330
1F
100
AcDbEntity
  8
_U+30EC_U+30A4_U+30E4_U+30FC 1
 62
     7
420
 16777215
370
     9
100
AcDb2dPolyline
 66
     1
 10
0.0
 20
0.0
 30
0.0
  0
VERTEX
  5
5B
330
5A
100
AcDbEntity
  8
_U+30EC_U+30A4_U+30E4_U+30FC 1
 62
     7
420
 16777215
370
     9
100
AcDbVertex
100
AcDb2dVertex
 10
93.34760817405967
 20
-127.8225013569334
 30
0.0
  0
VERTEX
  5
5C
330
5A
100
AcDbEntity
  8
_U+30EC_U+30A4_U+30E4_U+30FC 1
 62
     7
420
 16777215
370
     9
100
AcDbVertex
100
AcDb2dVertex
 10
100.4686416415494
 20
-127.8225013569334
 30
0.0
  0
SEQEND
  5
5D
330
5A
100
AcDbEntity
  8
_U+30EC_U+30A4_U+30E4_U+30FC 1
 62
     7
420
 16777215
370
     9
  0
INSERT
  5
5F
330
1F
100
AcDbEntity
  8
_U+30EC_U+30A4_U+30E4_U+30FC 1
100
AcDbBlockReference
  2
block 2
 10
0.0
 20
0.0
 30
0.0
  0
POLYLINE
  5
6E
330
1F
100
AcDbEntity
  8
_U+30EC_U+30A4_U+30E4_U+30FC 1
 62
     7
420
 16777215
370
     9
100
AcDb2dPolyline
 66
     1
 10
0.0
 20
0.0
 30
0.0
  0
VERTEX
  5
6F
330
6E
100
AcDbEntity
  8
_U+30EC_U+30A4_U+30E4_U+30FC 1
 62
     7
420
 16777215
370
     9
100
AcDbVertex
100
AcDb2dVertex
 10
99.46816386402197
 20
-134.1899285775637
 30
0.0
  0
VERTEX
  5
70
330
6E
100
AcDbEntity
  8
_U+30EC_U+30A4_U+30E4_U+30FC 1
 62
     7
420
 16777215
370
     9
100
AcDbVertex
100
AcDb2dVertex
 10
99.46816386402197
 20
-127.8225013569334
 30
0.0
  0
SEQEND
  5
71
330
6E
100
AcDbEntity
  8
_U+30EC_U+30A4_U+30E4_U+30FC 1
 62
     7
420
 16777215
370
     9
  0
SPLINE
  5
72
330
1F
100
AcDbEntity
  8
_U+30EC_U+30A4_U+30E4_U+30FC 1
 62
     7
420
 16777215
370
     9
100
AcDbSpline
210
0.0
220
0.0
230
1.0
 70
    11
 71
     3
 72
    17
 73
    13
 74
     0
 42
0.0000000001
 43
0.0000000001
 12
1.0
 22
0.0
 32
0.0
 13
1.0
 23
0.0
 33
0.0
 40
0.0
 40
0.0
 40
0.0
 40
0.0
 40
1.0
 40
1.0
 40
1.0
 40
2.0
 40
2.0
 40
2.0
 40
3.0
 40
3.0
 40
3.0
 40
4.0
 40
4.0
 40
4.0
 40
4.0
 10
99.56806801536251
 20
-132.3226758002528
 30
0.0
 10
99.56806801536251
 20
-132.2675366335997
 30
0.0
 10
99.52330051650463
 20
-132.2227691336112
 30
0.0
 10
99.46816386402197
 20
-132.2227691336112
 30
0.0
 10
99.4130574637616
 20
-132.2227691336112
 30
0.0
 10
99.36825468712685
 20
-132.2675366335997
 30
0.0
 10
99.36825468712685
 20
-132.3226758002528
 30
0.0
 10
99.36825468712685
 20
-132.3777796891277
 30
0.0
 10
99.4130574637616
 20
-132.4225824668945
 30
0.0
 10
99.46816386402197
 20
-132.4225824668945
 30
0.0
 10
99.52330051650463
 20
-132.4225824668945
 30
0.0
 10
99.56806801536251
 20
-132.3777796891277
 30
0.0
 10
99.56806801536251
 20
-132.3226758002528
 30
0.0
  0
POLYLINE
  5
73
330
1F
100
AcDbEntity
  8
_U+30EC_U+30A4_U+30E4_U+30FC 1
 62
     7
420
 16777215
370
     9
100
AcDb2dPolyline
 66
     1
 10
0.0
 20
0.0
 30
0.0
  0
VERTEX
  5
74
330
73
100
AcDbEntity
  8
_U+30EC_U+30A4_U+30E4_U+30FC 1
 62
     7
420
 16777215
370
     9
100
AcDbVertex
100
AcDb2dVertex
 10
98.00815527738143
 20
-132.3226758002528
 30
0.0
  0
VERTEX
  5
75
330
73
100
AcDbEntity
  8
_U+30EC_U+30A4_U+30E4_U+30FC 1
 62
     7
420
 16777215
370
     9
100
AcDbVertex
100
AcDb2dVertex
 10
100.4686416415494
 20
-132.3226758002528
 30
0.0
  0
SEQEND
  5
76
330
73
100
AcDbEntity
  8
_U+30EC_U+30A4_U+30E4_U+30FC 1
 62
     7
420
 16777215
370
     9
  0
INSERT
  5
78
330
1F
100
AcDbEntity
  8
_U+30EC_U+30A4_U+30E4_U+30FC 1
100
AcDbBlockReference
  2
block 3
 10
0.0
 20
0.0
 30
0.0
  0
SPLINE
  5
7D
330
1F
100
AcDbEntity
  8
_U+30EC_U+30A4_U+30E4_U+30FC 1
 62
     7
420
 16777215
370
     9
100
AcDbSpline
210
0.0
220
0.0
230
1.0
 70
    11
 71
     3
 72
    17
 73
    13
 74
     0
 42
0.0000000001
 43
0.0000000001
 12
1.0
 22
0.0
 32
0.0
 13
1.0
 23
0.0
 33
0.0
 40
0.0
 40
0.0
 40
0.0
 40
0.0
 40
1.0
 40
1.0
 40
1.0
 40
2.0
 40
2.0
 40
2.0
 40
3.0
 40
3.0
 40
3.0
 40
4.0
 40
4.0
 40
4.0
 40
4.0
 10
99.50329801701494
 20
-127.8225013569334
 30
0.0
 10
99.50329801701494
 20
-127.8417983013729
 30
0.0
 10
99.48745829519682
 20
-127.8576733013689
 30
0.0
 10
99.46816386402197
 20
-127.8576733013689
 30
0.0
 10
99.44886440729255
 20
-127.8576733013689
 30
0.0
 10
99.43302468547442
 20
-127.8417983013729
 30
0.0
 10
99.43302468547442
 20
-127.8225013569334
 30
0.0
 10
99.43302468547442
 20
-127.8028869124936
 30
0.0
 10
99.44886440729255
 20
-127.7870471902754
 30
0.0
 10
99.46816386402197
 20
-127.7870471902754
 30
0.0
 10
99.48745829519682
 20
-127.7870471902754
 30
0.0
 10
99.50329801701494
 20
-127.8028869124936
 30
0.0
 10
99.50329801701494
 20
-127.8225013569334
 30
0.0
  0
POLYLINE
  5
7E
330
1F
100
AcDbEntity
  8
_U+30EC_U+30A4_U+30E4_U+30FC 1
 62
     7
420
 16777215
370
     9
100
AcDb2dPolyline
 66
     1
 10
0.0
 20
0.0
 30
0.0
  0
VERTEX
  5
7F
330
7E
100
AcDbEntity
  8
_U+30EC_U+30A4_U+30E4_U+30FC 1
 62
     7
420
 16777215
370
     9
100
AcDbVertex
100
AcDb2dVertex
 10
93.80720705122322
 20
-125.1766680242615
 30
0.0
  0
VERTEX
  5
80
330
7E
100
AcDbEntity
  8
_U+30EC_U+30A4_U+30E4_U+30FC 1
 62
     7
420
 16777215
370
     9
100
AcDbVertex
100
AcDb2dVertex
 10
88.51621079731888
 20
-119.1766941368725
 30
0.0
  0
SEQEND
  5
81
330
7E
100
AcDbEntity
  8
_U+30EC_U+30A4_U+30E4_U+30FC 1
 62
     7
420
 16777215
370
     9
  0
POLYLINE
  5
82
330
1F
100
AcDbEntity
  8
_U+30EC_U+30A4_U+30E4_U+30FC 1
 62
     7
420
 16777215
370
     9
100
AcDb2dPolyline
 66
     1
 10
0.0
 20
0.0
 30
0.0
  0
VERTEX
  5
83
330
82
100
AcDbEntity
  8
_U+30EC_U+30A4_U+30E4_U+30FC 1
 62
     7
420
 16777215
370
     9
100
AcDbVertex
100
AcDb2dVertex
 10
92.71232596804484
 20
-126.1423266351311
 30
0.0
  0
VERTEX
  5
84
330
82
100
AcDbEntity
  8
_U+30EC_U+30A4_U+30E4_U+30FC 1
 62
     7
420
 16777215
370
     9
100
AcDbVertex
100
AcDb2dVertex
 10
94.55753008763644
 20
-124.5152096910935
 30
0.0
  0
SEQEND
  5
85
330
82
100
AcDbEntity
  8
_U+30EC_U+30A4_U+30E4_U+30FC 1
 62
     7
420
 16777215
370
     9
  0
POLYLINE
  5
86
330
1F
100
AcDbEntity
  8
_U+30EC_U+30A4_U+30E4_U+30FC 1
 62
     7
420
 16777215
370
     9
100
AcDb2dPolyline
 66
     1
 10
0.0
 20
0.0
 30
0.0
  0
VERTEX
  5
87
330
86
100
AcDbEntity
  8
_U+30EC_U+30A4_U+30E4_U+30FC 1
 62
     7
420
 16777215
370
     9
100
AcDbVertex
100
AcDb2dVertex
 10
87.42065943637984
 20
-120.1423527477421
 30
0.0
  0
VERTEX
  5
88
330
86
100
AcDbEntity
  8
_U+30EC_U+30A4_U+30E4_U+30FC 1
 62
     7
420
 16777215
370
     9
100
AcDbVertex
100
AcDb2dVertex
 10
89.26586355597142
 20
-118.5152358037045
 30
0.0
  0
SEQEND
  5
89
330
86
100
AcDbEntity
  8
_U+30EC_U+30A4_U+30E4_U+30FC 1
 62
     7
420
 16777215
370
     9
  0
INSERT
  5
8B
330
1F
100
AcDbEntity
  8
_U+30EC_U+30A4_U+30E4_U+30FC 1
100
AcDbBlockReference
  2
block 4
 10
0.0
 20
0.0
 30
0.0
  0
SPLINE
  5
92
330
1F
100
AcDbEntity
  8
_U+30EC_U+30A4_U+30E4_U+30FC 1
 62
     7
420
 16777215
370
     9
100
AcDbSpline
210
0.0
220
0.0
230
1.0
 70
    11
 71
     3
 72
    17
 73
    13
 74
     0
 42
0.0000000001
 43
0.0000000001
 12
1.0
 22
0.0
 32
0.0
 13
1.0
 23
0.0
 33
0.0
 40
0.0
 40
0.0
 40
0.0
 40
0.0
 40
1.0
 40
1.0
 40
1.0
 40
2.0
 40
2.0
 40
2.0
 40
3.0
 40
3.0
 40
3.0
 40
4.0
 40
4.0
 40
4.0
 40
4.0
 10
88.55134746308914
 20
-119.1766941368725
 30
0.0
 10
88.55134746308914
 20
-119.195991081312
 30
0.0
 10
88.53550774127102
 20
-119.2118308035305
 30
0.0
 10
88.51621079731888
 20
-119.2118308035305
 30
0.0
 10
88.49624357560607
 20
-119.2118308035305
 30
0.0
 10
88.48036857601107
 20
-119.195991081312
 30
0.0
 10
88.48036857601107
 20
-119.1766941368725
 30
0.0
 10
88.48036857601107
 20
-119.157079692433
 30
0.0
 10
88.49624357560607
 20
-119.141204692437
 30
0.0
 10
88.51621079731888
 20
-119.141204692437
 30
0.0
 10
88.53550774127102
 20
-119.141204692437
 30
0.0
 10
88.55134746308914
 20
-119.157079692433
 30
0.0
 10
88.55134746308914
 20
-119.1766941368725
 30
0.0
  0
POLYLINE
  5
93
330
1F
100
AcDbEntity
  8
_U+30EC_U+30A4_U+30E4_U+30FC 1
 62
     7
420
 16777215
370
     9
100
AcDb2dPolyline
 66
     1
 10
0.0
 20
0.0
 30
0.0
  0
VERTEX
  5
94
330
93
100
AcDbEntity
  8
_U+30EC_U+30A4_U+30E4_U+30FC 1
 62
     7
420
 16777215
370
     9
100
AcDbVertex
100
AcDb2dVertex
 10
85.51622392941049
 20
-136.3224349659197
 30
0.0
  0
VERTEX
  5
95
330
93
100
AcDbEntity
  8
_U+30EC_U+30A4_U+30E4_U+30FC 1
 62
     7
420
 16777215
370
     9
100
AcDbVertex
100
AcDb2dVertex
 10
96.5157289265675
 20
-136.3224349659197
 30
0.0
  0
SEQEND
  5
96
330
93
100
AcDbEntity
  8
_U+30EC_U+30A4_U+30E4_U+30FC 1
 62
     7
420
 16777215
370
     9
  0
POLYLINE
  5
97
330
1F
100
AcDbEntity
  8
_U+30EC_U+30A4_U+30E4_U+30FC 1
 62
     7
420
 16777215
370
     9
100
AcDb2dPolyline
 66
     1
 10
0.0
 20
0.0
 30
0.0
  0
VERTEX
  5
98
330
97
100
AcDbEntity
  8
_U+30EC_U+30A4_U+30E4_U+30FC 1
 62
     7
420
 16777215
370
     9
100
AcDbVertex
100
AcDb2dVertex
 10
85.51622392941049
 20
-134.8623935773954
 30
0.0
  0
VERTEX
  5
99
330
97
100
AcDbEntity
  8
_U+30EC_U+30A4_U+30E4_U+30FC 1
 62
     7
420
 16777215
370
     9
100
AcDbVertex
100
AcDb2dVertex
 10
85.51622392941049
 20
-137.322877465669
 30
0.0
  0
SEQEND
  5
9A
330
97
100
AcDbEntity
  8
_U+30EC_U+30A4_U+30E4_U+30FC 1
 62
     7
420
 16777215
370
     9
  0
POLYLINE
  5
9B
330
1F
100
AcDbEntity
  8
_U+30EC_U+30A4_U+30E4_U+30FC 1
 62
     7
420
 16777215
370
     9
100
AcDb2dPolyline
 66
     1
 10
0.0
 20
0.0
 30
0.0
  0
VERTEX
  5
9C
330
9B
100
AcDbEntity
  8
_U+30EC_U+30A4_U+30E4_U+30FC 1
 62
     7
420
 16777215
370
     9
100
AcDbVertex
100
AcDb2dVertex
 10
96.5157289265675
 20
-134.8623935773954
 30
0.0
  0
VERTEX
  5
9D
330
9B
100
AcDbEntity
  8
_U+30EC_U+30A4_U+30E4_U+30FC 1
 62
     7
420
 16777215
370
     9
100
AcDbVertex
100
AcDb2dVertex
 10
96.5157289265675
 20
-137.322877465669
 30
0.0
  0
SEQEND
  5
9E
330
9B
100
AcDbEntity
  8
_U+30EC_U+30A4_U+30E4_U+30FC 1
 62
     7
420
 16777215
370
     9
  0
INSERT
  5
A0
330
1F
100
AcDbEntity
  8
_U+30EC_U+30A4_U+30E4_U+30FC 1
100
AcDbBlockReference
  2
block 5
 10
0.0
 20
0.0
 30
0.0
  0
SPLINE
  5
B2
330
1F
100
AcDbEntity
  8
_U+30EC_U+30A4_U+30E4_U+30FC 1
 62
     7
420
 16777215
370
     9
100
AcDbSpline
210
0.0
220
0.0
230
1.0
 70
    11
 71
     3
 72
    17
 73
    13
 74
     0
 42
0.0000000001
 43
0.0000000001
 12
1.0
 22
0.0
 32
0.0
 13
1.0
 23
0.0
 33
0.0
 40
0.0
 40
0.0
 40
0.0
 40
0.0
 40
1.0
 40
1.0
 40
1.0
 40
2.0
 40
2.0
 40
2.0
 40
3.0
 40
3.0
 40
3.0
 40
4.0
 40
4.0
 40
4.0
 40
4.0
 10
96.55086559233776
 20
-136.3224349659197
 30
0.0
 10
96.55086559233776
 20
-136.3424021881369
 30
0.0
 10
96.53569614828032
 20
-136.3582419103548
 30
0.0
 10
96.5157289265675
 20
-136.3582419103548
 30
0.0
 10
96.49643198261536
 20
-136.3582419103548
 30
0.0
 10
96.48059226079725
 20
-136.3424021881369
 30
0.0
 10
96.48059226079725
 20
-136.3224349659197
 30
0.0
 10
96.48059226079725
 20
-136.3031380214799
 30
0.0
 10
96.49643198261536
 20
-136.2872982992614
 30
0.0
 10
96.5157289265675
 20
-136.2872982992614
 30
0.0
 10
96.53569614828032
 20
-136.2872982992614
 30
0.0
 10
96.55086559233776
 20
-136.3031380214799
 30
0.0
 10
96.55086559233776
 20
-136.3224349659197
 30
0.0
  0
POLYLINE
  5
B3
330
1F
100
AcDbEntity
  8
_U+30EC_U+30A4_U+30E4_U+30FC 1
 62
     7
420
 16777215
370
     9
100
AcDb2dPolyline
 66
     1
 10
0.0
 20
0.0
 30
0.0
  0
VERTEX
  5
B4
330
B3
100
AcDbEntity
  8
_U+30EC_U+30A4_U+30E4_U+30FC 1
 62
     7
420
 16777215
370
     9
100
AcDbVertex
100
AcDb2dVertex
 10
81.5157945870255
 20
-121.8222099695444
 30
0.0
  0
VERTEX
  5
B5
330
B3
100
AcDbEntity
  8
_U+30EC_U+30A4_U+30E4_U+30FC 1
 62
     7
420
 16777215
370
     9
100
AcDbVertex
100
AcDb2dVertex
 10
81.5157945870255
 20
-132.3226758002528
 30
0.0
  0
SEQEND
  5
B6
330
B3
100
AcDbEntity
  8
_U+30EC_U+30A4_U+30E4_U+30FC 1
 62
     7
420
 16777215
370
     9
  0
POLYLINE
  5
B7
330
1F
100
AcDbEntity
  8
_U+30EC_U+30A4_U+30E4_U+30FC 1
 62
     7
420
 16777215
370
     9
100
AcDb2dPolyline
 66
     1
 10
0.0
 20
0.0
 30
0.0
  0
VERTEX
  5
B8
330
B7
100
AcDbEntity
  8
_U+30EC_U+30A4_U+30E4_U+30FC 1
 62
     7
420
 16777215
370
     9
100
AcDbVertex
100
AcDb2dVertex
 10
82.97580275703395
 20
-121.8222099695444
 30
0.0
  0
VERTEX
  5
B9
330
B7
100
AcDbEntity
  8
_U+30EC_U+30A4_U+30E4_U+30FC 1
 62
     7
420
 16777215
370
     9
100
AcDbVertex
100
AcDb2dVertex
 10
80.51602239030959
 20
-121.8222099695444
 30
0.0
  0
SEQEND
  5
BA
330
B7
100
AcDbEntity
  8
_U+30EC_U+30A4_U+30E4_U+30FC 1
 62
     7
420
 16777215
370
     9
  0
POLYLINE
  5
BB
330
1F
100
AcDbEntity
  8
_U+30EC_U+30A4_U+30E4_U+30FC 1
 62
     7
420
 16777215
370
     9
100
AcDb2dPolyline
 66
     1
 10
0.0
 20
0.0
 30
0.0
  0
VERTEX
  5
BC
330
BB
100
AcDbEntity
  8
_U+30EC_U+30A4_U+30E4_U+30FC 1
 62
     7
420
 16777215
370
     9
100
AcDbVertex
100
AcDb2dVertex
 10
82.97580275703395
 20
-132.3226758002528
 30
0.0
  0
VERTEX
  5
BD
330
BB
100
AcDbEntity
  8
_U+30EC_U+30A4_U+30E4_U+30FC 1
 62
     7
420
 16777215
370
     9
100
AcDbVertex
100
AcDb2dVertex
 10
80.51602239030959
 20
-132.3226758002528
 30
0.0
  0
SEQEND
  5
BE
330
BB
100
AcDbEntity
  8
_U+30EC_U+30A4_U+30E4_U+30FC 1
 62
     7
420
 16777215
370
     9
  0
INSERT
  5
C0
330
1F
100
AcDbEntity
  8
_U+30EC_U+30A4_U+30E4_U+30FC 1
100
AcDbBlockReference
  2
block 6
 10
0.0
 20
0.0
 30
0.0
  0
SPLINE
  5
D2
330
1F
100
AcDbEntity
  8
_U+30EC_U+30A4_U+30E4_U+30FC 1
 62
     7
420
 16777215
370
     9
100
AcDbSpline
210
0.0
220
0.0
230
1.0
 70
    11
 71
     3
 72
    17
 73
    13
 74
     0
 42
0.0000000001
 43
0.0000000001
 12
1.0
 22
0.0
 32
0.0
 13
1.0
 23
0.0
 33
0.0
 40
0.0
 40
0.0
 40
0.0
 40
0.0
 40
1.0
 40
1.0
 40
1.0
 40
2.0
 40
2.0
 40
2.0
 40
3.0
 40
3.0
 40
3.0
 40
4.0
 40
4.0
 40
4.0
 40
4.0
 10
81.55093331294549
 20
-132.3226758002528
 30
0.0
 10
81.55093331294549
 20
-132.341972744692
 30
0.0
 10
81.53505831294943
 20
-132.3578124669106
 30
0.0
 10
81.5157945870255
 20
-132.3578124669106
 30
0.0
 10
81.49649764307335
 20
-132.3578124669106
 30
0.0
 10
81.48065792125523
 20
-132.341972744692
 30
0.0
 10
81.48065792125523
 20
-132.3226758002528
 30
0.0
 10
81.48065792125523
 20
-132.303378855813
 30
0.0
 10
81.49649764307335
 20
-132.2875391335951
 30
0.0
 10
81.5157945870255
 20
-132.2875391335951
 30
0.0
 10
81.53505831294943
 20
-132.2875391335951
 30
0.0
 10
81.55093331294549
 20
-132.303378855813
 30
0.0
 10
81.55093331294549
 20
-132.3226758002528
 30
0.0
  0
POLYLINE
  5
D3
330
1F
100
AcDbEntity
  8
_U+30EC_U+30A4_U+30E4_U+30FC 1
  6
AI-Linetype-1
 62
   251
420
  5855577
370
    25
100
AcDb2dPolyline
 66
     1
 10
0.0
 20
0.0
 30
0.0
  0
VERTEX
  5
D4
330
D3
100
AcDbEntity
  8
_U+30EC_U+30A4_U+30E4_U+30FC 1
  6
AI-Linetype-1
 62
   251
420
  5855577
370
    25
100
AcDbVertex
100
AcDb2dVertex
 10
84.62602450767692
 20
-132.3226758002528
 30
0.0
  0
VERTEX
  5
D5
330
D3
100
AcDbEntity
  8
_U+30EC_U+30A4_U+30E4_U+30FC 1
  6
AI-Linetype-1
 62
   251
420
  5855577
370
    25
100
AcDbVertex
100
AcDb2dVertex
 10
84.62602450767692
 20
-119.5721933034404
 30
0.0
  0
VERTEX
  5
D6
330
D3
100
AcDbEntity
  8
_U+30EC_U+30A4_U+30E4_U+30FC 1
  6
AI-Linetype-1
 62
   251
420
  5855577
370
    25
100
AcDbVertex
100
AcDb2dVertex
 10
92.01573331032952
 20
-127.9449858013472
 30
0.0
  0
SEQEND
  5
D8
330
D3
100
AcDbEntity
  8
_U+30EC_U+30A4_U+30E4_U+30FC 1
  6
AI-Linetype-1
 62
   251
420
  5855577
370
    25
  0
ENDSEC
  0
SECTION
  2
OBJECTS
  0
DICTIONARY
  5
C
330
0
100
AcDbDictionary
281
     1
  3
ACAD_GROUP
350
D
  3
ACAD_LAYOUT
350
1A
  3
ACAD_MATERIAL
350
3B
  3
ACAD_MLEADERSTYLE
350
DA
  3
ACAD_MLINESTYLE
350
17
  3
ACAD_PLOTSETTINGS
350
19
  3
ACAD_PLOTSTYLENAME
350
E
  3
ACAD_TABLESTYLE
350
D9
  3
ACAD_VISUALSTYLE
350
2A
  0
SUN
  5
3F
330
29
100
AcDbSun
 90
        1
290
     0
 63
     7
421
 16777215
 40
1.0
291
     1
 91
  2455826
 92
 54000000
292
     0
 70
     2
 71
   256
280
     1
  0
DICTIONARY
  5
D
102
{ACAD_REACTORS
330
C
102
}
330
C
100
AcDbDictionary
281
     1
  0
DICTIONARY
  5
1A
102
{ACAD_REACTORS
330
C
102
}
330
C
100
AcDbDictionary
281
     1
  3
Layout1
350
1E
  3
Layout2
350
26
  3
Model
350
22
  0
DICTIONARY
  5
3B
102
{ACAD_REACTORS
330
C
102
}
330
C
100
AcDbDictionary
281
     1
  3
ByBlock
350
3D
  3
ByLayer
350
3C
  3
Global
350
3E
  0
DICTIONARY
  5
DA
102
{ACAD_REACTORS
330
C
102
}
330
C
100
AcDbDictionary
281
     1
  0
DICTIONARY
  5
17
102
{ACAD_REACTORS
330
C
102
}
330
C
100
AcDbDictionary
281
     1
  3
Standard
350
18
  0
DICTIONARY
  5
19
102
{ACAD_REACTORS
330
C
102
}
330
C
100
AcDbDictionary
281
     1
  0
ACDBDICTIONARYWDFLT
  5
E
102
{ACAD_REACTORS
330
C
102
}
330
C
100
AcDbDictionary
281
     1
  3
Normal
350
F
100
AcDbDictionaryWithDefault
340
F
  0
DICTIONARY
  5
D9
102
{ACAD_REACTORS
330
C
102
}
330
C
100
AcDbDictionary
281
     1
  0
DICTIONARY
  5
2A
102
{ACAD_REACTORS
330
C
102
}
330
C
100
AcDbDictionary
281
     1
  3
2dWireframe
350
2F
  3
3D Hidden
350
31
  3
3dWireframe
350
30
  3
Basic
350
32
  3
Brighten
350
36
  3
ColorChange
350
3A
  3
Conceptual
350
34
  3
Dim
350
35
  3
Facepattern
350
39
  3
Flat
350
2B
  3
FlatWithEdges
350
2C
  3
Gouraud
350
2D
  3
GouraudWithEdges
350
2E
  3
Linepattern
350
38
  3
Realistic
350
33
  3
Thicken
350
37
  0
LAYOUT
  5
1E
102
{ACAD_REACTORS
330
1A
102
}
330
1A
100
AcDbPlotSettings
  1

  2
none_device
  4

  6

 40
0.0
 41
0.0
 42
0.0
 43
0.0
 44
0.0
 45
0.0
 46
0.0
 47
0.0
 48
0.0
 49
0.0
140
0.0
141
0.0
142
1.0
143
1.0
 70
   688
 72
     0
 73
     0
 74
     5
  7

 75
    16
 76
     0
 77
     2
 78
   300
147
1.0
148
0.0
149
0.0
100
AcDbLayout
  1
Layout1
 70
     1
 71
     1
 10
0.0
 20
0.0
 11
12.0
 21
9.0
 12
0.0
 22
0.0
 32
0.0
 14
1.000000000000000E+20
 24
1.000000000000000E+20
 34
1.000000000000000E+20
 15
-1.000000000000000E+20
 25
-1.000000000000000E+20
 35
-1.000000000000000E+20
146
0.0
 13
0.0
 23
0.0
 33
0.0
 16
1.0
 26
0.0
 36
0.0
 17
0.0
 27
1.0
 37
0.0
 76
     0
330
1B
  0
LAYOUT
  5
26
102
{ACAD_REACTORS
330
1A
102
}
330
1A
100
AcDbPlotSettings
  1

  2
none_device
  4

  6

 40
0.0
 41
0.0
 42
0.0
 43
0.0
 44
0.0
 45
0.0
 46
0.0
 47
0.0
 48
0.0
 49
0.0
140
0.0
141
0.0
142
1.0
143
1.0
 70
   688
 72
     0
 73
     0
 74
     5
  7

 75
    16
 76
     0
 77
     2
 78
   300
147
1.0
148
0.0
149
0.0
100
AcDbLayout
  1
Layout2
 70
     1
 71
     2
 10
0.0
 20
0.0
 11
0.0
 21
0.0
 12
0.0
 22
0.0
 32
0.0
 14
0.0
 24
0.0
 34
0.0
 15
0.0
 25
0.0
 35
0.0
146
0.0
 13
0.0
 23
0.0
 33
0.0
 16
1.0
 26
0.0
 36
0.0
 17
0.0
 27
1.0
 37
0.0
 76
     0
330
23
  0
LAYOUT
  5
22
102
{ACAD_REACTORS
330
1A
102
}
330
1A
100
AcDbPlotSettings
  1

  2
none_device
  4

  6

 40
0.0
 41
0.0
 42
0.0
 43
0.0
 44
0.0
 45
0.0
 46
0.0
 47
0.0
 48
0.0
 49
0.0
140
0.0
141
0.0
142
1.0
143
1.0
 70
  1712
 72
     0
 73
     0
 74
     0
  7

 75
     0
 76
     0
 77
     2
 78
   300
147
1.0
148
0.0
149
0.0
100
AcDbLayout
  1
Model
 70
     1
 71
     0
 10
0.0
 20
0.0
 11
12.0
 21
9.0
 12
0.0
 22
0.0
 32
0.0
 14
1.000000000000000E+20
 24
1.000000000000000E+20
 34
1.000000000000000E+20
 15
-1.000000000000000E+20
 25
-1.000000000000000E+20
 35
-1.000000000000000E+20
146
0.0
 13
0.0
 23
0.0
 33
0.0
 16
1.0
 26
0.0
 36
0.0
 17
0.0
 27
1.0
 37
0.0
 76
     0
330
1F
331
29
  0
MATERIAL
  5
3D
102
{ACAD_REACTORS
330
3B
102
}
330
3B
100
AcDbMaterial
  1
ByBlock
 72
     1
 94
      127
  0
MATERIAL
  5
3C
102
{ACAD_REACTORS
330
3B
102
}
330
3B
100
AcDbMaterial
  1
ByLayer
 72
     1
 94
      127
  0
MATERIAL
  5
3E
102
{ACAD_REACTORS
330
3B
102
}
330
3B
100
AcDbMaterial
  1
Global
 72
     1
 94
      127
  0
MLINESTYLE
  5
18
102
{ACAD_REACTORS
330
17
102
}
330
17
100
AcDbMlineStyle
  2
Standard
 70
     0
  3

 62
   256
 51
90.0
 52
90.0
 71
     2
 49
0.5
 62
   256
  6
BYLAYER
 49
-0.5
 62
   256
  6
BYLAYER
  0
ACDBPLACEHOLDER
  5
F
102
{ACAD_REACTORS
330
E
102
}
330
E
  0
VISUALSTYLE
  5
2F
102
{ACAD_REACTORS
330
2A
102
}
330
2A
100
AcDbVisualStyle
  2
2dWireframe
 70
     4
177
     2
291
     0
 71
     0
176
     1
 72
     2
176
     1
 73
     0
176
     1
 90
        0
176
     1
 40
-0.6
176
     1
 41
-30.0
176
     1
 62
     5
 63
     7
421
 16777215
176
     1
 74
     1
176
     1
 91
        4
176
     1
 64
     7
176
     1
 65
   257
176
     1
 75
     1
176
     1
175
     1
176
     1
 42
1.0
176
     1
 92
        0
176
     1
 66
   257
176
     1
 43
1.0
176
     1
 76
     1
176
     1
 77
     6
176
     1
 78
     2
176
     1
 67
     7
176
     1
 79
     5
176
     1
170
     0
176
     1
171
     0
176
     1
290
     0
176
     1
 93
        1
176
     1
 44
0.0
176
     1
173
     0
176
     1
  0
VISUALSTYLE
  5
31
102
{ACAD_REACTORS
330
2A
102
}
330
2A
100
AcDbVisualStyle
  2
3D Hidden
 70
     6
177
     2
291
     0
 71
     1
176
     1
 72
     2
176
     1
 73
     2
176
     1
 90
        0
176
     1
 40
-0.6
176
     1
 41
-30.0
176
     1
 62
     5
 63
     7
421
 16777215
176
     1
 74
     2
176
     1
 91
        2
176
     1
 64
     7
176
     1
 65
   257
176
     1
 75
     2
176
     1
175
     1
176
     1
 42
40.0
176
     1
 92
        0
176
     1
 66
   257
176
     1
 43
1.0
176
     1
 76
     1
176
     1
 77
     6
176
     1
 78
     2
176
     1
 67
     7
176
     1
 79
     3
176
     1
170
     0
176
     1
171
     0
176
     1
290
     0
176
     1
 93
        1
176
     1
 44
0.0
176
     1
173
     0
176
     1
  0
VISUALSTYLE
  5
30
102
{ACAD_REACTORS
330
2A
102
}
330
2A
100
AcDbVisualStyle
  2
3dWireframe
 70
     5
177
     2
291
     0
 71
     0
176
     1
 72
     2
176
     1
 73
     0
176
     1
 90
        0
176
     1
 40
-0.6
176
     1
 41
-30.0
176
     1
 62
     5
 63
     7
421
 16777215
176
     1
 74
     1
176
     1
 91
        4
176
     1
 64
     7
176
     1
 65
   257
176
     1
 75
     1
176
     1
175
     1
176
     1
 42
1.0
176
     1
 92
        0
176
     1
 66
   257
176
     1
 43
1.0
176
     1
 76
     1
176
     1
 77
     6
176
     1
 78
     2
176
     1
 67
     7
176
     1
 79
     5
176
     1
170
     0
176
     1
171
     0
176
     1
290
     0
176
     1
 93
        1
176
     1
 44
0.0
176
     1
173
     0
176
     1
  0
VISUALSTYLE
  5
32
102
{ACAD_REACTORS
330
2A
102
}
330
2A
100
AcDbVisualStyle
  2
Basic
 70
     7
177
     2
291
     1
 71
     1
176
     1
 72
     0
176
     1
 73
     1
176
     1
 90
        0
176
     1
 40
-0.6
176
     1
 41
-30.0
176
     1
 62
     5
 63
     7
421
 16777215
176
     1
 74
     0
176
     1
 91
        4
176
     1
 64
     7
176
     1
 65
   257
176
     1
 75
     1
176
     1
175
     1
176
     1
 42
1.0
176
     1
 92
        8
176
     1
 66
     7
176
     1
 43
1.0
176
     1
 76
     1
176
     1
 77
     6
176
     1
 78
     2
176
     1
 67
     7
176
     1
 79
     5
176
     1
170
     0
176
     1
171
     0
176
     1
290
     0
176
     1
 93
        1
176
     1
 44
0.0
176
     1
173
     0
176
     1
  0
VISUALSTYLE
  5
36
102
{ACAD_REACTORS
330
2A
102
}
330
2A
100
AcDbVisualStyle
  2
Brighten
 70
    12
177
     2
291
     1
 71
     2
176
     1
 72
     2
176
     1
 73
     0
176
     1
 90
        0
176
     1
 40
-0.6
176
     1
 41
-30.0
176
     1
 62
     5
 63
     7
421
 16777215
176
     1
 74
     1
176
     1
 91
        4
176
     1
 64
     7
176
     1
 65
   257
176
     1
 75
     1
176
     1
175
     1
176
     1
 42
1.0
176
     1
 92
        8
176
     1
 66
     7
176
     1
 43
1.0
176
     1
 76
     1
176
     1
 77
     6
176
     1
 78
     2
176
     1
 67
     7
176
     1
 79
     5
176
     1
170
     0
176
     1
171
     0
176
     1
290
     0
176
     1
 93
        1
176
     1
 44
50.0
176
     1
173
     0
176
     1
  0
VISUALSTYLE
  5
3A
102
{ACAD_REACTORS
330
2A
102
}
330
2A
100
AcDbVisualStyle
  2
ColorChange
 70
    16
177
     2
291
     1
 71
     2
176
     1
 72
     2
176
     1
 73
     3
176
     1
 90
        0
176
     1
 40
-0.6
176
     1
 41
-30.0
176
     1
 62
     5
 63
     8
421
  8421504
176
     1
 74
     1
176
     1
 91
        4
176
     1
 64
     7
176
     1
 65
   257
176
     1
 75
     1
176
     1
175
     1
176
     1
 42
1.0
176
     1
 92
        8
176
     1
 66
     8
424
  8421504
176
     1
 43
1.0
176
     1
 76
     1
176
     1
 77
     6
176
     1
 78
     2
176
     1
 67
     7
176
     1
 79
     5
176
     1
170
     0
176
     1
171
     0
176
     1
290
     0
176
     1
 93
        1
176
     1
 44
0.0
176
     1
173
     0
176
     1
  0
VISUALSTYLE
  5
34
102
{ACAD_REACTORS
330
2A
102
}
330
2A
100
AcDbVisualStyle
  2
Conceptual
 70
     9
177
     2
291
     0
 71
     3
176
     1
 72
     2
176
     1
 73
     0
176
     1
 90
        0
176
     1
 40
-0.6
176
     1
 41
-30.0
176
     1
 62
     5
 63
     7
421
 16777215
176
     1
 74
     2
176
     1
 91
        2
176
     1
 64
     7
176
     1
 65
   257
176
     1
 75
     1
176
     1
175
     1
176
     1
 42
40.0
176
     1
 92
        8
176
     1
 66
     7
176
     1
 43
1.0
176
     1
 76
     1
176
     1
 77
     6
176
     1
 78
     2
176
     1
 67
     7
176
     1
 79
     3
176
     1
170
     0
176
     1
171
     0
176
     1
290
     0
176
     1
 93
        1
176
     1
 44
0.0
176
     1
173
     0
176
     1
  0
VISUALSTYLE
  5
35
102
{ACAD_REACTORS
330
2A
102
}
330
2A
100
AcDbVisualStyle
  2
Dim
 70
    11
177
     2
291
     1
 71
     2
176
     1
 72
     2
176
     1
 73
     0
176
     1
 90
        0
176
     1
 40
-0.6
176
     1
 41
-30.0
176
     1
 62
     5
 63
     7
421
 16777215
176
     1
 74
     1
176
     1
 91
        4
176
     1
 64
     7
176
     1
 65
   257
176
     1
 75
     1
176
     1
175
     1
176
     1
 42
1.0
176
     1
 92
        8
176
     1
 66
     7
176
     1
 43
1.0
176
     1
 76
     1
176
     1
 77
     6
176
     1
 78
     2
176
     1
 67
     7
176
     1
 79
     5
176
     1
170
     0
176
     1
171
     0
176
     1
290
     0
176
     1
 93
        1
176
     1
 44
-50.0
176
     1
173
     0
176
     1
  0
VISUALSTYLE
  5
39
102
{ACAD_REACTORS
330
2A
102
}
330
2A
100
AcDbVisualStyle
  2
Facepattern
 70
    15
177
     2
291
     1
 71
     2
176
     1
 72
     2
176
     1
 73
     0
176
     1
 90
        0
176
     1
 40
-0.6
176
     1
 41
-30.0
176
     1
 62
     5
 63
     7
421
 16777215
176
     1
 74
     1
176
     1
 91
        4
176
     1
 64
     7
176
     1
 65
   257
176
     1
 75
     1
176
     1
175
     1
176
     1
 42
1.0
176
     1
 92
        8
176
     1
 66
     7
176
     1
 43
1.0
176
     1
 76
     1
176
     1
 77
     6
176
     1
 78
     2
176
     1
 67
     7
176
     1
 79
     5
176
     1
170
     0
176
     1
171
     0
176
     1
290
     0
176
     1
 93
        1
176
     1
 44
0.0
176
     1
173
     0
176
     1
  0
VISUALSTYLE
  5
2B
102
{ACAD_REACTORS
330
2A
102
}
330
2A
100
AcDbVisualStyle
  2
Flat
 70
     0
177
     2
291
     1
 71
     2
176
     1
 72
     1
176
     1
 73
     1
176
     1
 90
        2
176
     1
 40
-0.6
176
     1
 41
30.0
176
     1
 62
     5
 63
     7
421
 16777215
176
     1
 74
     0
176
     1
 91
        4
176
     1
 64
     7
176
     1
 65
   257
176
     1
 75
     1
176
     1
175
     1
176
     1
 42
1.0
176
     1
 92
        8
176
     1
 66
     7
176
     1
 43
1.0
176
     1
 76
     1
176
     1
 77
     6
176
     1
 78
     2
176
     1
 67
     7
176
     1
 79
     5
176
     1
170
     0
176
     1
171
     0
176
     1
290
     0
176
     1
 93
       13
176
     1
 44
0.0
176
     1
173
     0
176
     1
  0
VISUALSTYLE
  5
2C
102
{ACAD_REACTORS
330
2A
102
}
330
2A
100
AcDbVisualStyle
  2
FlatWithEdges
 70
     1
177
     2
291
     1
 71
     2
176
     1
 72
     1
176
     1
 73
     1
176
     1
 90
        2
176
     1
 40
-0.6
176
     1
 41
30.0
176
     1
 62
     5
 63
     7
421
 16777215
176
     1
 74
     1
176
     1
 91
        4
176
     1
 64
     7
176
     1
 65
   257
176
     1
 75
     1
176
     1
175
     1
176
     1
 42
1.0
176
     1
 92
        0
176
     1
 66
   257
176
     1
 43
1.0
176
     1
 76
     1
176
     1
 77
     6
176
     1
 78
     2
176
     1
 67
     7
176
     1
 79
     5
176
     1
170
     0
176
     1
171
     0
176
     1
290
     0
176
     1
 93
       13
176
     1
 44
0.0
176
     1
173
     0
176
     1
  0
VISUALSTYLE
  5
2D
102
{ACAD_REACTORS
330
2A
102
}
330
2A
100
AcDbVisualStyle
  2
Gouraud
 70
     2
177
     2
291
     1
 71
     2
176
     1
 72
     2
176
     1
 73
     1
176
     1
 90
        2
176
     1
 40
-0.6
176
     1
 41
30.0
176
     1
 62
     5
 63
     7
421
 16777215
176
     1
 74
     0
176
     1
 91
        4
176
     1
 64
     7
176
     1
 65
   257
176
     1
 75
     1
176
     1
175
     1
176
     1
 42
1.0
176
     1
 92
        0
176
     1
 66
     7
176
     1
 43
1.0
176
     1
 76
     1
176
     1
 77
     6
176
     1
 78
     2
176
     1
 67
     7
176
     1
 79
     5
176
     1
170
     0
176
     1
171
     0
176
     1
290
     0
176
     1
 93
       13
176
     1
 44
0.0
176
     1
173
     0
176
     1
  0
VISUALSTYLE
  5
2E
102
{ACAD_REACTORS
330
2A
102
}
330
2A
100
AcDbVisualStyle
  2
GouraudWithEdges
 70
     3
177
     2
291
     1
 71
     2
176
     1
 72
     2
176
     1
 73
     1
176
     1
 90
        2
176
     1
 40
-0.6
176
     1
 41
30.0
176
     1
 62
     5
 63
     7
421
 16777215
176
     1
 74
     1
176
     1
 91
        4
176
     1
 64
     7
176
     1
 65
   257
176
     1
 75
     1
176
     1
175
     1
176
     1
 42
1.0
176
     1
 92
        0
176
     1
 66
   257
176
     1
 43
1.0
176
     1
 76
     1
176
     1
 77
     6
176
     1
 78
     2
176
     1
 67
     7
176
     1
 79
     5
176
     1
170
     0
176
     1
171
     0
176
     1
290
     0
176
     1
 93
       13
176
     1
 44
0.0
176
     1
173
     0
176
     1
  0
VISUALSTYLE
  5
38
102
{ACAD_REACTORS
330
2A
102
}
330
2A
100
AcDbVisualStyle
  2
Linepattern
 70
    14
177
     2
291
     1
 71
     2
176
     1
 72
     2
176
     1
 73
     0
176
     1
 90
        0
176
     1
 40
-0.6
176
     1
 41
-30.0
176
     1
 62
     5
 63
     7
421
 16777215
176
     1
 74
     1
176
     1
 91
        4
176
     1
 64
     7
176
     1
 65
   257
176
     1
 75
     7
176
     1
175
     7
176
     1
 42
1.0
176
     1
 92
        8
176
     1
 66
     7
176
     1
 43
1.0
176
     1
 76
     1
176
     1
 77
     6
176
     1
 78
     2
176
     1
 67
     7
176
     1
 79
     5
176
     1
170
     0
176
     1
171
     0
176
     1
290
     0
176
     1
 93
        1
176
     1
 44
0.0
176
     1
173
     0
176
     1
  0
VISUALSTYLE
  5
33
102
{ACAD_REACTORS
330
2A
102
}
330
2A
100
AcDbVisualStyle
  2
Realistic
 70
     8
177
     2
291
     0
 71
     2
176
     1
 72
     2
176
     1
 73
     0
176
     1
 90
        0
176
     1
 40
-0.6
176
     1
 41
-30.0
176
     1
 62
     5
 63
     7
421
 16777215
176
     1
 74
     1
176
     1
 91
        0
176
     1
 64
     7
176
     1
 65
   257
176
     1
 75
     1
176
     1
175
     1
176
     1
 42
1.0
176
     1
 92
        8
176
     1
 66
     8
424
  7895160
176
     1
 43
1.0
176
     1
 76
     1
176
     1
 77
     6
176
     1
 78
     2
176
     1
 67
     7
176
     1
 79
     5
176
     1
170
     0
176
     1
171
     0
176
     1
290
     0
176
     1
 93
       13
176
     1
 44
0.0
176
     1
173
     0
176
     1
  0
VISUALSTYLE
  5
37
102
{ACAD_REACTORS
330
2A
102
}
330
2A
100
AcDbVisualStyle
  2
Thicken
 70
    13
177
     2
291
     1
 71
     2
176
     1
 72
     2
176
     1
 73
     0
176
     1
 90
        0
176
     1
 40
-0.6
176
     1
 41
-30.0
176
     1
 62
     5
 63
     7
421
 16777215
176
     1
 74
     1
176
     1
 91
        4
176
     1
 64
     7
176
     1
 65
   257
176
     1
 75
     1
176
     1
175
     1
176
     1
 42
1.0
176
     1
 92
       12
176
     1
 66
     7
176
     1
 43
1.0
176
     1
 76
     1
176
     1
 77
     6
176
     1
 78
     2
176
     1
 67
     7
176
     1
 79
     5
176
     1
170
     0
176
     1
171
     0
176
     1
290
     0
176
     1
 93
        1
176
     1
 44
0.0
176
     1
173
     0
176
     1
  0
ENDSEC
  0
EOF
