  0
SECTION
  2
HEADER
  9
$ACADVER
  1
AC1024
  9
$ACADMAINTVER
 70
     6
  9
$DWGCODEPAGE
  3
UNDEFINED
  9
$INSBASE
 10
0.0
 20
0.0
 30
0.0
  9
$EXTMIN
 10
1.000000000000000E+20
 20
1.000000000000000E+20
 30
1.000000000000000E+20
  9
$EXTMAX
 10
-1.000000000000000E+20
 20
-1.000000000000000E+20
 30
-1.000000000000000E+20
  9
$LIMMIN
 10
0.0
 20
0.0
  9
$LIMMAX
 10
12.0
 20
9.0
  9
$ORTHOMODE
 70
     0
  9
$REGENMODE
 70
     1
  9
$FILLMODE
 70
     1
  9
$QTEXTMODE
 70
     0
  9
$MIRRTEXT
 70
     1
  9
$LTSCALE
 40
1.0
  9
$ATTMODE
 70
     1
  9
$TEXTSIZE
 40
0.2
  9
$TRACEWID
 40
0.05
  9
$TEXTSTYLE
  7
Standard
  9
$CLAYER
  8
0
  9
$CELTYPE
  6
ByLayer
  9
$CECOLOR
 62
   256
  9
$CELTSCALE
 40
1.0
  9
$DISPSILH
 70
     0
  9
$DIMSCALE
 40
1.0
  9
$DIMASZ
 40
0.18
  9
$DIMEXO
 40
0.0625
  9
$DIMDLI
 40
0.38
  9
$DIMRND
 40
0.0
  9
$DIMDLE
 40
0.0
  9
$DIMEXE
 40
0.18
  9
$DIMTP
 40
0.0
  9
$DIMTM
 40
0.0
  9
$DIMTXT
 40
0.18
  9
$DIMCEN
 40
0.09
  9
$DIMTSZ
 40
0.0
  9
$DIMTOL
 70
     0
  9
$DIMLIM
 70
     0
  9
$DIMTIH
 70
     1
  9
$DIMTOH
 70
     1
  9
$DIMSE1
 70
     0
  9
$DIMSE2
 70
     0
  9
$DIMTAD
 70
     0
  9
$DIMZIN
 70
     0
  9
$DIMBLK
  1

  9
$DIMASO
 70
     1
  9
$DIMSHO
 70
     1
  9
$DIMPOST
  1

  9
$DIMAPOST
  1

  9
$DIMALT
 70
     0
  9
$DIMALTD
 70
     2
  9
$DIMALTF
 40
25.4
  9
$DIMLFAC
 40
1.0
  9
$DIMTOFL
 70
     0
  9
$DIMTVP
 40
0.0
  9
$DIMTIX
 70
     0
  9
$DIMSOXD
 70
     0
  9
$DIMSAH
 70
     0
  9
$DIMBLK1
  1

  9
$DIMBLK2
  1

  9
$DIMSTYLE
  2
Standard
  9
$DIMCLRD
 70
     0
  9
$DIMCLRE
 70
     0
  9
$DIMCLRT
 70
     0
  9
$DIMTFAC
 40
1.0
  9
$DIMGAP
 40
0.09
  9
$DIMJUST
 70
     0
  9
$DIMSD1
 70
     0
  9
$DIMSD2
 70
     0
  9
$DIMTOLJ
 70
     1
  9
$DIMTZIN
 70
     0
  9
$DIMALTZ
 70
     0
  9
$DIMALTTZ
 70
     0
  9
$DIMUPT
 70
     0
  9
$DIMDEC
 70
     4
  9
$DIMTDEC
 70
     4
  9
$DIMALTU
 70
     2
  9
$DIMALTTD
 70
     2
  9
$DIMTXSTY
  7
Standard
  9
$DIMAUNIT
 70
     0
  9
$DIMADEC
 70
     0
  9
$DIMALTRND
 40
0.0
  9
$DIMAZIN
 70
     0
  9
$DIMDSEP
 70
    46
  9
$DIMATFIT
 70
     3
  9
$DIMFRAC
 70
     0
  9
$DIMLDRBLK
  1

  9
$DIMLUNIT
 70
     2
  9
$DIMLWD
 70
    -2
  9
$DIMLWE
 70
    -2
  9
$DIMTMOVE
 70
     0
  9
$DIMFXL
 40
1.0
  9
$DIMFXLON
 70
     0
  9
$DIMJOGANG
 40
0.7853981633974483
  9
$DIMTFILL
 70
     0
  9
$DIMTFILLCLR
 70
     0
  9
$DIMARCSYM
 70
     0
  9
$DIMLTYPE
  6

  9
$DIMLTEX1
  6

  9
$DIMLTEX2
  6

  9
$DIMTXTDIRECTION
 70
     0
  9
$LUNITS
 70
     2
  9
$LUPREC
 70
     4
  9
$SKETCHINC
 40
0.1
  9
$FILLETRAD
 40
0.5
  9
$AUNITS
 70
     0
  9
$AUPREC
 70
     0
  9
$MENU
  1
.
  9
$ELEVATION
 40
0.0
  9
$PELEVATION
 40
0.0
  9
$THICKNESS
 40
0.0
  9
$LIMCHECK
 70
     0
  9
$CHAMFERA
 40
0.5
  9
$CHAMFERB
 40
0.5
  9
$CHAMFERC
 40
1.0
  9
$CHAMFERD
 40
0.0
  9
$SKPOLY
 70
     0
  9
$TDCREATE
 40
2457917.619629618
  9
$TDUCREATE
 40
2457917.244629629
  9
$TDUPDATE
 40
2457917.619629618
  9
$TDUUPDATE
 40
2457917.244629629
  9
$TDINDWG
 40
0.0000000116
  9
$TDUSRTIMER
 40
0.0000000116
  9
$USRTIMER
 70
     1
  9
$ANGBASE
 50
0.0
  9
$ANGDIR
 70
     0
  9
$PDMODE
 70
     0
  9
$PDSIZE
 40
0.0
  9
$PLINEWID
 40
0.0
  9
$SPLFRAME
 70
     0
  9
$SPLINETYPE
 70
     6
  9
$SPLINESEGS
 70
     8
  9
$HANDSEED
  5
106
  9
$SURFTAB1
 70
     6
  9
$SURFTAB2
 70
     6
  9
$SURFTYPE
 70
     6
  9
$SURFU
 70
     6
  9
$SURFV
 70
     6
  9
$UCSBASE
  2

  9
$UCSNAME
  2

  9
$UCSORG
 10
0.0
 20
0.0
 30
0.0
  9
$UCSXDIR
 10
1.0
 20
0.0
 30
0.0
  9
$UCSYDIR
 10
0.0
 20
1.0
 30
0.0
  9
$UCSORTHOREF
  2

  9
$UCSORTHOVIEW
 70
     0
  9
$UCSORGTOP
 10
0.0
 20
0.0
 30
0.0
  9
$UCSORGBOTTOM
 10
0.0
 20
0.0
 30
0.0
  9
$UCSORGLEFT
 10
0.0
 20
0.0
 30
0.0
  9
$UCSORGRIGHT
 10
0.0
 20
0.0
 30
0.0
  9
$UCSORGFRONT
 10
0.0
 20
0.0
 30
0.0
  9
$UCSORGBACK
 10
0.0
 20
0.0
 30
0.0
  9
$PUCSBASE
  2

  9
$PUCSNAME
  2

  9
$PUCSORG
 10
0.0
 20
0.0
 30
0.0
  9
$PUCSXDIR
 10
1.0
 20
0.0
 30
0.0
  9
$PUCSYDIR
 10
0.0
 20
1.0
 30
0.0
  9
$PUCSORTHOREF
  2

  9
$PUCSORTHOVIEW
 70
     0
  9
$PUCSORGTOP
 10
0.0
 20
0.0
 30
0.0
  9
$PUCSORGBOTTOM
 10
0.0
 20
0.0
 30
0.0
  9
$PUCSORGLEFT
 10
0.0
 20
0.0
 30
0.0
  9
$PUCSORGRIGHT
 10
0.0
 20
0.0
 30
0.0
  9
$PUCSORGFRONT
 10
0.0
 20
0.0
 30
0.0
  9
$PUCSORGBACK
 10
0.0
 20
0.0
 30
0.0
  9
$USERI1
 70
     0
  9
$USERI2
 70
     0
  9
$USERI3
 70
     0
  9
$USERI4
 70
     0
  9
$USERI5
 70
     0
  9
$USERR1
 40
0.0
  9
$USERR2
 40
0.0
  9
$USERR3
 40
0.0
  9
$USERR4
 40
0.0
  9
$USERR5
 40
0.0
  9
$WORLDVIEW
 70
     1
  9
$SHADEDGE
 70
     3
  9
$SHADEDIF
 70
    70
  9
$TILEMODE
 70
     1
  9
$MAXACTVP
 70
    64
  9
$PINSBASE
 10
0.0
 20
0.0
 30
0.0
  9
$PLIMCHECK
 70
     0
  9
$PEXTMIN
 10
1.000000000000000E+20
 20
1.000000000000000E+20
 30
1.000000000000000E+20
  9
$PEXTMAX
 10
-1.000000000000000E+20
 20
-1.000000000000000E+20
 30
-1.000000000000000E+20
  9
$PLIMMIN
 10
0.0
 20
0.0
  9
$PLIMMAX
 10
12.0
 20
9.0
  9
$UNITMODE
 70
     0
  9
$VISRETAIN
 70
     1
  9
$PLINEGEN
 70
     0
  9
$PSLTSCALE
 70
     1
  9
$TREEDEPTH
 70
  3020
  9
$CMLSTYLE
  2
Standard
  9
$CMLJUST
 70
     0
  9
$CMLSCALE
 40
1.0
  9
$PROXYGRAPHICS
 70
     1
  9
$MEASUREMENT
 70
     0
  9
$CELWEIGHT
370
    -1
  9
$ENDCAPS
280
     0
  9
$JOINSTYLE
280
     0
  9
$LWDISPLAY
290
     1
  9
$INSUNITS
 70
     1
  9
$HYPERLINKBASE
  1

  9
$STYLESHEET
  1

  9
$XEDIT
290
     1
  9
$CEPSNTYPE
380
     0
  9
$PSTYLEMODE
290
     1
  9
$FINGERPRINTGUID
  2
{6C8B996B-D4D2-DF10-5A52-5FDBFCB6C4B6}
  9
$VERSIONGUID
  2
{FAEB1C32-E019-11D5-929B-00C0DF256EC4}
  9
$EXTNAMES
290
     1
  9
$PSVPSCALE
 40
0.0
  9
$OLESTARTUP
290
     0
  9
$SORTENTS
280
   127
  9
$INDEXCTL
280
     0
  9
$HIDETEXT
280
     1
  9
$XCLIPFRAME
280
     2
  9
$HALOGAP
280
     0
  9
$OBSCOLOR
 70
   257
  9
$OBSLTYPE
280
     0
  9
$INTERSECTIONDISPLAY
280
     0
  9
$INTERSECTIONCOLOR
 70
   257
  9
$DIMASSOC
280
     2
  9
$PROJECTNAME
  1

  9
$CAMERADISPLAY
290
     0
  9
$LENSLENGTH
 40
50.0
  9
$CAMERAHEIGHT
 40
0.0
  9
$STEPSPERSEC
 40
2.0
  9
$STEPSIZE
 40
6.0
  9
$3DDWFPREC
 40
2.0
  9
$PSOLWIDTH
 40
0.25
  9
$PSOLHEIGHT
 40
4.0
  9
$LOFTANG1
 40
1.570796326794897
  9
$LOFTANG2
 40
1.570796326794897
  9
$LOFTMAG1
 40
0.0
  9
$LOFTMAG2
 40
0.0
  9
$LOFTPARAM
 70
     7
  9
$LOFTNORMALS
280
     1
  9
$LATITUDE
 40
37.795
  9
$LONGITUDE
 40
-122.394
  9
$NORTHDIRECTION
 40
0.0
  9
$TIMEZONE
 70
 -8000
  9
$LIGHTGLYPHDISPLAY
280
     1
  9
$TILEMODELIGHTSYNCH
280
     1
  9
$CMATERIAL
347
3C
  9
$SOLIDHIST
280
     1
  9
$SHOWHIST
280
     1
  9
$DWFFRAME
280
     2
  9
$DGNFRAME
280
     2
  9
$REALWORLDSCALE
290
     1
  9
$INTERFERECOLOR
 62
   256
  9
$CSHADOW
280
     0
  9
$SHADOWPLANELOCATION
 40
0.0
  0
ENDSEC
  0
SECTION
  2
CLASSES
  0
CLASS
  1
ACDBDICTIONARYWDFLT
  2
AcDbDictionaryWithDefault
  3
ObjectDBX Classes
 90
        0
 91
        4
280
     0
281
     0
  0
CLASS
  1
VISUALSTYLE
  2
AcDbVisualStyle
  3
ObjectDBX Classes
 90
     4095
 91
        4
280
     0
281
     0
  0
CLASS
  1
MATERIAL
  2
AcDbMaterial
  3
ObjectDBX Classes
 90
     1153
 91
        4
280
     0
281
     0
  0
CLASS
  1
SUN
  2
AcDbSun
  3
SCENEOE
 90
     1024
 91
        4
280
     0
281
     0
  0
ENDSEC
  0
SECTION
  2
TABLES
  0
TABLE
  2
VPORT
  5
8
330
0
100
AcDbSymbolTable
 70
     1
  0
VPORT
  5
29
330
8
100
AcDbSymbolTableRecord
100
AcDbViewportTableRecord
  2
*Active
 70
     0
 10
0.0
 20
0.0
 11
1.0
 21
1.0
 12
0.0
 22
0.0
 13
0.0
 23
0.0
 14
0.5
 24
0.5
 15
0.5
 25
0.5
 16
0.0
 26
0.0
 36
1.0
 17
91.00082462281999
 27
-128.4993055234307
 37
0.0
 40
256.9986110468615
 41
0.7081814508812795
 42
50.0
 43
0.0
 44
0.0
 50
0.0
 51
0.0
 71
     0
 72
   100
 73
     1
 74
     3
 75
     0
 76
     0
 77
     0
 78
     0
281
     0
 65
     1
110
0.0
120
0.0
130
0.0
111
1.0
121
0.0
131
0.0
112
0.0
122
1.0
132
0.0
 79
     0
146
0.0
 60
     3
 61
     5
292
     1
282
     1
141
0.0
142
0.0
 63
   250
361
3F
  0
ENDTAB
  0
TABLE
  2
LTYPE
  5
5
330
0
100
AcDbSymbolTable
 70
     1
  0
LTYPE
  5
14
330
5
100
AcDbSymbolTableRecord
100
AcDbLinetypeTableRecord
  2
ByBlock
 70
     0
  3

 72
    65
 73
     0
 40
0.0
  0
LTYPE
  5
15
330
5
100
AcDbSymbolTableRecord
100
AcDbLinetypeTableRecord
  2
ByLayer
 70
     0
  3

 72
    65
 73
     0
 40
0.0
  0
LTYPE
  5
16
330
5
100
AcDbSymbolTableRecord
100
AcDbLinetypeTableRecord
  2
Continuous
 70
     0
  3
Solid line
 72
    65
 73
     0
 40
0.0
  0
ENDTAB
  0
TABLE
  2
LAYER
  5
2
330
0
100
AcDbSymbolTable
 70
     2
  0
LAYER
  5
10
330
2
100
AcDbSymbolTableRecord
100
AcDbLayerTableRecord
  2
0
 70
     0
 62
     7
  6
Continuous
370
    -3
390
F
347
3E
  0
LAYER
  5
40
330
2
100
AcDbSymbolTableRecord
100
AcDbLayerTableRecord
  2
_U+30EC_U+30A4_U+30E4_U+30FC 1
 70
     0
 62
     7
  6
Continuous
370
    -3
390
F
347
3E
  0
ENDTAB
  0
TABLE
  2
STYLE
  5
3
330
0
100
AcDbSymbolTable
 70
     1
  0
STYLE
  5
11
330
3
100
AcDbSymbolTableRecord
100
AcDbTextStyleTableRecord
  2
Standard
 70
     0
 40
0.0
 41
1.0
 50
0.0
 71
     0
 42
0.2
  3
txt
  4

  0
ENDTAB
  0
TABLE
  2
VIEW
  5
6
330
0
100
AcDbSymbolTable
 70
     0
  0
ENDTAB
  0
TABLE
  2
UCS
  5
7
330
0
100
AcDbSymbolTable
 70
     0
  0
ENDTAB
  0
TABLE
  2
APPID
  5
9
330
0
100
AcDbSymbolTable
 70
     1
  0
APPID
  5
12
330
9
100
AcDbSymbolTableRecord
100
AcDbRegAppTableRecord
  2
ACAD
 70
     0
  0
ENDTAB
  0
TABLE
  2
DIMSTYLE
  5
A
330
0
100
AcDbSymbolTable
 70
     1
100
AcDbDimStyleTable
  0
DIMSTYLE
105
27
330
A
100
AcDbSymbolTableRecord
100
AcDbDimStyleTableRecord
  2
Standard
 70
     0
178
     0
340
11
  0
ENDTAB
  0
TABLE
  2
BLOCK_RECORD
  5
1
330
0
100
AcDbSymbolTable
 70
     6
  0
BLOCK_RECORD
  5
1F
330
1
100
AcDbSymbolTableRecord
100
AcDbBlockTableRecord
  2
*Model_Space
340
22
 70
     0
280
     1
281
     0
  0
BLOCK_RECORD
  5
1B
330
1
100
AcDbSymbolTableRecord
100
AcDbBlockTableRecord
  2
*Paper_Space
340
1E
 70
     0
280
     1
281
     0
  0
BLOCK_RECORD
  5
23
330
1
100
AcDbSymbolTableRecord
100
AcDbBlockTableRecord
  2
*Paper_Space0
340
26
 70
     0
280
     1
281
     0
  0
BLOCK_RECORD
  5
87
330
1
100
AcDbSymbolTableRecord
100
AcDbBlockTableRecord
  2
block 2
340
0
102
{BLKREFS
331
88
102
}
 70
     0
280
     1
281
     0
  0
BLOCK_RECORD
  5
A0
330
1
100
AcDbSymbolTableRecord
100
AcDbBlockTableRecord
  2
block 3
340
0
102
{BLKREFS
331
A1
102
}
 70
     0
280
     1
281
     0
  0
BLOCK_RECORD
  5
B5
330
1
100
AcDbSymbolTableRecord
100
AcDbBlockTableRecord
  2
block 4
340
0
102
{BLKREFS
331
B6
102
}
 70
     0
280
     1
281
     0
  0
BLOCK_RECORD
  5
CC
330
1
100
AcDbSymbolTableRecord
100
AcDbBlockTableRecord
  2
block 5
340
0
102
{BLKREFS
331
CD
102
}
 70
     0
280
     1
281
     0
  0
BLOCK_RECORD
  5
EE
330
1
100
AcDbSymbolTableRecord
100
AcDbBlockTableRecord
  2
block 6
340
0
102
{BLKREFS
331
EF
102
}
 70
     0
280
     1
281
     0
  0
ENDTAB
  0
ENDSEC
  0
SECTION
  2
BLOCKS
  0
BLOCK
  5
20
330
1F
100
AcDbEntity
  8
0
100
AcDbBlockBegin
  2
*Model_Space
 70
     0
 10
0.0
 20
0.0
 30
0.0
  3
*Model_Space
  1

  0
ENDBLK
  5
21
330
1F
100
AcDbEntity
  8
0
100
AcDbBlockEnd
  0
BLOCK
  5
1C
330
1B
100
AcDbEntity
 67
     1
  8
0
100
AcDbBlockBegin
  2
*Paper_Space
 70
     0
 10
0.0
 20
0.0
 30
0.0
  3
*Paper_Space
  1

  0
ENDBLK
  5
1D
330
1B
100
AcDbEntity
 67
     1
  8
0
100
AcDbBlockEnd
  0
BLOCK
  5
24
330
23
100
AcDbEntity
  8
0
100
AcDbBlockBegin
  2
*Paper_Space0
 70
     0
 10
0.0
 20
0.0
 30
0.0
  3
*Paper_Space0
  1

  0
ENDBLK
  5
25
330
23
100
AcDbEntity
  8
0
100
AcDbBlockEnd
  0
BLOCK
  5
89
330
87
100
AcDbEntity
  8
0
100
AcDbBlockBegin
  2
block 2
 70
     0
 10
0.0
 20
0.0
 30
0.0
  3
block 2
  1

  0
SPLINE
  5
8B
330
87
100
AcDbEntity
  8
_U+30EC_U+30A4_U+30E4_U+30FC 1
370
     0
100
AcDbSpline
210
0.0
220
0.0
230
1.0
 70
    11
 71
     3
 72
    62
 73
    58
 74
     0
 42
0.0000000001
 43
0.0000000001
 12
1.0
 22
0.0
 32
0.0
 13
1.0
 23
0.0
 33
0.0
 40
0.0
 40
0.0
 40
0.0
 40
0.0
 40
1.0
 40
1.0
 40
1.0
 40
2.0
 40
2.0
 40
2.0
 40
3.0
 40
3.0
 40
3.0
 40
4.0
 40
4.0
 40
4.0
 40
5.0
 40
5.0
 40
5.0
 40
6.0
 40
6.0
 40
6.0
 40
7.0
 40
7.0
 40
7.0
 40
8.0
 40
8.0
 40
8.0
 40
9.0
 40
9.0
 40
9.0
 40
10.0
 40
10.0
 40
10.0
 40
11.0
 40
11.0
 40
11.0
 40
12.0
 40
12.0
 40
12.0
 40
13.0
 40
13.0
 40
13.0
 40
14.0
 40
14.0
 40
14.0
 40
15.0
 40
15.0
 40
15.0
 40
16.0
 40
16.0
 40
16.0
 40
17.0
 40
17.0
 40
17.0
 40
18.0
 40
18.0
 40
18.0
 40
19.0
 40
19.0
 40
19.0
 40
19.0
 10
102.1157307687419
 20
-130.8788329750928
 30
0.0
 10
102.1157307687419
 20
-130.9804632919077
 30
0.0
 10
102.0947156862819
 20
-131.2133517467105
 30
0.0
 10
101.9083360205299
 20
-131.3470214515382
 30
0.0
 10
101.7963704172592
 20
-131.4259141381505
 30
0.0
 10
101.6968071577355
 20
-131.4303927622813
 30
0.0
 10
101.6124023183469
 20
-131.4348713864121
 30
0.0
 10
101.6124023183469
 20
-131.4348713864121
 30
0.0
 10
101.6124023183469
 20
-131.1999158743181
 30
0.0
 10
101.6124023183469
 20
-131.1999158743181
 30
0.0
 10
101.6861273617313
 20
-131.1975043074784
 30
0.0
 10
101.9210828738253
 20
-131.1864800019256
 30
0.0
 10
101.9210828738253
 20
-130.8833115992236
 30
0.0
 10
101.9210828738253
 20
-130.736550531552
 30
0.0
 10
101.8511474354747
 20
-130.5735975150997
 30
0.0
 10
101.6227376048027
 20
-130.5735975150997
 30
0.0
 10
101.5062933774012
 20
-130.5735975150997
 30
0.0
 10
101.4577175310592
 20
-130.6142496418256
 30
0.0
 10
101.4260226525949
 20
-130.6483560871296
 30
0.0
 10
101.351953099662
 20
-130.7272487737418
 30
0.0
 10
101.3392062463666
 20
-130.8516167207593
 30
0.0
 10
101.3392062463666
 20
-130.9105278535571
 30
0.0
 10
101.3392062463666
 20
-130.9308539169201
 30
0.0
 10
101.3416178132063
 20
-130.9694389863549
 30
0.0
 10
101.3457519277886
 20
-130.9987222979795
 30
0.0
 10
101.3457519277886
 20
-130.9987222979795
 30
0.0
 10
101.151104032872
 20
-130.9987222979795
 30
0.0
 10
101.151104032872
 20
-130.9987222979795
 30
0.0
 10
101.1573052047454
 20
-130.9580701712536
 30
0.0
 10
101.1593722620366
 20
-130.9129394203968
 30
0.0
 10
101.1593722620366
 20
-130.9060492294263
 30
0.0
 10
101.1593722620366
 20
-130.8357692815272
 30
0.0
 10
101.1383571795765
 20
-130.6235513996358
 30
0.0
 10
100.9013346101913
 20
-130.6235513996358
 30
0.0
 10
100.7235676831525
 20
-130.6235513996358
 30
0.0
 10
100.668790664937
 20
-130.7634222763369
 30
0.0
 10
100.668790664937
 20
-130.8812445419325
 30
0.0
 10
100.668790664937
 20
-131.1637423717229
 30
0.0
 10
100.9013346101913
 20
-131.1726996199846
 30
0.0
 10
100.9733371058331
 20
-131.1771782441154
 30
0.0
 10
100.9733371058331
 20
-131.1771782441154
 30
0.0
 10
100.9733371058331
 20
-131.3942192596862
 30
0.0
 10
100.9733371058331
 20
-131.3942192596862
 30
0.0
 10
100.848624649267
 20
-131.3852620114245
 30
0.0
 10
100.4720757127292
 20
-131.3559786997999
 30
0.0
 10
100.4720757127292
 20
-130.8674641599915
 30
0.0
 10
100.4720757127292
 20
-130.6280300237666
 30
0.0
 10
100.5988552265864
 20
-130.3703368814699
 30
0.0
 10
100.8951334383179
 20
-130.3703368814699
 30
0.0
 10
101.0811685945214
 20
-130.3703368814699
 30
0.0
 10
101.1638508861674
 20
-130.4719671982848
 30
0.0
 10
101.2251735858048
 20
-130.5780761392305
 30
0.0
 10
101.2527343496868
 20
-130.5126193250107
 30
0.0
 10
101.3330050744931
 20
-130.3183159396426
 30
0.0
 10
101.6099907515072
 20
-130.3183159396426
 30
0.0
 10
101.9486436377073
 20
-130.3183159396426
 30
0.0
 10
102.1157307687419
 20
-130.5825547633613
 30
0.0
 10
102.1157307687419
 20
-130.8788329750928
 30
0.0
  0
HATCH
  5
8C
330
87
100
AcDbEntity
  8
_U+30EC_U+30A4_U+30E4_U+30FC 1
 62
   179
420
  2234388
100
AcDbHatch
 10
0.0
 20
0.0
 30
0.0
210
0.0
220
0.0
230
1.0
  2
SOLID
 70
     1
 71
     0
 91
        1
 92
        1
 93
        1
 72
     4
 94
        3
 73
     0
 74
     1
 95
       62
 96
       58
 40
0.0
 40
0.0
 40
0.0
 40
0.0
 40
1.0
 40
1.0
 40
1.0
 40
2.0
 40
2.0
 40
2.0
 40
3.0
 40
3.0
 40
3.0
 40
4.0
 40
4.0
 40
4.0
 40
5.0
 40
5.0
 40
5.0
 40
6.0
 40
6.0
 40
6.0
 40
7.0
 40
7.0
 40
7.0
 40
8.0
 40
8.0
 40
8.0
 40
9.0
 40
9.0
 40
9.0
 40
10.0
 40
10.0
 40
10.0
 40
11.0
 40
11.0
 40
11.0
 40
12.0
 40
12.0
 40
12.0
 40
13.0
 40
13.0
 40
13.0
 40
14.0
 40
14.0
 40
14.0
 40
15.0
 40
15.0
 40
15.0
 40
16.0
 40
16.0
 40
16.0
 40
17.0
 40
17.0
 40
17.0
 40
18.0
 40
18.0
 40
18.0
 40
19.0
 40
19.0
 40
19.0
 40
19.0
 10
102.1157307687419
 20
-130.8788329750928
 10
102.1157307687419
 20
-130.9804632919077
 10
102.0947156862819
 20
-131.2133517467105
 10
101.9083360205299
 20
-131.3470214515382
 10
101.7963704172592
 20
-131.4259141381505
 10
101.6968071577355
 20
-131.4303927622813
 10
101.6124023183469
 20
-131.4348713864121
 10
101.6124023183469
 20
-131.4348713864121
 10
101.6124023183469
 20
-131.1999158743181
 10
101.6124023183469
 20
-131.1999158743181
 10
101.6861273617313
 20
-131.1975043074784
 10
101.9210828738253
 20
-131.1864800019256
 10
101.9210828738253
 20
-130.8833115992236
 10
101.9210828738253
 20
-130.736550531552
 10
101.8511474354747
 20
-130.5735975150997
 10
101.6227376048027
 20
-130.5735975150997
 10
101.5062933774012
 20
-130.5735975150997
 10
101.4577175310592
 20
-130.6142496418256
 10
101.4260226525949
 20
-130.6483560871296
 10
101.351953099662
 20
-130.7272487737418
 10
101.3392062463666
 20
-130.8516167207593
 10
101.3392062463666
 20
-130.9105278535571
 10
101.3392062463666
 20
-130.9308539169201
 10
101.3416178132063
 20
-130.9694389863549
 10
101.3457519277886
 20
-130.9987222979795
 10
101.3457519277886
 20
-130.9987222979795
 10
101.151104032872
 20
-130.9987222979795
 10
101.151104032872
 20
-130.9987222979795
 10
101.1573052047454
 20
-130.9580701712536
 10
101.1593722620366
 20
-130.9129394203968
 10
101.1593722620366
 20
-130.9060492294263
 10
101.1593722620366
 20
-130.8357692815272
 10
101.1383571795765
 20
-130.6235513996358
 10
100.9013346101913
 20
-130.6235513996358
 10
100.7235676831525
 20
-130.6235513996358
 10
100.668790664937
 20
-130.7634222763369
 10
100.668790664937
 20
-130.8812445419325
 10
100.668790664937
 20
-131.1637423717229
 10
100.9013346101913
 20
-131.1726996199846
 10
100.9733371058331
 20
-131.1771782441154
 10
100.9733371058331
 20
-131.1771782441154
 10
100.9733371058331
 20
-131.3942192596862
 10
100.9733371058331
 20
-131.3942192596862
 10
100.848624649267
 20
-131.3852620114245
 10
100.4720757127292
 20
-131.3559786997999
 10
100.4720757127292
 20
-130.8674641599915
 10
100.4720757127292
 20
-130.6280300237666
 10
100.5988552265864
 20
-130.3703368814699
 10
100.8951334383179
 20
-130.3703368814699
 10
101.0811685945214
 20
-130.3703368814699
 10
101.1638508861674
 20
-130.4719671982848
 10
101.2251735858048
 20
-130.5780761392305
 10
101.2527343496868
 20
-130.5126193250107
 10
101.3330050744931
 20
-130.3183159396426
 10
101.6099907515072
 20
-130.3183159396426
 10
101.9486436377073
 20
-130.3183159396426
 10
102.1157307687419
 20
-130.5825547633613
 10
102.1157307687419
 20
-130.8788329750928
 97
        0
 97
        0
 75
     2
 76
     1
 98
        0
  0
POLYLINE
  5
8D
330
87
100
AcDbEntity
  8
_U+30EC_U+30A4_U+30E4_U+30FC 1
370
     0
100
AcDb2dPolyline
 66
     1
 10
0.0
 20
0.0
 30
0.0
  0
VERTEX
  5
8E
330
8D
100
AcDbEntity
  8
_U+30EC_U+30A4_U+30E4_U+30FC 1
370
     0
100
AcDbVertex
100
AcDb2dVertex
 10
102.0650878651087
 20
-130.082326898903
 30
0.0
  0
VERTEX
  5
8F
330
8D
100
AcDbEntity
  8
_U+30EC_U+30A4_U+30E4_U+30FC 1
370
     0
100
AcDbVertex
100
AcDb2dVertex
 10
101.813251385137
 20
-130.082326898903
 30
0.0
  0
VERTEX
  5
90
330
8D
100
AcDbEntity
  8
_U+30EC_U+30A4_U+30E4_U+30FC 1
370
     0
100
AcDbVertex
100
AcDb2dVertex
 10
101.813251385137
 20
-129.813264941505
 30
0.0
  0
VERTEX
  5
91
330
8D
100
AcDbEntity
  8
_U+30EC_U+30A4_U+30E4_U+30FC 1
370
     0
100
AcDbVertex
100
AcDb2dVertex
 10
102.0650878651087
 20
-129.813264941505
 30
0.0
  0
VERTEX
  5
92
330
8D
100
AcDbEntity
  8
_U+30EC_U+30A4_U+30E4_U+30FC 1
370
     0
100
AcDbVertex
100
AcDb2dVertex
 10
102.0650878651087
 20
-130.082326898903
 30
0.0
  0
SEQEND
  5
93
330
8D
100
AcDbEntity
  8
_U+30EC_U+30A4_U+30E4_U+30FC 1
370
     0
  0
HATCH
  5
94
330
87
100
AcDbEntity
  8
_U+30EC_U+30A4_U+30E4_U+30FC 1
 62
   179
420
  2234388
100
AcDbHatch
 10
0.0
 20
0.0
 30
0.0
210
0.0
220
0.0
230
1.0
  2
SOLID
 70
     1
 71
     0
 91
        1
 92
        1
 93
        4
 72
     1
 10
102.0650878651087
 20
-130.082326898903
 11
101.813251385137
 21
-130.082326898903
 72
     1
 10
101.813251385137
 20
-130.082326898903
 11
101.813251385137
 21
-129.813264941505
 72
     1
 10
101.813251385137
 20
-129.813264941505
 11
102.0650878651087
 21
-129.813264941505
 72
     1
 10
102.0650878651087
 20
-129.813264941505
 11
102.0650878651087
 21
-130.082326898903
 97
        0
 75
     2
 76
     1
 98
        0
  0
SPLINE
  5
95
330
87
100
AcDbEntity
  8
_U+30EC_U+30A4_U+30E4_U+30FC 1
370
     0
100
AcDbSpline
210
0.0
220
0.0
230
1.0
 70
    11
 71
     3
 72
    53
 73
    49
 74
     0
 42
0.0000000001
 43
0.0000000001
 12
1.0
 22
0.0
 32
0.0
 13
1.0
 23
0.0
 33
0.0
 40
0.0
 40
0.0
 40
0.0
 40
0.0
 40
1.0
 40
1.0
 40
1.0
 40
2.0
 40
2.0
 40
2.0
 40
3.0
 40
3.0
 40
3.0
 40
4.0
 40
4.0
 40
4.0
 40
5.0
 40
5.0
 40
5.0
 40
6.0
 40
6.0
 40
6.0
 40
7.0
 40
7.0
 40
7.0
 40
8.0
 40
8.0
 40
8.0
 40
9.0
 40
9.0
 40
9.0
 40
10.0
 40
10.0
 40
10.0
 40
11.0
 40
11.0
 40
11.0
 40
12.0
 40
12.0
 40
12.0
 40
13.0
 40
13.0
 40
13.0
 40
14.0
 40
14.0
 40
14.0
 40
15.0
 40
15.0
 40
15.0
 40
16.0
 40
16.0
 40
16.0
 40
16.0
 10
102.1157307687419
 20
-129.0463866864884
 30
0.0
 10
102.1157307687419
 20
-129.13010250678
 30
0.0
 10
102.0988498008642
 20
-129.2386230145653
 30
0.0
 10
102.0354600439356
 20
-129.3471435223507
 30
0.0
 10
101.9252169884076
 20
-129.5324896594572
 30
0.0
 10
101.7943033599681
 20
-129.5552272896598
 30
0.0
 10
101.6861273617313
 20
-129.5755533530228
 30
0.0
 10
101.6861273617313
 20
-129.5755533530228
 30
0.0
 10
101.6861273617313
 20
-129.3381862740891
 30
0.0
 10
101.6861273617313
 20
-129.3381862740891
 30
0.0
 10
101.8852538807787
 20
-129.2792751412913
 30
0.0
 10
101.9148817019518
 20
-129.143882888721
 30
0.0
 10
101.9148817019518
 20
-129.0443196291972
 30
0.0
 10
101.9148817019518
 20
-128.8951469946859
 30
0.0
 10
101.8153184424281
 20
-128.7321939782336
 30
0.0
 10
101.5827744971738
 20
-128.7321939782336
 30
0.0
 10
101.3268039026197
 20
-128.7321939782336
 30
0.0
 10
101.2568684642691
 20
-128.9244303063106
 30
0.0
 10
101.2568684642691
 20
-129.0532768774589
 30
0.0
 10
101.2568684642691
 20
-129.0873833227629
 30
0.0
 10
101.2568684642691
 20
-129.2386230145653
 30
0.0
 10
101.3857150354175
 20
-129.3337076499583
 30
0.0
 10
101.3857150354175
 20
-129.3337076499583
 30
0.0
 10
101.3667670102486
 20
-129.5214653539044
 30
0.0
 10
101.3667670102486
 20
-129.5214653539044
 30
0.0
 10
101.3667670102486
 20
-129.5214653539044
 30
0.0
 10
100.5206515590712
 20
-129.3922742732075
 30
0.0
 10
100.5206515590712
 20
-129.3922742732075
 30
0.0
 10
100.5206515590712
 20
-129.3922742732075
 30
0.0
 10
100.5206515590712
 20
-128.5604559682939
 30
0.0
 10
100.5206515590712
 20
-128.5604559682939
 30
0.0
 10
100.5206515590712
 20
-128.5604559682939
 30
0.0
 10
100.7152994539879
 20
-128.5604559682939
 30
0.0
 10
100.7152994539879
 20
-128.5604559682939
 30
0.0
 10
100.7152994539879
 20
-128.5604559682939
 30
0.0
 10
100.7152994539879
 20
-129.2182969512024
 30
0.0
 10
100.7152994539879
 20
-129.2182969512024
 30
0.0
 10
100.7152994539879
 20
-129.2182969512024
 30
0.0
 10
101.1383571795765
 20
-129.2885768991015
 30
0.0
 10
101.1383571795765
 20
-129.2885768991015
 30
0.0
 10
101.1045952438211
 20
-129.2227755753332
 30
0.0
 10
101.0642876266437
 20
-129.1345811309108
 30
0.0
 10
101.0642876266437
 20
-129.0081461266021
 30
0.0
 10
101.0642876266437
 20
-128.7368448571387
 30
0.0
 10
101.2503227828471
 20
-128.4836303389729
 30
0.0
 10
101.5634819624564
 20
-128.4836303389729
 30
0.0
 10
101.8807752566479
 20
-128.4836303389729
 30
0.0
 10
102.1157307687419
 20
-128.723236729972
 30
0.0
 10
102.1157307687419
 20
-129.0463866864884
 30
0.0
  0
HATCH
  5
96
330
87
100
AcDbEntity
  8
_U+30EC_U+30A4_U+30E4_U+30FC 1
 62
   179
420
  2234388
100
AcDbHatch
 10
0.0
 20
0.0
 30
0.0
210
0.0
220
0.0
230
1.0
  2
SOLID
 70
     1
 71
     0
 91
        1
 92
        1
 93
        1
 72
     4
 94
        3
 73
     0
 74
     1
 95
       53
 96
       49
 40
0.0
 40
0.0
 40
0.0
 40
0.0
 40
1.0
 40
1.0
 40
1.0
 40
2.0
 40
2.0
 40
2.0
 40
3.0
 40
3.0
 40
3.0
 40
4.0
 40
4.0
 40
4.0
 40
5.0
 40
5.0
 40
5.0
 40
6.0
 40
6.0
 40
6.0
 40
7.0
 40
7.0
 40
7.0
 40
8.0
 40
8.0
 40
8.0
 40
9.0
 40
9.0
 40
9.0
 40
10.0
 40
10.0
 40
10.0
 40
11.0
 40
11.0
 40
11.0
 40
12.0
 40
12.0
 40
12.0
 40
13.0
 40
13.0
 40
13.0
 40
14.0
 40
14.0
 40
14.0
 40
15.0
 40
15.0
 40
15.0
 40
16.0
 40
16.0
 40
16.0
 40
16.0
 10
102.1157307687419
 20
-129.0463866864884
 10
102.1157307687419
 20
-129.13010250678
 10
102.0988498008642
 20
-129.2386230145653
 10
102.0354600439356
 20
-129.3471435223507
 10
101.9252169884076
 20
-129.5324896594572
 10
101.7943033599681
 20
-129.5552272896598
 10
101.6861273617313
 20
-129.5755533530228
 10
101.6861273617313
 20
-129.5755533530228
 10
101.6861273617313
 20
-129.3381862740891
 10
101.6861273617313
 20
-129.3381862740891
 10
101.8852538807787
 20
-129.2792751412913
 10
101.9148817019518
 20
-129.143882888721
 10
101.9148817019518
 20
-129.0443196291972
 10
101.9148817019518
 20
-128.8951469946859
 10
101.8153184424281
 20
-128.7321939782336
 10
101.5827744971738
 20
-128.7321939782336
 10
101.3268039026197
 20
-128.7321939782336
 10
101.2568684642691
 20
-128.9244303063106
 10
101.2568684642691
 20
-129.0532768774589
 10
101.2568684642691
 20
-129.0873833227629
 10
101.2568684642691
 20
-129.2386230145653
 10
101.3857150354175
 20
-129.3337076499583
 10
101.3857150354175
 20
-129.3337076499583
 10
101.3667670102486
 20
-129.5214653539044
 10
101.3667670102486
 20
-129.5214653539044
 10
101.3667670102486
 20
-129.5214653539044
 10
100.5206515590712
 20
-129.3922742732075
 10
100.5206515590712
 20
-129.3922742732075
 10
100.5206515590712
 20
-129.3922742732075
 10
100.5206515590712
 20
-128.5604559682939
 10
100.5206515590712
 20
-128.5604559682939
 10
100.5206515590712
 20
-128.5604559682939
 10
100.7152994539879
 20
-128.5604559682939
 10
100.7152994539879
 20
-128.5604559682939
 10
100.7152994539879
 20
-128.5604559682939
 10
100.7152994539879
 20
-129.2182969512024
 10
100.7152994539879
 20
-129.2182969512024
 10
100.7152994539879
 20
-129.2182969512024
 10
101.1383571795765
 20
-129.2885768991015
 10
101.1383571795765
 20
-129.2885768991015
 10
101.1045952438211
 20
-129.2227755753332
 10
101.0642876266437
 20
-129.1345811309108
 10
101.0642876266437
 20
-129.0081461266021
 10
101.0642876266437
 20
-128.7368448571387
 10
101.2503227828471
 20
-128.4836303389729
 10
101.5634819624564
 20
-128.4836303389729
 10
101.8807752566479
 20
-128.4836303389729
 10
102.1157307687419
 20
-128.723236729972
 10
102.1157307687419
 20
-129.0463866864884
 97
        0
 97
        0
 75
     2
 76
     1
 98
        0
  0
ENDBLK
  5
8A
330
87
100
AcDbEntity
  8
0
100
AcDbBlockEnd
  0
BLOCK
  5
A2
330
A0
100
AcDbEntity
  8
0
100
AcDbBlockBegin
  2
block 3
 70
     0
 10
0.0
 20
0.0
 30
0.0
  3
block 3
  1

  0
SPLINE
  5
A4
330
A0
100
AcDbEntity
  8
_U+30EC_U+30A4_U+30E4_U+30FC 1
370
     0
100
AcDbSpline
210
0.0
220
0.0
230
1.0
 70
    11
 71
     3
 72
    26
 73
    22
 74
     0
 42
0.0000000001
 43
0.0000000001
 12
1.0
 22
0.0
 32
0.0
 13
1.0
 23
0.0
 33
0.0
 40
0.0
 40
0.0
 40
0.0
 40
0.0
 40
1.0
 40
1.0
 40
1.0
 40
2.0
 40
2.0
 40
2.0
 40
3.0
 40
3.0
 40
3.0
 40
4.0
 40
4.0
 40
4.0
 40
5.0
 40
5.0
 40
5.0
 40
6.0
 40
6.0
 40
6.0
 40
7.0
 40
7.0
 40
7.0
 40
7.0
 10
102.0650878651087
 20
-133.6386989683265
 30
0.0
 10
102.0650878651087
 20
-133.6386989683265
 30
0.0
 10
100.9605902525376
 20
-133.6386989683265
 30
0.0
 10
100.9605902525376
 20
-133.6386989683265
 30
0.0
 10
100.9605902525376
 20
-133.6386989683265
 30
0.0
 10
100.9605902525376
 20
-133.991476746016
 30
0.0
 10
100.9605902525376
 20
-133.991476746016
 30
0.0
 10
100.9605902525376
 20
-133.991476746016
 30
0.0
 10
100.8124511466719
 20
-133.991476746016
 30
0.0
 10
100.8124511466719
 20
-133.991476746016
 30
0.0
 10
100.7976372360853
 20
-133.6362874014868
 30
0.0
 10
100.6350287291815
 20
-133.5866780264992
 30
0.0
 10
100.5206515590712
 20
-133.5549831480349
 30
0.0
 10
100.5206515590712
 20
-133.5549831480349
 30
0.0
 10
100.5206515590712
 20
-133.3989203225531
 30
0.0
 10
100.5206515590712
 20
-133.3989203225531
 30
0.0
 10
100.5206515590712
 20
-133.3989203225531
 30
0.0
 10
102.0650878651087
 20
-133.3989203225531
 30
0.0
 10
102.0650878651087
 20
-133.3989203225531
 30
0.0
 10
102.0650878651087
 20
-133.3989203225531
 30
0.0
 10
102.0650878651087
 20
-133.6386989683265
 30
0.0
 10
102.0650878651087
 20
-133.6386989683265
 30
0.0
  0
HATCH
  5
A5
330
A0
100
AcDbEntity
  8
_U+30EC_U+30A4_U+30E4_U+30FC 1
 62
   179
420
  2234388
100
AcDbHatch
 10
0.0
 20
0.0
 30
0.0
210
0.0
220
0.0
230
1.0
  2
SOLID
 70
     1
 71
     0
 91
        1
 92
        1
 93
        1
 72
     4
 94
        3
 73
     0
 74
     1
 95
       26
 96
       22
 40
0.0
 40
0.0
 40
0.0
 40
0.0
 40
1.0
 40
1.0
 40
1.0
 40
2.0
 40
2.0
 40
2.0
 40
3.0
 40
3.0
 40
3.0
 40
4.0
 40
4.0
 40
4.0
 40
5.0
 40
5.0
 40
5.0
 40
6.0
 40
6.0
 40
6.0
 40
7.0
 40
7.0
 40
7.0
 40
7.0
 10
102.0650878651087
 20
-133.6386989683265
 10
102.0650878651087
 20
-133.6386989683265
 10
100.9605902525376
 20
-133.6386989683265
 10
100.9605902525376
 20
-133.6386989683265
 10
100.9605902525376
 20
-133.6386989683265
 10
100.9605902525376
 20
-133.991476746016
 10
100.9605902525376
 20
-133.991476746016
 10
100.9605902525376
 20
-133.991476746016
 10
100.8124511466719
 20
-133.991476746016
 10
100.8124511466719
 20
-133.991476746016
 10
100.7976372360853
 20
-133.6362874014868
 10
100.6350287291815
 20
-133.5866780264992
 10
100.5206515590712
 20
-133.5549831480349
 10
100.5206515590712
 20
-133.5549831480349
 10
100.5206515590712
 20
-133.3989203225531
 10
100.5206515590712
 20
-133.3989203225531
 10
100.5206515590712
 20
-133.3989203225531
 10
102.0650878651087
 20
-133.3989203225531
 10
102.0650878651087
 20
-133.3989203225531
 10
102.0650878651087
 20
-133.3989203225531
 10
102.0650878651087
 20
-133.6386989683265
 10
102.0650878651087
 20
-133.6386989683265
 97
        0
 97
        0
 75
     2
 76
     1
 98
        0
  0
ENDBLK
  5
A3
330
A0
100
AcDbEntity
  8
0
100
AcDbBlockEnd
  0
BLOCK
  5
B7
330
B5
100
AcDbEntity
  8
0
100
AcDbBlockBegin
  2
block 4
 70
     0
 10
0.0
 20
0.0
 30
0.0
  3
block 4
  1

  0
SPLINE
  5
B9
330
B5
100
AcDbEntity
  8
_U+30EC_U+30A4_U+30E4_U+30FC 1
370
     0
100
AcDbSpline
210
0.0
220
0.0
230
1.0
 70
    11
 71
     3
 72
    29
 73
    25
 74
     0
 42
0.0000000001
 43
0.0000000001
 12
1.0
 22
0.0
 32
0.0
 13
1.0
 23
0.0
 33
0.0
 40
0.0
 40
0.0
 40
0.0
 40
0.0
 40
1.0
 40
1.0
 40
1.0
 40
2.0
 40
2.0
 40
2.0
 40
3.0
 40
3.0
 40
3.0
 40
4.0
 40
4.0
 40
4.0
 40
5.0
 40
5.0
 40
5.0
 40
6.0
 40
6.0
 40
6.0
 40
7.0
 40
7.0
 40
7.0
 40
8.0
 40
8.0
 40
8.0
 40
8.0
 10
91.08022865561536
 20
-122.2671277906138
 30
0.0
 10
90.8917819325722
 20
-122.0535318705283
 30
0.0
 10
90.81547306757392
 20
-121.7589762065394
 30
0.0
 10
91.0773003244529
 20
-121.5281548090277
 30
0.0
 10
91.26936439775558
 20
-121.3590006207019
 30
0.0
 10
91.44110240769528
 20
-121.4096435243351
 30
0.0
 10
91.56168074967903
 20
-121.4537407465463
 30
0.0
 10
91.51792803701636
 20
-121.3145588889422
 30
0.0
 10
91.54996742502918
 20
-121.177960852952
 30
0.0
 10
91.67054576701292
 20
-121.0716796572321
 30
0.0
 10
91.87656247703086
 20
-120.8897786156109
 30
0.0
 10
92.11875268964393
 20
-120.9597140539615
 30
0.0
 10
92.31305607501201
 20
-121.1802001650175
 30
0.0
 10
92.51356063225356
 20
-121.4074042122697
 30
0.0
 10
92.54008786748999
 20
-121.6551065776591
 30
0.0
 10
92.3402723293455
 20
-121.8314954665039
 30
0.0
 10
92.21969398736175
 20
-121.9377766622239
 30
0.0
 10
92.07844507246651
 20
-121.9505235155193
 30
0.0
 10
91.94580889628439
 20
-121.8897175802047
 30
0.0
 10
91.97061358377819
 20
-121.9944484829563
 30
0.0
 10
92.01126571050413
 20
-122.184617753742
 30
0.0
 10
91.81455075829636
 20
-122.3580783114244
 30
0.0
 10
91.53377547624851
 20
-122.6056084220396
 30
0.0
 10
91.24903833439261
 20
-122.4588473543679
 30
0.0
 10
91.08022865561536
 20
-122.2671277906138
 30
0.0
  0
SPLINE
  5
BA
330
B5
100
AcDbEntity
  8
_U+30EC_U+30A4_U+30E4_U+30FC 1
370
     0
100
AcDbSpline
210
0.0
220
0.0
230
1.0
 70
    11
 71
     3
 72
    17
 73
    13
 74
     0
 42
0.0000000001
 43
0.0000000001
 12
1.0
 22
0.0
 32
0.0
 13
1.0
 23
0.0
 33
0.0
 40
0.0
 40
0.0
 40
0.0
 40
0.0
 40
1.0
 40
1.0
 40
1.0
 40
2.0
 40
2.0
 40
2.0
 40
3.0
 40
3.0
 40
3.0
 40
4.0
 40
4.0
 40
4.0
 40
4.0
 10
91.67364635294965
 20
-121.7439900411786
 30
0.0
 10
91.57201603613478
 20
-121.6285793424227
 30
0.0
 10
91.39941675232376
 20
-121.5638115473
 30
0.0
 10
91.24697127710145
 20
-121.6981702712248
 30
0.0
 10
91.09297550891078
 20
-121.8339070333436
 30
0.0
 10
91.10658363607753
 20
-122.0027167121209
 30
0.0
 10
91.2261284494157
 20
-122.1384534742397
 30
0.0
 10
91.35773109695224
 20
-122.287626108751
 30
0.0
 10
91.52757430437505
 20
-122.2946885544958
 30
0.0
 10
91.66089949965422
 20
-122.1772107984488
 30
0.0
 10
91.82729761159179
 20
-122.0302774760029
 30
0.0
 10
91.76769745969698
 20
-121.8507880012213
 30
0.0
 10
91.67364635294965
 20
-121.7439900411786
 30
0.0
  0
SPLINE
  5
BB
330
B5
100
AcDbEntity
  8
_U+30EC_U+30A4_U+30E4_U+30FC 1
370
     0
100
AcDbSpline
210
0.0
220
0.0
230
1.0
 70
    11
 71
     3
 72
    17
 73
    13
 74
     0
 42
0.0000000001
 43
0.0000000001
 12
1.0
 22
0.0
 32
0.0
 13
1.0
 23
0.0
 33
0.0
 40
0.0
 40
0.0
 40
0.0
 40
0.0
 40
1.0
 40
1.0
 40
1.0
 40
2.0
 40
2.0
 40
2.0
 40
3.0
 40
3.0
 40
3.0
 40
4.0
 40
4.0
 40
4.0
 40
4.0
 10
92.16870657418005
 20
-121.3074964431974
 30
0.0
 10
92.0522623467786
 20
-121.1752047765638
 30
0.0
 10
91.92100420879059
 20
-121.1702093881102
 30
0.0
 10
91.81937389197572
 20
-121.2597818707267
 30
0.0
 10
91.72738984251954
 20
-121.3409138694044
 30
0.0
 10
91.68914928263327
 20
-121.4769951410717
 30
0.0
 10
91.81489526784489
 20
-121.6194498393868
 30
0.0
 10
91.94064125305651
 20
-121.7619045377019
 30
0.0
 10
92.08016762020912
 20
-121.7412339647904
 30
0.0
 10
92.1721516696653
 20
-121.6601019661128
 30
0.0
 10
92.27378198648017
 20
-121.5705294834963
 30
0.0
 10
92.28377276338739
 20
-121.4380655620884
 30
0.0
 10
92.16870657418005
 20
-121.3074964431974
 30
0.0
  0
HATCH
  5
BC
330
B5
100
AcDbEntity
  8
_U+30EC_U+30A4_U+30E4_U+30FC 1
 62
   179
420
  2234388
100
AcDbHatch
 10
0.0
 20
0.0
 30
0.0
210
0.0
220
0.0
230
1.0
  2
SOLID
 70
     1
 71
     0
 91
        3
 92
        1
 93
        1
 72
     4
 94
        3
 73
     0
 74
     1
 95
       29
 96
       25
 40
0.0
 40
0.0
 40
0.0
 40
0.0
 40
1.0
 40
1.0
 40
1.0
 40
2.0
 40
2.0
 40
2.0
 40
3.0
 40
3.0
 40
3.0
 40
4.0
 40
4.0
 40
4.0
 40
5.0
 40
5.0
 40
5.0
 40
6.0
 40
6.0
 40
6.0
 40
7.0
 40
7.0
 40
7.0
 40
8.0
 40
8.0
 40
8.0
 40
8.0
 10
91.08022865561536
 20
-122.2671277906138
 10
90.8917819325722
 20
-122.0535318705283
 10
90.81547306757392
 20
-121.7589762065394
 10
91.0773003244529
 20
-121.5281548090277
 10
91.26936439775558
 20
-121.3590006207019
 10
91.44110240769528
 20
-121.4096435243351
 10
91.56168074967903
 20
-121.4537407465463
 10
91.51792803701636
 20
-121.3145588889422
 10
91.54996742502918
 20
-121.177960852952
 10
91.67054576701292
 20
-121.0716796572321
 10
91.87656247703086
 20
-120.8897786156109
 10
92.11875268964393
 20
-120.9597140539615
 10
92.31305607501201
 20
-121.1802001650175
 10
92.51356063225356
 20
-121.4074042122697
 10
92.54008786748999
 20
-121.6551065776591
 10
92.3402723293455
 20
-121.8314954665039
 10
92.21969398736175
 20
-121.9377766622239
 10
92.07844507246651
 20
-121.9505235155193
 10
91.94580889628439
 20
-121.8897175802047
 10
91.97061358377819
 20
-121.9944484829563
 10
92.01126571050413
 20
-122.184617753742
 10
91.81455075829636
 20
-122.3580783114244
 10
91.53377547624851
 20
-122.6056084220396
 10
91.24903833439261
 20
-122.4588473543679
 10
91.08022865561536
 20
-122.2671277906138
 97
        0
 97
        0
 92
        1
 93
        1
 72
     4
 94
        3
 73
     0
 74
     1
 95
       17
 96
       13
 40
0.0
 40
0.0
 40
0.0
 40
0.0
 40
1.0
 40
1.0
 40
1.0
 40
2.0
 40
2.0
 40
2.0
 40
3.0
 40
3.0
 40
3.0
 40
4.0
 40
4.0
 40
4.0
 40
4.0
 10
91.67364635294965
 20
-121.7439900411786
 10
91.57201603613478
 20
-121.6285793424227
 10
91.39941675232376
 20
-121.5638115473
 10
91.24697127710145
 20
-121.6981702712248
 10
91.09297550891078
 20
-121.8339070333436
 10
91.10658363607753
 20
-122.0027167121209
 10
91.2261284494157
 20
-122.1384534742397
 10
91.35773109695224
 20
-122.287626108751
 10
91.52757430437505
 20
-122.2946885544958
 10
91.66089949965422
 20
-122.1772107984488
 10
91.82729761159179
 20
-122.0302774760029
 10
91.76769745969698
 20
-121.8507880012213
 10
91.67364635294965
 20
-121.7439900411786
 97
        0
 97
        0
 92
        1
 93
        1
 72
     4
 94
        3
 73
     0
 74
     1
 95
       17
 96
       13
 40
0.0
 40
0.0
 40
0.0
 40
0.0
 40
1.0
 40
1.0
 40
1.0
 40
2.0
 40
2.0
 40
2.0
 40
3.0
 40
3.0
 40
3.0
 40
4.0
 40
4.0
 40
4.0
 40
4.0
 10
92.16870657418005
 20
-121.3074964431974
 10
92.0522623467786
 20
-121.1752047765638
 10
91.92100420879059
 20
-121.1702093881102
 10
91.81937389197572
 20
-121.2597818707267
 10
91.72738984251954
 20
-121.3409138694044
 10
91.68914928263327
 20
-121.4769951410717
 10
91.81489526784489
 20
-121.6194498393868
 10
91.94064125305651
 20
-121.7619045377019
 10
92.08016762020912
 20
-121.7412339647904
 10
92.1721516696653
 20
-121.6601019661128
 10
92.27378198648017
 20
-121.5705294834963
 10
92.28377276338739
 20
-121.4380655620884
 10
92.16870657418005
 20
-121.3074964431974
 97
        0
 97
        0
 75
     2
 76
     1
 98
        0
  0
ENDBLK
  5
B8
330
B5
100
AcDbEntity
  8
0
100
AcDbBlockEnd
  0
BLOCK
  5
CE
330
CC
100
AcDbEntity
  8
0
100
AcDbBlockBegin
  2
block 5
 70
     0
 10
0.0
 20
0.0
 30
0.0
  3
block 5
  1

  0
SPLINE
  5
D0
330
CC
100
AcDbEntity
  8
_U+30EC_U+30A4_U+30E4_U+30FC 1
370
     0
100
AcDbSpline
210
0.0
220
0.0
230
1.0
 70
    11
 71
     3
 72
    26
 73
    22
 74
     0
 42
0.0000000001
 43
0.0000000001
 12
1.0
 22
0.0
 32
0.0
 13
1.0
 23
0.0
 33
0.0
 40
0.0
 40
0.0
 40
0.0
 40
0.0
 40
1.0
 40
1.0
 40
1.0
 40
2.0
 40
2.0
 40
2.0
 40
3.0
 40
3.0
 40
3.0
 40
4.0
 40
4.0
 40
4.0
 40
5.0
 40
5.0
 40
5.0
 40
6.0
 40
6.0
 40
6.0
 40
7.0
 40
7.0
 40
7.0
 40
7.0
 10
89.08999699378653
 20
-136.2538709511796
 30
0.0
 10
89.08999699378653
 20
-136.2538709511796
 30
0.0
 10
89.08999699378653
 20
-135.1493733386085
 30
0.0
 10
89.08999699378653
 20
-135.1493733386085
 30
0.0
 10
89.08999699378653
 20
-135.1493733386085
 30
0.0
 10
88.73721921609695
 20
-135.1493733386085
 30
0.0
 10
88.73721921609695
 20
-135.1493733386085
 30
0.0
 10
88.73721921609695
 20
-135.1493733386085
 30
0.0
 10
88.73721921609695
 20
-135.0012342327427
 30
0.0
 10
88.73721921609695
 20
-135.0012342327427
 30
0.0
 10
89.09223630585194
 20
-134.9864203221562
 30
0.0
 10
89.14184568083954
 20
-134.8238118152524
 30
0.0
 10
89.17354055930385
 20
-134.7094346451421
 30
0.0
 10
89.17354055930385
 20
-134.7094346451421
 30
0.0
 10
89.32960338478566
 20
-134.7094346451421
 30
0.0
 10
89.32960338478566
 20
-134.7094346451421
 30
0.0
 10
89.32960338478566
 20
-134.7094346451421
 30
0.0
 10
89.32960338478566
 20
-136.2538709511796
 30
0.0
 10
89.32960338478566
 20
-136.2538709511796
 30
0.0
 10
89.32960338478566
 20
-136.2538709511796
 30
0.0
 10
89.08999699378653
 20
-136.2538709511796
 30
0.0
 10
89.08999699378653
 20
-136.2538709511796
 30
0.0
  0
HATCH
  5
D1
330
CC
100
AcDbEntity
  8
_U+30EC_U+30A4_U+30E4_U+30FC 1
 62
   179
420
  2234388
100
AcDbHatch
 10
0.0
 20
0.0
 30
0.0
210
0.0
220
0.0
230
1.0
  2
SOLID
 70
     1
 71
     0
 91
        1
 92
        1
 93
        1
 72
     4
 94
        3
 73
     0
 74
     1
 95
       26
 96
       22
 40
0.0
 40
0.0
 40
0.0
 40
0.0
 40
1.0
 40
1.0
 40
1.0
 40
2.0
 40
2.0
 40
2.0
 40
3.0
 40
3.0
 40
3.0
 40
4.0
 40
4.0
 40
4.0
 40
5.0
 40
5.0
 40
5.0
 40
6.0
 40
6.0
 40
6.0
 40
7.0
 40
7.0
 40
7.0
 40
7.0
 10
89.08999699378653
 20
-136.2538709511796
 10
89.08999699378653
 20
-136.2538709511796
 10
89.08999699378653
 20
-135.1493733386085
 10
89.08999699378653
 20
-135.1493733386085
 10
89.08999699378653
 20
-135.1493733386085
 10
88.73721921609695
 20
-135.1493733386085
 10
88.73721921609695
 20
-135.1493733386085
 10
88.73721921609695
 20
-135.1493733386085
 10
88.73721921609695
 20
-135.0012342327427
 10
88.73721921609695
 20
-135.0012342327427
 10
89.09223630585194
 20
-134.9864203221562
 10
89.14184568083954
 20
-134.8238118152524
 10
89.17354055930385
 20
-134.7094346451421
 10
89.17354055930385
 20
-134.7094346451421
 10
89.32960338478566
 20
-134.7094346451421
 10
89.32960338478566
 20
-134.7094346451421
 10
89.32960338478566
 20
-134.7094346451421
 10
89.32960338478566
 20
-136.2538709511796
 10
89.32960338478566
 20
-136.2538709511796
 10
89.32960338478566
 20
-136.2538709511796
 10
89.08999699378653
 20
-136.2538709511796
 10
89.08999699378653
 20
-136.2538709511796
 97
        0
 97
        0
 75
     2
 76
     1
 98
        0
  0
SPLINE
  5
D2
330
CC
100
AcDbEntity
  8
_U+30EC_U+30A4_U+30E4_U+30FC 1
370
     0
100
AcDbSpline
210
0.0
220
0.0
230
1.0
 70
    11
 71
     3
 72
    29
 73
    25
 74
     0
 42
0.0000000001
 43
0.0000000001
 12
1.0
 22
0.0
 32
0.0
 13
1.0
 23
0.0
 33
0.0
 40
0.0
 40
0.0
 40
0.0
 40
0.0
 40
1.0
 40
1.0
 40
1.0
 40
2.0
 40
2.0
 40
2.0
 40
3.0
 40
3.0
 40
3.0
 40
4.0
 40
4.0
 40
4.0
 40
5.0
 40
5.0
 40
5.0
 40
6.0
 40
6.0
 40
6.0
 40
7.0
 40
7.0
 40
7.0
 40
8.0
 40
8.0
 40
8.0
 40
8.0
 10
90.82477482538408
 20
-136.0761040241407
 30
0.0
 10
90.70936412662822
 20
-136.2855658296439
 30
0.0
 10
90.52401798952178
 20
-136.3045138548128
 30
0.0
 10
90.39965004250426
 20
-136.3045138548128
 30
0.0
 10
90.22791203256456
 20
-136.3045138548128
 30
0.0
 10
90.07632783121356
 20
-136.2580050657619
 30
0.0
 10
89.97469751439868
 20
-136.0761040241407
 30
0.0
 10
89.86393769454791
 20
-135.8814561292241
 30
0.0
 10
89.84343937641067
 20
-135.6444335598389
 30
0.0
 10
89.84343937641067
 20
-135.4814805433866
 30
0.0
 10
89.84343937641067
 20
-135.3378200616517
 30
0.0
 10
89.86152612770823
 20
-135.0859835816799
 30
0.0
 10
89.97469751439868
 20
-134.887201572181
 30
0.0
 10
90.0899359583803
 20
-134.6839409385512
 30
0.0
 10
90.26184622309427
 20
-134.6608587988001
 30
0.0
 10
90.39965004250426
 20
-134.6608587988001
 30
0.0
 10
90.56932099515281
 20
-134.6608587988001
 30
0.0
 10
90.72297225379495
 20
-134.7053005305598
 30
0.0
 10
90.82477482538408
 20
-134.887201572181
 30
0.0
 10
90.93105602110404
 20
-135.0797824098065
 30
0.0
 10
90.95586070859784
 20
-135.3081922404785
 30
0.0
 10
90.95586070859784
 20
-135.4814805433866
 30
0.0
 10
90.95586070859784
 20
-135.653046298552
 30
0.0
 10
90.93329533316945
 20
-135.8835231865152
 30
0.0
 10
90.82477482538408
 20
-136.0761040241407
 30
0.0
  0
SPLINE
  5
D3
330
CC
100
AcDbEntity
  8
_U+30EC_U+30A4_U+30E4_U+30FC 1
370
     0
100
AcDbSpline
210
0.0
220
0.0
230
1.0
 70
    11
 71
     3
 72
    17
 73
    13
 74
     0
 42
0.0000000001
 43
0.0000000001
 12
1.0
 22
0.0
 32
0.0
 13
1.0
 23
0.0
 33
0.0
 40
0.0
 40
0.0
 40
0.0
 40
0.0
 40
1.0
 40
1.0
 40
1.0
 40
2.0
 40
2.0
 40
2.0
 40
3.0
 40
3.0
 40
3.0
 40
4.0
 40
4.0
 40
4.0
 40
4.0
 10
90.39965004250426
 20
-134.8534396364255
 30
0.0
 10
90.13282739717165
 20
-134.8534396364255
 30
0.0
 10
90.08321802218406
 20
-135.1366264853131
 30
0.0
 10
90.08321802218406
 20
-135.4814805433866
 30
0.0
 10
90.08321802218406
 20
-135.8008408948693
 30
0.0
 10
90.1216308368446
 20
-136.1098659598962
 30
0.0
 10
90.39965004250426
 20
-136.1098659598962
 30
0.0
 10
90.66423337577145
 20
-136.1098659598962
 30
0.0
 10
90.71625431759873
 20
-135.8284016587512
 30
0.0
 10
90.71625431759873
 20
-135.4814805433866
 30
0.0
 10
90.71625431759873
 20
-135.1621201919039
 30
0.0
 10
90.67542993609851
 20
-134.8534396364255
 30
0.0
 10
90.39965004250426
 20
-134.8534396364255
 30
0.0
  0
HATCH
  5
D4
330
CC
100
AcDbEntity
  8
_U+30EC_U+30A4_U+30E4_U+30FC 1
 62
   179
420
  2234388
100
AcDbHatch
 10
0.0
 20
0.0
 30
0.0
210
0.0
220
0.0
230
1.0
  2
SOLID
 70
     1
 71
     0
 91
        2
 92
        1
 93
        1
 72
     4
 94
        3
 73
     0
 74
     1
 95
       29
 96
       25
 40
0.0
 40
0.0
 40
0.0
 40
0.0
 40
1.0
 40
1.0
 40
1.0
 40
2.0
 40
2.0
 40
2.0
 40
3.0
 40
3.0
 40
3.0
 40
4.0
 40
4.0
 40
4.0
 40
5.0
 40
5.0
 40
5.0
 40
6.0
 40
6.0
 40
6.0
 40
7.0
 40
7.0
 40
7.0
 40
8.0
 40
8.0
 40
8.0
 40
8.0
 10
90.82477482538408
 20
-136.0761040241407
 10
90.70936412662822
 20
-136.2855658296439
 10
90.52401798952178
 20
-136.3045138548128
 10
90.39965004250426
 20
-136.3045138548128
 10
90.22791203256456
 20
-136.3045138548128
 10
90.07632783121356
 20
-136.2580050657619
 10
89.97469751439868
 20
-136.0761040241407
 10
89.86393769454791
 20
-135.8814561292241
 10
89.84343937641067
 20
-135.6444335598389
 10
89.84343937641067
 20
-135.4814805433866
 10
89.84343937641067
 20
-135.3378200616517
 10
89.86152612770823
 20
-135.0859835816799
 10
89.97469751439868
 20
-134.887201572181
 10
90.0899359583803
 20
-134.6839409385512
 10
90.26184622309427
 20
-134.6608587988001
 10
90.39965004250426
 20
-134.6608587988001
 10
90.56932099515281
 20
-134.6608587988001
 10
90.72297225379495
 20
-134.7053005305598
 10
90.82477482538408
 20
-134.887201572181
 10
90.93105602110404
 20
-135.0797824098065
 10
90.95586070859784
 20
-135.3081922404785
 10
90.95586070859784
 20
-135.4814805433866
 10
90.95586070859784
 20
-135.653046298552
 10
90.93329533316945
 20
-135.8835231865152
 10
90.82477482538408
 20
-136.0761040241407
 97
        0
 97
        0
 92
        1
 93
        1
 72
     4
 94
        3
 73
     0
 74
     1
 95
       17
 96
       13
 40
0.0
 40
0.0
 40
0.0
 40
0.0
 40
1.0
 40
1.0
 40
1.0
 40
2.0
 40
2.0
 40
2.0
 40
3.0
 40
3.0
 40
3.0
 40
4.0
 40
4.0
 40
4.0
 40
4.0
 10
90.39965004250426
 20
-134.8534396364255
 10
90.13282739717165
 20
-134.8534396364255
 10
90.08321802218406
 20
-135.1366264853131
 10
90.08321802218406
 20
-135.4814805433866
 10
90.08321802218406
 20
-135.8008408948693
 10
90.1216308368446
 20
-136.1098659598962
 10
90.39965004250426
 20
-136.1098659598962
 10
90.66423337577145
 20
-136.1098659598962
 10
90.71625431759873
 20
-135.8284016587512
 10
90.71625431759873
 20
-135.4814805433866
 10
90.71625431759873
 20
-135.1621201919039
 10
90.67542993609851
 20
-134.8534396364255
 10
90.39965004250426
 20
-134.8534396364255
 97
        0
 97
        0
 75
     2
 76
     1
 98
        0
  0
POLYLINE
  5
D5
330
CC
100
AcDbEntity
  8
_U+30EC_U+30A4_U+30E4_U+30FC 1
370
     0
100
AcDb2dPolyline
 66
     1
 10
0.0
 20
0.0
 30
0.0
  0
VERTEX
  5
D6
330
D5
100
AcDbEntity
  8
_U+30EC_U+30A4_U+30E4_U+30FC 1
370
     0
100
AcDbVertex
100
AcDb2dVertex
 10
91.18719887043237
 20
-136.2538709511796
 30
0.0
  0
VERTEX
  5
D7
330
D5
100
AcDbEntity
  8
_U+30EC_U+30A4_U+30E4_U+30FC 1
370
     0
100
AcDbVertex
100
AcDb2dVertex
 10
91.18719887043237
 20
-136.0020344712078
 30
0.0
  0
VERTEX
  5
D8
330
D5
100
AcDbEntity
  8
_U+30EC_U+30A4_U+30E4_U+30FC 1
370
     0
100
AcDbVertex
100
AcDb2dVertex
 10
91.45626082783038
 20
-136.0020344712078
 30
0.0
  0
VERTEX
  5
D9
330
D5
100
AcDbEntity
  8
_U+30EC_U+30A4_U+30E4_U+30FC 1
370
     0
100
AcDbVertex
100
AcDb2dVertex
 10
91.45626082783038
 20
-136.2538709511796
 30
0.0
  0
VERTEX
  5
DA
330
D5
100
AcDbEntity
  8
_U+30EC_U+30A4_U+30E4_U+30FC 1
370
     0
100
AcDbVertex
100
AcDb2dVertex
 10
91.18719887043237
 20
-136.2538709511796
 30
0.0
  0
SEQEND
  5
DB
330
D5
100
AcDbEntity
  8
_U+30EC_U+30A4_U+30E4_U+30FC 1
370
     0
  0
HATCH
  5
DC
330
CC
100
AcDbEntity
  8
_U+30EC_U+30A4_U+30E4_U+30FC 1
 62
   179
420
  2234388
100
AcDbHatch
 10
0.0
 20
0.0
 30
0.0
210
0.0
220
0.0
230
1.0
  2
SOLID
 70
     1
 71
     0
 91
        1
 92
        1
 93
        4
 72
     1
 10
91.18719887043237
 20
-136.2538709511796
 11
91.18719887043237
 21
-136.0020344712078
 72
     1
 10
91.18719887043237
 20
-136.0020344712078
 11
91.45626082783038
 21
-136.0020344712078
 72
     1
 10
91.45626082783038
 20
-136.0020344712078
 11
91.45626082783038
 21
-136.2538709511796
 72
     1
 10
91.45626082783038
 20
-136.2538709511796
 11
91.18719887043237
 21
-136.2538709511796
 97
        0
 75
     2
 76
     1
 98
        0
  0
SPLINE
  5
DD
330
CC
100
AcDbEntity
  8
_U+30EC_U+30A4_U+30E4_U+30FC 1
370
     0
100
AcDbSpline
210
0.0
220
0.0
230
1.0
 70
    11
 71
     3
 72
    53
 73
    49
 74
     0
 42
0.0000000001
 43
0.0000000001
 12
1.0
 22
0.0
 32
0.0
 13
1.0
 23
0.0
 33
0.0
 40
0.0
 40
0.0
 40
0.0
 40
0.0
 40
1.0
 40
1.0
 40
1.0
 40
2.0
 40
2.0
 40
2.0
 40
3.0
 40
3.0
 40
3.0
 40
4.0
 40
4.0
 40
4.0
 40
5.0
 40
5.0
 40
5.0
 40
6.0
 40
6.0
 40
6.0
 40
7.0
 40
7.0
 40
7.0
 40
8.0
 40
8.0
 40
8.0
 40
9.0
 40
9.0
 40
9.0
 40
10.0
 40
10.0
 40
10.0
 40
11.0
 40
11.0
 40
11.0
 40
12.0
 40
12.0
 40
12.0
 40
13.0
 40
13.0
 40
13.0
 40
14.0
 40
14.0
 40
14.0
 40
15.0
 40
15.0
 40
15.0
 40
16.0
 40
16.0
 40
16.0
 40
16.0
 10
92.223139082847
 20
-136.3045138548128
 30
0.0
 10
92.13942326255543
 20
-136.3045138548128
 30
0.0
 10
92.03090275477005
 20
-136.287632886935
 30
0.0
 10
91.92238224698468
 20
-136.2242431300064
 30
0.0
 10
91.73703610987825
 20
-136.1140000744784
 30
0.0
 10
91.71429847967559
 20
-135.983086446039
 30
0.0
 10
91.69397241631262
 20
-135.8749104478021
 30
0.0
 10
91.69397241631262
 20
-135.8749104478021
 30
0.0
 10
91.93133949524633
 20
-135.8749104478021
 30
0.0
 10
91.93133949524633
 20
-135.8749104478021
 30
0.0
 10
91.99025062804411
 20
-136.0740369668495
 30
0.0
 10
92.12564288061442
 20
-136.1036647880227
 30
0.0
 10
92.22520614013814
 20
-136.1036647880227
 30
0.0
 10
92.37437877464947
 20
-136.1036647880227
 30
0.0
 10
92.53733179110178
 20
-136.004101528499
 30
0.0
 10
92.53733179110178
 20
-135.7715575832446
 30
0.0
 10
92.53733179110178
 20
-135.5155869886906
 30
0.0
 10
92.34509546302485
 20
-135.44565155034
 30
0.0
 10
92.2162488918765
 20
-135.44565155034
 30
0.0
 10
92.18214244657253
 20
-135.44565155034
 30
0.0
 10
92.03090275477005
 20
-135.44565155034
 30
0.0
 10
91.93581811937716
 20
-135.5744981214883
 30
0.0
 10
91.93581811937716
 20
-135.5744981214883
 30
0.0
 10
91.74806041543104
 20
-135.5555500963195
 30
0.0
 10
91.74806041543104
 20
-135.5555500963195
 30
0.0
 10
91.74806041543104
 20
-135.5555500963195
 30
0.0
 10
91.87725149612791
 20
-134.7094346451421
 30
0.0
 10
91.87725149612791
 20
-134.7094346451421
 30
0.0
 10
91.87725149612791
 20
-134.7094346451421
 30
0.0
 10
92.70924205581575
 20
-134.7094346451421
 30
0.0
 10
92.70924205581575
 20
-134.7094346451421
 30
0.0
 10
92.70924205581575
 20
-134.7094346451421
 30
0.0
 10
92.70924205581575
 20
-134.9040825400587
 30
0.0
 10
92.70924205581575
 20
-134.9040825400587
 30
0.0
 10
92.70924205581575
 20
-134.9040825400587
 30
0.0
 10
92.05122881813303
 20
-134.9040825400587
 30
0.0
 10
92.05122881813303
 20
-134.9040825400587
 30
0.0
 10
92.05122881813303
 20
-134.9040825400587
 30
0.0
 10
91.98094887023393
 20
-135.3271402656474
 30
0.0
 10
91.98094887023393
 20
-135.3271402656474
 30
0.0
 10
92.0467501940022
 20
-135.2933783298919
 30
0.0
 10
92.1349446384246
 20
-135.2530707127145
 30
0.0
 10
92.26137964273327
 20
-135.2530707127145
 30
0.0
 10
92.53285316697095
 20
-135.2530707127145
 30
0.0
 10
92.78606768513681
 20
-135.439105868918
 30
0.0
 10
92.78606768513681
 20
-135.7522650485272
 30
0.0
 10
92.78606768513681
 20
-136.0695583427187
 30
0.0
 10
92.54628903936343
 20
-136.3045138548128
 30
0.0
 10
92.223139082847
 20
-136.3045138548128
 30
0.0
  0
HATCH
  5
DE
330
CC
100
AcDbEntity
  8
_U+30EC_U+30A4_U+30E4_U+30FC 1
 62
   179
420
  2234388
100
AcDbHatch
 10
0.0
 20
0.0
 30
0.0
210
0.0
220
0.0
230
1.0
  2
SOLID
 70
     1
 71
     0
 91
        1
 92
        1
 93
        1
 72
     4
 94
        3
 73
     0
 74
     1
 95
       53
 96
       49
 40
0.0
 40
0.0
 40
0.0
 40
0.0
 40
1.0
 40
1.0
 40
1.0
 40
2.0
 40
2.0
 40
2.0
 40
3.0
 40
3.0
 40
3.0
 40
4.0
 40
4.0
 40
4.0
 40
5.0
 40
5.0
 40
5.0
 40
6.0
 40
6.0
 40
6.0
 40
7.0
 40
7.0
 40
7.0
 40
8.0
 40
8.0
 40
8.0
 40
9.0
 40
9.0
 40
9.0
 40
10.0
 40
10.0
 40
10.0
 40
11.0
 40
11.0
 40
11.0
 40
12.0
 40
12.0
 40
12.0
 40
13.0
 40
13.0
 40
13.0
 40
14.0
 40
14.0
 40
14.0
 40
15.0
 40
15.0
 40
15.0
 40
16.0
 40
16.0
 40
16.0
 40
16.0
 10
92.223139082847
 20
-136.3045138548128
 10
92.13942326255543
 20
-136.3045138548128
 10
92.03090275477005
 20
-136.287632886935
 10
91.92238224698468
 20
-136.2242431300064
 10
91.73703610987825
 20
-136.1140000744784
 10
91.71429847967559
 20
-135.983086446039
 10
91.69397241631262
 20
-135.8749104478021
 10
91.69397241631262
 20
-135.8749104478021
 10
91.93133949524633
 20
-135.8749104478021
 10
91.93133949524633
 20
-135.8749104478021
 10
91.99025062804411
 20
-136.0740369668495
 10
92.12564288061442
 20
-136.1036647880227
 10
92.22520614013814
 20
-136.1036647880227
 10
92.37437877464947
 20
-136.1036647880227
 10
92.53733179110178
 20
-136.004101528499
 10
92.53733179110178
 20
-135.7715575832446
 10
92.53733179110178
 20
-135.5155869886906
 10
92.34509546302485
 20
-135.44565155034
 10
92.2162488918765
 20
-135.44565155034
 10
92.18214244657253
 20
-135.44565155034
 10
92.03090275477005
 20
-135.44565155034
 10
91.93581811937716
 20
-135.5744981214883
 10
91.93581811937716
 20
-135.5744981214883
 10
91.74806041543104
 20
-135.5555500963195
 10
91.74806041543104
 20
-135.5555500963195
 10
91.74806041543104
 20
-135.5555500963195
 10
91.87725149612791
 20
-134.7094346451421
 10
91.87725149612791
 20
-134.7094346451421
 10
91.87725149612791
 20
-134.7094346451421
 10
92.70924205581575
 20
-134.7094346451421
 10
92.70924205581575
 20
-134.7094346451421
 10
92.70924205581575
 20
-134.7094346451421
 10
92.70924205581575
 20
-134.9040825400587
 10
92.70924205581575
 20
-134.9040825400587
 10
92.70924205581575
 20
-134.9040825400587
 10
92.05122881813303
 20
-134.9040825400587
 10
92.05122881813303
 20
-134.9040825400587
 10
92.05122881813303
 20
-134.9040825400587
 10
91.98094887023393
 20
-135.3271402656474
 10
91.98094887023393
 20
-135.3271402656474
 10
92.0467501940022
 20
-135.2933783298919
 10
92.1349446384246
 20
-135.2530707127145
 10
92.26137964273327
 20
-135.2530707127145
 10
92.53285316697095
 20
-135.2530707127145
 10
92.78606768513681
 20
-135.439105868918
 10
92.78606768513681
 20
-135.7522650485272
 10
92.78606768513681
 20
-136.0695583427187
 10
92.54628903936343
 20
-136.3045138548128
 10
92.223139082847
 20
-136.3045138548128
 97
        0
 97
        0
 75
     2
 76
     1
 98
        0
  0
ENDBLK
  5
CF
330
CC
100
AcDbEntity
  8
0
100
AcDbBlockEnd
  0
BLOCK
  5
F0
330
EE
100
AcDbEntity
  8
0
100
AcDbBlockBegin
  2
block 6
 70
     0
 10
0.0
 20
0.0
 30
0.0
  3
block 6
  1

  0
SPLINE
  5
F2
330
EE
100
AcDbEntity
  8
_U+30EC_U+30A4_U+30E4_U+30FC 1
370
     0
100
AcDbSpline
210
0.0
220
0.0
230
1.0
 70
    11
 71
     3
 72
    26
 73
    22
 74
     0
 42
0.0000000001
 43
0.0000000001
 12
1.0
 22
0.0
 32
0.0
 13
1.0
 23
0.0
 33
0.0
 40
0.0
 40
0.0
 40
0.0
 40
0.0
 40
1.0
 40
1.0
 40
1.0
 40
2.0
 40
2.0
 40
2.0
 40
3.0
 40
3.0
 40
3.0
 40
4.0
 40
4.0
 40
4.0
 40
5.0
 40
5.0
 40
5.0
 40
6.0
 40
6.0
 40
6.0
 40
7.0
 40
7.0
 40
7.0
 40
7.0
 10
80.81970077189577
 20
-128.9795518340746
 30
0.0
 10
80.81970077189577
 20
-128.9795518340746
 30
0.0
 10
79.71537541409894
 20
-128.9795518340746
 30
0.0
 10
79.71537541409894
 20
-128.9795518340746
 30
0.0
 10
79.71537541409894
 20
-128.9795518340746
 30
0.0
 10
79.71537541409894
 20
-129.3323296117642
 30
0.0
 10
79.71537541409894
 20
-129.3323296117642
 30
0.0
 10
79.71537541409894
 20
-129.3323296117642
 30
0.0
 10
79.56740856300746
 20
-129.3323296117642
 30
0.0
 10
79.56740856300746
 20
-129.3323296117642
 30
0.0
 10
79.55259465242088
 20
-128.9774847767834
 30
0.0
 10
79.38964163596856
 20
-128.9275308922473
 30
0.0
 10
79.27543672063253
 20
-128.895836013783
 30
0.0
 10
79.27543672063253
 20
-128.895836013783
 30
0.0
 10
79.27543672063253
 20
-128.7399454430754
 30
0.0
 10
79.27543672063253
 20
-128.7399454430754
 30
0.0
 10
79.27543672063253
 20
-128.7399454430754
 30
0.0
 10
80.81970077189577
 20
-128.7399454430754
 30
0.0
 10
80.81970077189577
 20
-128.7399454430754
 30
0.0
 10
80.81970077189577
 20
-128.7399454430754
 30
0.0
 10
80.81970077189577
 20
-128.9795518340746
 30
0.0
 10
80.81970077189577
 20
-128.9795518340746
 30
0.0
  0
HATCH
  5
F3
330
EE
100
AcDbEntity
  8
_U+30EC_U+30A4_U+30E4_U+30FC 1
 62
   179
420
  2234388
100
AcDbHatch
 10
0.0
 20
0.0
 30
0.0
210
0.0
220
0.0
230
1.0
  2
SOLID
 70
     1
 71
     0
 91
        1
 92
        1
 93
        1
 72
     4
 94
        3
 73
     0
 74
     1
 95
       26
 96
       22
 40
0.0
 40
0.0
 40
0.0
 40
0.0
 40
1.0
 40
1.0
 40
1.0
 40
2.0
 40
2.0
 40
2.0
 40
3.0
 40
3.0
 40
3.0
 40
4.0
 40
4.0
 40
4.0
 40
5.0
 40
5.0
 40
5.0
 40
6.0
 40
6.0
 40
6.0
 40
7.0
 40
7.0
 40
7.0
 40
7.0
 10
80.81970077189577
 20
-128.9795518340746
 10
80.81970077189577
 20
-128.9795518340746
 10
79.71537541409894
 20
-128.9795518340746
 10
79.71537541409894
 20
-128.9795518340746
 10
79.71537541409894
 20
-128.9795518340746
 10
79.71537541409894
 20
-129.3323296117642
 10
79.71537541409894
 20
-129.3323296117642
 10
79.71537541409894
 20
-129.3323296117642
 10
79.56740856300746
 20
-129.3323296117642
 10
79.56740856300746
 20
-129.3323296117642
 10
79.55259465242088
 20
-128.9774847767834
 10
79.38964163596856
 20
-128.9275308922473
 10
79.27543672063253
 20
-128.895836013783
 10
79.27543672063253
 20
-128.895836013783
 10
79.27543672063253
 20
-128.7399454430754
 10
79.27543672063253
 20
-128.7399454430754
 10
79.27543672063253
 20
-128.7399454430754
 10
80.81970077189577
 20
-128.7399454430754
 10
80.81970077189577
 20
-128.7399454430754
 10
80.81970077189577
 20
-128.7399454430754
 10
80.81970077189577
 20
-128.9795518340746
 10
80.81970077189577
 20
-128.9795518340746
 97
        0
 97
        0
 75
     2
 76
     1
 98
        0
  0
SPLINE
  5
F4
330
EE
100
AcDbEntity
  8
_U+30EC_U+30A4_U+30E4_U+30FC 1
370
     0
100
AcDbSpline
210
0.0
220
0.0
230
1.0
 70
    11
 71
     3
 72
    29
 73
    25
 74
     0
 42
0.0000000001
 43
0.0000000001
 12
1.0
 22
0.0
 32
0.0
 13
1.0
 23
0.0
 33
0.0
 40
0.0
 40
0.0
 40
0.0
 40
0.0
 40
1.0
 40
1.0
 40
1.0
 40
2.0
 40
2.0
 40
2.0
 40
3.0
 40
3.0
 40
3.0
 40
4.0
 40
4.0
 40
4.0
 40
5.0
 40
5.0
 40
5.0
 40
6.0
 40
6.0
 40
6.0
 40
7.0
 40
7.0
 40
7.0
 40
8.0
 40
8.0
 40
8.0
 40
8.0
 10
80.64210609963115
 20
-127.244774002477
 30
0.0
 10
80.85139565036008
 20
-127.3601847012329
 30
0.0
 10
80.87051593030321
 20
-127.5455308383393
 30
0.0
 10
80.87051593030321
 20
-127.6698987853568
 30
0.0
 10
80.87051593030321
 20
-127.8416367952965
 30
0.0
 10
80.82400714125234
 20
-127.9932209966475
 30
0.0
 10
80.64210609963115
 20
-128.0948513134624
 30
0.0
 10
80.44745820471452
 20
-128.2056111333132
 30
0.0
 10
80.21043563532933
 20
-128.2261094514504
 30
0.0
 10
80.04765487365128
 20
-128.2261094514504
 30
0.0
 10
79.90364988236784
 20
-128.2261094514504
 30
0.0
 10
79.65198565717034
 20
-128.2080227001529
 30
0.0
 10
79.45320364767143
 20
-128.0948513134624
 30
0.0
 10
79.24994301404169
 20
-127.9796128694808
 30
0.0
 10
79.22668861951625
 20
-127.8077026047668
 30
0.0
 10
79.22668861951625
 20
-127.6698987853568
 30
0.0
 10
79.22668861951625
 20
-127.5002278327083
 30
0.0
 10
79.27113035127597
 20
-127.3465765740661
 30
0.0
 10
79.45320364767143
 20
-127.244774002477
 30
0.0
 10
79.64561223052263
 20
-127.138492806757
 30
0.0
 10
79.8740220611947
 20
-127.1136881192632
 30
0.0
 10
80.04765487365128
 20
-127.1136881192632
 30
0.0
 10
80.2188761192682
 20
-127.1136881192632
 30
0.0
 10
80.44952526200568
 20
-127.1362534946916
 30
0.0
 10
80.64210609963115
 20
-127.244774002477
 30
0.0
  0
SPLINE
  5
F5
330
EE
100
AcDbEntity
  8
_U+30EC_U+30A4_U+30E4_U+30FC 1
370
     0
100
AcDbSpline
210
0.0
220
0.0
230
1.0
 70
    11
 71
     3
 72
    17
 73
    13
 74
     0
 42
0.0000000001
 43
0.0000000001
 12
1.0
 22
0.0
 32
0.0
 13
1.0
 23
0.0
 33
0.0
 40
0.0
 40
0.0
 40
0.0
 40
0.0
 40
1.0
 40
1.0
 40
1.0
 40
2.0
 40
2.0
 40
2.0
 40
3.0
 40
3.0
 40
3.0
 40
4.0
 40
4.0
 40
4.0
 40
4.0
 10
79.41926945714171
 20
-127.6698987853568
 30
0.0
 10
79.41926945714171
 20
-127.9367214306894
 30
0.0
 10
79.70280081557777
 20
-127.986330805677
 30
0.0
 10
80.04765487365128
 20
-127.986330805677
 30
0.0
 10
80.36701522513394
 20
-127.986330805677
 30
0.0
 10
80.67586803538659
 20
-127.9479179910165
 30
0.0
 10
80.67586803538659
 20
-127.6698987853568
 30
0.0
 10
80.67586803538659
 20
-127.4053154520897
 30
0.0
 10
80.39457598901595
 20
-127.3532945102624
 30
0.0
 10
80.04765487365128
 20
-127.3532945102624
 30
0.0
 10
79.72812226739437
 20
-127.3532945102624
 30
0.0
 10
79.41926945714171
 20
-127.3941188917626
 30
0.0
 10
79.41926945714171
 20
-127.6698987853568
 30
0.0
  0
HATCH
  5
F6
330
EE
100
AcDbEntity
  8
_U+30EC_U+30A4_U+30E4_U+30FC 1
 62
   179
420
  2234388
100
AcDbHatch
 10
0.0
 20
0.0
 30
0.0
210
0.0
220
0.0
230
1.0
  2
SOLID
 70
     1
 71
     0
 91
        2
 92
        1
 93
        1
 72
     4
 94
        3
 73
     0
 74
     1
 95
       29
 96
       25
 40
0.0
 40
0.0
 40
0.0
 40
0.0
 40
1.0
 40
1.0
 40
1.0
 40
2.0
 40
2.0
 40
2.0
 40
3.0
 40
3.0
 40
3.0
 40
4.0
 40
4.0
 40
4.0
 40
5.0
 40
5.0
 40
5.0
 40
6.0
 40
6.0
 40
6.0
 40
7.0
 40
7.0
 40
7.0
 40
8.0
 40
8.0
 40
8.0
 40
8.0
 10
80.64210609963115
 20
-127.244774002477
 10
80.85139565036008
 20
-127.3601847012329
 10
80.87051593030321
 20
-127.5455308383393
 10
80.87051593030321
 20
-127.6698987853568
 10
80.87051593030321
 20
-127.8416367952965
 10
80.82400714125234
 20
-127.9932209966475
 10
80.64210609963115
 20
-128.0948513134624
 10
80.44745820471452
 20
-128.2056111333132
 10
80.21043563532933
 20
-128.2261094514504
 10
80.04765487365128
 20
-128.2261094514504
 10
79.90364988236784
 20
-128.2261094514504
 10
79.65198565717034
 20
-128.2080227001529
 10
79.45320364767143
 20
-128.0948513134624
 10
79.24994301404169
 20
-127.9796128694808
 10
79.22668861951625
 20
-127.8077026047668
 10
79.22668861951625
 20
-127.6698987853568
 10
79.22668861951625
 20
-127.5002278327083
 10
79.27113035127597
 20
-127.3465765740661
 10
79.45320364767143
 20
-127.244774002477
 10
79.64561223052263
 20
-127.138492806757
 10
79.8740220611947
 20
-127.1136881192632
 10
80.04765487365128
 20
-127.1136881192632
 10
80.2188761192682
 20
-127.1136881192632
 10
80.44952526200568
 20
-127.1362534946916
 10
80.64210609963115
 20
-127.244774002477
 97
        0
 97
        0
 92
        1
 93
        1
 72
     4
 94
        3
 73
     0
 74
     1
 95
       17
 96
       13
 40
0.0
 40
0.0
 40
0.0
 40
0.0
 40
1.0
 40
1.0
 40
1.0
 40
2.0
 40
2.0
 40
2.0
 40
3.0
 40
3.0
 40
3.0
 40
4.0
 40
4.0
 40
4.0
 40
4.0
 10
79.41926945714171
 20
-127.6698987853568
 10
79.41926945714171
 20
-127.9367214306894
 10
79.70280081557777
 20
-127.986330805677
 10
80.04765487365128
 20
-127.986330805677
 10
80.36701522513394
 20
-127.986330805677
 10
80.67586803538659
 20
-127.9479179910165
 10
80.67586803538659
 20
-127.6698987853568
 10
80.67586803538659
 20
-127.4053154520897
 10
80.39457598901595
 20
-127.3532945102624
 10
80.04765487365128
 20
-127.3532945102624
 10
79.72812226739437
 20
-127.3532945102624
 10
79.41926945714171
 20
-127.3941188917626
 10
79.41926945714171
 20
-127.6698987853568
 97
        0
 97
        0
 75
     2
 76
     1
 98
        0
  0
POLYLINE
  5
F7
330
EE
100
AcDbEntity
  8
_U+30EC_U+30A4_U+30E4_U+30FC 1
370
     0
100
AcDb2dPolyline
 66
     1
 10
0.0
 20
0.0
 30
0.0
  0
VERTEX
  5
F8
330
F7
100
AcDbEntity
  8
_U+30EC_U+30A4_U+30E4_U+30FC 1
370
     0
100
AcDbVertex
100
AcDb2dVertex
 10
80.81970077189577
 20
-126.8823499574287
 30
0.0
  0
VERTEX
  5
F9
330
F7
100
AcDbEntity
  8
_U+30EC_U+30A4_U+30E4_U+30FC 1
370
     0
100
AcDbVertex
100
AcDb2dVertex
 10
80.56803654669827
 20
-126.8823499574287
 30
0.0
  0
VERTEX
  5
FA
330
F7
100
AcDbEntity
  8
_U+30EC_U+30A4_U+30E4_U+30FC 1
370
     0
100
AcDbVertex
100
AcDb2dVertex
 10
80.56803654669827
 20
-126.6132880000307
 30
0.0
  0
VERTEX
  5
FB
330
F7
100
AcDbEntity
  8
_U+30EC_U+30A4_U+30E4_U+30FC 1
370
     0
100
AcDbVertex
100
AcDb2dVertex
 10
80.81970077189577
 20
-126.6132880000307
 30
0.0
  0
VERTEX
  5
FC
330
F7
100
AcDbEntity
  8
_U+30EC_U+30A4_U+30E4_U+30FC 1
370
     0
100
AcDbVertex
100
AcDb2dVertex
 10
80.81970077189577
 20
-126.8823499574287
 30
0.0
  0
SEQEND
  5
FD
330
F7
100
AcDbEntity
  8
_U+30EC_U+30A4_U+30E4_U+30FC 1
370
     0
  0
HATCH
  5
FE
330
EE
100
AcDbEntity
  8
_U+30EC_U+30A4_U+30E4_U+30FC 1
 62
   179
420
  2234388
100
AcDbHatch
 10
0.0
 20
0.0
 30
0.0
210
0.0
220
0.0
230
1.0
  2
SOLID
 70
     1
 71
     0
 91
        1
 92
        1
 93
        4
 72
     1
 10
80.81970077189577
 20
-126.8823499574287
 11
80.56803654669827
 21
-126.8823499574287
 72
     1
 10
80.56803654669827
 20
-126.8823499574287
 11
80.56803654669827
 21
-126.6132880000307
 72
     1
 10
80.56803654669827
 20
-126.6132880000307
 11
80.81970077189577
 21
-126.6132880000307
 72
     1
 10
80.81970077189577
 20
-126.6132880000307
 11
80.81970077189577
 21
-126.8823499574287
 97
        0
 75
     2
 76
     1
 98
        0
  0
SPLINE
  5
FF
330
EE
100
AcDbEntity
  8
_U+30EC_U+30A4_U+30E4_U+30FC 1
370
     0
100
AcDbSpline
210
0.0
220
0.0
230
1.0
 70
    11
 71
     3
 72
    53
 73
    49
 74
     0
 42
0.0000000001
 43
0.0000000001
 12
1.0
 22
0.0
 32
0.0
 13
1.0
 23
0.0
 33
0.0
 40
0.0
 40
0.0
 40
0.0
 40
0.0
 40
1.0
 40
1.0
 40
1.0
 40
2.0
 40
2.0
 40
2.0
 40
3.0
 40
3.0
 40
3.0
 40
4.0
 40
4.0
 40
4.0
 40
5.0
 40
5.0
 40
5.0
 40
6.0
 40
6.0
 40
6.0
 40
7.0
 40
7.0
 40
7.0
 40
8.0
 40
8.0
 40
8.0
 40
9.0
 40
9.0
 40
9.0
 40
10.0
 40
10.0
 40
10.0
 40
11.0
 40
11.0
 40
11.0
 40
12.0
 40
12.0
 40
12.0
 40
13.0
 40
13.0
 40
13.0
 40
14.0
 40
14.0
 40
14.0
 40
15.0
 40
15.0
 40
15.0
 40
16.0
 40
16.0
 40
16.0
 40
16.0
 10
80.87051593030321
 20
-125.8465819997884
 30
0.0
 10
80.87051593030321
 20
-125.9302978200799
 30
0.0
 10
80.85363496242549
 20
-126.0388183278653
 30
0.0
 10
80.79007295072262
 20
-126.1473388356507
 30
0.0
 10
80.68017440474316
 20
-126.3326849727571
 30
0.0
 10
80.54891626675514
 20
-126.3552503481855
 30
0.0
 10
80.44108477806681
 20
-126.3755764115485
 30
0.0
 10
80.44108477806681
 20
-126.3755764115485
 30
0.0
 10
80.44108477806681
 20
-126.1382093326148
 30
0.0
 10
80.44108477806681
 20
-126.1382093326148
 30
0.0
 10
80.63986678756574
 20
-126.0794704545912
 30
0.0
 10
80.66949460873889
 20
-125.9437336924724
 30
0.0
 10
80.66949460873889
 20
-125.8443426877229
 30
0.0
 10
80.66949460873889
 20
-125.6949977984374
 30
0.0
 10
80.57010360398942
 20
-125.5323892915336
 30
0.0
 10
80.33738740396079
 20
-125.5323892915336
 30
0.0
 10
80.08141680940673
 20
-125.5323892915336
 30
0.0
 10
80.01165362583042
 20
-125.7244533648363
 30
0.0
 10
80.01165362583042
 20
-125.8532999359846
 30
0.0
 10
80.01165362583042
 20
-125.8872341265143
 30
0.0
 10
80.01165362583042
 20
-126.0388183278653
 30
0.0
 10
80.14067245175303
 20
-126.1337307084839
 30
0.0
 10
80.14067245175303
 20
-126.1337307084839
 30
0.0
 10
80.1215521718099
 20
-126.3213161576558
 30
0.0
 10
80.1215521718099
 20
-126.3213161576558
 30
0.0
 10
80.1215521718099
 20
-126.3213161576558
 30
0.0
 10
79.27543672063253
 20
-126.1924695865074
 30
0.0
 10
79.27543672063253
 20
-126.1924695865074
 30
0.0
 10
79.27543672063253
 20
-126.1924695865074
 30
0.0
 10
79.27543672063253
 20
-125.3604790268196
 30
0.0
 10
79.27543672063253
 20
-125.3604790268196
 30
0.0
 10
79.27543672063253
 20
-125.3604790268196
 30
0.0
 10
79.47008461554915
 20
-125.3604790268196
 30
0.0
 10
79.47008461554915
 20
-125.3604790268196
 30
0.0
 10
79.47008461554915
 20
-125.3604790268196
 30
0.0
 10
79.47008461554915
 20
-126.0183200097281
 30
0.0
 10
79.47008461554915
 20
-126.0183200097281
 30
0.0
 10
79.47008461554915
 20
-126.0183200097281
 30
0.0
 10
79.89314234113783
 20
-126.0884277028529
 30
0.0
 10
79.89314234113783
 20
-126.0884277028529
 30
0.0
 10
79.85938040538238
 20
-126.0229708886332
 30
0.0
 10
79.81907278820496
 20
-125.9347764442108
 30
0.0
 10
79.81907278820496
 20
-125.8081691851278
 30
0.0
 10
79.81907278820496
 20
-125.5368679156644
 30
0.0
 10
80.0052801991827
 20
-125.2836533974985
 30
0.0
 10
80.31843937879192
 20
-125.2836533974985
 30
0.0
 10
80.63573267298344
 20
-125.2836533974985
 30
0.0
 10
80.87051593030321
 20
-125.5232597884977
 30
0.0
 10
80.87051593030321
 20
-125.8465819997884
 30
0.0
  0
HATCH
  5
100
330
EE
100
AcDbEntity
  8
_U+30EC_U+30A4_U+30E4_U+30FC 1
 62
   179
420
  2234388
100
AcDbHatch
 10
0.0
 20
0.0
 30
0.0
210
0.0
220
0.0
230
1.0
  2
SOLID
 70
     1
 71
     0
 91
        1
 92
        1
 93
        1
 72
     4
 94
        3
 73
     0
 74
     1
 95
       53
 96
       49
 40
0.0
 40
0.0
 40
0.0
 40
0.0
 40
1.0
 40
1.0
 40
1.0
 40
2.0
 40
2.0
 40
2.0
 40
3.0
 40
3.0
 40
3.0
 40
4.0
 40
4.0
 40
4.0
 40
5.0
 40
5.0
 40
5.0
 40
6.0
 40
6.0
 40
6.0
 40
7.0
 40
7.0
 40
7.0
 40
8.0
 40
8.0
 40
8.0
 40
9.0
 40
9.0
 40
9.0
 40
10.0
 40
10.0
 40
10.0
 40
11.0
 40
11.0
 40
11.0
 40
12.0
 40
12.0
 40
12.0
 40
13.0
 40
13.0
 40
13.0
 40
14.0
 40
14.0
 40
14.0
 40
15.0
 40
15.0
 40
15.0
 40
16.0
 40
16.0
 40
16.0
 40
16.0
 10
80.87051593030321
 20
-125.8465819997884
 10
80.87051593030321
 20
-125.9302978200799
 10
80.85363496242549
 20
-126.0388183278653
 10
80.79007295072262
 20
-126.1473388356507
 10
80.68017440474316
 20
-126.3326849727571
 10
80.54891626675514
 20
-126.3552503481855
 10
80.44108477806681
 20
-126.3755764115485
 10
80.44108477806681
 20
-126.3755764115485
 10
80.44108477806681
 20
-126.1382093326148
 10
80.44108477806681
 20
-126.1382093326148
 10
80.63986678756574
 20
-126.0794704545912
 10
80.66949460873889
 20
-125.9437336924724
 10
80.66949460873889
 20
-125.8443426877229
 10
80.66949460873889
 20
-125.6949977984374
 10
80.57010360398942
 20
-125.5323892915336
 10
80.33738740396079
 20
-125.5323892915336
 10
80.08141680940673
 20
-125.5323892915336
 10
80.01165362583042
 20
-125.7244533648363
 10
80.01165362583042
 20
-125.8532999359846
 10
80.01165362583042
 20
-125.8872341265143
 10
80.01165362583042
 20
-126.0388183278653
 10
80.14067245175303
 20
-126.1337307084839
 10
80.14067245175303
 20
-126.1337307084839
 10
80.1215521718099
 20
-126.3213161576558
 10
80.1215521718099
 20
-126.3213161576558
 10
80.1215521718099
 20
-126.3213161576558
 10
79.27543672063253
 20
-126.1924695865074
 10
79.27543672063253
 20
-126.1924695865074
 10
79.27543672063253
 20
-126.1924695865074
 10
79.27543672063253
 20
-125.3604790268196
 10
79.27543672063253
 20
-125.3604790268196
 10
79.27543672063253
 20
-125.3604790268196
 10
79.47008461554915
 20
-125.3604790268196
 10
79.47008461554915
 20
-125.3604790268196
 10
79.47008461554915
 20
-125.3604790268196
 10
79.47008461554915
 20
-126.0183200097281
 10
79.47008461554915
 20
-126.0183200097281
 10
79.47008461554915
 20
-126.0183200097281
 10
79.89314234113783
 20
-126.0884277028529
 10
79.89314234113783
 20
-126.0884277028529
 10
79.85938040538238
 20
-126.0229708886332
 10
79.81907278820496
 20
-125.9347764442108
 10
79.81907278820496
 20
-125.8081691851278
 10
79.81907278820496
 20
-125.5368679156644
 10
80.0052801991827
 20
-125.2836533974985
 10
80.31843937879192
 20
-125.2836533974985
 10
80.63573267298344
 20
-125.2836533974985
 10
80.87051593030321
 20
-125.5232597884977
 10
80.87051593030321
 20
-125.8465819997884
 97
        0
 97
        0
 75
     2
 76
     1
 98
        0
  0
ENDBLK
  5
F1
330
EE
100
AcDbEntity
  8
0
100
AcDbBlockEnd
  0
ENDSEC
  0
SECTION
  2
ENTITIES
  0
SPLINE
  5
41
330
1F
100
AcDbEntity
  8
_U+30EC_U+30A4_U+30E4_U+30FC 1
370
     0
100
AcDbSpline
210
0.0
220
0.0
230
1.0
 70
    11
 71
     3
 72
    47
 73
    43
 74
     0
 42
0.0000000001
 43
0.0000000001
 12
1.0
 22
0.0
 32
0.0
 13
1.0
 23
0.0
 33
0.0
 40
0.0
 40
0.0
 40
0.0
 40
0.0
 40
1.0
 40
1.0
 40
1.0
 40
2.0
 40
2.0
 40
2.0
 40
3.0
 40
3.0
 40
3.0
 40
4.0
 40
4.0
 40
4.0
 40
5.0
 40
5.0
 40
5.0
 40
6.0
 40
6.0
 40
6.0
 40
7.0
 40
7.0
 40
7.0
 40
8.0
 40
8.0
 40
8.0
 40
9.0
 40
9.0
 40
9.0
 40
10.0
 40
10.0
 40
10.0
 40
11.0
 40
11.0
 40
11.0
 40
12.0
 40
12.0
 40
12.0
 40
13.0
 40
13.0
 40
13.0
 40
14.0
 40
14.0
 40
14.0
 40
14.0
 10
95.17041090533387
 20
-131.6505283004207
 30
0.0
 10
95.16388451661149
 20
-131.6574074670858
 30
0.0
 10
95.15492396128454
 20
-131.6615702448626
 30
0.0
 10
95.14525785042002
 20
-131.6615702448626
 30
0.0
 10
95.12596090646788
 20
-131.6615702448626
 30
0.0
 10
95.11012118464977
 20
-131.6456952448666
 30
0.0
 10
95.11012118464977
 20
-131.6264335782043
 30
0.0
 10
95.11012118464977
 20
-131.6264335782043
 30
0.0
 10
86.19285168992604
 20
-131.6264335782043
 30
0.0
 10
86.19285168992604
 20
-131.6264335782043
 30
0.0
 10
86.19285168992604
 20
-131.6264335782043
 30
0.0
 10
86.19285168992604
 20
-124.7717144132516
 30
0.0
 10
86.19285168992604
 20
-124.7717144132516
 30
0.0
 10
86.19285168992604
 20
-124.7717144132516
 30
0.0
 10
89.18454828026817
 20
-128.1262077457462
 30
0.0
 10
89.18454828026817
 20
-128.1262077457462
 30
0.0
 10
89.18454828026817
 20
-128.1262077457462
 30
0.0
 10
90.44890380356733
 20
-128.1262077457462
 30
0.0
 10
90.44890380356733
 20
-128.1262077457462
 30
0.0
 10
90.44890380356733
 20
-128.1155185790821
 30
0.0
 10
90.45408963676836
 20
-128.1069108013067
 30
0.0
 10
90.4613215810283
 20
-128.1003491346415
 30
0.0
 10
90.4613215810283
 20
-128.1003491346415
 30
0.0
 10
85.21579838151942
 20
-122.1517044139066
 30
0.0
 10
85.21579838151942
 20
-122.1517044139066
 30
0.0
 10
85.20962477056581
 20
-122.1572430250163
 30
0.0
 10
85.20204004853709
 20
-122.1613705250152
 30
0.0
 10
85.19307949321013
 20
-122.1613705250152
 30
0.0
 10
85.19307949321013
 20
-122.1613705250152
 30
0.0
 10
85.19307949321013
 20
-132.5910338557409
 30
0.0
 10
85.19307949321013
 20
-132.5910338557409
 30
0.0
 10
85.21237643716228
 20
-132.5910338557409
 30
0.0
 10
85.22821615898039
 20
-132.606908855737
 30
0.0
 10
85.22821615898039
 20
-132.6261705223993
 30
0.0
 10
85.22821615898039
 20
-132.6261705223993
 30
0.0
 10
96.1574478245969
 20
-132.6261705223993
 30
0.0
 10
96.1574478245969
 20
-132.6261705223993
 30
0.0
 10
96.1574478245969
 20
-132.6168924668456
 30
0.0
 10
96.16157775373765
 20
-132.6086021890701
 30
0.0
 10
96.16778421322209
 20
-132.6020758001828
 30
0.0
 10
96.16778421322209
 20
-132.6020758001828
 30
0.0
 10
95.17041090533387
 20
-131.6505283004207
 30
0.0
 10
95.17041090533387
 20
-131.6505283004207
 30
0.0
  0
HATCH
  5
42
330
1F
100
AcDbEntity
  8
_U+30EC_U+30A4_U+30E4_U+30FC 1
 62
   253
420
 11711154
100
AcDbHatch
 10
0.0
 20
0.0
 30
0.0
210
0.0
220
0.0
230
1.0
  2
SOLID
 70
     1
 71
     0
 91
        1
 92
        1
 93
        1
 72
     4
 94
        3
 73
     0
 74
     1
 95
       47
 96
       43
 40
0.0
 40
0.0
 40
0.0
 40
0.0
 40
1.0
 40
1.0
 40
1.0
 40
2.0
 40
2.0
 40
2.0
 40
3.0
 40
3.0
 40
3.0
 40
4.0
 40
4.0
 40
4.0
 40
5.0
 40
5.0
 40
5.0
 40
6.0
 40
6.0
 40
6.0
 40
7.0
 40
7.0
 40
7.0
 40
8.0
 40
8.0
 40
8.0
 40
9.0
 40
9.0
 40
9.0
 40
10.0
 40
10.0
 40
10.0
 40
11.0
 40
11.0
 40
11.0
 40
12.0
 40
12.0
 40
12.0
 40
13.0
 40
13.0
 40
13.0
 40
14.0
 40
14.0
 40
14.0
 40
14.0
 10
95.17041090533387
 20
-131.6505283004207
 10
95.16388451661149
 20
-131.6574074670858
 10
95.15492396128454
 20
-131.6615702448626
 10
95.14525785042002
 20
-131.6615702448626
 10
95.12596090646788
 20
-131.6615702448626
 10
95.11012118464977
 20
-131.6456952448666
 10
95.11012118464977
 20
-131.6264335782043
 10
95.11012118464977
 20
-131.6264335782043
 10
86.19285168992604
 20
-131.6264335782043
 10
86.19285168992604
 20
-131.6264335782043
 10
86.19285168992604
 20
-131.6264335782043
 10
86.19285168992604
 20
-124.7717144132516
 10
86.19285168992604
 20
-124.7717144132516
 10
86.19285168992604
 20
-124.7717144132516
 10
89.18454828026817
 20
-128.1262077457462
 10
89.18454828026817
 20
-128.1262077457462
 10
89.18454828026817
 20
-128.1262077457462
 10
90.44890380356733
 20
-128.1262077457462
 10
90.44890380356733
 20
-128.1262077457462
 10
90.44890380356733
 20
-128.1155185790821
 10
90.45408963676836
 20
-128.1069108013067
 10
90.4613215810283
 20
-128.1003491346415
 10
90.4613215810283
 20
-128.1003491346415
 10
85.21579838151942
 20
-122.1517044139066
 10
85.21579838151942
 20
-122.1517044139066
 10
85.20962477056581
 20
-122.1572430250163
 10
85.20204004853709
 20
-122.1613705250152
 10
85.19307949321013
 20
-122.1613705250152
 10
85.19307949321013
 20
-122.1613705250152
 10
85.19307949321013
 20
-132.5910338557409
 10
85.19307949321013
 20
-132.5910338557409
 10
85.21237643716228
 20
-132.5910338557409
 10
85.22821615898039
 20
-132.606908855737
 10
85.22821615898039
 20
-132.6261705223993
 10
85.22821615898039
 20
-132.6261705223993
 10
96.1574478245969
 20
-132.6261705223993
 10
96.1574478245969
 20
-132.6261705223993
 10
96.1574478245969
 20
-132.6168924668456
 10
96.16157775373765
 20
-132.6086021890701
 10
96.16778421322209
 20
-132.6020758001828
 10
96.16778421322209
 20
-132.6020758001828
 10
95.17041090533387
 20
-131.6505283004207
 10
95.17041090533387
 20
-131.6505283004207
 97
        0
 97
        0
 75
     2
 76
     1
 98
        0
  0
SPLINE
  5
43
330
1F
100
AcDbEntity
  8
_U+30EC_U+30A4_U+30E4_U+30FC 1
370
     0
100
AcDbSpline
210
0.0
220
0.0
230
1.0
 70
    11
 71
     3
 72
    20
 73
    16
 74
     0
 42
0.0000000001
 43
0.0000000001
 12
1.0
 22
0.0
 32
0.0
 13
1.0
 23
0.0
 33
0.0
 40
0.0
 40
0.0
 40
0.0
 40
0.0
 40
1.0
 40
1.0
 40
1.0
 40
2.0
 40
2.0
 40
2.0
 40
3.0
 40
3.0
 40
3.0
 40
4.0
 40
4.0
 40
4.0
 40
5.0
 40
5.0
 40
5.0
 40
5.0
 10
95.17041090533387
 20
-131.6505283004207
 30
0.0
 10
95.17662219842788
 20
-131.6443194115337
 30
0.0
 10
95.18039451619028
 20
-131.635711633758
 30
0.0
 10
95.18039451619028
 20
-131.6264335782043
 30
0.0
 10
95.18039451619028
 20
-131.6064310782095
 30
0.0
 10
95.16455479437217
 20
-131.590591355991
 30
0.0
 10
95.14525785042002
 20
-131.590591355991
 30
0.0
 10
95.12596090646788
 20
-131.590591355991
 30
0.0
 10
95.11012118464977
 20
-131.6064310782095
 30
0.0
 10
95.11012118464977
 20
-131.6264335782043
 30
0.0
 10
95.11012118464977
 20
-131.6264335782043
 30
0.0
 10
95.14525785042002
 20
-131.6264335782043
 30
0.0
 10
95.14525785042002
 20
-131.6264335782043
 30
0.0
 10
95.14525785042002
 20
-131.6264335782043
 30
0.0
 10
95.17041090533387
 20
-131.6505283004207
 30
0.0
 10
95.17041090533387
 20
-131.6505283004207
 30
0.0
  0
HATCH
  5
44
330
1F
100
AcDbEntity
  8
_U+30EC_U+30A4_U+30E4_U+30FC 1
 62
   253
420
 11711154
100
AcDbHatch
 10
0.0
 20
0.0
 30
0.0
210
0.0
220
0.0
230
1.0
  2
SOLID
 70
     1
 71
     0
 91
        1
 92
        1
 93
        1
 72
     4
 94
        3
 73
     0
 74
     1
 95
       20
 96
       16
 40
0.0
 40
0.0
 40
0.0
 40
0.0
 40
1.0
 40
1.0
 40
1.0
 40
2.0
 40
2.0
 40
2.0
 40
3.0
 40
3.0
 40
3.0
 40
4.0
 40
4.0
 40
4.0
 40
5.0
 40
5.0
 40
5.0
 40
5.0
 10
95.17041090533387
 20
-131.6505283004207
 10
95.17662219842788
 20
-131.6443194115337
 10
95.18039451619028
 20
-131.635711633758
 10
95.18039451619028
 20
-131.6264335782043
 10
95.18039451619028
 20
-131.6064310782095
 10
95.16455479437217
 20
-131.590591355991
 10
95.14525785042002
 20
-131.590591355991
 10
95.12596090646788
 20
-131.590591355991
 10
95.11012118464977
 20
-131.6064310782095
 10
95.11012118464977
 20
-131.6264335782043
 10
95.11012118464977
 20
-131.6264335782043
 10
95.14525785042002
 20
-131.6264335782043
 10
95.14525785042002
 20
-131.6264335782043
 10
95.14525785042002
 20
-131.6264335782043
 10
95.17041090533387
 20
-131.6505283004207
 10
95.17041090533387
 20
-131.6505283004207
 97
        0
 97
        0
 75
     2
 76
     1
 98
        0
  0
SPLINE
  5
45
330
1F
100
AcDbEntity
  8
_U+30EC_U+30A4_U+30E4_U+30FC 1
370
     0
100
AcDbSpline
210
0.0
220
0.0
230
1.0
 70
    11
 71
     3
 72
    17
 73
    13
 74
     0
 42
0.0000000001
 43
0.0000000001
 12
1.0
 22
0.0
 32
0.0
 13
1.0
 23
0.0
 33
0.0
 40
0.0
 40
0.0
 40
0.0
 40
0.0
 40
1.0
 40
1.0
 40
1.0
 40
2.0
 40
2.0
 40
2.0
 40
3.0
 40
3.0
 40
3.0
 40
4.0
 40
4.0
 40
4.0
 40
4.0
 10
95.14525785042002
 20
-131.6615702448626
 30
0.0
 10
95.15492396128454
 20
-131.6615702448626
 30
0.0
 10
95.16388451661149
 20
-131.6574074670858
 30
0.0
 10
95.17041090533387
 20
-131.6505283004207
 30
0.0
 10
95.17041090533387
 20
-131.6505283004207
 30
0.0
 10
95.14525785042002
 20
-131.6264335782043
 30
0.0
 10
95.14525785042002
 20
-131.6264335782043
 30
0.0
 10
95.14525785042002
 20
-131.6264335782043
 30
0.0
 10
95.11012118464977
 20
-131.6264335782043
 30
0.0
 10
95.11012118464977
 20
-131.6264335782043
 30
0.0
 10
95.11012118464977
 20
-131.6456952448666
 30
0.0
 10
95.12596090646788
 20
-131.6615702448626
 30
0.0
 10
95.14525785042002
 20
-131.6615702448626
 30
0.0
  0
HATCH
  5
46
330
1F
100
AcDbEntity
  8
_U+30EC_U+30A4_U+30E4_U+30FC 1
 62
   253
420
 11711154
100
AcDbHatch
 10
0.0
 20
0.0
 30
0.0
210
0.0
220
0.0
230
1.0
  2
SOLID
 70
     1
 71
     0
 91
        1
 92
        1
 93
        1
 72
     4
 94
        3
 73
     0
 74
     1
 95
       17
 96
       13
 40
0.0
 40
0.0
 40
0.0
 40
0.0
 40
1.0
 40
1.0
 40
1.0
 40
2.0
 40
2.0
 40
2.0
 40
3.0
 40
3.0
 40
3.0
 40
4.0
 40
4.0
 40
4.0
 40
4.0
 10
95.14525785042002
 20
-131.6615702448626
 10
95.15492396128454
 20
-131.6615702448626
 10
95.16388451661149
 20
-131.6574074670858
 10
95.17041090533387
 20
-131.6505283004207
 10
95.17041090533387
 20
-131.6505283004207
 10
95.14525785042002
 20
-131.6264335782043
 10
95.14525785042002
 20
-131.6264335782043
 10
95.14525785042002
 20
-131.6264335782043
 10
95.11012118464977
 20
-131.6264335782043
 10
95.11012118464977
 20
-131.6264335782043
 10
95.11012118464977
 20
-131.6456952448666
 10
95.12596090646788
 20
-131.6615702448626
 10
95.14525785042002
 20
-131.6615702448626
 97
        0
 97
        0
 75
     2
 76
     1
 98
        0
  0
SPLINE
  5
47
330
1F
100
AcDbEntity
  8
_U+30EC_U+30A4_U+30E4_U+30FC 1
370
     0
100
AcDbSpline
210
0.0
220
0.0
230
1.0
 70
    11
 71
     3
 72
    14
 73
    10
 74
     0
 42
0.0000000001
 43
0.0000000001
 12
1.0
 22
0.0
 32
0.0
 13
1.0
 23
0.0
 33
0.0
 40
0.0
 40
0.0
 40
0.0
 40
0.0
 40
1.0
 40
1.0
 40
1.0
 40
2.0
 40
2.0
 40
2.0
 40
3.0
 40
3.0
 40
3.0
 40
3.0
 10
90.44890380356733
 20
-128.1262077457462
 30
0.0
 10
90.44890380356733
 20
-128.1262077457462
 30
0.0
 10
90.48404046933759
 20
-128.1262077457462
 30
0.0
 10
90.48404046933759
 20
-128.1262077457462
 30
0.0
 10
90.48404046933759
 20
-128.1262077457462
 30
0.0
 10
90.4613215810283
 20
-128.1003491346415
 30
0.0
 10
90.4613215810283
 20
-128.1003491346415
 30
0.0
 10
90.45408963676836
 20
-128.1069108013067
 30
0.0
 10
90.44890380356733
 20
-128.1155185790821
 30
0.0
 10
90.44890380356733
 20
-128.1262077457462
 30
0.0
  0
HATCH
  5
48
330
1F
100
AcDbEntity
  8
_U+30EC_U+30A4_U+30E4_U+30FC 1
 62
   253
420
 11711154
100
AcDbHatch
 10
0.0
 20
0.0
 30
0.0
210
0.0
220
0.0
230
1.0
  2
SOLID
 70
     1
 71
     0
 91
        1
 92
        1
 93
        1
 72
     4
 94
        3
 73
     0
 74
     1
 95
       14
 96
       10
 40
0.0
 40
0.0
 40
0.0
 40
0.0
 40
1.0
 40
1.0
 40
1.0
 40
2.0
 40
2.0
 40
2.0
 40
3.0
 40
3.0
 40
3.0
 40
3.0
 10
90.44890380356733
 20
-128.1262077457462
 10
90.44890380356733
 20
-128.1262077457462
 10
90.48404046933759
 20
-128.1262077457462
 10
90.48404046933759
 20
-128.1262077457462
 10
90.48404046933759
 20
-128.1262077457462
 10
90.4613215810283
 20
-128.1003491346415
 10
90.4613215810283
 20
-128.1003491346415
 10
90.45408963676836
 20
-128.1069108013067
 10
90.44890380356733
 20
-128.1155185790821
 10
90.44890380356733
 20
-128.1262077457462
 97
        0
 97
        0
 75
     2
 76
     1
 98
        0
  0
SPLINE
  5
49
330
1F
100
AcDbEntity
  8
_U+30EC_U+30A4_U+30E4_U+30FC 1
370
     0
100
AcDbSpline
210
0.0
220
0.0
230
1.0
 70
    11
 71
     3
 72
    23
 73
    19
 74
     0
 42
0.0000000001
 43
0.0000000001
 12
1.0
 22
0.0
 32
0.0
 13
1.0
 23
0.0
 33
0.0
 40
0.0
 40
0.0
 40
0.0
 40
0.0
 40
1.0
 40
1.0
 40
1.0
 40
2.0
 40
2.0
 40
2.0
 40
3.0
 40
3.0
 40
3.0
 40
4.0
 40
4.0
 40
4.0
 40
5.0
 40
5.0
 40
5.0
 40
6.0
 40
6.0
 40
6.0
 40
6.0
 10
90.44890380356733
 20
-128.1262077457462
 30
0.0
 10
90.44890380356733
 20
-128.1455046901857
 30
0.0
 10
90.46474352538544
 20
-128.1613444124042
 30
0.0
 10
90.48404046933759
 20
-128.1613444124042
 30
0.0
 10
90.50404296882728
 20
-128.1613444124042
 30
0.0
 10
90.5198826906454
 20
-128.1455046901857
 30
0.0
 10
90.5198826906454
 20
-128.1262077457462
 30
0.0
 10
90.5198826906454
 20
-128.1065580235289
 30
0.0
 10
90.50404296882728
 20
-128.0907183013107
 30
0.0
 10
90.48404046933759
 20
-128.0907183013107
 30
0.0
 10
90.47507991401064
 20
-128.0907183013107
 30
0.0
 10
90.4675304697588
 20
-128.0948458013097
 30
0.0
 10
90.4613215810283
 20
-128.1003491346415
 30
0.0
 10
90.4613215810283
 20
-128.1003491346415
 30
0.0
 10
90.48404046933759
 20
-128.1262077457462
 30
0.0
 10
90.48404046933759
 20
-128.1262077457462
 30
0.0
 10
90.48404046933759
 20
-128.1262077457462
 30
0.0
 10
90.44890380356733
 20
-128.1262077457462
 30
0.0
 10
90.44890380356733
 20
-128.1262077457462
 30
0.0
  0
HATCH
  5
4A
330
1F
100
AcDbEntity
  8
_U+30EC_U+30A4_U+30E4_U+30FC 1
 62
   253
420
 11711154
100
AcDbHatch
 10
0.0
 20
0.0
 30
0.0
210
0.0
220
0.0
230
1.0
  2
SOLID
 70
     1
 71
     0
 91
        1
 92
        1
 93
        1
 72
     4
 94
        3
 73
     0
 74
     1
 95
       23
 96
       19
 40
0.0
 40
0.0
 40
0.0
 40
0.0
 40
1.0
 40
1.0
 40
1.0
 40
2.0
 40
2.0
 40
2.0
 40
3.0
 40
3.0
 40
3.0
 40
4.0
 40
4.0
 40
4.0
 40
5.0
 40
5.0
 40
5.0
 40
6.0
 40
6.0
 40
6.0
 40
6.0
 10
90.44890380356733
 20
-128.1262077457462
 10
90.44890380356733
 20
-128.1455046901857
 10
90.46474352538544
 20
-128.1613444124042
 10
90.48404046933759
 20
-128.1613444124042
 10
90.50404296882728
 20
-128.1613444124042
 10
90.5198826906454
 20
-128.1455046901857
 10
90.5198826906454
 20
-128.1262077457462
 10
90.5198826906454
 20
-128.1065580235289
 10
90.50404296882728
 20
-128.0907183013107
 10
90.48404046933759
 20
-128.0907183013107
 10
90.47507991401064
 20
-128.0907183013107
 10
90.4675304697588
 20
-128.0948458013097
 10
90.4613215810283
 20
-128.1003491346415
 10
90.4613215810283
 20
-128.1003491346415
 10
90.48404046933759
 20
-128.1262077457462
 10
90.48404046933759
 20
-128.1262077457462
 10
90.48404046933759
 20
-128.1262077457462
 10
90.44890380356733
 20
-128.1262077457462
 10
90.44890380356733
 20
-128.1262077457462
 97
        0
 97
        0
 75
     2
 76
     1
 98
        0
  0
SPLINE
  5
4B
330
1F
100
AcDbEntity
  8
_U+30EC_U+30A4_U+30E4_U+30FC 1
370
     0
100
AcDbSpline
210
0.0
220
0.0
230
1.0
 70
    11
 71
     3
 72
    23
 73
    19
 74
     0
 42
0.0000000001
 43
0.0000000001
 12
1.0
 22
0.0
 32
0.0
 13
1.0
 23
0.0
 33
0.0
 40
0.0
 40
0.0
 40
0.0
 40
0.0
 40
1.0
 40
1.0
 40
1.0
 40
2.0
 40
2.0
 40
2.0
 40
3.0
 40
3.0
 40
3.0
 40
4.0
 40
4.0
 40
4.0
 40
5.0
 40
5.0
 40
5.0
 40
6.0
 40
6.0
 40
6.0
 40
6.0
 10
96.19258449036717
 20
-132.5910338557409
 30
0.0
 10
96.18291837950265
 20
-132.5910338557409
 30
0.0
 10
96.1739578241757
 20
-132.595514133518
 30
0.0
 10
96.16778421322209
 20
-132.6020758001828
 30
0.0
 10
96.16778421322209
 20
-132.6020758001828
 30
0.0
 10
96.19258449036717
 20
-132.6261705223993
 30
0.0
 10
96.19258449036717
 20
-132.6261705223993
 30
0.0
 10
96.19258449036717
 20
-132.6261705223993
 30
0.0
 10
96.1574478245969
 20
-132.6261705223993
 30
0.0
 10
96.1574478245969
 20
-132.6261705223993
 30
0.0
 10
96.1574478245969
 20
-132.6454674668385
 30
0.0
 10
96.17328754641503
 20
-132.6613424668345
 30
0.0
 10
96.19258449036717
 20
-132.6613424668345
 30
0.0
 10
96.21255171207999
 20
-132.6613424668345
 30
0.0
 10
96.22772115613742
 20
-132.6454674668385
 30
0.0
 10
96.22772115613742
 20
-132.6261705223993
 30
0.0
 10
96.22772115613742
 20
-132.606908855737
 30
0.0
 10
96.21255171207999
 20
-132.5910338557409
 30
0.0
 10
96.19258449036717
 20
-132.5910338557409
 30
0.0
  0
HATCH
  5
4C
330
1F
100
AcDbEntity
  8
_U+30EC_U+30A4_U+30E4_U+30FC 1
 62
   253
420
 11711154
100
AcDbHatch
 10
0.0
 20
0.0
 30
0.0
210
0.0
220
0.0
230
1.0
  2
SOLID
 70
     1
 71
     0
 91
        1
 92
        1
 93
        1
 72
     4
 94
        3
 73
     0
 74
     1
 95
       23
 96
       19
 40
0.0
 40
0.0
 40
0.0
 40
0.0
 40
1.0
 40
1.0
 40
1.0
 40
2.0
 40
2.0
 40
2.0
 40
3.0
 40
3.0
 40
3.0
 40
4.0
 40
4.0
 40
4.0
 40
5.0
 40
5.0
 40
5.0
 40
6.0
 40
6.0
 40
6.0
 40
6.0
 10
96.19258449036717
 20
-132.5910338557409
 10
96.18291837950265
 20
-132.5910338557409
 10
96.1739578241757
 20
-132.595514133518
 10
96.16778421322209
 20
-132.6020758001828
 10
96.16778421322209
 20
-132.6020758001828
 10
96.19258449036717
 20
-132.6261705223993
 10
96.19258449036717
 20
-132.6261705223993
 10
96.19258449036717
 20
-132.6261705223993
 10
96.1574478245969
 20
-132.6261705223993
 10
96.1574478245969
 20
-132.6261705223993
 10
96.1574478245969
 20
-132.6454674668385
 10
96.17328754641503
 20
-132.6613424668345
 10
96.19258449036717
 20
-132.6613424668345
 10
96.21255171207999
 20
-132.6613424668345
 10
96.22772115613742
 20
-132.6454674668385
 10
96.22772115613742
 20
-132.6261705223993
 10
96.22772115613742
 20
-132.606908855737
 10
96.21255171207999
 20
-132.5910338557409
 10
96.19258449036717
 20
-132.5910338557409
 97
        0
 97
        0
 75
     2
 76
     1
 98
        0
  0
SPLINE
  5
4D
330
1F
100
AcDbEntity
  8
_U+30EC_U+30A4_U+30E4_U+30FC 1
370
     0
100
AcDbSpline
210
0.0
220
0.0
230
1.0
 70
    11
 71
     3
 72
    14
 73
    10
 74
     0
 42
0.0000000001
 43
0.0000000001
 12
1.0
 22
0.0
 32
0.0
 13
1.0
 23
0.0
 33
0.0
 40
0.0
 40
0.0
 40
0.0
 40
0.0
 40
1.0
 40
1.0
 40
1.0
 40
2.0
 40
2.0
 40
2.0
 40
3.0
 40
3.0
 40
3.0
 40
3.0
 10
96.16778421322209
 20
-132.6020758001828
 30
0.0
 10
96.16157775373765
 20
-132.6086021890701
 30
0.0
 10
96.1574478245969
 20
-132.6168924668456
 30
0.0
 10
96.1574478245969
 20
-132.6261705223993
 30
0.0
 10
96.1574478245969
 20
-132.6261705223993
 30
0.0
 10
96.19258449036717
 20
-132.6261705223993
 30
0.0
 10
96.19258449036717
 20
-132.6261705223993
 30
0.0
 10
96.19258449036717
 20
-132.6261705223993
 30
0.0
 10
96.16778421322209
 20
-132.6020758001828
 30
0.0
 10
96.16778421322209
 20
-132.6020758001828
 30
0.0
  0
HATCH
  5
4E
330
1F
100
AcDbEntity
  8
_U+30EC_U+30A4_U+30E4_U+30FC 1
 62
   253
420
 11711154
100
AcDbHatch
 10
0.0
 20
0.0
 30
0.0
210
0.0
220
0.0
230
1.0
  2
SOLID
 70
     1
 71
     0
 91
        1
 92
        1
 93
        1
 72
     4
 94
        3
 73
     0
 74
     1
 95
       14
 96
       10
 40
0.0
 40
0.0
 40
0.0
 40
0.0
 40
1.0
 40
1.0
 40
1.0
 40
2.0
 40
2.0
 40
2.0
 40
3.0
 40
3.0
 40
3.0
 40
3.0
 10
96.16778421322209
 20
-132.6020758001828
 10
96.16157775373765
 20
-132.6086021890701
 10
96.1574478245969
 20
-132.6168924668456
 10
96.1574478245969
 20
-132.6261705223993
 10
96.1574478245969
 20
-132.6261705223993
 10
96.19258449036717
 20
-132.6261705223993
 10
96.19258449036717
 20
-132.6261705223993
 10
96.19258449036717
 20
-132.6261705223993
 10
96.16778421322209
 20
-132.6020758001828
 10
96.16778421322209
 20
-132.6020758001828
 97
        0
 97
        0
 75
     2
 76
     1
 98
        0
  0
SPLINE
  5
4F
330
1F
100
AcDbEntity
  8
_U+30EC_U+30A4_U+30E4_U+30FC 1
370
     0
100
AcDbSpline
210
0.0
220
0.0
230
1.0
 70
    11
 71
     3
 72
    23
 73
    19
 74
     0
 42
0.0000000001
 43
0.0000000001
 12
1.0
 22
0.0
 32
0.0
 13
1.0
 23
0.0
 33
0.0
 40
0.0
 40
0.0
 40
0.0
 40
0.0
 40
1.0
 40
1.0
 40
1.0
 40
2.0
 40
2.0
 40
2.0
 40
3.0
 40
3.0
 40
3.0
 40
4.0
 40
4.0
 40
4.0
 40
5.0
 40
5.0
 40
5.0
 40
6.0
 40
6.0
 40
6.0
 40
6.0
 10
85.21579838151942
 20
-122.1517044139066
 30
0.0
 10
85.22303032577936
 20
-122.1451780250193
 30
0.0
 10
85.22821615898039
 20
-122.1365702472436
 30
0.0
 10
85.22821615898039
 20
-122.1258810805797
 30
0.0
 10
85.22821615898039
 20
-122.1065841361399
 30
0.0
 10
85.21237643716228
 20
-122.0907444139217
 30
0.0
 10
85.19307949321013
 20
-122.0907444139217
 30
0.0
 10
85.17307699372044
 20
-122.0907444139217
 30
0.0
 10
85.15723727190233
 20
-122.1065841361399
 30
0.0
 10
85.15723727190233
 20
-122.1258810805797
 30
0.0
 10
85.15723727190233
 20
-122.145530802797
 30
0.0
 10
85.17307699372044
 20
-122.1613705250152
 30
0.0
 10
85.19307949321013
 20
-122.1613705250152
 30
0.0
 10
85.19307949321013
 20
-122.1613705250152
 30
0.0
 10
85.19307949321013
 20
-122.1258810805797
 30
0.0
 10
85.19307949321013
 20
-122.1258810805797
 30
0.0
 10
85.19307949321013
 20
-122.1258810805797
 30
0.0
 10
85.21579838151942
 20
-122.1517044139066
 30
0.0
 10
85.21579838151942
 20
-122.1517044139066
 30
0.0
  0
HATCH
  5
50
330
1F
100
AcDbEntity
  8
_U+30EC_U+30A4_U+30E4_U+30FC 1
 62
   253
420
 11711154
100
AcDbHatch
 10
0.0
 20
0.0
 30
0.0
210
0.0
220
0.0
230
1.0
  2
SOLID
 70
     1
 71
     0
 91
        1
 92
        1
 93
        1
 72
     4
 94
        3
 73
     0
 74
     1
 95
       23
 96
       19
 40
0.0
 40
0.0
 40
0.0
 40
0.0
 40
1.0
 40
1.0
 40
1.0
 40
2.0
 40
2.0
 40
2.0
 40
3.0
 40
3.0
 40
3.0
 40
4.0
 40
4.0
 40
4.0
 40
5.0
 40
5.0
 40
5.0
 40
6.0
 40
6.0
 40
6.0
 40
6.0
 10
85.21579838151942
 20
-122.1517044139066
 10
85.22303032577936
 20
-122.1451780250193
 10
85.22821615898039
 20
-122.1365702472436
 10
85.22821615898039
 20
-122.1258810805797
 10
85.22821615898039
 20
-122.1065841361399
 10
85.21237643716228
 20
-122.0907444139217
 10
85.19307949321013
 20
-122.0907444139217
 10
85.17307699372044
 20
-122.0907444139217
 10
85.15723727190233
 20
-122.1065841361399
 10
85.15723727190233
 20
-122.1258810805797
 10
85.15723727190233
 20
-122.145530802797
 10
85.17307699372044
 20
-122.1613705250152
 10
85.19307949321013
 20
-122.1613705250152
 10
85.19307949321013
 20
-122.1613705250152
 10
85.19307949321013
 20
-122.1258810805797
 10
85.19307949321013
 20
-122.1258810805797
 10
85.19307949321013
 20
-122.1258810805797
 10
85.21579838151942
 20
-122.1517044139066
 10
85.21579838151942
 20
-122.1517044139066
 97
        0
 97
        0
 75
     2
 76
     1
 98
        0
  0
SPLINE
  5
51
330
1F
100
AcDbEntity
  8
_U+30EC_U+30A4_U+30E4_U+30FC 1
370
     0
100
AcDbSpline
210
0.0
220
0.0
230
1.0
 70
    11
 71
     3
 72
    14
 73
    10
 74
     0
 42
0.0000000001
 43
0.0000000001
 12
1.0
 22
0.0
 32
0.0
 13
1.0
 23
0.0
 33
0.0
 40
0.0
 40
0.0
 40
0.0
 40
0.0
 40
1.0
 40
1.0
 40
1.0
 40
2.0
 40
2.0
 40
2.0
 40
3.0
 40
3.0
 40
3.0
 40
3.0
 10
85.19307949321013
 20
-122.1258810805797
 30
0.0
 10
85.19307949321013
 20
-122.1258810805797
 30
0.0
 10
85.19307949321013
 20
-122.1613705250152
 30
0.0
 10
85.19307949321013
 20
-122.1613705250152
 30
0.0
 10
85.20204004853709
 20
-122.1613705250152
 30
0.0
 10
85.20962477056581
 20
-122.1572430250163
 30
0.0
 10
85.21579838151942
 20
-122.1517044139066
 30
0.0
 10
85.21579838151942
 20
-122.1517044139066
 30
0.0
 10
85.19307949321013
 20
-122.1258810805797
 30
0.0
 10
85.19307949321013
 20
-122.1258810805797
 30
0.0
  0
HATCH
  5
52
330
1F
100
AcDbEntity
  8
_U+30EC_U+30A4_U+30E4_U+30FC 1
 62
   253
420
 11711154
100
AcDbHatch
 10
0.0
 20
0.0
 30
0.0
210
0.0
220
0.0
230
1.0
  2
SOLID
 70
     1
 71
     0
 91
        1
 92
        1
 93
        1
 72
     4
 94
        3
 73
     0
 74
     1
 95
       14
 96
       10
 40
0.0
 40
0.0
 40
0.0
 40
0.0
 40
1.0
 40
1.0
 40
1.0
 40
2.0
 40
2.0
 40
2.0
 40
3.0
 40
3.0
 40
3.0
 40
3.0
 10
85.19307949321013
 20
-122.1258810805797
 10
85.19307949321013
 20
-122.1258810805797
 10
85.19307949321013
 20
-122.1613705250152
 10
85.19307949321013
 20
-122.1613705250152
 10
85.20204004853709
 20
-122.1613705250152
 10
85.20962477056581
 20
-122.1572430250163
 10
85.21579838151942
 20
-122.1517044139066
 10
85.21579838151942
 20
-122.1517044139066
 10
85.19307949321013
 20
-122.1258810805797
 10
85.19307949321013
 20
-122.1258810805797
 97
        0
 97
        0
 75
     2
 76
     1
 98
        0
  0
SPLINE
  5
53
330
1F
100
AcDbEntity
  8
_U+30EC_U+30A4_U+30E4_U+30FC 1
370
     0
100
AcDbSpline
210
0.0
220
0.0
230
1.0
 70
    11
 71
     3
 72
    20
 73
    16
 74
     0
 42
0.0000000001
 43
0.0000000001
 12
1.0
 22
0.0
 32
0.0
 13
1.0
 23
0.0
 33
0.0
 40
0.0
 40
0.0
 40
0.0
 40
0.0
 40
1.0
 40
1.0
 40
1.0
 40
2.0
 40
2.0
 40
2.0
 40
3.0
 40
3.0
 40
3.0
 40
4.0
 40
4.0
 40
4.0
 40
5.0
 40
5.0
 40
5.0
 40
5.0
 10
85.19307949321013
 20
-132.5910338557409
 30
0.0
 10
85.17307699372044
 20
-132.5910338557409
 30
0.0
 10
85.15723727190233
 20
-132.606908855737
 30
0.0
 10
85.15723727190233
 20
-132.6261705223993
 30
0.0
 10
85.15723727190233
 20
-132.6454674668385
 30
0.0
 10
85.17307699372044
 20
-132.6613424668345
 30
0.0
 10
85.19307949321013
 20
-132.6613424668345
 30
0.0
 10
85.21237643716228
 20
-132.6613424668345
 30
0.0
 10
85.22821615898039
 20
-132.6454674668385
 30
0.0
 10
85.22821615898039
 20
-132.6261705223993
 30
0.0
 10
85.22821615898039
 20
-132.6261705223993
 30
0.0
 10
85.19307949321013
 20
-132.6261705223993
 30
0.0
 10
85.19307949321013
 20
-132.6261705223993
 30
0.0
 10
85.19307949321013
 20
-132.6261705223993
 30
0.0
 10
85.19307949321013
 20
-132.5910338557409
 30
0.0
 10
85.19307949321013
 20
-132.5910338557409
 30
0.0
  0
HATCH
  5
54
330
1F
100
AcDbEntity
  8
_U+30EC_U+30A4_U+30E4_U+30FC 1
 62
   253
420
 11711154
100
AcDbHatch
 10
0.0
 20
0.0
 30
0.0
210
0.0
220
0.0
230
1.0
  2
SOLID
 70
     1
 71
     0
 91
        1
 92
        1
 93
        1
 72
     4
 94
        3
 73
     0
 74
     1
 95
       20
 96
       16
 40
0.0
 40
0.0
 40
0.0
 40
0.0
 40
1.0
 40
1.0
 40
1.0
 40
2.0
 40
2.0
 40
2.0
 40
3.0
 40
3.0
 40
3.0
 40
4.0
 40
4.0
 40
4.0
 40
5.0
 40
5.0
 40
5.0
 40
5.0
 10
85.19307949321013
 20
-132.5910338557409
 10
85.17307699372044
 20
-132.5910338557409
 10
85.15723727190233
 20
-132.606908855737
 10
85.15723727190233
 20
-132.6261705223993
 10
85.15723727190233
 20
-132.6454674668385
 10
85.17307699372044
 20
-132.6613424668345
 10
85.19307949321013
 20
-132.6613424668345
 10
85.21237643716228
 20
-132.6613424668345
 10
85.22821615898039
 20
-132.6454674668385
 10
85.22821615898039
 20
-132.6261705223993
 10
85.22821615898039
 20
-132.6261705223993
 10
85.19307949321013
 20
-132.6261705223993
 10
85.19307949321013
 20
-132.6261705223993
 10
85.19307949321013
 20
-132.6261705223993
 10
85.19307949321013
 20
-132.5910338557409
 10
85.19307949321013
 20
-132.5910338557409
 97
        0
 97
        0
 75
     2
 76
     1
 98
        0
  0
SPLINE
  5
55
330
1F
100
AcDbEntity
  8
_U+30EC_U+30A4_U+30E4_U+30FC 1
370
     0
100
AcDbSpline
210
0.0
220
0.0
230
1.0
 70
    11
 71
     3
 72
    14
 73
    10
 74
     0
 42
0.0000000001
 43
0.0000000001
 12
1.0
 22
0.0
 32
0.0
 13
1.0
 23
0.0
 33
0.0
 40
0.0
 40
0.0
 40
0.0
 40
0.0
 40
1.0
 40
1.0
 40
1.0
 40
2.0
 40
2.0
 40
2.0
 40
3.0
 40
3.0
 40
3.0
 40
3.0
 10
85.19307949321013
 20
-132.5910338557409
 30
0.0
 10
85.19307949321013
 20
-132.5910338557409
 30
0.0
 10
85.19307949321013
 20
-132.6261705223993
 30
0.0
 10
85.19307949321013
 20
-132.6261705223993
 30
0.0
 10
85.19307949321013
 20
-132.6261705223993
 30
0.0
 10
85.22821615898039
 20
-132.6261705223993
 30
0.0
 10
85.22821615898039
 20
-132.6261705223993
 30
0.0
 10
85.22821615898039
 20
-132.606908855737
 30
0.0
 10
85.21237643716228
 20
-132.5910338557409
 30
0.0
 10
85.19307949321013
 20
-132.5910338557409
 30
0.0
  0
HATCH
  5
56
330
1F
100
AcDbEntity
  8
_U+30EC_U+30A4_U+30E4_U+30FC 1
 62
   253
420
 11711154
100
AcDbHatch
 10
0.0
 20
0.0
 30
0.0
210
0.0
220
0.0
230
1.0
  2
SOLID
 70
     1
 71
     0
 91
        1
 92
        1
 93
        1
 72
     4
 94
        3
 73
     0
 74
     1
 95
       14
 96
       10
 40
0.0
 40
0.0
 40
0.0
 40
0.0
 40
1.0
 40
1.0
 40
1.0
 40
2.0
 40
2.0
 40
2.0
 40
3.0
 40
3.0
 40
3.0
 40
3.0
 10
85.19307949321013
 20
-132.5910338557409
 10
85.19307949321013
 20
-132.5910338557409
 10
85.19307949321013
 20
-132.6261705223993
 10
85.19307949321013
 20
-132.6261705223993
 10
85.19307949321013
 20
-132.6261705223993
 10
85.22821615898039
 20
-132.6261705223993
 10
85.22821615898039
 20
-132.6261705223993
 10
85.22821615898039
 20
-132.606908855737
 10
85.21237643716228
 20
-132.5910338557409
 10
85.19307949321013
 20
-132.5910338557409
 97
        0
 97
        0
 75
     2
 76
     1
 98
        0
  0
POLYLINE
  5
57
330
1F
100
AcDbEntity
  8
_U+30EC_U+30A4_U+30E4_U+30FC 1
 62
   179
420
  2234388
370
    25
100
AcDb2dPolyline
 66
     1
 10
0.0
 20
0.0
 30
0.0
  0
VERTEX
  5
58
330
57
100
AcDbEntity
  8
_U+30EC_U+30A4_U+30E4_U+30FC 1
 62
   179
420
  2234388
370
    25
100
AcDbVertex
100
AcDb2dVertex
 10
86.19285168992604
 20
-131.6264335782043
 30
0.0
  0
VERTEX
  5
59
330
57
100
AcDbEntity
  8
_U+30EC_U+30A4_U+30E4_U+30FC 1
 62
   179
420
  2234388
370
    25
100
AcDbVertex
100
AcDb2dVertex
 10
95.14525785042002
 20
-131.6264335782043
 30
0.0
  0
SEQEND
  5
5A
330
57
100
AcDbEntity
  8
_U+30EC_U+30A4_U+30E4_U+30FC 1
 62
   179
420
  2234388
370
    25
  0
POLYLINE
  5
5B
330
1F
100
AcDbEntity
  8
_U+30EC_U+30A4_U+30E4_U+30FC 1
 62
   179
420
  2234388
370
    25
100
AcDb2dPolyline
 66
     1
 10
0.0
 20
0.0
 30
0.0
  0
VERTEX
  5
5C
330
5B
100
AcDbEntity
  8
_U+30EC_U+30A4_U+30E4_U+30FC 1
 62
   179
420
  2234388
370
    25
100
AcDbVertex
100
AcDb2dVertex
 10
85.19307949321013
 20
-132.6261705223993
 30
0.0
  0
VERTEX
  5
5D
330
5B
100
AcDbEntity
  8
_U+30EC_U+30A4_U+30E4_U+30FC 1
 62
   179
420
  2234388
370
    25
100
AcDbVertex
100
AcDb2dVertex
 10
96.19258449036717
 20
-132.6261705223993
 30
0.0
  0
SEQEND
  5
5E
330
5B
100
AcDbEntity
  8
_U+30EC_U+30A4_U+30E4_U+30FC 1
 62
   179
420
  2234388
370
    25
  0
POLYLINE
  5
5F
330
1F
100
AcDbEntity
  8
_U+30EC_U+30A4_U+30E4_U+30FC 1
 62
   179
420
  2234388
370
    25
100
AcDb2dPolyline
 66
     1
 10
0.0
 20
0.0
 30
0.0
  0
VERTEX
  5
60
330
5F
100
AcDbEntity
  8
_U+30EC_U+30A4_U+30E4_U+30FC 1
 62
   179
420
  2234388
370
    25
100
AcDbVertex
100
AcDb2dVertex
 10
85.19307949321013
 20
-122.1258810805797
 30
0.0
  0
VERTEX
  5
61
330
5F
100
AcDbEntity
  8
_U+30EC_U+30A4_U+30E4_U+30FC 1
 62
   179
420
  2234388
370
    25
100
AcDbVertex
100
AcDb2dVertex
 10
85.19307949321013
 20
-132.6261705223993
 30
0.0
  0
SEQEND
  5
62
330
5F
100
AcDbEntity
  8
_U+30EC_U+30A4_U+30E4_U+30FC 1
 62
   179
420
  2234388
370
    25
  0
POLYLINE
  5
63
330
1F
100
AcDbEntity
  8
_U+30EC_U+30A4_U+30E4_U+30FC 1
 62
   179
420
  2234388
370
    25
100
AcDb2dPolyline
 66
     1
 10
0.0
 20
0.0
 30
0.0
  0
VERTEX
  5
64
330
63
100
AcDbEntity
  8
_U+30EC_U+30A4_U+30E4_U+30FC 1
 62
   179
420
  2234388
370
    25
100
AcDbVertex
100
AcDb2dVertex
 10
86.19285168992604
 20
-124.7717144132516
 30
0.0
  0
VERTEX
  5
65
330
63
100
AcDbEntity
  8
_U+30EC_U+30A4_U+30E4_U+30FC 1
 62
   179
420
  2234388
370
    25
100
AcDbVertex
100
AcDb2dVertex
 10
86.19285168992604
 20
-131.6264335782043
 30
0.0
  0
SEQEND
  5
66
330
63
100
AcDbEntity
  8
_U+30EC_U+30A4_U+30E4_U+30FC 1
 62
   179
420
  2234388
370
    25
  0
POLYLINE
  5
67
330
1F
100
AcDbEntity
  8
_U+30EC_U+30A4_U+30E4_U+30FC 1
 62
   179
420
  2234388
370
    25
100
AcDb2dPolyline
 66
     1
 10
0.0
 20
0.0
 30
0.0
  0
VERTEX
  5
68
330
67
100
AcDbEntity
  8
_U+30EC_U+30A4_U+30E4_U+30FC 1
 62
   179
420
  2234388
370
    25
100
AcDbVertex
100
AcDb2dVertex
 10
90.48404046933759
 20
-128.1262077457462
 30
0.0
  0
VERTEX
  5
69
330
67
100
AcDbEntity
  8
_U+30EC_U+30A4_U+30E4_U+30FC 1
 62
   179
420
  2234388
370
    25
100
AcDbVertex
100
AcDb2dVertex
 10
85.19307949321013
 20
-122.1258810805797
 30
0.0
  0
SEQEND
  5
6A
330
67
100
AcDbEntity
  8
_U+30EC_U+30A4_U+30E4_U+30FC 1
 62
   179
420
  2234388
370
    25
  0
POLYLINE
  5
6B
330
1F
100
AcDbEntity
  8
_U+30EC_U+30A4_U+30E4_U+30FC 1
 62
   179
420
  2234388
370
    25
100
AcDb2dPolyline
 66
     1
 10
0.0
 20
0.0
 30
0.0
  0
VERTEX
  5
6C
330
6B
100
AcDbEntity
  8
_U+30EC_U+30A4_U+30E4_U+30FC 1
 62
   179
420
  2234388
370
    25
100
AcDbVertex
100
AcDb2dVertex
 10
95.14525785042002
 20
-131.6264335782043
 30
0.0
  0
VERTEX
  5
6D
330
6B
100
AcDbEntity
  8
_U+30EC_U+30A4_U+30E4_U+30FC 1
 62
   179
420
  2234388
370
    25
100
AcDbVertex
100
AcDb2dVertex
 10
96.19258449036717
 20
-132.6261705223993
 30
0.0
  0
SEQEND
  5
6E
330
6B
100
AcDbEntity
  8
_U+30EC_U+30A4_U+30E4_U+30FC 1
 62
   179
420
  2234388
370
    25
  0
POLYLINE
  5
6F
330
1F
100
AcDbEntity
  8
_U+30EC_U+30A4_U+30E4_U+30FC 1
 62
   179
420
  2234388
370
    25
100
AcDb2dPolyline
 66
     1
 10
0.0
 20
0.0
 30
0.0
  0
VERTEX
  5
70
330
6F
100
AcDbEntity
  8
_U+30EC_U+30A4_U+30E4_U+30FC 1
 62
   179
420
  2234388
370
    25
100
AcDbVertex
100
AcDb2dVertex
 10
89.18454828026817
 20
-128.1262077457462
 30
0.0
  0
VERTEX
  5
71
330
6F
100
AcDbEntity
  8
_U+30EC_U+30A4_U+30E4_U+30FC 1
 62
   179
420
  2234388
370
    25
100
AcDbVertex
100
AcDb2dVertex
 10
86.19285168992604
 20
-124.7717144132516
 30
0.0
  0
SEQEND
  5
72
330
6F
100
AcDbEntity
  8
_U+30EC_U+30A4_U+30E4_U+30FC 1
 62
   179
420
  2234388
370
    25
  0
POLYLINE
  5
73
330
1F
100
AcDbEntity
  8
_U+30EC_U+30A4_U+30E4_U+30FC 1
 62
   179
420
  2234388
370
    25
100
AcDb2dPolyline
 66
     1
 10
0.0
 20
0.0
 30
0.0
  0
VERTEX
  5
74
330
73
100
AcDbEntity
  8
_U+30EC_U+30A4_U+30E4_U+30FC 1
 62
   179
420
  2234388
370
    25
100
AcDbVertex
100
AcDb2dVertex
 10
89.18454828026817
 20
-128.1262077457462
 30
0.0
  0
VERTEX
  5
75
330
73
100
AcDbEntity
  8
_U+30EC_U+30A4_U+30E4_U+30FC 1
 62
   179
420
  2234388
370
    25
100
AcDbVertex
100
AcDb2dVertex
 10
90.48404046933759
 20
-128.1262077457462
 30
0.0
  0
SEQEND
  5
76
330
73
100
AcDbEntity
  8
_U+30EC_U+30A4_U+30E4_U+30FC 1
 62
   179
420
  2234388
370
    25
  0
SPLINE
  5
77
330
1F
100
AcDbEntity
  8
_U+30EC_U+30A4_U+30E4_U+30FC 1
 62
   179
420
  2234388
370
     9
100
AcDbSpline
210
0.0
220
0.0
230
1.0
 70
    11
 71
     3
 72
    17
 73
    13
 74
     0
 42
0.0000000001
 43
0.0000000001
 12
1.0
 22
0.0
 32
0.0
 13
1.0
 23
0.0
 33
0.0
 40
0.0
 40
0.0
 40
0.0
 40
0.0
 40
1.0
 40
1.0
 40
1.0
 40
2.0
 40
2.0
 40
2.0
 40
3.0
 40
3.0
 40
3.0
 40
4.0
 40
4.0
 40
4.0
 40
4.0
 10
99.24492357916218
 20
-128.1262077457462
 30
0.0
 10
99.24492357916218
 20
-128.0707510790935
 30
0.0
 10
99.20015608030428
 20
-128.0259483013268
 30
0.0
 10
99.14501941965793
 20
-128.0259483013268
 30
0.0
 10
99.08991302756127
 20
-128.0259483013268
 30
0.0
 10
99.0451102509265
 20
-128.0707510790935
 30
0.0
 10
99.0451102509265
 20
-128.1262077457462
 30
0.0
 10
99.0451102509265
 20
-128.1813116346214
 30
0.0
 10
99.08991302756127
 20
-128.2261144123878
 30
0.0
 10
99.14501941965793
 20
-128.2261144123878
 30
0.0
 10
99.20015608030428
 20
-128.2261144123878
 30
0.0
 10
99.24492357916218
 20
-128.1813116346214
 30
0.0
 10
99.24492357916218
 20
-128.1262077457462
 30
0.0
  0
SPLINE
  5
78
330
1F
100
AcDbEntity
  8
_U+30EC_U+30A4_U+30E4_U+30FC 1
 62
   179
420
  2234388
370
     9
100
AcDbSpline
210
0.0
220
0.0
230
1.0
 70
    11
 71
     3
 72
    17
 73
    13
 74
     0
 42
0.0000000001
 43
0.0000000001
 12
1.0
 22
0.0
 32
0.0
 13
1.0
 23
0.0
 33
0.0
 40
0.0
 40
0.0
 40
0.0
 40
0.0
 40
1.0
 40
1.0
 40
1.0
 40
2.0
 40
2.0
 40
2.0
 40
3.0
 40
3.0
 40
3.0
 40
4.0
 40
4.0
 40
4.0
 40
4.0
 10
99.24492357916218
 20
-131.6264335782043
 30
0.0
 10
99.24492357916218
 20
-131.5712944115518
 30
0.0
 10
99.20015608030428
 20
-131.5265269115626
 30
0.0
 10
99.14501941965793
 20
-131.5265269115626
 30
0.0
 10
99.08991302756127
 20
-131.5265269115626
 30
0.0
 10
99.0451102509265
 20
-131.5712944115518
 30
0.0
 10
99.0451102509265
 20
-131.6264335782043
 30
0.0
 10
99.0451102509265
 20
-131.6815374670798
 30
0.0
 10
99.08991302756127
 20
-131.7263402448459
 30
0.0
 10
99.14501941965793
 20
-131.7263402448459
 30
0.0
 10
99.20015608030428
 20
-131.7263402448459
 30
0.0
 10
99.24492357916218
 20
-131.6815374670798
 30
0.0
 10
99.24492357916218
 20
-131.6264335782043
 30
0.0
  0
SPLINE
  5
79
330
1F
100
AcDbEntity
  8
_U+30EC_U+30A4_U+30E4_U+30FC 1
 62
   179
420
  2234388
370
     9
100
AcDbSpline
210
0.0
220
0.0
230
1.0
 70
    11
 71
     3
 72
    17
 73
    13
 74
     0
 42
0.0000000001
 43
0.0000000001
 12
1.0
 22
0.0
 32
0.0
 13
1.0
 23
0.0
 33
0.0
 40
0.0
 40
0.0
 40
0.0
 40
0.0
 40
1.0
 40
1.0
 40
1.0
 40
2.0
 40
2.0
 40
2.0
 40
3.0
 40
3.0
 40
3.0
 40
4.0
 40
4.0
 40
4.0
 40
4.0
 10
93.58393400136383
 20
-125.4803744130743
 30
0.0
 10
93.58393400136383
 20
-125.4249177464216
 30
0.0
 10
93.53983678026661
 20
-125.3801149686549
 30
0.0
 10
93.48402733724599
 20
-125.3801149686549
 30
0.0
 10
93.42892344976292
 20
-125.3801149686549
 30
0.0
 10
93.38412067312815
 20
-125.4249177464216
 30
0.0
 10
93.38412067312815
 20
-125.4803744130743
 30
0.0
 10
93.38412067312815
 20
-125.5354783019496
 30
0.0
 10
93.42892344976292
 20
-125.580281079716
 30
0.0
 10
93.48402733724599
 20
-125.580281079716
 30
0.0
 10
93.53983678026661
 20
-125.580281079716
 30
0.0
 10
93.58393400136383
 20
-125.5354783019496
 30
0.0
 10
93.58393400136383
 20
-125.4803744130743
 30
0.0
  0
SPLINE
  5
7A
330
1F
100
AcDbEntity
  8
_U+30EC_U+30A4_U+30E4_U+30FC 1
 62
   179
420
  2234388
370
     9
100
AcDbSpline
210
0.0
220
0.0
230
1.0
 70
    11
 71
     3
 72
    17
 73
    13
 74
     0
 42
0.0000000001
 43
0.0000000001
 12
1.0
 22
0.0
 32
0.0
 13
1.0
 23
0.0
 33
0.0
 40
0.0
 40
0.0
 40
0.0
 40
0.0
 40
1.0
 40
1.0
 40
1.0
 40
2.0
 40
2.0
 40
2.0
 40
3.0
 40
3.0
 40
3.0
 40
4.0
 40
4.0
 40
4.0
 40
4.0
 10
88.29297302523638
 20
-119.4804005256853
 30
0.0
 10
88.29297302523638
 20
-119.4249085812548
 30
0.0
 10
88.24817024860161
 20
-119.3801410812662
 30
0.0
 10
88.19306636111854
 20
-119.3801410812662
 30
0.0
 10
88.13725691809792
 20
-119.3801410812662
 30
0.0
 10
88.09245414146315
 20
-119.4249085812548
 30
0.0
 10
88.09245414146315
 20
-119.4804005256853
 30
0.0
 10
88.09245414146315
 20
-119.5355044145605
 30
0.0
 10
88.13725691809792
 20
-119.5803071923273
 30
0.0
 10
88.19306636111854
 20
-119.5803071923273
 30
0.0
 10
88.24817024860161
 20
-119.5803071923273
 30
0.0
 10
88.29297302523638
 20
-119.5355044145605
 30
0.0
 10
88.29297302523638
 20
-119.4804005256853
 30
0.0
  0
SPLINE
  5
7B
330
1F
100
AcDbEntity
  8
_U+30EC_U+30A4_U+30E4_U+30FC 1
 62
   179
420
  2234388
370
     9
100
AcDbSpline
210
0.0
220
0.0
230
1.0
 70
    11
 71
     3
 72
    17
 73
    13
 74
     0
 42
0.0000000001
 43
0.0000000001
 12
1.0
 22
0.0
 32
0.0
 13
1.0
 23
0.0
 33
0.0
 40
0.0
 40
0.0
 40
0.0
 40
0.0
 40
1.0
 40
1.0
 40
1.0
 40
2.0
 40
2.0
 40
2.0
 40
3.0
 40
3.0
 40
3.0
 40
4.0
 40
4.0
 40
4.0
 40
4.0
 10
81.29252153716611
 20
-132.6261705223993
 30
0.0
 10
81.29252153716611
 20
-132.5710666335237
 30
0.0
 10
81.24775403830822
 20
-132.5262638557576
 30
0.0
 10
81.19261487304827
 20
-132.5262638557576
 30
0.0
 10
81.1375109855652
 20
-132.5262638557576
 30
0.0
 10
81.09270820893043
 20
-132.5710666335237
 30
0.0
 10
81.09270820893043
 20
-132.6261705223993
 30
0.0
 10
81.09270820893043
 20
-132.6813096890517
 30
0.0
 10
81.1375109855652
 20
-132.7260771890409
 30
0.0
 10
81.19261487304827
 20
-132.7260771890409
 30
0.0
 10
81.24775403830822
 20
-132.7260771890409
 30
0.0
 10
81.29252153716611
 20
-132.6813096890517
 30
0.0
 10
81.29252153716611
 20
-132.6261705223993
 30
0.0
  0
SPLINE
  5
7C
330
1F
100
AcDbEntity
  8
_U+30EC_U+30A4_U+30E4_U+30FC 1
 62
   179
420
  2234388
370
     9
100
AcDbSpline
210
0.0
220
0.0
230
1.0
 70
    11
 71
     3
 72
    17
 73
    13
 74
     0
 42
0.0000000001
 43
0.0000000001
 12
1.0
 22
0.0
 32
0.0
 13
1.0
 23
0.0
 33
0.0
 40
0.0
 40
0.0
 40
0.0
 40
0.0
 40
1.0
 40
1.0
 40
1.0
 40
2.0
 40
2.0
 40
2.0
 40
3.0
 40
3.0
 40
3.0
 40
4.0
 40
4.0
 40
4.0
 40
4.0
 10
81.29252153716611
 20
-122.1258810805797
 30
0.0
 10
81.29252153716611
 20
-122.0707419139267
 30
0.0
 10
81.24775403830822
 20
-122.0259744139381
 30
0.0
 10
81.19261487304827
 20
-122.0259744139381
 30
0.0
 10
81.1375109855652
 20
-122.0259744139381
 30
0.0
 10
81.09270820893043
 20
-122.0707419139267
 30
0.0
 10
81.09270820893043
 20
-122.1258810805797
 30
0.0
 10
81.09270820893043
 20
-122.1813377472324
 30
0.0
 10
81.1375109855652
 20
-122.2261405249992
 30
0.0
 10
81.19261487304827
 20
-122.2261405249992
 30
0.0
 10
81.24775403830822
 20
-122.2261405249992
 30
0.0
 10
81.29252153716611
 20
-122.1813377472324
 30
0.0
 10
81.29252153716611
 20
-122.1258810805797
 30
0.0
  0
SPLINE
  5
7D
330
1F
100
AcDbEntity
  8
_U+30EC_U+30A4_U+30E4_U+30FC 1
 62
   179
420
  2234388
370
     9
100
AcDbSpline
210
0.0
220
0.0
230
1.0
 70
    11
 71
     3
 72
    17
 73
    13
 74
     0
 42
0.0000000001
 43
0.0000000001
 12
1.0
 22
0.0
 32
0.0
 13
1.0
 23
0.0
 33
0.0
 40
0.0
 40
0.0
 40
0.0
 40
0.0
 40
1.0
 40
1.0
 40
1.0
 40
2.0
 40
2.0
 40
2.0
 40
3.0
 40
3.0
 40
3.0
 40
4.0
 40
4.0
 40
4.0
 40
4.0
 10
85.29298615732797
 20
-136.6259296880655
 30
0.0
 10
85.29298615732797
 20
-136.5708257991906
 30
0.0
 10
85.2481833806932
 20
-136.5260230214239
 30
0.0
 10
85.19307949321013
 20
-136.5260230214239
 30
0.0
 10
85.13727220093784
 20
-136.5260230214239
 30
0.0
 10
85.09246942317145
 20
-136.5708257991906
 30
0.0
 10
85.09246942317145
 20
-136.6259296880655
 30
0.0
 10
85.09246942317145
 20
-136.6817391324959
 30
0.0
 10
85.13727220093784
 20
-136.7265419102627
 30
0.0
 10
85.19307949321013
 20
-136.7265419102627
 30
0.0
 10
85.2481833806932
 20
-136.7265419102627
 30
0.0
 10
85.29298615732797
 20
-136.6817391324959
 30
0.0
 10
85.29298615732797
 20
-136.6259296880655
 30
0.0
  0
SPLINE
  5
7E
330
1F
100
AcDbEntity
  8
_U+30EC_U+30A4_U+30E4_U+30FC 1
 62
   179
420
  2234388
370
     9
100
AcDbSpline
210
0.0
220
0.0
230
1.0
 70
    11
 71
     3
 72
    17
 73
    13
 74
     0
 42
0.0000000001
 43
0.0000000001
 12
1.0
 22
0.0
 32
0.0
 13
1.0
 23
0.0
 33
0.0
 40
0.0
 40
0.0
 40
0.0
 40
0.0
 40
1.0
 40
1.0
 40
1.0
 40
2.0
 40
2.0
 40
2.0
 40
3.0
 40
3.0
 40
3.0
 40
4.0
 40
4.0
 40
4.0
 40
4.0
 10
96.29249115448499
 20
-136.6259296880655
 30
0.0
 10
96.29249115448499
 20
-136.5708257991906
 30
0.0
 10
96.24768837785024
 20
-136.5260230214239
 30
0.0
 10
96.19258449036717
 20
-136.5260230214239
 30
0.0
 10
96.13744532510721
 20
-136.5260230214239
 30
0.0
 10
96.09267782624933
 20
-136.5708257991906
 30
0.0
 10
96.09267782624933
 20
-136.6259296880655
 30
0.0
 10
96.09267782624933
 20
-136.6817391324959
 30
0.0
 10
96.13744532510721
 20
-136.7265419102627
 30
0.0
 10
96.19258449036717
 20
-136.7265419102627
 30
0.0
 10
96.24768837785024
 20
-136.7265419102627
 30
0.0
 10
96.29249115448499
 20
-136.6817391324959
 30
0.0
 10
96.29249115448499
 20
-136.6259296880655
 30
0.0
  0
POLYLINE
  5
7F
330
1F
100
AcDbEntity
  8
_U+30EC_U+30A4_U+30E4_U+30FC 1
 62
   179
420
  2234388
370
     9
100
AcDb2dPolyline
 66
     1
 10
0.0
 20
0.0
 30
0.0
  0
VERTEX
  5
80
330
7F
100
AcDbEntity
  8
_U+30EC_U+30A4_U+30E4_U+30FC 1
 62
   179
420
  2234388
370
     9
100
AcDbVertex
100
AcDb2dVertex
 10
97.68497556340421
 20
-131.6264335782043
 30
0.0
  0
VERTEX
  5
81
330
7F
100
AcDbEntity
  8
_U+30EC_U+30A4_U+30E4_U+30FC 1
 62
   179
420
  2234388
370
     9
100
AcDbVertex
100
AcDb2dVertex
 10
100.145497197186
 20
-131.6264335782043
 30
0.0
  0
SEQEND
  5
82
330
7F
100
AcDbEntity
  8
_U+30EC_U+30A4_U+30E4_U+30FC 1
 62
   179
420
  2234388
370
     9
  0
POLYLINE
  5
83
330
1F
100
AcDbEntity
  8
_U+30EC_U+30A4_U+30E4_U+30FC 1
 62
   179
420
  2234388
370
     9
100
AcDb2dPolyline
 66
     1
 10
0.0
 20
0.0
 30
0.0
  0
VERTEX
  5
84
330
83
100
AcDbEntity
  8
_U+30EC_U+30A4_U+30E4_U+30FC 1
 62
   179
420
  2234388
370
     9
100
AcDbVertex
100
AcDb2dVertex
 10
93.02446373785932
 20
-128.1262077457462
 30
0.0
  0
VERTEX
  5
85
330
83
100
AcDbEntity
  8
_U+30EC_U+30A4_U+30E4_U+30FC 1
 62
   179
420
  2234388
370
     9
100
AcDbVertex
100
AcDb2dVertex
 10
100.145497197186
 20
-128.1262077457462
 30
0.0
  0
SEQEND
  5
86
330
83
100
AcDbEntity
  8
_U+30EC_U+30A4_U+30E4_U+30FC 1
 62
   179
420
  2234388
370
     9
  0
INSERT
  5
88
330
1F
100
AcDbEntity
  8
_U+30EC_U+30A4_U+30E4_U+30FC 1
100
AcDbBlockReference
  2
block 2
 10
0.0
 20
0.0
 30
0.0
  0
POLYLINE
  5
97
330
1F
100
AcDbEntity
  8
_U+30EC_U+30A4_U+30E4_U+30FC 1
 62
   179
420
  2234388
370
     9
100
AcDb2dPolyline
 66
     1
 10
0.0
 20
0.0
 30
0.0
  0
VERTEX
  5
98
330
97
100
AcDbEntity
  8
_U+30EC_U+30A4_U+30E4_U+30FC 1
 62
   179
420
  2234388
370
     9
100
AcDbVertex
100
AcDb2dVertex
 10
99.14501941965793
 20
-134.4937760774879
 30
0.0
  0
VERTEX
  5
99
330
97
100
AcDbEntity
  8
_U+30EC_U+30A4_U+30E4_U+30FC 1
 62
   179
420
  2234388
370
     9
100
AcDbVertex
100
AcDb2dVertex
 10
99.14501941965793
 20
-128.1262077457462
 30
0.0
  0
SEQEND
  5
9A
330
97
100
AcDbEntity
  8
_U+30EC_U+30A4_U+30E4_U+30FC 1
 62
   179
420
  2234388
370
     9
  0
SPLINE
  5
9B
330
1F
100
AcDbEntity
  8
_U+30EC_U+30A4_U+30E4_U+30FC 1
 62
   179
420
  2234388
370
     9
100
AcDbSpline
210
0.0
220
0.0
230
1.0
 70
    11
 71
     3
 72
    17
 73
    13
 74
     0
 42
0.0000000001
 43
0.0000000001
 12
1.0
 22
0.0
 32
0.0
 13
1.0
 23
0.0
 33
0.0
 40
0.0
 40
0.0
 40
0.0
 40
0.0
 40
1.0
 40
1.0
 40
1.0
 40
2.0
 40
2.0
 40
2.0
 40
3.0
 40
3.0
 40
3.0
 40
4.0
 40
4.0
 40
4.0
 40
4.0
 10
99.24492357916218
 20
-132.6261705223993
 30
0.0
 10
99.24492357916218
 20
-132.5710666335237
 30
0.0
 10
99.20015608030428
 20
-132.5262638557576
 30
0.0
 10
99.14501941965793
 20
-132.5262638557576
 30
0.0
 10
99.08991302756127
 20
-132.5262638557576
 30
0.0
 10
99.0451102509265
 20
-132.5710666335237
 30
0.0
 10
99.0451102509265
 20
-132.6261705223993
 30
0.0
 10
99.0451102509265
 20
-132.6813096890517
 30
0.0
 10
99.08991302756127
 20
-132.7260771890409
 30
0.0
 10
99.14501941965793
 20
-132.7260771890409
 30
0.0
 10
99.20015608030428
 20
-132.7260771890409
 30
0.0
 10
99.24492357916218
 20
-132.6813096890517
 30
0.0
 10
99.24492357916218
 20
-132.6261705223993
 30
0.0
  0
POLYLINE
  5
9C
330
1F
100
AcDbEntity
  8
_U+30EC_U+30A4_U+30E4_U+30FC 1
 62
   179
420
  2234388
370
     9
100
AcDb2dPolyline
 66
     1
 10
0.0
 20
0.0
 30
0.0
  0
VERTEX
  5
9D
330
9C
100
AcDbEntity
  8
_U+30EC_U+30A4_U+30E4_U+30FC 1
 62
   179
420
  2234388
370
     9
100
AcDbVertex
100
AcDb2dVertex
 10
97.68497556340421
 20
-132.6261705223993
 30
0.0
  0
VERTEX
  5
9E
330
9C
100
AcDbEntity
  8
_U+30EC_U+30A4_U+30E4_U+30FC 1
 62
   179
420
  2234388
370
     9
100
AcDbVertex
100
AcDb2dVertex
 10
100.145497197186
 20
-132.6261705223993
 30
0.0
  0
SEQEND
  5
9F
330
9C
100
AcDbEntity
  8
_U+30EC_U+30A4_U+30E4_U+30FC 1
 62
   179
420
  2234388
370
     9
  0
INSERT
  5
A1
330
1F
100
AcDbEntity
  8
_U+30EC_U+30A4_U+30E4_U+30FC 1
100
AcDbBlockReference
  2
block 3
 10
0.0
 20
0.0
 30
0.0
  0
SPLINE
  5
A6
330
1F
100
AcDbEntity
  8
_U+30EC_U+30A4_U+30E4_U+30FC 1
 62
   179
420
  2234388
370
    25
100
AcDbSpline
210
0.0
220
0.0
230
1.0
 70
    11
 71
     3
 72
    17
 73
    13
 74
     0
 42
0.0000000001
 43
0.0000000001
 12
1.0
 22
0.0
 32
0.0
 13
1.0
 23
0.0
 33
0.0
 40
0.0
 40
0.0
 40
0.0
 40
0.0
 40
1.0
 40
1.0
 40
1.0
 40
2.0
 40
2.0
 40
2.0
 40
3.0
 40
3.0
 40
3.0
 40
4.0
 40
4.0
 40
4.0
 40
4.0
 10
95.18039451619028
 20
-131.6264335782043
 30
0.0
 10
95.18039451619028
 20
-131.6456952448666
 30
0.0
 10
95.16455479437217
 20
-131.6615702448626
 30
0.0
 10
95.14525785042002
 20
-131.6615702448626
 30
0.0
 10
95.12596090646788
 20
-131.6615702448626
 30
0.0
 10
95.11012118464977
 20
-131.6456952448666
 30
0.0
 10
95.11012118464977
 20
-131.6264335782043
 30
0.0
 10
95.11012118464977
 20
-131.6064310782095
 30
0.0
 10
95.12596090646788
 20
-131.590591355991
 30
0.0
 10
95.14525785042002
 20
-131.590591355991
 30
0.0
 10
95.16455479437217
 20
-131.590591355991
 30
0.0
 10
95.18039451619028
 20
-131.6064310782095
 30
0.0
 10
95.18039451619028
 20
-131.6264335782043
 30
0.0
  0
SPLINE
  5
A7
330
1F
100
AcDbEntity
  8
_U+30EC_U+30A4_U+30E4_U+30FC 1
 62
   179
420
  2234388
370
    25
100
AcDbSpline
210
0.0
220
0.0
230
1.0
 70
    11
 71
     3
 72
    17
 73
    13
 74
     0
 42
0.0000000001
 43
0.0000000001
 12
1.0
 22
0.0
 32
0.0
 13
1.0
 23
0.0
 33
0.0
 40
0.0
 40
0.0
 40
0.0
 40
0.0
 40
1.0
 40
1.0
 40
1.0
 40
2.0
 40
2.0
 40
2.0
 40
3.0
 40
3.0
 40
3.0
 40
4.0
 40
4.0
 40
4.0
 40
4.0
 10
90.5198826906454
 20
-128.1262077457462
 30
0.0
 10
90.5198826906454
 20
-128.1455046901857
 30
0.0
 10
90.50404296882728
 20
-128.1613444124042
 30
0.0
 10
90.48404046933759
 20
-128.1613444124042
 30
0.0
 10
90.46474352538544
 20
-128.1613444124042
 30
0.0
 10
90.44890380356733
 20
-128.1455046901857
 30
0.0
 10
90.44890380356733
 20
-128.1262077457462
 30
0.0
 10
90.44890380356733
 20
-128.1065580235289
 30
0.0
 10
90.46474352538544
 20
-128.0907183013107
 30
0.0
 10
90.48404046933759
 20
-128.0907183013107
 30
0.0
 10
90.50404296882728
 20
-128.0907183013107
 30
0.0
 10
90.5198826906454
 20
-128.1065580235289
 30
0.0
 10
90.5198826906454
 20
-128.1262077457462
 30
0.0
  0
SPLINE
  5
A8
330
1F
100
AcDbEntity
  8
_U+30EC_U+30A4_U+30E4_U+30FC 1
 62
   179
420
  2234388
370
     9
100
AcDbSpline
210
0.0
220
0.0
230
1.0
 70
    11
 71
     3
 72
    17
 73
    13
 74
     0
 42
0.0000000001
 43
0.0000000001
 12
1.0
 22
0.0
 32
0.0
 13
1.0
 23
0.0
 33
0.0
 40
0.0
 40
0.0
 40
0.0
 40
0.0
 40
1.0
 40
1.0
 40
1.0
 40
2.0
 40
2.0
 40
2.0
 40
3.0
 40
3.0
 40
3.0
 40
4.0
 40
4.0
 40
4.0
 40
4.0
 10
99.18015358081459
 20
-128.1262077457462
 30
0.0
 10
99.18015358081459
 20
-128.1455046901857
 30
0.0
 10
99.16431385899648
 20
-128.1613444124042
 30
0.0
 10
99.14501941965793
 20
-128.1613444124042
 30
0.0
 10
99.1257199710922
 20
-128.1613444124042
 30
0.0
 10
99.10988024927408
 20
-128.1455046901857
 30
0.0
 10
99.10988024927408
 20
-128.1262077457462
 30
0.0
 10
99.10988024927408
 20
-128.1065580235289
 30
0.0
 10
99.1257199710922
 20
-128.0907183013107
 30
0.0
 10
99.14501941965793
 20
-128.0907183013107
 30
0.0
 10
99.16431385899648
 20
-128.0907183013107
 30
0.0
 10
99.18015358081459
 20
-128.1065580235289
 30
0.0
 10
99.18015358081459
 20
-128.1262077457462
 30
0.0
  0
POLYLINE
  5
A9
330
1F
100
AcDbEntity
  8
_U+30EC_U+30A4_U+30E4_U+30FC 1
 62
   179
420
  2234388
370
     9
100
AcDb2dPolyline
 66
     1
 10
0.0
 20
0.0
 30
0.0
  0
VERTEX
  5
AA
330
A9
100
AcDbEntity
  8
_U+30EC_U+30A4_U+30E4_U+30FC 1
 62
   179
420
  2234388
370
     9
100
AcDbVertex
100
AcDb2dVertex
 10
93.48402733724599
 20
-125.4803744130743
 30
0.0
  0
VERTEX
  5
AB
330
A9
100
AcDbEntity
  8
_U+30EC_U+30A4_U+30E4_U+30FC 1
 62
   179
420
  2234388
370
     9
100
AcDbVertex
100
AcDb2dVertex
 10
88.19306636111854
 20
-119.4804005256853
 30
0.0
  0
SEQEND
  5
AC
330
A9
100
AcDbEntity
  8
_U+30EC_U+30A4_U+30E4_U+30FC 1
 62
   179
420
  2234388
370
     9
  0
POLYLINE
  5
AD
330
1F
100
AcDbEntity
  8
_U+30EC_U+30A4_U+30E4_U+30FC 1
 62
   179
420
  2234388
370
     9
100
AcDb2dPolyline
 66
     1
 10
0.0
 20
0.0
 30
0.0
  0
VERTEX
  5
AE
330
AD
100
AcDbEntity
  8
_U+30EC_U+30A4_U+30E4_U+30FC 1
 62
   179
420
  2234388
370
     9
100
AcDbVertex
100
AcDb2dVertex
 10
92.3891815318445
 20
-126.4460330239439
 30
0.0
  0
VERTEX
  5
AF
330
AD
100
AcDbEntity
  8
_U+30EC_U+30A4_U+30E4_U+30FC 1
 62
   179
420
  2234388
370
     9
100
AcDbVertex
100
AcDb2dVertex
 10
94.23438565143609
 20
-124.8189160799064
 30
0.0
  0
SEQEND
  5
B0
330
AD
100
AcDbEntity
  8
_U+30EC_U+30A4_U+30E4_U+30FC 1
 62
   179
420
  2234388
370
     9
  0
POLYLINE
  5
B1
330
1F
100
AcDbEntity
  8
_U+30EC_U+30A4_U+30E4_U+30FC 1
 62
   179
420
  2234388
370
     9
100
AcDb2dPolyline
 66
     1
 10
0.0
 20
0.0
 30
0.0
  0
VERTEX
  5
B2
330
B1
100
AcDbEntity
  8
_U+30EC_U+30A4_U+30E4_U+30FC 1
 62
   179
420
  2234388
370
     9
100
AcDbVertex
100
AcDb2dVertex
 10
87.0975150001795
 20
-120.4460591365552
 30
0.0
  0
VERTEX
  5
B3
330
B1
100
AcDbEntity
  8
_U+30EC_U+30A4_U+30E4_U+30FC 1
 62
   179
420
  2234388
370
     9
100
AcDbVertex
100
AcDb2dVertex
 10
88.94271911977108
 20
-118.8189421925174
 30
0.0
  0
SEQEND
  5
B4
330
B1
100
AcDbEntity
  8
_U+30EC_U+30A4_U+30E4_U+30FC 1
 62
   179
420
  2234388
370
     9
  0
INSERT
  5
B6
330
1F
100
AcDbEntity
  8
_U+30EC_U+30A4_U+30E4_U+30FC 1
100
AcDbBlockReference
  2
block 4
 10
0.0
 20
0.0
 30
0.0
  0
SPLINE
  5
BD
330
1F
100
AcDbEntity
  8
_U+30EC_U+30A4_U+30E4_U+30FC 1
 62
   179
420
  2234388
370
    25
100
AcDbSpline
210
0.0
220
0.0
230
1.0
 70
    11
 71
     3
 72
    17
 73
    13
 74
     0
 42
0.0000000001
 43
0.0000000001
 12
1.0
 22
0.0
 32
0.0
 13
1.0
 23
0.0
 33
0.0
 40
0.0
 40
0.0
 40
0.0
 40
0.0
 40
1.0
 40
1.0
 40
1.0
 40
2.0
 40
2.0
 40
2.0
 40
3.0
 40
3.0
 40
3.0
 40
4.0
 40
4.0
 40
4.0
 40
4.0
 10
90.5198826906454
 20
-128.1262077457462
 30
0.0
 10
90.5198826906454
 20
-128.1455046901857
 30
0.0
 10
90.50404296882728
 20
-128.1613444124042
 30
0.0
 10
90.48404046933759
 20
-128.1613444124042
 30
0.0
 10
90.46474352538544
 20
-128.1613444124042
 30
0.0
 10
90.44890380356733
 20
-128.1455046901857
 30
0.0
 10
90.44890380356733
 20
-128.1262077457462
 30
0.0
 10
90.44890380356733
 20
-128.1065580235289
 30
0.0
 10
90.46474352538544
 20
-128.0907183013107
 30
0.0
 10
90.48404046933759
 20
-128.0907183013107
 30
0.0
 10
90.50404296882728
 20
-128.0907183013107
 30
0.0
 10
90.5198826906454
 20
-128.1065580235289
 30
0.0
 10
90.5198826906454
 20
-128.1262077457462
 30
0.0
  0
SPLINE
  5
BE
330
1F
100
AcDbEntity
  8
_U+30EC_U+30A4_U+30E4_U+30FC 1
 62
   179
420
  2234388
370
    25
100
AcDbSpline
210
0.0
220
0.0
230
1.0
 70
    11
 71
     3
 72
    17
 73
    13
 74
     0
 42
0.0000000001
 43
0.0000000001
 12
1.0
 22
0.0
 32
0.0
 13
1.0
 23
0.0
 33
0.0
 40
0.0
 40
0.0
 40
0.0
 40
0.0
 40
1.0
 40
1.0
 40
1.0
 40
2.0
 40
2.0
 40
2.0
 40
3.0
 40
3.0
 40
3.0
 40
4.0
 40
4.0
 40
4.0
 40
4.0
 10
85.22821615898039
 20
-122.1258810805797
 30
0.0
 10
85.22821615898039
 20
-122.145530802797
 30
0.0
 10
85.21237643716228
 20
-122.1613705250152
 30
0.0
 10
85.19307949321013
 20
-122.1613705250152
 30
0.0
 10
85.17307699372044
 20
-122.1613705250152
 30
0.0
 10
85.15723727190233
 20
-122.145530802797
 30
0.0
 10
85.15723727190233
 20
-122.1258810805797
 30
0.0
 10
85.15723727190233
 20
-122.1065841361399
 30
0.0
 10
85.17307699372044
 20
-122.0907444139217
 30
0.0
 10
85.19307949321013
 20
-122.0907444139217
 30
0.0
 10
85.21237643716228
 20
-122.0907444139217
 30
0.0
 10
85.22821615898039
 20
-122.1065841361399
 30
0.0
 10
85.22821615898039
 20
-122.1258810805797
 30
0.0
  0
SPLINE
  5
BF
330
1F
100
AcDbEntity
  8
_U+30EC_U+30A4_U+30E4_U+30FC 1
 62
   179
420
  2234388
370
     9
100
AcDbSpline
210
0.0
220
0.0
230
1.0
 70
    11
 71
     3
 72
    17
 73
    13
 74
     0
 42
0.0000000001
 43
0.0000000001
 12
1.0
 22
0.0
 32
0.0
 13
1.0
 23
0.0
 33
0.0
 40
0.0
 40
0.0
 40
0.0
 40
0.0
 40
1.0
 40
1.0
 40
1.0
 40
2.0
 40
2.0
 40
2.0
 40
3.0
 40
3.0
 40
3.0
 40
4.0
 40
4.0
 40
4.0
 40
4.0
 10
88.22820302688879
 20
-119.4804005256853
 30
0.0
 10
88.22820302688879
 20
-119.4996974701251
 30
0.0
 10
88.21236330507068
 20
-119.5155371923434
 30
0.0
 10
88.19306636111854
 20
-119.5155371923434
 30
0.0
 10
88.17309913940572
 20
-119.5155371923434
 30
0.0
 10
88.15722413981072
 20
-119.4996974701251
 30
0.0
 10
88.15722413981072
 20
-119.4804005256853
 30
0.0
 10
88.15722413981072
 20
-119.460750803468
 30
0.0
 10
88.17309913940572
 20
-119.4449110812498
 30
0.0
 10
88.19306636111854
 20
-119.4449110812498
 30
0.0
 10
88.21236330507068
 20
-119.4449110812498
 30
0.0
 10
88.22820302688879
 20
-119.460750803468
 30
0.0
 10
88.22820302688879
 20
-119.4804005256853
 30
0.0
  0
POLYLINE
  5
C0
330
1F
100
AcDbEntity
  8
_U+30EC_U+30A4_U+30E4_U+30FC 1
 62
   179
420
  2234388
370
     9
100
AcDb2dPolyline
 66
     1
 10
0.0
 20
0.0
 30
0.0
  0
VERTEX
  5
C1
330
C0
100
AcDbEntity
  8
_U+30EC_U+30A4_U+30E4_U+30FC 1
 62
   179
420
  2234388
370
     9
100
AcDbVertex
100
AcDb2dVertex
 10
85.19307949321013
 20
-136.6259296880655
 30
0.0
  0
VERTEX
  5
C2
330
C0
100
AcDbEntity
  8
_U+30EC_U+30A4_U+30E4_U+30FC 1
 62
   179
420
  2234388
370
     9
100
AcDbVertex
100
AcDb2dVertex
 10
96.19258449036717
 20
-136.6259296880655
 30
0.0
  0
SEQEND
  5
C3
330
C0
100
AcDbEntity
  8
_U+30EC_U+30A4_U+30E4_U+30FC 1
 62
   179
420
  2234388
370
     9
  0
POLYLINE
  5
C4
330
1F
100
AcDbEntity
  8
_U+30EC_U+30A4_U+30E4_U+30FC 1
 62
   179
420
  2234388
370
     9
100
AcDb2dPolyline
 66
     1
 10
0.0
 20
0.0
 30
0.0
  0
VERTEX
  5
C5
330
C4
100
AcDbEntity
  8
_U+30EC_U+30A4_U+30E4_U+30FC 1
 62
   179
420
  2234388
370
     9
100
AcDbVertex
100
AcDb2dVertex
 10
85.19307949321013
 20
-135.1659235773193
 30
0.0
  0
VERTEX
  5
C6
330
C4
100
AcDbEntity
  8
_U+30EC_U+30A4_U+30E4_U+30FC 1
 62
   179
420
  2234388
370
     9
100
AcDbVertex
100
AcDb2dVertex
 10
85.19307949321013
 20
-137.6264074655936
 30
0.0
  0
SEQEND
  5
C7
330
C4
100
AcDbEntity
  8
_U+30EC_U+30A4_U+30E4_U+30FC 1
 62
   179
420
  2234388
370
     9
  0
POLYLINE
  5
C8
330
1F
100
AcDbEntity
  8
_U+30EC_U+30A4_U+30E4_U+30FC 1
 62
   179
420
  2234388
370
     9
100
AcDb2dPolyline
 66
     1
 10
0.0
 20
0.0
 30
0.0
  0
VERTEX
  5
C9
330
C8
100
AcDbEntity
  8
_U+30EC_U+30A4_U+30E4_U+30FC 1
 62
   179
420
  2234388
370
     9
100
AcDbVertex
100
AcDb2dVertex
 10
96.19258449036717
 20
-135.1659235773193
 30
0.0
  0
VERTEX
  5
CA
330
C8
100
AcDbEntity
  8
_U+30EC_U+30A4_U+30E4_U+30FC 1
 62
   179
420
  2234388
370
     9
100
AcDbVertex
100
AcDb2dVertex
 10
96.19258449036717
 20
-137.6264074655936
 30
0.0
  0
SEQEND
  5
CB
330
C8
100
AcDbEntity
  8
_U+30EC_U+30A4_U+30E4_U+30FC 1
 62
   179
420
  2234388
370
     9
  0
INSERT
  5
CD
330
1F
100
AcDbEntity
  8
_U+30EC_U+30A4_U+30E4_U+30FC 1
100
AcDbBlockReference
  2
block 5
 10
0.0
 20
0.0
 30
0.0
  0
SPLINE
  5
DF
330
1F
100
AcDbEntity
  8
_U+30EC_U+30A4_U+30E4_U+30FC 1
 62
   179
420
  2234388
370
    25
100
AcDbSpline
210
0.0
220
0.0
230
1.0
 70
    11
 71
     3
 72
    17
 73
    13
 74
     0
 42
0.0000000001
 43
0.0000000001
 12
1.0
 22
0.0
 32
0.0
 13
1.0
 23
0.0
 33
0.0
 40
0.0
 40
0.0
 40
0.0
 40
0.0
 40
1.0
 40
1.0
 40
1.0
 40
2.0
 40
2.0
 40
2.0
 40
3.0
 40
3.0
 40
3.0
 40
4.0
 40
4.0
 40
4.0
 40
4.0
 10
85.22821615898039
 20
-132.6261705223993
 30
0.0
 10
85.22821615898039
 20
-132.6454674668385
 30
0.0
 10
85.21237643716228
 20
-132.6613424668345
 30
0.0
 10
85.19307949321013
 20
-132.6613424668345
 30
0.0
 10
85.17307699372044
 20
-132.6613424668345
 30
0.0
 10
85.15723727190233
 20
-132.6454674668385
 30
0.0
 10
85.15723727190233
 20
-132.6261705223993
 30
0.0
 10
85.15723727190233
 20
-132.606908855737
 30
0.0
 10
85.17307699372044
 20
-132.5910338557409
 30
0.0
 10
85.19307949321013
 20
-132.5910338557409
 30
0.0
 10
85.21237643716228
 20
-132.5910338557409
 30
0.0
 10
85.22821615898039
 20
-132.606908855737
 30
0.0
 10
85.22821615898039
 20
-132.6261705223993
 30
0.0
  0
SPLINE
  5
E0
330
1F
100
AcDbEntity
  8
_U+30EC_U+30A4_U+30E4_U+30FC 1
 62
   179
420
  2234388
370
    25
100
AcDbSpline
210
0.0
220
0.0
230
1.0
 70
    11
 71
     3
 72
    17
 73
    13
 74
     0
 42
0.0000000001
 43
0.0000000001
 12
1.0
 22
0.0
 32
0.0
 13
1.0
 23
0.0
 33
0.0
 40
0.0
 40
0.0
 40
0.0
 40
0.0
 40
1.0
 40
1.0
 40
1.0
 40
2.0
 40
2.0
 40
2.0
 40
3.0
 40
3.0
 40
3.0
 40
4.0
 40
4.0
 40
4.0
 40
4.0
 10
96.22772115613742
 20
-132.6261705223993
 30
0.0
 10
96.22772115613742
 20
-132.6454674668385
 30
0.0
 10
96.21255171207999
 20
-132.6613424668345
 30
0.0
 10
96.19258449036717
 20
-132.6613424668345
 30
0.0
 10
96.17328754641503
 20
-132.6613424668345
 30
0.0
 10
96.1574478245969
 20
-132.6454674668385
 30
0.0
 10
96.1574478245969
 20
-132.6261705223993
 30
0.0
 10
96.1574478245969
 20
-132.606908855737
 30
0.0
 10
96.17328754641503
 20
-132.5910338557409
 30
0.0
 10
96.19258449036717
 20
-132.5910338557409
 30
0.0
 10
96.21255171207999
 20
-132.5910338557409
 30
0.0
 10
96.22772115613742
 20
-132.606908855737
 30
0.0
 10
96.22772115613742
 20
-132.6261705223993
 30
0.0
  0
SPLINE
  5
E1
330
1F
100
AcDbEntity
  8
_U+30EC_U+30A4_U+30E4_U+30FC 1
 62
   179
420
  2234388
370
     9
100
AcDbSpline
210
0.0
220
0.0
230
1.0
 70
    11
 71
     3
 72
    17
 73
    13
 74
     0
 42
0.0000000001
 43
0.0000000001
 12
1.0
 22
0.0
 32
0.0
 13
1.0
 23
0.0
 33
0.0
 40
0.0
 40
0.0
 40
0.0
 40
0.0
 40
1.0
 40
1.0
 40
1.0
 40
2.0
 40
2.0
 40
2.0
 40
3.0
 40
3.0
 40
3.0
 40
4.0
 40
4.0
 40
4.0
 40
4.0
 10
96.22772115613742
 20
-136.6259296880655
 30
0.0
 10
96.22772115613742
 20
-136.6459321880609
 30
0.0
 10
96.21255171207999
 20
-136.6617719102788
 30
0.0
 10
96.19258449036717
 20
-136.6617719102788
 30
0.0
 10
96.17328754641503
 20
-136.6617719102788
 30
0.0
 10
96.1574478245969
 20
-136.6459321880609
 30
0.0
 10
96.1574478245969
 20
-136.6259296880655
 30
0.0
 10
96.1574478245969
 20
-136.6066327436263
 30
0.0
 10
96.17328754641503
 20
-136.5907930214078
 30
0.0
 10
96.19258449036717
 20
-136.5907930214078
 30
0.0
 10
96.21255171207999
 20
-136.5907930214078
 30
0.0
 10
96.22772115613742
 20
-136.6066327436263
 30
0.0
 10
96.22772115613742
 20
-136.6259296880655
 30
0.0
  0
POLYLINE
  5
E2
330
1F
100
AcDbEntity
  8
_U+30EC_U+30A4_U+30E4_U+30FC 1
 62
   179
420
  2234388
370
     9
100
AcDb2dPolyline
 66
     1
 10
0.0
 20
0.0
 30
0.0
  0
VERTEX
  5
E3
330
E2
100
AcDbEntity
  8
_U+30EC_U+30A4_U+30E4_U+30FC 1
 62
   179
420
  2234388
370
     9
100
AcDbVertex
100
AcDb2dVertex
 10
81.19261487304827
 20
-122.1258810805797
 30
0.0
  0
VERTEX
  5
E4
330
E2
100
AcDbEntity
  8
_U+30EC_U+30A4_U+30E4_U+30FC 1
 62
   179
420
  2234388
370
     9
100
AcDbVertex
100
AcDb2dVertex
 10
81.19261487304827
 20
-132.6261705223993
 30
0.0
  0
SEQEND
  5
E5
330
E2
100
AcDbEntity
  8
_U+30EC_U+30A4_U+30E4_U+30FC 1
 62
   179
420
  2234388
370
     9
  0
POLYLINE
  5
E6
330
1F
100
AcDbEntity
  8
_U+30EC_U+30A4_U+30E4_U+30FC 1
 62
   179
420
  2234388
370
     9
100
AcDb2dPolyline
 66
     1
 10
0.0
 20
0.0
 30
0.0
  0
VERTEX
  5
E7
330
E6
100
AcDbEntity
  8
_U+30EC_U+30A4_U+30E4_U+30FC 1
 62
   179
420
  2234388
370
     9
100
AcDbVertex
100
AcDb2dVertex
 10
82.65265831267023
 20
-122.1258810805797
 30
0.0
  0
VERTEX
  5
E8
330
E6
100
AcDbEntity
  8
_U+30EC_U+30A4_U+30E4_U+30FC 1
 62
   179
420
  2234388
370
     9
100
AcDbVertex
100
AcDb2dVertex
 10
80.19287795410924
 20
-122.1258810805797
 30
0.0
  0
SEQEND
  5
E9
330
E6
100
AcDbEntity
  8
_U+30EC_U+30A4_U+30E4_U+30FC 1
 62
   179
420
  2234388
370
     9
  0
POLYLINE
  5
EA
330
1F
100
AcDbEntity
  8
_U+30EC_U+30A4_U+30E4_U+30FC 1
 62
   179
420
  2234388
370
     9
100
AcDb2dPolyline
 66
     1
 10
0.0
 20
0.0
 30
0.0
  0
VERTEX
  5
EB
330
EA
100
AcDbEntity
  8
_U+30EC_U+30A4_U+30E4_U+30FC 1
 62
   179
420
  2234388
370
     9
100
AcDbVertex
100
AcDb2dVertex
 10
82.65265831267023
 20
-132.6261705223993
 30
0.0
  0
VERTEX
  5
EC
330
EA
100
AcDbEntity
  8
_U+30EC_U+30A4_U+30E4_U+30FC 1
 62
   179
420
  2234388
370
     9
100
AcDbVertex
100
AcDb2dVertex
 10
80.19287795410924
 20
-132.6261705223993
 30
0.0
  0
SEQEND
  5
ED
330
EA
100
AcDbEntity
  8
_U+30EC_U+30A4_U+30E4_U+30FC 1
 62
   179
420
  2234388
370
     9
  0
INSERT
  5
EF
330
1F
100
AcDbEntity
  8
_U+30EC_U+30A4_U+30E4_U+30FC 1
100
AcDbBlockReference
  2
block 6
 10
0.0
 20
0.0
 30
0.0
  0
SPLINE
  5
101
330
1F
100
AcDbEntity
  8
_U+30EC_U+30A4_U+30E4_U+30FC 1
 62
   179
420
  2234388
370
    25
100
AcDbSpline
210
0.0
220
0.0
230
1.0
 70
    11
 71
     3
 72
    17
 73
    13
 74
     0
 42
0.0000000001
 43
0.0000000001
 12
1.0
 22
0.0
 32
0.0
 13
1.0
 23
0.0
 33
0.0
 40
0.0
 40
0.0
 40
0.0
 40
0.0
 40
1.0
 40
1.0
 40
1.0
 40
2.0
 40
2.0
 40
2.0
 40
3.0
 40
3.0
 40
3.0
 40
4.0
 40
4.0
 40
4.0
 40
4.0
 10
85.22821615898039
 20
-122.1258810805797
 30
0.0
 10
85.22821615898039
 20
-122.145530802797
 30
0.0
 10
85.21237643716228
 20
-122.1613705250152
 30
0.0
 10
85.19307949321013
 20
-122.1613705250152
 30
0.0
 10
85.17307699372044
 20
-122.1613705250152
 30
0.0
 10
85.15723727190233
 20
-122.145530802797
 30
0.0
 10
85.15723727190233
 20
-122.1258810805797
 30
0.0
 10
85.15723727190233
 20
-122.1065841361399
 30
0.0
 10
85.17307699372044
 20
-122.0907444139217
 30
0.0
 10
85.19307949321013
 20
-122.0907444139217
 30
0.0
 10
85.21237643716228
 20
-122.0907444139217
 30
0.0
 10
85.22821615898039
 20
-122.1065841361399
 30
0.0
 10
85.22821615898039
 20
-122.1258810805797
 30
0.0
  0
SPLINE
  5
102
330
1F
100
AcDbEntity
  8
_U+30EC_U+30A4_U+30E4_U+30FC 1
 62
   179
420
  2234388
370
    25
100
AcDbSpline
210
0.0
220
0.0
230
1.0
 70
    11
 71
     3
 72
    17
 73
    13
 74
     0
 42
0.0000000001
 43
0.0000000001
 12
1.0
 22
0.0
 32
0.0
 13
1.0
 23
0.0
 33
0.0
 40
0.0
 40
0.0
 40
0.0
 40
0.0
 40
1.0
 40
1.0
 40
1.0
 40
2.0
 40
2.0
 40
2.0
 40
3.0
 40
3.0
 40
3.0
 40
4.0
 40
4.0
 40
4.0
 40
4.0
 10
85.22821615898039
 20
-132.6261705223993
 30
0.0
 10
85.22821615898039
 20
-132.6454674668385
 30
0.0
 10
85.21237643716228
 20
-132.6613424668345
 30
0.0
 10
85.19307949321013
 20
-132.6613424668345
 30
0.0
 10
85.17307699372044
 20
-132.6613424668345
 30
0.0
 10
85.15723727190233
 20
-132.6454674668385
 30
0.0
 10
85.15723727190233
 20
-132.6261705223993
 30
0.0
 10
85.15723727190233
 20
-132.606908855737
 30
0.0
 10
85.17307699372044
 20
-132.5910338557409
 30
0.0
 10
85.19307949321013
 20
-132.5910338557409
 30
0.0
 10
85.21237643716228
 20
-132.5910338557409
 30
0.0
 10
85.22821615898039
 20
-132.606908855737
 30
0.0
 10
85.22821615898039
 20
-132.6261705223993
 30
0.0
  0
SPLINE
  5
103
330
1F
100
AcDbEntity
  8
_U+30EC_U+30A4_U+30E4_U+30FC 1
 62
   179
420
  2234388
370
     9
100
AcDbSpline
210
0.0
220
0.0
230
1.0
 70
    11
 71
     3
 72
    17
 73
    13
 74
     0
 42
0.0000000001
 43
0.0000000001
 12
1.0
 22
0.0
 32
0.0
 13
1.0
 23
0.0
 33
0.0
 40
0.0
 40
0.0
 40
0.0
 40
0.0
 40
1.0
 40
1.0
 40
1.0
 40
2.0
 40
2.0
 40
2.0
 40
3.0
 40
3.0
 40
3.0
 40
4.0
 40
4.0
 40
4.0
 40
4.0
 10
81.2277888685821
 20
-132.6261705223993
 30
0.0
 10
81.2277888685821
 20
-132.6454674668385
 30
0.0
 10
81.21191386858604
 20
-132.6613424668345
 30
0.0
 10
81.19261487304827
 20
-132.6613424668345
 30
0.0
 10
81.173353206873
 20
-132.6613424668345
 30
0.0
 10
81.15747820727802
 20
-132.6454674668385
 30
0.0
 10
81.15747820727802
 20
-132.6261705223993
 30
0.0
 10
81.15747820727802
 20
-132.606908855737
 30
0.0
 10
81.173353206873
 20
-132.5910338557409
 30
0.0
 10
81.19261487304827
 20
-132.5910338557409
 30
0.0
 10
81.21191386858604
 20
-132.5910338557409
 30
0.0
 10
81.2277888685821
 20
-132.606908855737
 30
0.0
 10
81.2277888685821
 20
-132.6261705223993
 30
0.0
  0
ENDSEC
  0
SECTION
  2
OBJECTS
  0
DICTIONARY
  5
C
330
0
100
AcDbDictionary
281
     1
  3
ACAD_GROUP
350
D
  3
ACAD_LAYOUT
350
1A
  3
ACAD_MATERIAL
350
3B
  3
ACAD_MLEADERSTYLE
350
105
  3
ACAD_MLINESTYLE
350
17
  3
ACAD_PLOTSETTINGS
350
19
  3
ACAD_PLOTSTYLENAME
350
E
  3
ACAD_TABLESTYLE
350
104
  3
ACAD_VISUALSTYLE
350
2A
  0
SUN
  5
3F
330
29
100
AcDbSun
 90
        1
290
     0
 63
     7
421
 16777215
 40
1.0
291
     1
 91
  2455826
 92
 54000000
292
     0
 70
     2
 71
   256
280
     1
  0
DICTIONARY
  5
D
102
{ACAD_REACTORS
330
C
102
}
330
C
100
AcDbDictionary
281
     1
  0
DICTIONARY
  5
1A
102
{ACAD_REACTORS
330
C
102
}
330
C
100
AcDbDictionary
281
     1
  3
Layout1
350
1E
  3
Layout2
350
26
  3
Model
350
22
  0
DICTIONARY
  5
3B
102
{ACAD_REACTORS
330
C
102
}
330
C
100
AcDbDictionary
281
     1
  3
ByBlock
350
3D
  3
ByLayer
350
3C
  3
Global
350
3E
  0
DICTIONARY
  5
105
102
{ACAD_REACTORS
330
C
102
}
330
C
100
AcDbDictionary
281
     1
  0
DICTIONARY
  5
17
102
{ACAD_REACTORS
330
C
102
}
330
C
100
AcDbDictionary
281
     1
  3
Standard
350
18
  0
DICTIONARY
  5
19
102
{ACAD_REACTORS
330
C
102
}
330
C
100
AcDbDictionary
281
     1
  0
ACDBDICTIONARYWDFLT
  5
E
102
{ACAD_REACTORS
330
C
102
}
330
C
100
AcDbDictionary
281
     1
  3
Normal
350
F
100
AcDbDictionaryWithDefault
340
F
  0
DICTIONARY
  5
104
102
{ACAD_REACTORS
330
C
102
}
330
C
100
AcDbDictionary
281
     1
  0
DICTIONARY
  5
2A
102
{ACAD_REACTORS
330
C
102
}
330
C
100
AcDbDictionary
281
     1
  3
2dWireframe
350
2F
  3
3D Hidden
350
31
  3
3dWireframe
350
30
  3
Basic
350
32
  3
Brighten
350
36
  3
ColorChange
350
3A
  3
Conceptual
350
34
  3
Dim
350
35
  3
Facepattern
350
39
  3
Flat
350
2B
  3
FlatWithEdges
350
2C
  3
Gouraud
350
2D
  3
GouraudWithEdges
350
2E
  3
Linepattern
350
38
  3
Realistic
350
33
  3
Thicken
350
37
  0
LAYOUT
  5
1E
102
{ACAD_REACTORS
330
1A
102
}
330
1A
100
AcDbPlotSettings
  1

  2
none_device
  4

  6

 40
0.0
 41
0.0
 42
0.0
 43
0.0
 44
0.0
 45
0.0
 46
0.0
 47
0.0
 48
0.0
 49
0.0
140
0.0
141
0.0
142
1.0
143
1.0
 70
   688
 72
     0
 73
     0
 74
     5
  7

 75
    16
 76
     0
 77
     2
 78
   300
147
1.0
148
0.0
149
0.0
100
AcDbLayout
  1
Layout1
 70
     1
 71
     1
 10
0.0
 20
0.0
 11
12.0
 21
9.0
 12
0.0
 22
0.0
 32
0.0
 14
1.000000000000000E+20
 24
1.000000000000000E+20
 34
1.000000000000000E+20
 15
-1.000000000000000E+20
 25
-1.000000000000000E+20
 35
-1.000000000000000E+20
146
0.0
 13
0.0
 23
0.0
 33
0.0
 16
1.0
 26
0.0
 36
0.0
 17
0.0
 27
1.0
 37
0.0
 76
     0
330
1B
  0
LAYOUT
  5
26
102
{ACAD_REACTORS
330
1A
102
}
330
1A
100
AcDbPlotSettings
  1

  2
none_device
  4

  6

 40
0.0
 41
0.0
 42
0.0
 43
0.0
 44
0.0
 45
0.0
 46
0.0
 47
0.0
 48
0.0
 49
0.0
140
0.0
141
0.0
142
1.0
143
1.0
 70
   688
 72
     0
 73
     0
 74
     5
  7

 75
    16
 76
     0
 77
     2
 78
   300
147
1.0
148
0.0
149
0.0
100
AcDbLayout
  1
Layout2
 70
     1
 71
     2
 10
0.0
 20
0.0
 11
0.0
 21
0.0
 12
0.0
 22
0.0
 32
0.0
 14
0.0
 24
0.0
 34
0.0
 15
0.0
 25
0.0
 35
0.0
146
0.0
 13
0.0
 23
0.0
 33
0.0
 16
1.0
 26
0.0
 36
0.0
 17
0.0
 27
1.0
 37
0.0
 76
     0
330
23
  0
LAYOUT
  5
22
102
{ACAD_REACTORS
330
1A
102
}
330
1A
100
AcDbPlotSettings
  1

  2
none_device
  4

  6

 40
0.0
 41
0.0
 42
0.0
 43
0.0
 44
0.0
 45
0.0
 46
0.0
 47
0.0
 48
0.0
 49
0.0
140
0.0
141
0.0
142
1.0
143
1.0
 70
  1712
 72
     0
 73
     0
 74
     0
  7

 75
     0
 76
     0
 77
     2
 78
   300
147
1.0
148
0.0
149
0.0
100
AcDbLayout
  1
Model
 70
     1
 71
     0
 10
0.0
 20
0.0
 11
12.0
 21
9.0
 12
0.0
 22
0.0
 32
0.0
 14
1.000000000000000E+20
 24
1.000000000000000E+20
 34
1.000000000000000E+20
 15
-1.000000000000000E+20
 25
-1.000000000000000E+20
 35
-1.000000000000000E+20
146
0.0
 13
0.0
 23
0.0
 33
0.0
 16
1.0
 26
0.0
 36
0.0
 17
0.0
 27
1.0
 37
0.0
 76
     0
330
1F
331
29
  0
MATERIAL
  5
3D
102
{ACAD_REACTORS
330
3B
102
}
330
3B
100
AcDbMaterial
  1
ByBlock
 72
     1
 94
      127
  0
MATERIAL
  5
3C
102
{ACAD_REACTORS
330
3B
102
}
330
3B
100
AcDbMaterial
  1
ByLayer
 72
     1
 94
      127
  0
MATERIAL
  5
3E
102
{ACAD_REACTORS
330
3B
102
}
330
3B
100
AcDbMaterial
  1
Global
 72
     1
 94
      127
  0
MLINESTYLE
  5
18
102
{ACAD_REACTORS
330
17
102
}
330
17
100
AcDbMlineStyle
  2
Standard
 70
     0
  3

 62
   256
 51
90.0
 52
90.0
 71
     2
 49
0.5
 62
   256
  6
BYLAYER
 49
-0.5
 62
   256
  6
BYLAYER
  0
ACDBPLACEHOLDER
  5
F
102
{ACAD_REACTORS
330
E
102
}
330
E
  0
VISUALSTYLE
  5
2F
102
{ACAD_REACTORS
330
2A
102
}
330
2A
100
AcDbVisualStyle
  2
2dWireframe
 70
     4
177
     2
291
     0
 71
     0
176
     1
 72
     2
176
     1
 73
     0
176
     1
 90
        0
176
     1
 40
-0.6
176
     1
 41
-30.0
176
     1
 62
     5
 63
     7
421
 16777215
176
     1
 74
     1
176
     1
 91
        4
176
     1
 64
     7
176
     1
 65
   257
176
     1
 75
     1
176
     1
175
     1
176
     1
 42
1.0
176
     1
 92
        0
176
     1
 66
   257
176
     1
 43
1.0
176
     1
 76
     1
176
     1
 77
     6
176
     1
 78
     2
176
     1
 67
     7
176
     1
 79
     5
176
     1
170
     0
176
     1
171
     0
176
     1
290
     0
176
     1
 93
        1
176
     1
 44
0.0
176
     1
173
     0
176
     1
  0
VISUALSTYLE
  5
31
102
{ACAD_REACTORS
330
2A
102
}
330
2A
100
AcDbVisualStyle
  2
3D Hidden
 70
     6
177
     2
291
     0
 71
     1
176
     1
 72
     2
176
     1
 73
     2
176
     1
 90
        0
176
     1
 40
-0.6
176
     1
 41
-30.0
176
     1
 62
     5
 63
     7
421
 16777215
176
     1
 74
     2
176
     1
 91
        2
176
     1
 64
     7
176
     1
 65
   257
176
     1
 75
     2
176
     1
175
     1
176
     1
 42
40.0
176
     1
 92
        0
176
     1
 66
   257
176
     1
 43
1.0
176
     1
 76
     1
176
     1
 77
     6
176
     1
 78
     2
176
     1
 67
     7
176
     1
 79
     3
176
     1
170
     0
176
     1
171
     0
176
     1
290
     0
176
     1
 93
        1
176
     1
 44
0.0
176
     1
173
     0
176
     1
  0
VISUALSTYLE
  5
30
102
{ACAD_REACTORS
330
2A
102
}
330
2A
100
AcDbVisualStyle
  2
3dWireframe
 70
     5
177
     2
291
     0
 71
     0
176
     1
 72
     2
176
     1
 73
     0
176
     1
 90
        0
176
     1
 40
-0.6
176
     1
 41
-30.0
176
     1
 62
     5
 63
     7
421
 16777215
176
     1
 74
     1
176
     1
 91
        4
176
     1
 64
     7
176
     1
 65
   257
176
     1
 75
     1
176
     1
175
     1
176
     1
 42
1.0
176
     1
 92
        0
176
     1
 66
   257
176
     1
 43
1.0
176
     1
 76
     1
176
     1
 77
     6
176
     1
 78
     2
176
     1
 67
     7
176
     1
 79
     5
176
     1
170
     0
176
     1
171
     0
176
     1
290
     0
176
     1
 93
        1
176
     1
 44
0.0
176
     1
173
     0
176
     1
  0
VISUALSTYLE
  5
32
102
{ACAD_REACTORS
330
2A
102
}
330
2A
100
AcDbVisualStyle
  2
Basic
 70
     7
177
     2
291
     1
 71
     1
176
     1
 72
     0
176
     1
 73
     1
176
     1
 90
        0
176
     1
 40
-0.6
176
     1
 41
-30.0
176
     1
 62
     5
 63
     7
421
 16777215
176
     1
 74
     0
176
     1
 91
        4
176
     1
 64
     7
176
     1
 65
   257
176
     1
 75
     1
176
     1
175
     1
176
     1
 42
1.0
176
     1
 92
        8
176
     1
 66
     7
176
     1
 43
1.0
176
     1
 76
     1
176
     1
 77
     6
176
     1
 78
     2
176
     1
 67
     7
176
     1
 79
     5
176
     1
170
     0
176
     1
171
     0
176
     1
290
     0
176
     1
 93
        1
176
     1
 44
0.0
176
     1
173
     0
176
     1
  0
VISUALSTYLE
  5
36
102
{ACAD_REACTORS
330
2A
102
}
330
2A
100
AcDbVisualStyle
  2
Brighten
 70
    12
177
     2
291
     1
 71
     2
176
     1
 72
     2
176
     1
 73
     0
176
     1
 90
        0
176
     1
 40
-0.6
176
     1
 41
-30.0
176
     1
 62
     5
 63
     7
421
 16777215
176
     1
 74
     1
176
     1
 91
        4
176
     1
 64
     7
176
     1
 65
   257
176
     1
 75
     1
176
     1
175
     1
176
     1
 42
1.0
176
     1
 92
        8
176
     1
 66
     7
176
     1
 43
1.0
176
     1
 76
     1
176
     1
 77
     6
176
     1
 78
     2
176
     1
 67
     7
176
     1
 79
     5
176
     1
170
     0
176
     1
171
     0
176
     1
290
     0
176
     1
 93
        1
176
     1
 44
50.0
176
     1
173
     0
176
     1
  0
VISUALSTYLE
  5
3A
102
{ACAD_REACTORS
330
2A
102
}
330
2A
100
AcDbVisualStyle
  2
ColorChange
 70
    16
177
     2
291
     1
 71
     2
176
     1
 72
     2
176
     1
 73
     3
176
     1
 90
        0
176
     1
 40
-0.6
176
     1
 41
-30.0
176
     1
 62
     5
 63
     8
421
  8421504
176
     1
 74
     1
176
     1
 91
        4
176
     1
 64
     7
176
     1
 65
   257
176
     1
 75
     1
176
     1
175
     1
176
     1
 42
1.0
176
     1
 92
        8
176
     1
 66
     8
424
  8421504
176
     1
 43
1.0
176
     1
 76
     1
176
     1
 77
     6
176
     1
 78
     2
176
     1
 67
     7
176
     1
 79
     5
176
     1
170
     0
176
     1
171
     0
176
     1
290
     0
176
     1
 93
        1
176
     1
 44
0.0
176
     1
173
     0
176
     1
  0
VISUALSTYLE
  5
34
102
{ACAD_REACTORS
330
2A
102
}
330
2A
100
AcDbVisualStyle
  2
Conceptual
 70
     9
177
     2
291
     0
 71
     3
176
     1
 72
     2
176
     1
 73
     0
176
     1
 90
        0
176
     1
 40
-0.6
176
     1
 41
-30.0
176
     1
 62
     5
 63
     7
421
 16777215
176
     1
 74
     2
176
     1
 91
        2
176
     1
 64
     7
176
     1
 65
   257
176
     1
 75
     1
176
     1
175
     1
176
     1
 42
40.0
176
     1
 92
        8
176
     1
 66
     7
176
     1
 43
1.0
176
     1
 76
     1
176
     1
 77
     6
176
     1
 78
     2
176
     1
 67
     7
176
     1
 79
     3
176
     1
170
     0
176
     1
171
     0
176
     1
290
     0
176
     1
 93
        1
176
     1
 44
0.0
176
     1
173
     0
176
     1
  0
VISUALSTYLE
  5
35
102
{ACAD_REACTORS
330
2A
102
}
330
2A
100
AcDbVisualStyle
  2
Dim
 70
    11
177
     2
291
     1
 71
     2
176
     1
 72
     2
176
     1
 73
     0
176
     1
 90
        0
176
     1
 40
-0.6
176
     1
 41
-30.0
176
     1
 62
     5
 63
     7
421
 16777215
176
     1
 74
     1
176
     1
 91
        4
176
     1
 64
     7
176
     1
 65
   257
176
     1
 75
     1
176
     1
175
     1
176
     1
 42
1.0
176
     1
 92
        8
176
     1
 66
     7
176
     1
 43
1.0
176
     1
 76
     1
176
     1
 77
     6
176
     1
 78
     2
176
     1
 67
     7
176
     1
 79
     5
176
     1
170
     0
176
     1
171
     0
176
     1
290
     0
176
     1
 93
        1
176
     1
 44
-50.0
176
     1
173
     0
176
     1
  0
VISUALSTYLE
  5
39
102
{ACAD_REACTORS
330
2A
102
}
330
2A
100
AcDbVisualStyle
  2
Facepattern
 70
    15
177
     2
291
     1
 71
     2
176
     1
 72
     2
176
     1
 73
     0
176
     1
 90
        0
176
     1
 40
-0.6
176
     1
 41
-30.0
176
     1
 62
     5
 63
     7
421
 16777215
176
     1
 74
     1
176
     1
 91
        4
176
     1
 64
     7
176
     1
 65
   257
176
     1
 75
     1
176
     1
175
     1
176
     1
 42
1.0
176
     1
 92
        8
176
     1
 66
     7
176
     1
 43
1.0
176
     1
 76
     1
176
     1
 77
     6
176
     1
 78
     2
176
     1
 67
     7
176
     1
 79
     5
176
     1
170
     0
176
     1
171
     0
176
     1
290
     0
176
     1
 93
        1
176
     1
 44
0.0
176
     1
173
     0
176
     1
  0
VISUALSTYLE
  5
2B
102
{ACAD_REACTORS
330
2A
102
}
330
2A
100
AcDbVisualStyle
  2
Flat
 70
     0
177
     2
291
     1
 71
     2
176
     1
 72
     1
176
     1
 73
     1
176
     1
 90
        2
176
     1
 40
-0.6
176
     1
 41
30.0
176
     1
 62
     5
 63
     7
421
 16777215
176
     1
 74
     0
176
     1
 91
        4
176
     1
 64
     7
176
     1
 65
   257
176
     1
 75
     1
176
     1
175
     1
176
     1
 42
1.0
176
     1
 92
        8
176
     1
 66
     7
176
     1
 43
1.0
176
     1
 76
     1
176
     1
 77
     6
176
     1
 78
     2
176
     1
 67
     7
176
     1
 79
     5
176
     1
170
     0
176
     1
171
     0
176
     1
290
     0
176
     1
 93
       13
176
     1
 44
0.0
176
     1
173
     0
176
     1
  0
VISUALSTYLE
  5
2C
102
{ACAD_REACTORS
330
2A
102
}
330
2A
100
AcDbVisualStyle
  2
FlatWithEdges
 70
     1
177
     2
291
     1
 71
     2
176
     1
 72
     1
176
     1
 73
     1
176
     1
 90
        2
176
     1
 40
-0.6
176
     1
 41
30.0
176
     1
 62
     5
 63
     7
421
 16777215
176
     1
 74
     1
176
     1
 91
        4
176
     1
 64
     7
176
     1
 65
   257
176
     1
 75
     1
176
     1
175
     1
176
     1
 42
1.0
176
     1
 92
        0
176
     1
 66
   257
176
     1
 43
1.0
176
     1
 76
     1
176
     1
 77
     6
176
     1
 78
     2
176
     1
 67
     7
176
     1
 79
     5
176
     1
170
     0
176
     1
171
     0
176
     1
290
     0
176
     1
 93
       13
176
     1
 44
0.0
176
     1
173
     0
176
     1
  0
VISUALSTYLE
  5
2D
102
{ACAD_REACTORS
330
2A
102
}
330
2A
100
AcDbVisualStyle
  2
Gouraud
 70
     2
177
     2
291
     1
 71
     2
176
     1
 72
     2
176
     1
 73
     1
176
     1
 90
        2
176
     1
 40
-0.6
176
     1
 41
30.0
176
     1
 62
     5
 63
     7
421
 16777215
176
     1
 74
     0
176
     1
 91
        4
176
     1
 64
     7
176
     1
 65
   257
176
     1
 75
     1
176
     1
175
     1
176
     1
 42
1.0
176
     1
 92
        0
176
     1
 66
     7
176
     1
 43
1.0
176
     1
 76
     1
176
     1
 77
     6
176
     1
 78
     2
176
     1
 67
     7
176
     1
 79
     5
176
     1
170
     0
176
     1
171
     0
176
     1
290
     0
176
     1
 93
       13
176
     1
 44
0.0
176
     1
173
     0
176
     1
  0
VISUALSTYLE
  5
2E
102
{ACAD_REACTORS
330
2A
102
}
330
2A
100
AcDbVisualStyle
  2
GouraudWithEdges
 70
     3
177
     2
291
     1
 71
     2
176
     1
 72
     2
176
     1
 73
     1
176
     1
 90
        2
176
     1
 40
-0.6
176
     1
 41
30.0
176
     1
 62
     5
 63
     7
421
 16777215
176
     1
 74
     1
176
     1
 91
        4
176
     1
 64
     7
176
     1
 65
   257
176
     1
 75
     1
176
     1
175
     1
176
     1
 42
1.0
176
     1
 92
        0
176
     1
 66
   257
176
     1
 43
1.0
176
     1
 76
     1
176
     1
 77
     6
176
     1
 78
     2
176
     1
 67
     7
176
     1
 79
     5
176
     1
170
     0
176
     1
171
     0
176
     1
290
     0
176
     1
 93
       13
176
     1
 44
0.0
176
     1
173
     0
176
     1
  0
VISUALSTYLE
  5
38
102
{ACAD_REACTORS
330
2A
102
}
330
2A
100
AcDbVisualStyle
  2
Linepattern
 70
    14
177
     2
291
     1
 71
     2
176
     1
 72
     2
176
     1
 73
     0
176
     1
 90
        0
176
     1
 40
-0.6
176
     1
 41
-30.0
176
     1
 62
     5
 63
     7
421
 16777215
176
     1
 74
     1
176
     1
 91
        4
176
     1
 64
     7
176
     1
 65
   257
176
     1
 75
     7
176
     1
175
     7
176
     1
 42
1.0
176
     1
 92
        8
176
     1
 66
     7
176
     1
 43
1.0
176
     1
 76
     1
176
     1
 77
     6
176
     1
 78
     2
176
     1
 67
     7
176
     1
 79
     5
176
     1
170
     0
176
     1
171
     0
176
     1
290
     0
176
     1
 93
        1
176
     1
 44
0.0
176
     1
173
     0
176
     1
  0
VISUALSTYLE
  5
33
102
{ACAD_REACTORS
330
2A
102
}
330
2A
100
AcDbVisualStyle
  2
Realistic
 70
     8
177
     2
291
     0
 71
     2
176
     1
 72
     2
176
     1
 73
     0
176
     1
 90
        0
176
     1
 40
-0.6
176
     1
 41
-30.0
176
     1
 62
     5
 63
     7
421
 16777215
176
     1
 74
     1
176
     1
 91
        0
176
     1
 64
     7
176
     1
 65
   257
176
     1
 75
     1
176
     1
175
     1
176
     1
 42
1.0
176
     1
 92
        8
176
     1
 66
     8
424
  7895160
176
     1
 43
1.0
176
     1
 76
     1
176
     1
 77
     6
176
     1
 78
     2
176
     1
 67
     7
176
     1
 79
     5
176
     1
170
     0
176
     1
171
     0
176
     1
290
     0
176
     1
 93
       13
176
     1
 44
0.0
176
     1
173
     0
176
     1
  0
VISUALSTYLE
  5
37
102
{ACAD_REACTORS
330
2A
102
}
330
2A
100
AcDbVisualStyle
  2
Thicken
 70
    13
177
     2
291
     1
 71
     2
176
     1
 72
     2
176
     1
 73
     0
176
     1
 90
        0
176
     1
 40
-0.6
176
     1
 41
-30.0
176
     1
 62
     5
 63
     7
421
 16777215
176
     1
 74
     1
176
     1
 91
        4
176
     1
 64
     7
176
     1
 65
   257
176
     1
 75
     1
176
     1
175
     1
176
     1
 42
1.0
176
     1
 92
       12
176
     1
 66
     7
176
     1
 43
1.0
176
     1
 76
     1
176
     1
 77
     6
176
     1
 78
     2
176
     1
 67
     7
176
     1
 79
     5
176
     1
170
     0
176
     1
171
     0
176
     1
290
     0
176
     1
 93
        1
176
     1
 44
0.0
176
     1
173
     0
176
     1
  0
ENDSEC
  0
EOF
