  0
SECTION
  2
HEADER
  9
$ACADVER
  1
AC1024
  9
$ACADMAINTVER
 70
     6
  9
$DWGCODEPAGE
  3
UNDEFINED
  9
$INSBASE
 10
0.0
 20
0.0
 30
0.0
  9
$EXTMIN
 10
1.000000000000000E+20
 20
1.000000000000000E+20
 30
1.000000000000000E+20
  9
$EXTMAX
 10
-1.000000000000000E+20
 20
-1.000000000000000E+20
 30
-1.000000000000000E+20
  9
$LIMMIN
 10
0.0
 20
0.0
  9
$LIMMAX
 10
12.0
 20
9.0
  9
$ORTHOMODE
 70
     0
  9
$REGENMODE
 70
     1
  9
$FILLMODE
 70
     1
  9
$QTEXTMODE
 70
     0
  9
$MIRRTEXT
 70
     1
  9
$LTSCALE
 40
1.0
  9
$ATTMODE
 70
     1
  9
$TEXTSIZE
 40
0.2
  9
$TRACEWID
 40
0.05
  9
$TEXTSTYLE
  7
Standard
  9
$CLAYER
  8
0
  9
$CELTYPE
  6
ByLayer
  9
$CECOLOR
 62
   256
  9
$CELTSCALE
 40
1.0
  9
$DISPSILH
 70
     0
  9
$DIMSCALE
 40
1.0
  9
$DIMASZ
 40
0.18
  9
$DIMEXO
 40
0.0625
  9
$DIMDLI
 40
0.38
  9
$DIMRND
 40
0.0
  9
$DIMDLE
 40
0.0
  9
$DIMEXE
 40
0.18
  9
$DIMTP
 40
0.0
  9
$DIMTM
 40
0.0
  9
$DIMTXT
 40
0.18
  9
$DIMCEN
 40
0.09
  9
$DIMTSZ
 40
0.0
  9
$DIMTOL
 70
     0
  9
$DIMLIM
 70
     0
  9
$DIMTIH
 70
     1
  9
$DIMTOH
 70
     1
  9
$DIMSE1
 70
     0
  9
$DIMSE2
 70
     0
  9
$DIMTAD
 70
     0
  9
$DIMZIN
 70
     0
  9
$DIMBLK
  1

  9
$DIMASO
 70
     1
  9
$DIMSHO
 70
     1
  9
$DIMPOST
  1

  9
$DIMAPOST
  1

  9
$DIMALT
 70
     0
  9
$DIMALTD
 70
     2
  9
$DIMALTF
 40
25.4
  9
$DIMLFAC
 40
1.0
  9
$DIMTOFL
 70
     0
  9
$DIMTVP
 40
0.0
  9
$DIMTIX
 70
     0
  9
$DIMSOXD
 70
     0
  9
$DIMSAH
 70
     0
  9
$DIMBLK1
  1

  9
$DIMBLK2
  1

  9
$DIMSTYLE
  2
Standard
  9
$DIMCLRD
 70
     0
  9
$DIMCLRE
 70
     0
  9
$DIMCLRT
 70
     0
  9
$DIMTFAC
 40
1.0
  9
$DIMGAP
 40
0.09
  9
$DIMJUST
 70
     0
  9
$DIMSD1
 70
     0
  9
$DIMSD2
 70
     0
  9
$DIMTOLJ
 70
     1
  9
$DIMTZIN
 70
     0
  9
$DIMALTZ
 70
     0
  9
$DIMALTTZ
 70
     0
  9
$DIMUPT
 70
     0
  9
$DIMDEC
 70
     4
  9
$DIMTDEC
 70
     4
  9
$DIMALTU
 70
     2
  9
$DIMALTTD
 70
     2
  9
$DIMTXSTY
  7
Standard
  9
$DIMAUNIT
 70
     0
  9
$DIMADEC
 70
     0
  9
$DIMALTRND
 40
0.0
  9
$DIMAZIN
 70
     0
  9
$DIMDSEP
 70
    46
  9
$DIMATFIT
 70
     3
  9
$DIMFRAC
 70
     0
  9
$DIMLDRBLK
  1

  9
$DIMLUNIT
 70
     2
  9
$DIMLWD
 70
    -2
  9
$DIMLWE
 70
    -2
  9
$DIMTMOVE
 70
     0
  9
$DIMFXL
 40
1.0
  9
$DIMFXLON
 70
     0
  9
$DIMJOGANG
 40
0.7853981633974483
  9
$DIMTFILL
 70
     0
  9
$DIMTFILLCLR
 70
     0
  9
$DIMARCSYM
 70
     0
  9
$DIMLTYPE
  6

  9
$DIMLTEX1
  6

  9
$DIMLTEX2
  6

  9
$DIMTXTDIRECTION
 70
     0
  9
$LUNITS
 70
     2
  9
$LUPREC
 70
     4
  9
$SKETCHINC
 40
0.1
  9
$FILLETRAD
 40
0.5
  9
$AUNITS
 70
     0
  9
$AUPREC
 70
     0
  9
$MENU
  1
.
  9
$ELEVATION
 40
0.0
  9
$PELEVATION
 40
0.0
  9
$THICKNESS
 40
0.0
  9
$LIMCHECK
 70
     0
  9
$CHAMFERA
 40
0.5
  9
$CHAMFERB
 40
0.5
  9
$CHAMFERC
 40
1.0
  9
$CHAMFERD
 40
0.0
  9
$SKPOLY
 70
     0
  9
$TDCREATE
 40
2457917.619467593
  9
$TDUCREATE
 40
2457917.244467593
  9
$TDUPDATE
 40
2457917.619467593
  9
$TDUUPDATE
 40
2457917.244467593
  9
$TDINDWG
 40
0.0000000116
  9
$TDUSRTIMER
 40
0.0000000116
  9
$USRTIMER
 70
     1
  9
$ANGBASE
 50
0.0
  9
$ANGDIR
 70
     0
  9
$PDMODE
 70
     0
  9
$PDSIZE
 40
0.0
  9
$PLINEWID
 40
0.0
  9
$SPLFRAME
 70
     0
  9
$SPLINETYPE
 70
     6
  9
$SPLINESEGS
 70
     8
  9
$HANDSEED
  5
D4
  9
$SURFTAB1
 70
     6
  9
$SURFTAB2
 70
     6
  9
$SURFTYPE
 70
     6
  9
$SURFU
 70
     6
  9
$SURFV
 70
     6
  9
$UCSBASE
  2

  9
$UCSNAME
  2

  9
$UCSORG
 10
0.0
 20
0.0
 30
0.0
  9
$UCSXDIR
 10
1.0
 20
0.0
 30
0.0
  9
$UCSYDIR
 10
0.0
 20
1.0
 30
0.0
  9
$UCSORTHOREF
  2

  9
$UCSORTHOVIEW
 70
     0
  9
$UCSORGTOP
 10
0.0
 20
0.0
 30
0.0
  9
$UCSORGBOTTOM
 10
0.0
 20
0.0
 30
0.0
  9
$UCSORGLEFT
 10
0.0
 20
0.0
 30
0.0
  9
$UCSORGRIGHT
 10
0.0
 20
0.0
 30
0.0
  9
$UCSORGFRONT
 10
0.0
 20
0.0
 30
0.0
  9
$UCSORGBACK
 10
0.0
 20
0.0
 30
0.0
  9
$PUCSBASE
  2

  9
$PUCSNAME
  2

  9
$PUCSORG
 10
0.0
 20
0.0
 30
0.0
  9
$PUCSXDIR
 10
1.0
 20
0.0
 30
0.0
  9
$PUCSYDIR
 10
0.0
 20
1.0
 30
0.0
  9
$PUCSORTHOREF
  2

  9
$PUCSORTHOVIEW
 70
     0
  9
$PUCSORGTOP
 10
0.0
 20
0.0
 30
0.0
  9
$PUCSORGBOTTOM
 10
0.0
 20
0.0
 30
0.0
  9
$PUCSORGLEFT
 10
0.0
 20
0.0
 30
0.0
  9
$PUCSORGRIGHT
 10
0.0
 20
0.0
 30
0.0
  9
$PUCSORGFRONT
 10
0.0
 20
0.0
 30
0.0
  9
$PUCSORGBACK
 10
0.0
 20
0.0
 30
0.0
  9
$USERI1
 70
     0
  9
$USERI2
 70
     0
  9
$USERI3
 70
     0
  9
$USERI4
 70
     0
  9
$USERI5
 70
     0
  9
$USERR1
 40
0.0
  9
$USERR2
 40
0.0
  9
$USERR3
 40
0.0
  9
$USERR4
 40
0.0
  9
$USERR5
 40
0.0
  9
$WORLDVIEW
 70
     1
  9
$SHADEDGE
 70
     3
  9
$SHADEDIF
 70
    70
  9
$TILEMODE
 70
     1
  9
$MAXACTVP
 70
    64
  9
$PINSBASE
 10
0.0
 20
0.0
 30
0.0
  9
$PLIMCHECK
 70
     0
  9
$PEXTMIN
 10
1.000000000000000E+20
 20
1.000000000000000E+20
 30
1.000000000000000E+20
  9
$PEXTMAX
 10
-1.000000000000000E+20
 20
-1.000000000000000E+20
 30
-1.000000000000000E+20
  9
$PLIMMIN
 10
0.0
 20
0.0
  9
$PLIMMAX
 10
12.0
 20
9.0
  9
$UNITMODE
 70
     0
  9
$VISRETAIN
 70
     1
  9
$PLINEGEN
 70
     0
  9
$PSLTSCALE
 70
     1
  9
$TREEDEPTH
 70
  3020
  9
$CMLSTYLE
  2
Standard
  9
$CMLJUST
 70
     0
  9
$CMLSCALE
 40
1.0
  9
$PROXYGRAPHICS
 70
     1
  9
$MEASUREMENT
 70
     0
  9
$CELWEIGHT
370
    -1
  9
$ENDCAPS
280
     0
  9
$JOINSTYLE
280
     0
  9
$LWDISPLAY
290
     1
  9
$INSUNITS
 70
     1
  9
$HYPERLINKBASE
  1

  9
$STYLESHEET
  1

  9
$XEDIT
290
     1
  9
$CEPSNTYPE
380
     0
  9
$PSTYLEMODE
290
     1
  9
$FINGERPRINTGUID
  2
{C4DF55B0-BFE4-9BC8-245D-4AB2A58A480E}
  9
$VERSIONGUID
  2
{FAEB1C32-E019-11D5-929B-00C0DF256EC4}
  9
$EXTNAMES
290
     1
  9
$PSVPSCALE
 40
0.0
  9
$OLESTARTUP
290
     0
  9
$SORTENTS
280
   127
  9
$INDEXCTL
280
     0
  9
$HIDETEXT
280
     1
  9
$XCLIPFRAME
280
     2
  9
$HALOGAP
280
     0
  9
$OBSCOLOR
 70
   257
  9
$OBSLTYPE
280
     0
  9
$INTERSECTIONDISPLAY
280
     0
  9
$INTERSECTIONCOLOR
 70
   257
  9
$DIMASSOC
280
     2
  9
$PROJECTNAME
  1

  9
$CAMERADISPLAY
290
     0
  9
$LENSLENGTH
 40
50.0
  9
$CAMERAHEIGHT
 40
0.0
  9
$STEPSPERSEC
 40
2.0
  9
$STEPSIZE
 40
6.0
  9
$3DDWFPREC
 40
2.0
  9
$PSOLWIDTH
 40
0.25
  9
$PSOLHEIGHT
 40
4.0
  9
$LOFTANG1
 40
1.570796326794897
  9
$LOFTANG2
 40
1.570796326794897
  9
$LOFTMAG1
 40
0.0
  9
$LOFTMAG2
 40
0.0
  9
$LOFTPARAM
 70
     7
  9
$LOFTNORMALS
280
     1
  9
$LATITUDE
 40
37.795
  9
$LONGITUDE
 40
-122.394
  9
$NORTHDIRECTION
 40
0.0
  9
$TIMEZONE
 70
 -8000
  9
$LIGHTGLYPHDISPLAY
280
     1
  9
$TILEMODELIGHTSYNCH
280
     1
  9
$CMATERIAL
347
3C
  9
$SOLIDHIST
280
     1
  9
$SHOWHIST
280
     1
  9
$DWFFRAME
280
     2
  9
$DGNFRAME
280
     2
  9
$REALWORLDSCALE
290
     1
  9
$INTERFERECOLOR
 62
   256
  9
$CSHADOW
280
     0
  9
$SHADOWPLANELOCATION
 40
0.0
  0
ENDSEC
  0
SECTION
  2
CLASSES
  0
CLASS
  1
ACDBDICTIONARYWDFLT
  2
AcDbDictionaryWithDefault
  3
ObjectDBX Classes
 90
        0
 91
        4
280
     0
281
     0
  0
CLASS
  1
VISUALSTYLE
  2
AcDbVisualStyle
  3
ObjectDBX Classes
 90
     4095
 91
        4
280
     0
281
     0
  0
CLASS
  1
MATERIAL
  2
AcDbMaterial
  3
ObjectDBX Classes
 90
     1153
 91
        4
280
     0
281
     0
  0
CLASS
  1
SUN
  2
AcDbSun
  3
SCENEOE
 90
     1024
 91
        4
280
     0
281
     0
  0
ENDSEC
  0
SECTION
  2
TABLES
  0
TABLE
  2
VPORT
  5
8
330
0
100
AcDbSymbolTable
 70
     1
  0
VPORT
  5
29
330
8
100
AcDbSymbolTableRecord
100
AcDbViewportTableRecord
  2
*Active
 70
     0
 10
0.0
 20
0.0
 11
1.0
 21
1.0
 12
0.0
 22
0.0
 13
0.0
 23
0.0
 14
0.5
 24
0.5
 15
0.5
 25
0.5
 16
0.0
 26
0.0
 36
1.0
 17
91.00082462281999
 27
-128.4993055234307
 37
0.0
 40
256.9986110468615
 41
0.7081814508812795
 42
50.0
 43
0.0
 44
0.0
 50
0.0
 51
0.0
 71
     0
 72
   100
 73
     1
 74
     3
 75
     0
 76
     0
 77
     0
 78
     0
281
     0
 65
     1
110
0.0
120
0.0
130
0.0
111
1.0
121
0.0
131
0.0
112
0.0
122
1.0
132
0.0
 79
     0
146
0.0
 60
     3
 61
     5
292
     1
282
     1
141
0.0
142
0.0
 63
   250
361
3F
  0
ENDTAB
  0
TABLE
  2
LTYPE
  5
5
330
0
100
AcDbSymbolTable
 70
     1
  0
LTYPE
  5
14
330
5
100
AcDbSymbolTableRecord
100
AcDbLinetypeTableRecord
  2
ByBlock
 70
     0
  3

 72
    65
 73
     0
 40
0.0
  0
LTYPE
  5
15
330
5
100
AcDbSymbolTableRecord
100
AcDbLinetypeTableRecord
  2
ByLayer
 70
     0
  3

 72
    65
 73
     0
 40
0.0
  0
LTYPE
  5
16
330
5
100
AcDbSymbolTableRecord
100
AcDbLinetypeTableRecord
  2
Continuous
 70
     0
  3
Solid line
 72
    65
 73
     0
 40
0.0
  0
ENDTAB
  0
TABLE
  2
LAYER
  5
2
330
0
100
AcDbSymbolTable
 70
     2
  0
LAYER
  5
10
330
2
100
AcDbSymbolTableRecord
100
AcDbLayerTableRecord
  2
0
 70
     0
 62
     7
  6
Continuous
370
    -3
390
F
347
3E
  0
LAYER
  5
40
330
2
100
AcDbSymbolTableRecord
100
AcDbLayerTableRecord
  2
_U+30EC_U+30A4_U+30E4_U+30FC 1
 70
     0
 62
     7
  6
Continuous
370
    -3
390
F
347
3E
  0
ENDTAB
  0
TABLE
  2
STYLE
  5
3
330
0
100
AcDbSymbolTable
 70
     1
  0
STYLE
  5
11
330
3
100
AcDbSymbolTableRecord
100
AcDbTextStyleTableRecord
  2
Standard
 70
     0
 40
0.0
 41
1.0
 50
0.0
 71
     0
 42
0.2
  3
txt
  4

  0
ENDTAB
  0
TABLE
  2
VIEW
  5
6
330
0
100
AcDbSymbolTable
 70
     0
  0
ENDTAB
  0
TABLE
  2
UCS
  5
7
330
0
100
AcDbSymbolTable
 70
     0
  0
ENDTAB
  0
TABLE
  2
APPID
  5
9
330
0
100
AcDbSymbolTable
 70
     1
  0
APPID
  5
12
330
9
100
AcDbSymbolTableRecord
100
AcDbRegAppTableRecord
  2
ACAD
 70
     0
  0
ENDTAB
  0
TABLE
  2
DIMSTYLE
  5
A
330
0
100
AcDbSymbolTable
 70
     1
100
AcDbDimStyleTable
  0
DIMSTYLE
105
27
330
A
100
AcDbSymbolTableRecord
100
AcDbDimStyleTableRecord
  2
Standard
 70
     0
178
     0
340
11
  0
ENDTAB
  0
TABLE
  2
BLOCK_RECORD
  5
1
330
0
100
AcDbSymbolTable
 70
     6
  0
BLOCK_RECORD
  5
1F
330
1
100
AcDbSymbolTableRecord
100
AcDbBlockTableRecord
  2
*Model_Space
340
22
 70
     0
280
     1
281
     0
  0
BLOCK_RECORD
  5
1B
330
1
100
AcDbSymbolTableRecord
100
AcDbBlockTableRecord
  2
*Paper_Space
340
1E
 70
     0
280
     1
281
     0
  0
BLOCK_RECORD
  5
23
330
1
100
AcDbSymbolTableRecord
100
AcDbBlockTableRecord
  2
*Paper_Space0
340
26
 70
     0
280
     1
281
     0
  0
BLOCK_RECORD
  5
46
330
1
100
AcDbSymbolTableRecord
100
AcDbBlockTableRecord
  2
block 2
340
0
102
{BLKREFS
331
47
102
}
 70
     0
280
     1
281
     0
  0
BLOCK_RECORD
  5
6A
330
1
100
AcDbSymbolTableRecord
100
AcDbBlockTableRecord
  2
block 3
340
0
102
{BLKREFS
331
6B
102
}
 70
     0
280
     1
281
     0
  0
BLOCK_RECORD
  5
73
330
1
100
AcDbSymbolTableRecord
100
AcDbBlockTableRecord
  2
block 4
340
0
102
{BLKREFS
331
74
102
}
 70
     0
280
     1
281
     0
  0
BLOCK_RECORD
  5
9B
330
1
100
AcDbSymbolTableRecord
100
AcDbBlockTableRecord
  2
block 5
340
0
102
{BLKREFS
331
9C
102
}
 70
     0
280
     1
281
     0
  0
BLOCK_RECORD
  5
B1
330
1
100
AcDbSymbolTableRecord
100
AcDbBlockTableRecord
  2
block 6
340
0
102
{BLKREFS
331
B2
102
}
 70
     0
280
     1
281
     0
  0
ENDTAB
  0
ENDSEC
  0
SECTION
  2
BLOCKS
  0
BLOCK
  5
20
330
1F
100
AcDbEntity
  8
0
100
AcDbBlockBegin
  2
*Model_Space
 70
     0
 10
0.0
 20
0.0
 30
0.0
  3
*Model_Space
  1

  0
ENDBLK
  5
21
330
1F
100
AcDbEntity
  8
0
100
AcDbBlockEnd
  0
BLOCK
  5
1C
330
1B
100
AcDbEntity
 67
     1
  8
0
100
AcDbBlockBegin
  2
*Paper_Space
 70
     0
 10
0.0
 20
0.0
 30
0.0
  3
*Paper_Space
  1

  0
ENDBLK
  5
1D
330
1B
100
AcDbEntity
 67
     1
  8
0
100
AcDbBlockEnd
  0
BLOCK
  5
24
330
23
100
AcDbEntity
  8
0
100
AcDbBlockBegin
  2
*Paper_Space0
 70
     0
 10
0.0
 20
0.0
 30
0.0
  3
*Paper_Space0
  1

  0
ENDBLK
  5
25
330
23
100
AcDbEntity
  8
0
100
AcDbBlockEnd
  0
BLOCK
  5
48
330
46
100
AcDbEntity
  8
0
100
AcDbBlockBegin
  2
block 2
 70
     0
 10
0.0
 20
0.0
 30
0.0
  3
block 2
  1

  0
SPLINE
  5
4A
330
46
100
AcDbEntity
  8
_U+30EC_U+30A4_U+30E4_U+30FC 1
370
     0
100
AcDbSpline
210
0.0
220
0.0
230
1.0
 70
    11
 71
     3
 72
    26
 73
    22
 74
     0
 42
0.0000000001
 43
0.0000000001
 12
1.0
 22
0.0
 32
0.0
 13
1.0
 23
0.0
 33
0.0
 40
0.0
 40
0.0
 40
0.0
 40
0.0
 40
1.0
 40
1.0
 40
1.0
 40
2.0
 40
2.0
 40
2.0
 40
3.0
 40
3.0
 40
3.0
 40
4.0
 40
4.0
 40
4.0
 40
5.0
 40
5.0
 40
5.0
 40
6.0
 40
6.0
 40
6.0
 40
7.0
 40
7.0
 40
7.0
 40
7.0
 10
89.85997583473987
 20
-120.7933159420239
 30
0.0
 10
89.85997583473987
 20
-120.7933159420239
 30
0.0
 10
90.28268905078002
 20
-119.7728786592929
 30
0.0
 10
90.28268905078002
 20
-119.7728786592929
 30
0.0
 10
90.28268905078002
 20
-119.7728786592929
 30
0.0
 10
89.95712752742392
 20
-119.6378309162711
 30
0.0
 10
89.95712752742392
 20
-119.6378309162711
 30
0.0
 10
89.95712752742392
 20
-119.6378309162711
 30
0.0
 10
90.01362709338201
 20
-119.5014051350552
 30
0.0
 10
90.01362709338201
 20
-119.5014051350552
 30
0.0
 10
90.3471123363542
 20
-119.6233615152331
 30
0.0
 10
90.45528833459105
 20
-119.4917588676965
 30
0.0
 10
90.52832435887834
 20
-119.3987412895948
 30
0.0
 10
90.52832435887834
 20
-119.3987412895948
 30
0.0
 10
90.67232935016179
 20
-119.4579969319411
 30
0.0
 10
90.67232935016179
 20
-119.4579969319411
 30
0.0
 10
90.67232935016179
 20
-119.4579969319411
 30
0.0
 10
90.08149547444144
 20
-120.8849554819315
 30
0.0
 10
90.08149547444144
 20
-120.8849554819315
 30
0.0
 10
90.08149547444144
 20
-120.8849554819315
 30
0.0
 10
89.85997583473987
 20
-120.7933159420239
 30
0.0
 10
89.85997583473987
 20
-120.7933159420239
 30
0.0
  0
HATCH
  5
4B
330
46
100
AcDbEntity
  8
_U+30EC_U+30A4_U+30E4_U+30FC 1
 62
     7
420
 16777215
100
AcDbHatch
 10
0.0
 20
0.0
 30
0.0
210
0.0
220
0.0
230
1.0
  2
SOLID
 70
     1
 71
     0
 91
        1
 92
        1
 93
        1
 72
     4
 94
        3
 73
     0
 74
     1
 95
       26
 96
       22
 40
0.0
 40
0.0
 40
0.0
 40
0.0
 40
1.0
 40
1.0
 40
1.0
 40
2.0
 40
2.0
 40
2.0
 40
3.0
 40
3.0
 40
3.0
 40
4.0
 40
4.0
 40
4.0
 40
5.0
 40
5.0
 40
5.0
 40
6.0
 40
6.0
 40
6.0
 40
7.0
 40
7.0
 40
7.0
 40
7.0
 10
89.85997583473987
 20
-120.7933159420239
 10
89.85997583473987
 20
-120.7933159420239
 10
90.28268905078002
 20
-119.7728786592929
 10
90.28268905078002
 20
-119.7728786592929
 10
90.28268905078002
 20
-119.7728786592929
 10
89.95712752742392
 20
-119.6378309162711
 10
89.95712752742392
 20
-119.6378309162711
 10
89.95712752742392
 20
-119.6378309162711
 10
90.01362709338201
 20
-119.5014051350552
 10
90.01362709338201
 20
-119.5014051350552
 10
90.3471123363542
 20
-119.6233615152331
 10
90.45528833459105
 20
-119.4917588676965
 10
90.52832435887834
 20
-119.3987412895948
 10
90.52832435887834
 20
-119.3987412895948
 10
90.67232935016179
 20
-119.4579969319411
 10
90.67232935016179
 20
-119.4579969319411
 10
90.67232935016179
 20
-119.4579969319411
 10
90.08149547444144
 20
-120.8849554819315
 10
90.08149547444144
 20
-120.8849554819315
 10
90.08149547444144
 20
-120.8849554819315
 10
89.85997583473987
 20
-120.7933159420239
 10
89.85997583473987
 20
-120.7933159420239
 97
        0
 97
        0
 75
     2
 76
     1
 98
        0
  0
SPLINE
  5
4C
330
46
100
AcDbEntity
  8
_U+30EC_U+30A4_U+30E4_U+30FC 1
370
     0
100
AcDbSpline
210
0.0
220
0.0
230
1.0
 70
    11
 71
     3
 72
    62
 73
    58
 74
     0
 42
0.0000000001
 43
0.0000000001
 12
1.0
 22
0.0
 32
0.0
 13
1.0
 23
0.0
 33
0.0
 40
0.0
 40
0.0
 40
0.0
 40
0.0
 40
1.0
 40
1.0
 40
1.0
 40
2.0
 40
2.0
 40
2.0
 40
3.0
 40
3.0
 40
3.0
 40
4.0
 40
4.0
 40
4.0
 40
5.0
 40
5.0
 40
5.0
 40
6.0
 40
6.0
 40
6.0
 40
7.0
 40
7.0
 40
7.0
 40
8.0
 40
8.0
 40
8.0
 40
9.0
 40
9.0
 40
9.0
 40
10.0
 40
10.0
 40
10.0
 40
11.0
 40
11.0
 40
11.0
 40
12.0
 40
12.0
 40
12.0
 40
13.0
 40
13.0
 40
13.0
 40
14.0
 40
14.0
 40
14.0
 40
15.0
 40
15.0
 40
15.0
 40
16.0
 40
16.0
 40
16.0
 40
17.0
 40
17.0
 40
17.0
 40
18.0
 40
18.0
 40
18.0
 40
19.0
 40
19.0
 40
19.0
 40
19.0
 10
91.04233260527762
 20
-121.3376410286934
 30
0.0
 10
90.94862600807882
 20
-121.2990559592586
 30
0.0
 10
90.7415757694153
 20
-121.1901909419247
 30
0.0
 10
90.68955482758803
 20
-120.967293264029
 30
0.0
 10
90.65923798731784
 20
-120.8332790496528
 30
0.0
 10
90.69334443262181
 20
-120.739572452454
 30
0.0
 10
90.72159421560086
 20
-120.6596462371962
 30
0.0
 10
90.72159421560086
 20
-120.6596462371962
 30
0.0
 10
90.9386352311716
 20
-120.7499077389098
 30
0.0
 10
90.9386352311716
 20
-120.7499077389098
 30
0.0
 10
90.91210799593517
 20
-120.8191541581633
 30
0.0
 10
90.83321530932295
 20
-121.0406737978648
 30
0.0
 10
91.11295706272524
 20
-121.1564290061692
 30
0.0
 10
91.24869382484408
 20
-121.2125840625788
 30
0.0
 10
91.42525496846314
 20
-121.2101724957391
 30
0.0
 10
91.51276039378848
 20
-120.9993326520418
 30
0.0
 10
91.5572021255482
 20
-120.8918456729021
 30
0.0
 10
91.53825410037933
 20
-120.8312119923616
 30
0.0
 10
91.51930607521045
 20
-120.7888373178931
 30
0.0
 10
91.4745198339022
 20
-120.6899630774664
 30
0.0
 10
91.364793542697
 20
-120.6310519446686
 30
0.0
 10
91.31036103403005
 20
-120.6086588240145
 30
0.0
 10
91.29141300886118
 20
-120.6007351043984
 30
0.0
 10
91.25558401581458
 20
-120.587988251103
 30
0.0
 10
91.22630070418995
 20
-120.5804090410355
 30
0.0
 10
91.22630070418995
 20
-120.5804090410355
 30
0.0
 10
91.30071476667135
 20
-120.4005750567054
 30
0.0
 10
91.30071476667135
 20
-120.4005750567054
 30
0.0
 10
91.3358547406209
 20
-120.421934648714
 30
0.0
 10
91.37702363166964
 20
-120.4412271834314
 30
0.0
 10
91.38322480354309
 20
-120.4439832598196
 30
0.0
 10
91.44799259866578
 20
-120.4708550046045
 30
0.0
 10
91.6522867609411
 20
-120.532866723339
 30
0.0
 10
91.74289277220316
 20
-120.3137586504771
 30
0.0
 10
91.81110566281112
 20
-120.1497721053792
 30
0.0
 10
91.70258515502574
 20
-120.0450412026276
 30
0.0
 10
91.59406464724037
 20
-120.0002549613194
 30
0.0
 10
91.33309866423271
 20
-119.891734453534
 30
0.0
 10
91.23594697154866
 20
-120.1036078258769
 30
0.0
 10
91.20425209308436
 20
-120.1683756209996
 30
0.0
 10
91.20425209308436
 20
-120.1683756209996
 30
0.0
 10
91.00374753584282
 20
-120.0850043102565
 30
0.0
 10
91.00374753584282
 20
-120.0850043102565
 30
0.0
 10
91.05955808270386
 20
-119.9733832165344
 30
0.0
 10
91.23043481877225
 20
-119.636452878077
 30
0.0
 10
91.68157007256572
 20
-119.8235215629261
 30
0.0
 10
91.90343422181581
 20
-119.9151611028337
 30
0.0
 10
92.09291447350455
 20
-120.1311685897589
 30
0.0
 10
91.97957083203984
 20
-120.4047091712877
 30
0.0
 10
91.90825735549517
 20
-120.5769639455502
 30
0.0
 10
91.78251137028354
 20
-120.6141709767909
 30
0.0
 10
91.66089949965422
 20
-120.6300184160231
 30
0.0
 10
91.71085338419034
 20
-120.6803168101077
 30
0.0
 10
91.86002601870166
 20
-120.8291449350705
 30
0.0
 10
91.75391707775597
 20
-121.0854600391731
 30
0.0
 10
91.62438148751058
 20
-121.3982747092338
 30
0.0
 10
91.31587318680646
 20
-121.4513291797066
 30
0.0
 10
91.04233260527762
 20
-121.3376410286934
 30
0.0
  0
HATCH
  5
4D
330
46
100
AcDbEntity
  8
_U+30EC_U+30A4_U+30E4_U+30FC 1
 62
     7
420
 16777215
100
AcDbHatch
 10
0.0
 20
0.0
 30
0.0
210
0.0
220
0.0
230
1.0
  2
SOLID
 70
     1
 71
     0
 91
        1
 92
        1
 93
        1
 72
     4
 94
        3
 73
     0
 74
     1
 95
       62
 96
       58
 40
0.0
 40
0.0
 40
0.0
 40
0.0
 40
1.0
 40
1.0
 40
1.0
 40
2.0
 40
2.0
 40
2.0
 40
3.0
 40
3.0
 40
3.0
 40
4.0
 40
4.0
 40
4.0
 40
5.0
 40
5.0
 40
5.0
 40
6.0
 40
6.0
 40
6.0
 40
7.0
 40
7.0
 40
7.0
 40
8.0
 40
8.0
 40
8.0
 40
9.0
 40
9.0
 40
9.0
 40
10.0
 40
10.0
 40
10.0
 40
11.0
 40
11.0
 40
11.0
 40
12.0
 40
12.0
 40
12.0
 40
13.0
 40
13.0
 40
13.0
 40
14.0
 40
14.0
 40
14.0
 40
15.0
 40
15.0
 40
15.0
 40
16.0
 40
16.0
 40
16.0
 40
17.0
 40
17.0
 40
17.0
 40
18.0
 40
18.0
 40
18.0
 40
19.0
 40
19.0
 40
19.0
 40
19.0
 10
91.04233260527762
 20
-121.3376410286934
 10
90.94862600807882
 20
-121.2990559592586
 10
90.7415757694153
 20
-121.1901909419247
 10
90.68955482758803
 20
-120.967293264029
 10
90.65923798731784
 20
-120.8332790496528
 10
90.69334443262181
 20
-120.739572452454
 10
90.72159421560086
 20
-120.6596462371962
 10
90.72159421560086
 20
-120.6596462371962
 10
90.9386352311716
 20
-120.7499077389098
 10
90.9386352311716
 20
-120.7499077389098
 10
90.91210799593517
 20
-120.8191541581633
 10
90.83321530932295
 20
-121.0406737978648
 10
91.11295706272524
 20
-121.1564290061692
 10
91.24869382484408
 20
-121.2125840625788
 10
91.42525496846314
 20
-121.2101724957391
 10
91.51276039378848
 20
-120.9993326520418
 10
91.5572021255482
 20
-120.8918456729021
 10
91.53825410037933
 20
-120.8312119923616
 10
91.51930607521045
 20
-120.7888373178931
 10
91.4745198339022
 20
-120.6899630774664
 10
91.364793542697
 20
-120.6310519446686
 10
91.31036103403005
 20
-120.6086588240145
 10
91.29141300886118
 20
-120.6007351043984
 10
91.25558401581458
 20
-120.587988251103
 10
91.22630070418995
 20
-120.5804090410355
 10
91.22630070418995
 20
-120.5804090410355
 10
91.30071476667135
 20
-120.4005750567054
 10
91.30071476667135
 20
-120.4005750567054
 10
91.3358547406209
 20
-120.421934648714
 10
91.37702363166964
 20
-120.4412271834314
 10
91.38322480354309
 20
-120.4439832598196
 10
91.44799259866578
 20
-120.4708550046045
 10
91.6522867609411
 20
-120.532866723339
 10
91.74289277220316
 20
-120.3137586504771
 10
91.81110566281112
 20
-120.1497721053792
 10
91.70258515502574
 20
-120.0450412026276
 10
91.59406464724037
 20
-120.0002549613194
 10
91.33309866423271
 20
-119.891734453534
 10
91.23594697154866
 20
-120.1036078258769
 10
91.20425209308436
 20
-120.1683756209996
 10
91.20425209308436
 20
-120.1683756209996
 10
91.00374753584282
 20
-120.0850043102565
 10
91.00374753584282
 20
-120.0850043102565
 10
91.05955808270386
 20
-119.9733832165344
 10
91.23043481877225
 20
-119.636452878077
 10
91.68157007256572
 20
-119.8235215629261
 10
91.90343422181581
 20
-119.9151611028337
 10
92.09291447350455
 20
-120.1311685897589
 10
91.97957083203984
 20
-120.4047091712877
 10
91.90825735549517
 20
-120.5769639455502
 10
91.78251137028354
 20
-120.6141709767909
 10
91.66089949965422
 20
-120.6300184160231
 10
91.71085338419034
 20
-120.6803168101077
 10
91.86002601870166
 20
-120.8291449350705
 10
91.75391707775597
 20
-121.0854600391731
 10
91.62438148751058
 20
-121.3982747092338
 10
91.31587318680646
 20
-121.4513291797066
 10
91.04233260527762
 20
-121.3376410286934
 97
        0
 97
        0
 75
     2
 76
     1
 98
        0
  0
SPLINE
  5
4E
330
46
100
AcDbEntity
  8
_U+30EC_U+30A4_U+30E4_U+30FC 1
370
     0
100
AcDbSpline
210
0.0
220
0.0
230
1.0
 70
    11
 71
     3
 72
    53
 73
    49
 74
     0
 42
0.0000000001
 43
0.0000000001
 12
1.0
 22
0.0
 32
0.0
 13
1.0
 23
0.0
 33
0.0
 40
0.0
 40
0.0
 40
0.0
 40
0.0
 40
1.0
 40
1.0
 40
1.0
 40
2.0
 40
2.0
 40
2.0
 40
3.0
 40
3.0
 40
3.0
 40
4.0
 40
4.0
 40
4.0
 40
5.0
 40
5.0
 40
5.0
 40
6.0
 40
6.0
 40
6.0
 40
7.0
 40
7.0
 40
7.0
 40
8.0
 40
8.0
 40
8.0
 40
9.0
 40
9.0
 40
9.0
 40
10.0
 40
10.0
 40
10.0
 40
11.0
 40
11.0
 40
11.0
 40
12.0
 40
12.0
 40
12.0
 40
13.0
 40
13.0
 40
13.0
 40
14.0
 40
14.0
 40
14.0
 40
15.0
 40
15.0
 40
15.0
 40
16.0
 40
16.0
 40
16.0
 40
16.0
 10
92.1942002807709
 20
-121.8147867534005
 30
0.0
 10
92.11634112280426
 20
-121.7827473653876
 30
0.0
 10
92.02297903515398
 20
-121.7255587803325
 30
0.0
 10
91.94684242492995
 20
-121.6256510112603
 30
0.0
 10
91.81765134423308
 20
-121.4527072179007
 30
0.0
 10
91.84727916540623
 20
-121.3231716276553
 30
0.0
 10
91.86967228606036
 20
-121.2156846485155
 30
0.0
 10
91.86967228606036
 20
-121.2156846485155
 30
0.0
 10
92.08878035892225
 20
-121.3066351693261
 30
0.0
 10
92.08878035892225
 20
-121.3066351693261
 30
0.0
 10
92.06707625736517
 20
-121.5126518793441
 30
0.0
 10
92.18110891792695
 20
-121.5918890755048
 30
0.0
 10
92.27309296738312
 20
-121.6297851258426
 30
0.0
 10
92.41089678679312
 20
-121.6869737108977
 30
0.0
 10
92.59934350983627
 20
-121.6576903992731
 30
0.0
 10
92.68857148290425
 20
-121.442371931445
 30
0.0
 10
92.78641219468534
 20
-121.2060383811568
 30
0.0
 10
92.63586152197993
 20
-121.0682345617468
 30
0.0
 10
92.51666121819028
 20
-121.0186251867592
 30
0.0
 10
92.48496633972599
 20
-121.0055338239153
 30
0.0
 10
92.34509546302485
 20
-120.9476562197631
 30
0.0
 10
92.2079806627119
 20
-121.0303385114091
 30
0.0
 10
92.2079806627119
 20
-121.0303385114091
 30
0.0
 10
92.04192706032286
 20
-120.9411105383411
 30
0.0
 10
92.04192706032286
 20
-120.9411105383411
 30
0.0
 10
92.04192706032286
 20
-120.9411105383411
 30
0.0
 10
92.48462183017746
 20
-120.2090277477255
 30
0.0
 10
92.48462183017746
 20
-120.2090277477255
 30
0.0
 10
92.48462183017746
 20
-120.2090277477255
 30
0.0
 10
93.2532226329367
 20
-120.5273545705626
 30
0.0
 10
93.2532226329367
 20
-120.5273545705626
 30
0.0
 10
93.2532226329367
 20
-120.5273545705626
 30
0.0
 10
93.1788085704553
 20
-120.7071885548927
 30
0.0
 10
93.1788085704553
 20
-120.7071885548927
 30
0.0
 10
93.1788085704553
 20
-120.7071885548927
 30
0.0
 10
92.57109372685723
 20
-120.4553520749209
 30
0.0
 10
92.57109372685723
 20
-120.4553520749209
 30
0.0
 10
92.57109372685723
 20
-120.4553520749209
 30
0.0
 10
92.3444064439278
 20
-120.8194986677118
 30
0.0
 10
92.3444064439278
 20
-120.8194986677118
 30
0.0
 10
92.41813148731214
 20
-120.8129529862898
 30
0.0
 10
92.51459416089914
 20
-120.8095078908046
 30
0.0
 10
92.63172740739763
 20
-120.8580837371466
 30
0.0
 10
92.88253035872381
 20
-120.9617811112526
 30
0.0
 10
93.0451388656276
 20
-121.2308430686506
 30
0.0
 10
92.92524954274091
 20
-121.5198865798631
 30
0.0
 10
92.80363767211159
 20
-121.8130642056579
 30
0.0
 10
92.49254554979353
 20
-121.9384656813209
 30
0.0
 10
92.1942002807709
 20
-121.8147867534005
 30
0.0
  0
HATCH
  5
4F
330
46
100
AcDbEntity
  8
_U+30EC_U+30A4_U+30E4_U+30FC 1
 62
     7
420
 16777215
100
AcDbHatch
 10
0.0
 20
0.0
 30
0.0
210
0.0
220
0.0
230
1.0
  2
SOLID
 70
     1
 71
     0
 91
        1
 92
        1
 93
        1
 72
     4
 94
        3
 73
     0
 74
     1
 95
       53
 96
       49
 40
0.0
 40
0.0
 40
0.0
 40
0.0
 40
1.0
 40
1.0
 40
1.0
 40
2.0
 40
2.0
 40
2.0
 40
3.0
 40
3.0
 40
3.0
 40
4.0
 40
4.0
 40
4.0
 40
5.0
 40
5.0
 40
5.0
 40
6.0
 40
6.0
 40
6.0
 40
7.0
 40
7.0
 40
7.0
 40
8.0
 40
8.0
 40
8.0
 40
9.0
 40
9.0
 40
9.0
 40
10.0
 40
10.0
 40
10.0
 40
11.0
 40
11.0
 40
11.0
 40
12.0
 40
12.0
 40
12.0
 40
13.0
 40
13.0
 40
13.0
 40
14.0
 40
14.0
 40
14.0
 40
15.0
 40
15.0
 40
15.0
 40
16.0
 40
16.0
 40
16.0
 40
16.0
 10
92.1942002807709
 20
-121.8147867534005
 10
92.11634112280426
 20
-121.7827473653876
 10
92.02297903515398
 20
-121.7255587803325
 10
91.94684242492995
 20
-121.6256510112603
 10
91.81765134423308
 20
-121.4527072179007
 10
91.84727916540623
 20
-121.3231716276553
 10
91.86967228606036
 20
-121.2156846485155
 10
91.86967228606036
 20
-121.2156846485155
 10
92.08878035892225
 20
-121.3066351693261
 10
92.08878035892225
 20
-121.3066351693261
 10
92.06707625736517
 20
-121.5126518793441
 10
92.18110891792695
 20
-121.5918890755048
 10
92.27309296738312
 20
-121.6297851258426
 10
92.41089678679312
 20
-121.6869737108977
 10
92.59934350983627
 20
-121.6576903992731
 10
92.68857148290425
 20
-121.442371931445
 10
92.78641219468534
 20
-121.2060383811568
 10
92.63586152197993
 20
-121.0682345617468
 10
92.51666121819028
 20
-121.0186251867592
 10
92.48496633972599
 20
-121.0055338239153
 10
92.34509546302485
 20
-120.9476562197631
 10
92.2079806627119
 20
-121.0303385114091
 10
92.2079806627119
 20
-121.0303385114091
 10
92.04192706032286
 20
-120.9411105383411
 10
92.04192706032286
 20
-120.9411105383411
 10
92.04192706032286
 20
-120.9411105383411
 10
92.48462183017746
 20
-120.2090277477255
 10
92.48462183017746
 20
-120.2090277477255
 10
92.48462183017746
 20
-120.2090277477255
 10
93.2532226329367
 20
-120.5273545705626
 10
93.2532226329367
 20
-120.5273545705626
 10
93.2532226329367
 20
-120.5273545705626
 10
93.1788085704553
 20
-120.7071885548927
 10
93.1788085704553
 20
-120.7071885548927
 10
93.1788085704553
 20
-120.7071885548927
 10
92.57109372685723
 20
-120.4553520749209
 10
92.57109372685723
 20
-120.4553520749209
 10
92.57109372685723
 20
-120.4553520749209
 10
92.3444064439278
 20
-120.8194986677118
 10
92.3444064439278
 20
-120.8194986677118
 10
92.41813148731214
 20
-120.8129529862898
 10
92.51459416089914
 20
-120.8095078908046
 10
92.63172740739763
 20
-120.8580837371466
 10
92.88253035872381
 20
-120.9617811112526
 10
93.0451388656276
 20
-121.2308430686506
 10
92.92524954274091
 20
-121.5198865798631
 10
92.80363767211159
 20
-121.8130642056579
 10
92.49254554979353
 20
-121.9384656813209
 10
92.1942002807709
 20
-121.8147867534005
 97
        0
 97
        0
 75
     2
 76
     1
 98
        0
  0
SPLINE
  5
50
330
46
100
AcDbEntity
  8
_U+30EC_U+30A4_U+30E4_U+30FC 1
370
     0
100
AcDbSpline
210
0.0
220
0.0
230
1.0
 70
    11
 71
     3
 72
    17
 73
    13
 74
     0
 42
0.0000000001
 43
0.0000000001
 12
1.0
 22
0.0
 32
0.0
 13
1.0
 23
0.0
 33
0.0
 40
0.0
 40
0.0
 40
0.0
 40
0.0
 40
1.0
 40
1.0
 40
1.0
 40
2.0
 40
2.0
 40
2.0
 40
3.0
 40
3.0
 40
3.0
 40
4.0
 40
4.0
 40
4.0
 40
4.0
 10
94.01252167788576
 20
-121.1185329558315
 30
0.0
 10
93.9494764305057
 20
-121.2708061762795
 30
0.0
 10
93.7648193124963
 20
-121.3452202387609
 30
0.0
 10
93.59532061462201
 20
-121.2752848004103
 30
0.0
 10
93.42823348358739
 20
-121.2060383811568
 30
0.0
 10
93.3469292301355
 20
-121.0237928299871
 30
0.0
 10
93.41100800616114
 20
-120.8694525522479
 30
0.0
 10
93.47508678218679
 20
-120.7147677649602
 30
0.0
 10
93.66112193839028
 20
-120.643109778867
 30
0.0
 10
93.82855357897343
 20
-120.7123561981205
 30
0.0
 10
93.99805227684772
 20
-120.7822916364711
 30
0.0
 10
94.07556692526583
 20
-120.9659152258349
 30
0.0
 10
94.01252167788576
 20
-121.1185329558315
 30
0.0
  0
SPLINE
  5
51
330
46
100
AcDbEntity
  8
_U+30EC_U+30A4_U+30E4_U+30FC 1
370
     0
100
AcDbSpline
210
0.0
220
0.0
230
1.0
 70
    11
 71
     3
 72
    17
 73
    13
 74
     0
 42
0.0000000001
 43
0.0000000001
 12
1.0
 22
0.0
 32
0.0
 13
1.0
 23
0.0
 33
0.0
 40
0.0
 40
0.0
 40
0.0
 40
0.0
 40
1.0
 40
1.0
 40
1.0
 40
2.0
 40
2.0
 40
2.0
 40
3.0
 40
3.0
 40
3.0
 40
4.0
 40
4.0
 40
4.0
 40
4.0
 10
93.53434242453308
 20
-120.9204399654296
 30
0.0
 10
93.49644637419534
 20
-121.0124240148858
 30
0.0
 10
93.54502222053736
 20
-121.1195664844771
 30
0.0
 10
93.64286293231845
 20
-121.1598741016545
 30
0.0
 10
93.74104815364808
 20
-121.2005262283804
 30
0.0
 10
93.8516357187246
 20
-121.1591850825574
 30
0.0
 10
93.88953176906234
 20
-121.0675455426498
 30
0.0
 10
93.92777232894862
 20
-120.9755614931936
 30
0.0
 10
93.88091903034922
 20
-120.8691080426994
 30
0.0
 10
93.78066675172845
 20
-120.8277668968764
 30
0.0
 10
93.68041447310767
 20
-120.7864257510534
 30
0.0
 10
93.57258298441936
 20
-120.8284559159734
 30
0.0
 10
93.53434242453308
 20
-120.9204399654296
 30
0.0
  0
HATCH
  5
52
330
46
100
AcDbEntity
  8
_U+30EC_U+30A4_U+30E4_U+30FC 1
 62
     7
420
 16777215
100
AcDbHatch
 10
0.0
 20
0.0
 30
0.0
210
0.0
220
0.0
230
1.0
  2
SOLID
 70
     1
 71
     0
 91
        2
 92
        1
 93
        1
 72
     4
 94
        3
 73
     0
 74
     1
 95
       17
 96
       13
 40
0.0
 40
0.0
 40
0.0
 40
0.0
 40
1.0
 40
1.0
 40
1.0
 40
2.0
 40
2.0
 40
2.0
 40
3.0
 40
3.0
 40
3.0
 40
4.0
 40
4.0
 40
4.0
 40
4.0
 10
94.01252167788576
 20
-121.1185329558315
 10
93.9494764305057
 20
-121.2708061762795
 10
93.7648193124963
 20
-121.3452202387609
 10
93.59532061462201
 20
-121.2752848004103
 10
93.42823348358739
 20
-121.2060383811568
 10
93.3469292301355
 20
-121.0237928299871
 10
93.41100800616114
 20
-120.8694525522479
 10
93.47508678218679
 20
-120.7147677649602
 10
93.66112193839028
 20
-120.643109778867
 10
93.82855357897343
 20
-120.7123561981205
 10
93.99805227684772
 20
-120.7822916364711
 10
94.07556692526583
 20
-120.9659152258349
 10
94.01252167788576
 20
-121.1185329558315
 97
        0
 97
        0
 92
        1
 93
        1
 72
     4
 94
        3
 73
     0
 74
     1
 95
       17
 96
       13
 40
0.0
 40
0.0
 40
0.0
 40
0.0
 40
1.0
 40
1.0
 40
1.0
 40
2.0
 40
2.0
 40
2.0
 40
3.0
 40
3.0
 40
3.0
 40
4.0
 40
4.0
 40
4.0
 40
4.0
 10
93.53434242453308
 20
-120.9204399654296
 10
93.49644637419534
 20
-121.0124240148858
 10
93.54502222053736
 20
-121.1195664844771
 10
93.64286293231845
 20
-121.1598741016545
 10
93.74104815364808
 20
-121.2005262283804
 10
93.8516357187246
 20
-121.1591850825574
 10
93.88953176906234
 20
-121.0675455426498
 10
93.92777232894862
 20
-120.9755614931936
 10
93.88091903034922
 20
-120.8691080426994
 10
93.78066675172845
 20
-120.8277668968764
 10
93.68041447310767
 20
-120.7864257510534
 10
93.57258298441936
 20
-120.8284559159734
 10
93.53434242453308
 20
-120.9204399654296
 97
        0
 97
        0
 75
     2
 76
     1
 98
        0
  0
ENDBLK
  5
49
330
46
100
AcDbEntity
  8
0
100
AcDbBlockEnd
  0
BLOCK
  5
6C
330
6A
100
AcDbEntity
  8
0
100
AcDbBlockBegin
  2
block 3
 70
     0
 10
0.0
 20
0.0
 30
0.0
  3
block 3
  1

  0
SPLINE
  5
6E
330
6A
100
AcDbEntity
  8
_U+30EC_U+30A4_U+30E4_U+30FC 1
370
     0
100
AcDbSpline
210
0.0
220
0.0
230
1.0
 70
    11
 71
     3
 72
    26
 73
    22
 74
     0
 42
0.0000000001
 43
0.0000000001
 12
1.0
 22
0.0
 32
0.0
 13
1.0
 23
0.0
 33
0.0
 40
0.0
 40
0.0
 40
0.0
 40
0.0
 40
1.0
 40
1.0
 40
1.0
 40
2.0
 40
2.0
 40
2.0
 40
3.0
 40
3.0
 40
3.0
 40
4.0
 40
4.0
 40
4.0
 40
5.0
 40
5.0
 40
5.0
 40
6.0
 40
6.0
 40
6.0
 40
7.0
 40
7.0
 40
7.0
 40
7.0
 10
104.1307671180645
 20
-132.3243950407036
 30
0.0
 10
104.1307671180645
 20
-132.3243950407036
 30
0.0
 10
103.0262695054934
 20
-132.3243950407036
 30
0.0
 10
103.0262695054934
 20
-132.3243950407036
 30
0.0
 10
103.0262695054934
 20
-132.3243950407036
 30
0.0
 10
103.0262695054934
 20
-132.6768283088447
 30
0.0
 10
103.0262695054934
 20
-132.6768283088447
 30
0.0
 10
103.0262695054934
 20
-132.6768283088447
 30
0.0
 10
102.8781303996277
 20
-132.6768283088447
 30
0.0
 10
102.8781303996277
 20
-132.6768283088447
 30
0.0
 10
102.8636609985897
 20
-132.321983473864
 30
0.0
 10
102.7003634725888
 20
-132.2723740988764
 30
0.0
 10
102.5859863024785
 20
-132.2406792204121
 30
0.0
 10
102.5859863024785
 20
-132.2406792204121
 30
0.0
 10
102.5859863024785
 20
-132.0846163949302
 30
0.0
 10
102.5859863024785
 20
-132.0846163949302
 30
0.0
 10
102.5859863024785
 20
-132.0846163949302
 30
0.0
 10
104.1307671180645
 20
-132.0846163949302
 30
0.0
 10
104.1307671180645
 20
-132.0846163949302
 30
0.0
 10
104.1307671180645
 20
-132.0846163949302
 30
0.0
 10
104.1307671180645
 20
-132.3243950407036
 30
0.0
 10
104.1307671180645
 20
-132.3243950407036
 30
0.0
  0
HATCH
  5
6F
330
6A
100
AcDbEntity
  8
_U+30EC_U+30A4_U+30E4_U+30FC 1
 62
     7
420
 16777215
100
AcDbHatch
 10
0.0
 20
0.0
 30
0.0
210
0.0
220
0.0
230
1.0
  2
SOLID
 70
     1
 71
     0
 91
        1
 92
        1
 93
        1
 72
     4
 94
        3
 73
     0
 74
     1
 95
       26
 96
       22
 40
0.0
 40
0.0
 40
0.0
 40
0.0
 40
1.0
 40
1.0
 40
1.0
 40
2.0
 40
2.0
 40
2.0
 40
3.0
 40
3.0
 40
3.0
 40
4.0
 40
4.0
 40
4.0
 40
5.0
 40
5.0
 40
5.0
 40
6.0
 40
6.0
 40
6.0
 40
7.0
 40
7.0
 40
7.0
 40
7.0
 10
104.1307671180645
 20
-132.3243950407036
 10
104.1307671180645
 20
-132.3243950407036
 10
103.0262695054934
 20
-132.3243950407036
 10
103.0262695054934
 20
-132.3243950407036
 10
103.0262695054934
 20
-132.3243950407036
 10
103.0262695054934
 20
-132.6768283088447
 10
103.0262695054934
 20
-132.6768283088447
 10
103.0262695054934
 20
-132.6768283088447
 10
102.8781303996277
 20
-132.6768283088447
 10
102.8781303996277
 20
-132.6768283088447
 10
102.8636609985897
 20
-132.321983473864
 10
102.7003634725888
 20
-132.2723740988764
 10
102.5859863024785
 20
-132.2406792204121
 10
102.5859863024785
 20
-132.2406792204121
 10
102.5859863024785
 20
-132.0846163949302
 10
102.5859863024785
 20
-132.0846163949302
 10
102.5859863024785
 20
-132.0846163949302
 10
104.1307671180645
 20
-132.0846163949302
 10
104.1307671180645
 20
-132.0846163949302
 10
104.1307671180645
 20
-132.0846163949302
 10
104.1307671180645
 20
-132.3243950407036
 10
104.1307671180645
 20
-132.3243950407036
 97
        0
 97
        0
 75
     2
 76
     1
 98
        0
  0
SPLINE
  5
70
330
6A
100
AcDbEntity
  8
_U+30EC_U+30A4_U+30E4_U+30FC 1
370
     0
100
AcDbSpline
210
0.0
220
0.0
230
1.0
 70
    11
 71
     3
 72
    29
 73
    25
 74
     0
 42
0.0000000001
 43
0.0000000001
 12
1.0
 22
0.0
 32
0.0
 13
1.0
 23
0.0
 33
0.0
 40
0.0
 40
0.0
 40
0.0
 40
0.0
 40
1.0
 40
1.0
 40
1.0
 40
2.0
 40
2.0
 40
2.0
 40
3.0
 40
3.0
 40
3.0
 40
4.0
 40
4.0
 40
4.0
 40
5.0
 40
5.0
 40
5.0
 40
6.0
 40
6.0
 40
6.0
 40
7.0
 40
7.0
 40
7.0
 40
8.0
 40
8.0
 40
8.0
 40
8.0
 10
103.9530001910256
 20
-130.5894449543318
 30
0.0
 10
104.1624619965288
 20
-130.7048556530877
 30
0.0
 10
104.1810655121492
 20
-130.8902017901941
 30
0.0
 10
104.1810655121492
 20
-131.0145697372116
 30
0.0
 10
104.1810655121492
 20
-131.1861354923771
 30
0.0
 10
104.1349012326468
 20
-131.3377196937281
 30
0.0
 10
103.9530001910256
 20
-131.4393500105429
 30
0.0
 10
103.7580077865605
 20
-131.550282085168
 30
0.0
 10
103.5216742362724
 20
-131.570608148531
 30
0.0
 10
103.3583767102715
 20
-131.570608148531
 30
0.0
 10
103.2143717189881
 20
-131.570608148531
 30
0.0
 10
102.9628797485648
 20
-131.5523491424591
 30
0.0
 10
102.7637532295174
 20
-131.4393500105429
 30
0.0
 10
102.5611816149847
 20
-131.3242838213356
 30
0.0
 10
102.537754965685
 20
-131.1523735566216
 30
0.0
 10
102.537754965685
 20
-131.0145697372116
 30
0.0
 10
102.537754965685
 20
-130.8447265297888
 30
0.0
 10
102.5818521878962
 20
-130.6910752711467
 30
0.0
 10
102.7637532295174
 20
-130.5894449543318
 30
0.0
 10
102.9566785766914
 20
-130.4829915038376
 30
0.0
 10
103.1847438978149
 20
-130.4581868163438
 30
0.0
 10
103.3583767102715
 20
-130.4581868163438
 30
0.0
 10
103.529942465437
 20
-130.4581868163438
 30
0.0
 10
103.7600748438517
 20
-130.4809244465465
 30
0.0
 10
103.9530001910256
 20
-130.5894449543318
 30
0.0
  0
SPLINE
  5
71
330
6A
100
AcDbEntity
  8
_U+30EC_U+30A4_U+30E4_U+30FC 1
370
     0
100
AcDbSpline
210
0.0
220
0.0
230
1.0
 70
    11
 71
     3
 72
    17
 73
    13
 74
     0
 42
0.0000000001
 43
0.0000000001
 12
1.0
 22
0.0
 32
0.0
 13
1.0
 23
0.0
 33
0.0
 40
0.0
 40
0.0
 40
0.0
 40
0.0
 40
1.0
 40
1.0
 40
1.0
 40
2.0
 40
2.0
 40
2.0
 40
3.0
 40
3.0
 40
3.0
 40
4.0
 40
4.0
 40
4.0
 40
4.0
 10
102.729991293762
 20
-131.0145697372116
 30
0.0
 10
102.729991293762
 20
-131.28122012777
 30
0.0
 10
103.0138671617465
 20
-131.3308295027576
 30
0.0
 10
103.3583767102715
 20
-131.3308295027576
 30
0.0
 10
103.6780815713027
 20
-131.3308295027576
 30
0.0
 10
103.9867621267811
 20
-131.2925889428713
 30
0.0
 10
103.9867621267811
 20
-131.0145697372116
 30
0.0
 10
103.9867621267811
 20
-130.7499864039445
 30
0.0
 10
103.7056423351847
 20
-130.6979654621172
 30
0.0
 10
103.3583767102715
 20
-130.6979654621172
 30
0.0
 10
103.0386718492403
 20
-130.6979654621172
 30
0.0
 10
102.729991293762
 20
-130.7386175888431
 30
0.0
 10
102.729991293762
 20
-131.0145697372116
 30
0.0
  0
HATCH
  5
72
330
6A
100
AcDbEntity
  8
_U+30EC_U+30A4_U+30E4_U+30FC 1
 62
     7
420
 16777215
100
AcDbHatch
 10
0.0
 20
0.0
 30
0.0
210
0.0
220
0.0
230
1.0
  2
SOLID
 70
     1
 71
     0
 91
        2
 92
        1
 93
        1
 72
     4
 94
        3
 73
     0
 74
     1
 95
       29
 96
       25
 40
0.0
 40
0.0
 40
0.0
 40
0.0
 40
1.0
 40
1.0
 40
1.0
 40
2.0
 40
2.0
 40
2.0
 40
3.0
 40
3.0
 40
3.0
 40
4.0
 40
4.0
 40
4.0
 40
5.0
 40
5.0
 40
5.0
 40
6.0
 40
6.0
 40
6.0
 40
7.0
 40
7.0
 40
7.0
 40
8.0
 40
8.0
 40
8.0
 40
8.0
 10
103.9530001910256
 20
-130.5894449543318
 10
104.1624619965288
 20
-130.7048556530877
 10
104.1810655121492
 20
-130.8902017901941
 10
104.1810655121492
 20
-131.0145697372116
 10
104.1810655121492
 20
-131.1861354923771
 10
104.1349012326468
 20
-131.3377196937281
 10
103.9530001910256
 20
-131.4393500105429
 10
103.7580077865605
 20
-131.550282085168
 10
103.5216742362724
 20
-131.570608148531
 10
103.3583767102715
 20
-131.570608148531
 10
103.2143717189881
 20
-131.570608148531
 10
102.9628797485648
 20
-131.5523491424591
 10
102.7637532295174
 20
-131.4393500105429
 10
102.5611816149847
 20
-131.3242838213356
 10
102.537754965685
 20
-131.1523735566216
 10
102.537754965685
 20
-131.0145697372116
 10
102.537754965685
 20
-130.8447265297888
 10
102.5818521878962
 20
-130.6910752711467
 10
102.7637532295174
 20
-130.5894449543318
 10
102.9566785766914
 20
-130.4829915038376
 10
103.1847438978149
 20
-130.4581868163438
 10
103.3583767102715
 20
-130.4581868163438
 10
103.529942465437
 20
-130.4581868163438
 10
103.7600748438517
 20
-130.4809244465465
 10
103.9530001910256
 20
-130.5894449543318
 97
        0
 97
        0
 92
        1
 93
        1
 72
     4
 94
        3
 73
     0
 74
     1
 95
       17
 96
       13
 40
0.0
 40
0.0
 40
0.0
 40
0.0
 40
1.0
 40
1.0
 40
1.0
 40
2.0
 40
2.0
 40
2.0
 40
3.0
 40
3.0
 40
3.0
 40
4.0
 40
4.0
 40
4.0
 40
4.0
 10
102.729991293762
 20
-131.0145697372116
 10
102.729991293762
 20
-131.28122012777
 10
103.0138671617465
 20
-131.3308295027576
 10
103.3583767102715
 20
-131.3308295027576
 10
103.6780815713027
 20
-131.3308295027576
 10
103.9867621267811
 20
-131.2925889428713
 10
103.9867621267811
 20
-131.0145697372116
 10
103.9867621267811
 20
-130.7499864039445
 10
103.7056423351847
 20
-130.6979654621172
 10
103.3583767102715
 20
-130.6979654621172
 10
103.0386718492403
 20
-130.6979654621172
 10
102.729991293762
 20
-130.7386175888431
 10
102.729991293762
 20
-131.0145697372116
 97
        0
 97
        0
 75
     2
 76
     1
 98
        0
  0
ENDBLK
  5
6D
330
6A
100
AcDbEntity
  8
0
100
AcDbBlockEnd
  0
BLOCK
  5
75
330
73
100
AcDbEntity
  8
0
100
AcDbBlockBegin
  2
block 4
 70
     0
 10
0.0
 20
0.0
 30
0.0
  3
block 4
  1

  0
SPLINE
  5
77
330
73
100
AcDbEntity
  8
_U+30EC_U+30A4_U+30E4_U+30FC 1
370
     0
100
AcDbSpline
210
0.0
220
0.0
230
1.0
 70
    11
 71
     3
 72
    26
 73
    22
 74
     0
 42
0.0000000001
 43
0.0000000001
 12
1.0
 22
0.0
 32
0.0
 13
1.0
 23
0.0
 33
0.0
 40
0.0
 40
0.0
 40
0.0
 40
0.0
 40
1.0
 40
1.0
 40
1.0
 40
2.0
 40
2.0
 40
2.0
 40
3.0
 40
3.0
 40
3.0
 40
4.0
 40
4.0
 40
4.0
 40
5.0
 40
5.0
 40
5.0
 40
6.0
 40
6.0
 40
6.0
 40
7.0
 40
7.0
 40
7.0
 40
7.0
 10
104.1307671180645
 20
-139.7671793270374
 30
0.0
 10
104.1307671180645
 20
-139.7671793270374
 30
0.0
 10
103.0262695054934
 20
-139.7671793270374
 30
0.0
 10
103.0262695054934
 20
-139.7671793270374
 30
0.0
 10
103.0262695054934
 20
-139.7671793270374
 30
0.0
 10
103.0262695054934
 20
-140.1196125951784
 30
0.0
 10
103.0262695054934
 20
-140.1196125951784
 30
0.0
 10
103.0262695054934
 20
-140.1196125951784
 30
0.0
 10
102.8781303996277
 20
-140.1196125951784
 30
0.0
 10
102.8781303996277
 20
-140.1196125951784
 30
0.0
 10
102.8636609985897
 20
-139.7647677601977
 30
0.0
 10
102.7003634725888
 20
-139.7151583852101
 30
0.0
 10
102.5859863024785
 20
-139.6834635067458
 30
0.0
 10
102.5859863024785
 20
-139.6834635067458
 30
0.0
 10
102.5859863024785
 20
-139.527400681264
 30
0.0
 10
102.5859863024785
 20
-139.527400681264
 30
0.0
 10
102.5859863024785
 20
-139.527400681264
 30
0.0
 10
104.1307671180645
 20
-139.527400681264
 30
0.0
 10
104.1307671180645
 20
-139.527400681264
 30
0.0
 10
104.1307671180645
 20
-139.527400681264
 30
0.0
 10
104.1307671180645
 20
-139.7671793270374
 30
0.0
 10
104.1307671180645
 20
-139.7671793270374
 30
0.0
  0
HATCH
  5
78
330
73
100
AcDbEntity
  8
_U+30EC_U+30A4_U+30E4_U+30FC 1
 62
     7
420
 16777215
100
AcDbHatch
 10
0.0
 20
0.0
 30
0.0
210
0.0
220
0.0
230
1.0
  2
SOLID
 70
     1
 71
     0
 91
        1
 92
        1
 93
        1
 72
     4
 94
        3
 73
     0
 74
     1
 95
       26
 96
       22
 40
0.0
 40
0.0
 40
0.0
 40
0.0
 40
1.0
 40
1.0
 40
1.0
 40
2.0
 40
2.0
 40
2.0
 40
3.0
 40
3.0
 40
3.0
 40
4.0
 40
4.0
 40
4.0
 40
5.0
 40
5.0
 40
5.0
 40
6.0
 40
6.0
 40
6.0
 40
7.0
 40
7.0
 40
7.0
 40
7.0
 10
104.1307671180645
 20
-139.7671793270374
 10
104.1307671180645
 20
-139.7671793270374
 10
103.0262695054934
 20
-139.7671793270374
 10
103.0262695054934
 20
-139.7671793270374
 10
103.0262695054934
 20
-139.7671793270374
 10
103.0262695054934
 20
-140.1196125951784
 10
103.0262695054934
 20
-140.1196125951784
 10
103.0262695054934
 20
-140.1196125951784
 10
102.8781303996277
 20
-140.1196125951784
 10
102.8781303996277
 20
-140.1196125951784
 10
102.8636609985897
 20
-139.7647677601977
 10
102.7003634725888
 20
-139.7151583852101
 10
102.5859863024785
 20
-139.6834635067458
 10
102.5859863024785
 20
-139.6834635067458
 10
102.5859863024785
 20
-139.527400681264
 10
102.5859863024785
 20
-139.527400681264
 10
102.5859863024785
 20
-139.527400681264
 10
104.1307671180645
 20
-139.527400681264
 10
104.1307671180645
 20
-139.527400681264
 10
104.1307671180645
 20
-139.527400681264
 10
104.1307671180645
 20
-139.7671793270374
 10
104.1307671180645
 20
-139.7671793270374
 97
        0
 97
        0
 75
     2
 76
     1
 98
        0
  0
ENDBLK
  5
76
330
73
100
AcDbEntity
  8
0
100
AcDbBlockEnd
  0
BLOCK
  5
9D
330
9B
100
AcDbEntity
  8
0
100
AcDbBlockBegin
  2
block 5
 70
     0
 10
0.0
 20
0.0
 30
0.0
  3
block 5
  1

  0
SPLINE
  5
9F
330
9B
100
AcDbEntity
  8
_U+30EC_U+30A4_U+30E4_U+30FC 1
370
     0
100
AcDbSpline
210
0.0
220
0.0
230
1.0
 70
    11
 71
     3
 72
    26
 73
    22
 74
     0
 42
0.0000000001
 43
0.0000000001
 12
1.0
 22
0.0
 32
0.0
 13
1.0
 23
0.0
 33
0.0
 40
0.0
 40
0.0
 40
0.0
 40
0.0
 40
1.0
 40
1.0
 40
1.0
 40
2.0
 40
2.0
 40
2.0
 40
3.0
 40
3.0
 40
3.0
 40
4.0
 40
4.0
 40
4.0
 40
5.0
 40
5.0
 40
5.0
 40
6.0
 40
6.0
 40
6.0
 40
7.0
 40
7.0
 40
7.0
 40
7.0
 10
89.93370087812421
 20
-141.3150607285601
 30
0.0
 10
89.93370087812421
 20
-141.3150607285601
 30
0.0
 10
89.93370087812421
 20
-140.2109076255375
 30
0.0
 10
89.93370087812421
 20
-140.2109076255375
 30
0.0
 10
89.93370087812421
 20
-140.2109076255375
 30
0.0
 10
89.58126760998316
 20
-140.2109076255375
 30
0.0
 10
89.58126760998316
 20
-140.2109076255375
 30
0.0
 10
89.58126760998316
 20
-140.2109076255375
 30
0.0
 10
89.58126760998316
 20
-140.0627685196718
 30
0.0
 10
89.58126760998316
 20
-140.0627685196718
 30
0.0
 10
89.9361124449639
 20
-140.0479546090853
 30
0.0
 10
89.9857218199515
 20
-139.8850015926329
 30
0.0
 10
90.01741669841579
 20
-139.7706244225226
 30
0.0
 10
90.01741669841579
 20
-139.7706244225226
 30
0.0
 10
90.17347952389761
 20
-139.7706244225226
 30
0.0
 10
90.17347952389761
 20
-139.7706244225226
 30
0.0
 10
90.17347952389761
 20
-139.7706244225226
 30
0.0
 10
90.17347952389761
 20
-141.3150607285601
 30
0.0
 10
90.17347952389761
 20
-141.3150607285601
 30
0.0
 10
90.17347952389761
 20
-141.3150607285601
 30
0.0
 10
89.93370087812421
 20
-141.3150607285601
 30
0.0
 10
89.93370087812421
 20
-141.3150607285601
 30
0.0
  0
HATCH
  5
A0
330
9B
100
AcDbEntity
  8
_U+30EC_U+30A4_U+30E4_U+30FC 1
 62
     7
420
 16777215
100
AcDbHatch
 10
0.0
 20
0.0
 30
0.0
210
0.0
220
0.0
230
1.0
  2
SOLID
 70
     1
 71
     0
 91
        1
 92
        1
 93
        1
 72
     4
 94
        3
 73
     0
 74
     1
 95
       26
 96
       22
 40
0.0
 40
0.0
 40
0.0
 40
0.0
 40
1.0
 40
1.0
 40
1.0
 40
2.0
 40
2.0
 40
2.0
 40
3.0
 40
3.0
 40
3.0
 40
4.0
 40
4.0
 40
4.0
 40
5.0
 40
5.0
 40
5.0
 40
6.0
 40
6.0
 40
6.0
 40
7.0
 40
7.0
 40
7.0
 40
7.0
 10
89.93370087812421
 20
-141.3150607285601
 10
89.93370087812421
 20
-141.3150607285601
 10
89.93370087812421
 20
-140.2109076255375
 10
89.93370087812421
 20
-140.2109076255375
 10
89.93370087812421
 20
-140.2109076255375
 10
89.58126760998316
 20
-140.2109076255375
 10
89.58126760998316
 20
-140.2109076255375
 10
89.58126760998316
 20
-140.2109076255375
 10
89.58126760998316
 20
-140.0627685196718
 10
89.58126760998316
 20
-140.0627685196718
 10
89.9361124449639
 20
-140.0479546090853
 10
89.9857218199515
 20
-139.8850015926329
 10
90.01741669841579
 20
-139.7706244225226
 10
90.01741669841579
 20
-139.7706244225226
 10
90.17347952389761
 20
-139.7706244225226
 10
90.17347952389761
 20
-139.7706244225226
 10
90.17347952389761
 20
-139.7706244225226
 10
90.17347952389761
 20
-141.3150607285601
 10
90.17347952389761
 20
-141.3150607285601
 10
90.17347952389761
 20
-141.3150607285601
 10
89.93370087812421
 20
-141.3150607285601
 10
89.93370087812421
 20
-141.3150607285601
 97
        0
 97
        0
 75
     2
 76
     1
 98
        0
  0
SPLINE
  5
A1
330
9B
100
AcDbEntity
  8
_U+30EC_U+30A4_U+30E4_U+30FC 1
370
     0
100
AcDbSpline
210
0.0
220
0.0
230
1.0
 70
    11
 71
     3
 72
    44
 73
    40
 74
     0
 42
0.0000000001
 43
0.0000000001
 12
1.0
 22
0.0
 32
0.0
 13
1.0
 23
0.0
 33
0.0
 40
0.0
 40
0.0
 40
0.0
 40
0.0
 40
1.0
 40
1.0
 40
1.0
 40
2.0
 40
2.0
 40
2.0
 40
3.0
 40
3.0
 40
3.0
 40
4.0
 40
4.0
 40
4.0
 40
5.0
 40
5.0
 40
5.0
 40
6.0
 40
6.0
 40
6.0
 40
7.0
 40
7.0
 40
7.0
 40
8.0
 40
8.0
 40
8.0
 40
9.0
 40
9.0
 40
9.0
 40
10.0
 40
10.0
 40
10.0
 40
11.0
 40
11.0
 40
11.0
 40
12.0
 40
12.0
 40
12.0
 40
13.0
 40
13.0
 40
13.0
 40
13.0
 10
91.34308944113992
 20
-140.7331841011014
 30
0.0
 10
91.11020098633703
 20
-140.8920030029714
 30
0.0
 10
91.01063772681331
 20
-140.9660725559043
 30
0.0
 10
90.95861678498605
 20
-141.1097330376392
 30
0.0
 10
90.95861678498605
 20
-141.1097330376392
 30
0.0
 10
91.79112410899667
 20
-141.1097330376392
 30
0.0
 10
91.79112410899667
 20
-141.1097330376392
 30
0.0
 10
91.79112410899667
 20
-141.1097330376392
 30
0.0
 10
91.79112410899667
 20
-141.3150607285601
 30
0.0
 10
91.79112410899667
 20
-141.3150607285601
 30
0.0
 10
91.79112410899667
 20
-141.3150607285601
 30
0.0
 10
90.69196639442771
 20
-141.3150607285601
 30
0.0
 10
90.69196639442771
 20
-141.3150607285601
 30
0.0
 10
90.72607283973169
 20
-140.9574598171912
 30
0.0
 10
90.79600827808225
 20
-140.879256149676
 30
0.0
 10
91.20735267902108
 20
-140.5809108806534
 30
0.0
 10
91.48106551532418
 20
-140.3821288711545
 30
0.0
 10
91.55134546322329
 20
-140.3142604900951
 30
0.0
 10
91.55134546322329
 20
-140.1768011802336
 30
0.0
 10
91.55134546322329
 20
-140.058289895541
 30
0.0
 10
91.47417532435368
 20
-139.9273762671015
 30
0.0
 10
91.26385224497918
 20
-139.9273762671015
 30
0.0
 10
90.98583303931952
 20
-139.9273762671015
 30
0.0
 10
90.97687579105786
 20
-140.1578531550647
 30
0.0
 10
90.97239716692704
 20
-140.2742973824662
 30
0.0
 10
90.97239716692704
 20
-140.2742973824662
 30
0.0
 10
90.73261852115365
 20
-140.2742973824662
 30
0.0
 10
90.73261852115365
 20
-140.2742973824662
 30
0.0
 10
90.7415757694153
 20
-140.1471733590604
 30
0.0
 10
90.75294458451663
 20
-140.0352077557898
 30
0.0
 10
90.83907197164787
 20
-139.9166964710972
 30
0.0
 10
90.95654972769489
 20
-139.7558105119361
 30
0.0
 10
91.1553317371938
 20
-139.7220485761806
 30
0.0
 10
91.27969968421132
 20
-139.7220485761806
 30
0.0
 10
91.57615015071708
 20
-139.7220485761806
 30
0.0
 10
91.79732528087011
 20
-139.906016675093
 30
0.0
 10
91.79732528087011
 20
-140.1788682375247
 30
0.0
 10
91.79732528087011
 20
-140.4076225777453
 30
0.0
 10
91.67330184340112
 20
-140.5068413277205
 30
0.0
 10
91.34308944113992
 20
-140.7331841011014
 30
0.0
  0
HATCH
  5
A2
330
9B
100
AcDbEntity
  8
_U+30EC_U+30A4_U+30E4_U+30FC 1
 62
     7
420
 16777215
100
AcDbHatch
 10
0.0
 20
0.0
 30
0.0
210
0.0
220
0.0
230
1.0
  2
SOLID
 70
     1
 71
     0
 91
        1
 92
        1
 93
        1
 72
     4
 94
        3
 73
     0
 74
     1
 95
       44
 96
       40
 40
0.0
 40
0.0
 40
0.0
 40
0.0
 40
1.0
 40
1.0
 40
1.0
 40
2.0
 40
2.0
 40
2.0
 40
3.0
 40
3.0
 40
3.0
 40
4.0
 40
4.0
 40
4.0
 40
5.0
 40
5.0
 40
5.0
 40
6.0
 40
6.0
 40
6.0
 40
7.0
 40
7.0
 40
7.0
 40
8.0
 40
8.0
 40
8.0
 40
9.0
 40
9.0
 40
9.0
 40
10.0
 40
10.0
 40
10.0
 40
11.0
 40
11.0
 40
11.0
 40
12.0
 40
12.0
 40
12.0
 40
13.0
 40
13.0
 40
13.0
 40
13.0
 10
91.34308944113992
 20
-140.7331841011014
 10
91.11020098633703
 20
-140.8920030029714
 10
91.01063772681331
 20
-140.9660725559043
 10
90.95861678498605
 20
-141.1097330376392
 10
90.95861678498605
 20
-141.1097330376392
 10
91.79112410899667
 20
-141.1097330376392
 10
91.79112410899667
 20
-141.1097330376392
 10
91.79112410899667
 20
-141.1097330376392
 10
91.79112410899667
 20
-141.3150607285601
 10
91.79112410899667
 20
-141.3150607285601
 10
91.79112410899667
 20
-141.3150607285601
 10
90.69196639442771
 20
-141.3150607285601
 10
90.69196639442771
 20
-141.3150607285601
 10
90.72607283973169
 20
-140.9574598171912
 10
90.79600827808225
 20
-140.879256149676
 10
91.20735267902108
 20
-140.5809108806534
 10
91.48106551532418
 20
-140.3821288711545
 10
91.55134546322329
 20
-140.3142604900951
 10
91.55134546322329
 20
-140.1768011802336
 10
91.55134546322329
 20
-140.058289895541
 10
91.47417532435368
 20
-139.9273762671015
 10
91.26385224497918
 20
-139.9273762671015
 10
90.98583303931952
 20
-139.9273762671015
 10
90.97687579105786
 20
-140.1578531550647
 10
90.97239716692704
 20
-140.2742973824662
 10
90.97239716692704
 20
-140.2742973824662
 10
90.73261852115365
 20
-140.2742973824662
 10
90.73261852115365
 20
-140.2742973824662
 10
90.7415757694153
 20
-140.1471733590604
 10
90.75294458451663
 20
-140.0352077557898
 10
90.83907197164787
 20
-139.9166964710972
 10
90.95654972769489
 20
-139.7558105119361
 10
91.1553317371938
 20
-139.7220485761806
 10
91.27969968421132
 20
-139.7220485761806
 10
91.57615015071708
 20
-139.7220485761806
 10
91.79732528087011
 20
-139.906016675093
 10
91.79732528087011
 20
-140.1788682375247
 10
91.79732528087011
 20
-140.4076225777453
 10
91.67330184340112
 20
-140.5068413277205
 10
91.34308944113992
 20
-140.7331841011014
 97
        0
 97
        0
 75
     2
 76
     1
 98
        0
  0
ENDBLK
  5
9E
330
9B
100
AcDbEntity
  8
0
100
AcDbBlockEnd
  0
BLOCK
  5
B3
330
B1
100
AcDbEntity
  8
0
100
AcDbBlockBegin
  2
block 6
 70
     0
 10
0.0
 20
0.0
 30
0.0
  3
block 6
  1

  0
SPLINE
  5
B5
330
B1
100
AcDbEntity
  8
_U+30EC_U+30A4_U+30E4_U+30FC 1
370
     0
100
AcDbSpline
210
0.0
220
0.0
230
1.0
 70
    11
 71
     3
 72
    26
 73
    22
 74
     0
 42
0.0000000001
 43
0.0000000001
 12
1.0
 22
0.0
 32
0.0
 13
1.0
 23
0.0
 33
0.0
 40
0.0
 40
0.0
 40
0.0
 40
0.0
 40
1.0
 40
1.0
 40
1.0
 40
2.0
 40
2.0
 40
2.0
 40
3.0
 40
3.0
 40
3.0
 40
4.0
 40
4.0
 40
4.0
 40
5.0
 40
5.0
 40
5.0
 40
6.0
 40
6.0
 40
6.0
 40
7.0
 40
7.0
 40
7.0
 40
7.0
 10
95.71302080940508
 20
-115.9391764033069
 30
0.0
 10
95.71302080940508
 20
-115.9391764033069
 30
0.0
 10
95.71302080940508
 20
-114.8350233002843
 30
0.0
 10
95.71302080940508
 20
-114.8350233002843
 30
0.0
 10
95.71302080940508
 20
-114.8350233002843
 30
0.0
 10
95.36058754126402
 20
-114.8350233002843
 30
0.0
 10
95.36058754126402
 20
-114.8350233002843
 30
0.0
 10
95.36058754126402
 20
-114.8350233002843
 30
0.0
 10
95.36058754126402
 20
-114.6868841944186
 30
0.0
 10
95.36058754126402
 20
-114.6868841944186
 30
0.0
 10
95.71543237624476
 20
-114.672070283832
 30
0.0
 10
95.76504175123236
 20
-114.5091172673797
 30
0.0
 10
95.79673662969665
 20
-114.3947400972694
 30
0.0
 10
95.79673662969665
 20
-114.3947400972694
 30
0.0
 10
95.95279945517846
 20
-114.3947400972694
 30
0.0
 10
95.95279945517846
 20
-114.3947400972694
 30
0.0
 10
95.95279945517846
 20
-114.3947400972694
 30
0.0
 10
95.95279945517846
 20
-115.9391764033069
 30
0.0
 10
95.95279945517846
 20
-115.9391764033069
 30
0.0
 10
95.95279945517846
 20
-115.9391764033069
 30
0.0
 10
95.71302080940508
 20
-115.9391764033069
 30
0.0
 10
95.71302080940508
 20
-115.9391764033069
 30
0.0
  0
HATCH
  5
B6
330
B1
100
AcDbEntity
  8
_U+30EC_U+30A4_U+30E4_U+30FC 1
 62
     7
420
 16777215
100
AcDbHatch
 10
0.0
 20
0.0
 30
0.0
210
0.0
220
0.0
230
1.0
  2
SOLID
 70
     1
 71
     0
 91
        1
 92
        1
 93
        1
 72
     4
 94
        3
 73
     0
 74
     1
 95
       26
 96
       22
 40
0.0
 40
0.0
 40
0.0
 40
0.0
 40
1.0
 40
1.0
 40
1.0
 40
2.0
 40
2.0
 40
2.0
 40
3.0
 40
3.0
 40
3.0
 40
4.0
 40
4.0
 40
4.0
 40
5.0
 40
5.0
 40
5.0
 40
6.0
 40
6.0
 40
6.0
 40
7.0
 40
7.0
 40
7.0
 40
7.0
 10
95.71302080940508
 20
-115.9391764033069
 10
95.71302080940508
 20
-115.9391764033069
 10
95.71302080940508
 20
-114.8350233002843
 10
95.71302080940508
 20
-114.8350233002843
 10
95.71302080940508
 20
-114.8350233002843
 10
95.36058754126402
 20
-114.8350233002843
 10
95.36058754126402
 20
-114.8350233002843
 10
95.36058754126402
 20
-114.8350233002843
 10
95.36058754126402
 20
-114.6868841944186
 10
95.36058754126402
 20
-114.6868841944186
 10
95.71543237624476
 20
-114.672070283832
 10
95.76504175123236
 20
-114.5091172673797
 10
95.79673662969665
 20
-114.3947400972694
 10
95.79673662969665
 20
-114.3947400972694
 10
95.95279945517846
 20
-114.3947400972694
 10
95.95279945517846
 20
-114.3947400972694
 10
95.95279945517846
 20
-114.3947400972694
 10
95.95279945517846
 20
-115.9391764033069
 10
95.95279945517846
 20
-115.9391764033069
 10
95.95279945517846
 20
-115.9391764033069
 10
95.71302080940508
 20
-115.9391764033069
 10
95.71302080940508
 20
-115.9391764033069
 97
        0
 97
        0
 75
     2
 76
     1
 98
        0
  0
POLYLINE
  5
B7
330
B1
100
AcDbEntity
  8
_U+30EC_U+30A4_U+30E4_U+30FC 1
370
     0
100
AcDb2dPolyline
 66
     1
 10
0.0
 20
0.0
 30
0.0
  0
VERTEX
  5
B8
330
B7
100
AcDbEntity
  8
_U+30EC_U+30A4_U+30E4_U+30FC 1
370
     0
100
AcDbVertex
100
AcDb2dVertex
 10
97.37803545742634
 20
-115.5922552879422
 30
0.0
  0
VERTEX
  5
B9
330
B7
100
AcDbEntity
  8
_U+30EC_U+30A4_U+30E4_U+30FC 1
370
     0
100
AcDbVertex
100
AcDb2dVertex
 10
97.37803545742634
 20
-115.9391764033069
 30
0.0
  0
VERTEX
  5
BA
330
B7
100
AcDbEntity
  8
_U+30EC_U+30A4_U+30E4_U+30FC 1
370
     0
100
AcDbVertex
100
AcDb2dVertex
 10
97.14514700262345
 20
-115.9391764033069
 30
0.0
  0
VERTEX
  5
BB
330
B7
100
AcDbEntity
  8
_U+30EC_U+30A4_U+30E4_U+30FC 1
370
     0
100
AcDbVertex
100
AcDb2dVertex
 10
97.14514700262345
 20
-115.5922552879422
 30
0.0
  0
VERTEX
  5
BC
330
B7
100
AcDbEntity
  8
_U+30EC_U+30A4_U+30E4_U+30FC 1
370
     0
100
AcDbVertex
100
AcDb2dVertex
 10
96.4440700713751
 20
-115.5922552879422
 30
0.0
  0
VERTEX
  5
BD
330
B7
100
AcDbEntity
  8
_U+30EC_U+30A4_U+30E4_U+30FC 1
370
     0
100
AcDbVertex
100
AcDb2dVertex
 10
96.4440700713751
 20
-115.3679795718525
 30
0.0
  0
VERTEX
  5
BE
330
B7
100
AcDbEntity
  8
_U+30EC_U+30A4_U+30E4_U+30FC 1
370
     0
100
AcDbVertex
100
AcDb2dVertex
 10
97.16995169011724
 20
-114.3947400972694
 30
0.0
  0
VERTEX
  5
BF
330
B7
100
AcDbEntity
  8
_U+30EC_U+30A4_U+30E4_U+30FC 1
370
     0
100
AcDbVertex
100
AcDb2dVertex
 10
97.37803545742634
 20
-114.3947400972694
 30
0.0
  0
VERTEX
  5
C0
330
B7
100
AcDbEntity
  8
_U+30EC_U+30A4_U+30E4_U+30FC 1
370
     0
100
AcDbVertex
100
AcDb2dVertex
 10
97.37803545742634
 20
-115.3934732784433
 30
0.0
  0
VERTEX
  5
C1
330
B7
100
AcDbEntity
  8
_U+30EC_U+30A4_U+30E4_U+30FC 1
370
     0
100
AcDbVertex
100
AcDb2dVertex
 10
97.59955509712789
 20
-115.3934732784433
 30
0.0
  0
VERTEX
  5
C2
330
B7
100
AcDbEntity
  8
_U+30EC_U+30A4_U+30E4_U+30FC 1
370
     0
100
AcDbVertex
100
AcDb2dVertex
 10
97.59955509712789
 20
-115.5922552879422
 30
0.0
  0
VERTEX
  5
C3
330
B7
100
AcDbEntity
  8
_U+30EC_U+30A4_U+30E4_U+30FC 1
370
     0
100
AcDbVertex
100
AcDb2dVertex
 10
97.37803545742634
 20
-115.5922552879422
 30
0.0
  0
SEQEND
  5
C4
330
B7
100
AcDbEntity
  8
_U+30EC_U+30A4_U+30E4_U+30FC 1
370
     0
  0
POLYLINE
  5
C5
330
B1
100
AcDbEntity
  8
_U+30EC_U+30A4_U+30E4_U+30FC 1
370
     0
100
AcDb2dPolyline
 66
     1
 10
0.0
 20
0.0
 30
0.0
  0
VERTEX
  5
C6
330
C5
100
AcDbEntity
  8
_U+30EC_U+30A4_U+30E4_U+30FC 1
370
     0
100
AcDbVertex
100
AcDb2dVertex
 10
97.14514700262345
 20
-114.7375270980517
 30
0.0
  0
VERTEX
  5
C7
330
C5
100
AcDbEntity
  8
_U+30EC_U+30A4_U+30E4_U+30FC 1
370
     0
100
AcDbVertex
100
AcDb2dVertex
 10
96.65663246281501
 20
-115.3934732784433
 30
0.0
  0
VERTEX
  5
C8
330
C5
100
AcDbEntity
  8
_U+30EC_U+30A4_U+30E4_U+30FC 1
370
     0
100
AcDbVertex
100
AcDb2dVertex
 10
97.14514700262345
 20
-115.3934732784433
 30
0.0
  0
VERTEX
  5
C9
330
C5
100
AcDbEntity
  8
_U+30EC_U+30A4_U+30E4_U+30FC 1
370
     0
100
AcDbVertex
100
AcDb2dVertex
 10
97.14514700262345
 20
-114.7375270980517
 30
0.0
  0
SEQEND
  5
CA
330
C5
100
AcDbEntity
  8
_U+30EC_U+30A4_U+30E4_U+30FC 1
370
     0
  0
HATCH
  5
CB
330
B1
100
AcDbEntity
  8
_U+30EC_U+30A4_U+30E4_U+30FC 1
 62
     7
420
 16777215
100
AcDbHatch
 10
0.0
 20
0.0
 30
0.0
210
0.0
220
0.0
230
1.0
  2
SOLID
 70
     1
 71
     0
 91
        2
 92
        1
 93
       11
 72
     1
 10
97.37803545742634
 20
-115.5922552879422
 11
97.37803545742634
 21
-115.9391764033069
 72
     1
 10
97.37803545742634
 20
-115.9391764033069
 11
97.14514700262345
 21
-115.9391764033069
 72
     1
 10
97.14514700262345
 20
-115.9391764033069
 11
97.14514700262345
 21
-115.5922552879422
 72
     1
 10
97.14514700262345
 20
-115.5922552879422
 11
96.4440700713751
 21
-115.5922552879422
 72
     1
 10
96.4440700713751
 20
-115.5922552879422
 11
96.4440700713751
 21
-115.3679795718525
 72
     1
 10
96.4440700713751
 20
-115.3679795718525
 11
97.16995169011724
 21
-114.3947400972694
 72
     1
 10
97.16995169011724
 20
-114.3947400972694
 11
97.37803545742634
 21
-114.3947400972694
 72
     1
 10
97.37803545742634
 20
-114.3947400972694
 11
97.37803545742634
 21
-115.3934732784433
 72
     1
 10
97.37803545742634
 20
-115.3934732784433
 11
97.59955509712789
 21
-115.3934732784433
 72
     1
 10
97.59955509712789
 20
-115.3934732784433
 11
97.59955509712789
 21
-115.5922552879422
 72
     1
 10
97.59955509712789
 20
-115.5922552879422
 11
97.37803545742634
 21
-115.5922552879422
 97
        0
 92
        1
 93
        3
 72
     1
 10
97.14514700262345
 20
-114.7375270980517
 11
96.65663246281501
 21
-115.3934732784433
 72
     1
 10
96.65663246281501
 20
-115.3934732784433
 11
97.14514700262345
 21
-115.3934732784433
 72
     1
 10
97.14514700262345
 20
-115.3934732784433
 11
97.14514700262345
 21
-114.7375270980517
 97
        0
 75
     2
 76
     1
 98
        0
  0
ENDBLK
  5
B4
330
B1
100
AcDbEntity
  8
0
100
AcDbBlockEnd
  0
ENDSEC
  0
SECTION
  2
ENTITIES
  0
SPLINE
  5
41
330
1F
100
AcDbEntity
  8
_U+30EC_U+30A4_U+30E4_U+30FC 1
 62
   253
420
 11711154
370
     9
100
AcDbSpline
210
0.0
220
0.0
230
1.0
 70
    11
 71
     3
 72
    47
 73
    43
 74
     0
 42
0.0000000001
 43
0.0000000001
 12
1.0
 22
0.0
 32
0.0
 13
1.0
 23
0.0
 33
0.0
 40
0.0
 40
0.0
 40
0.0
 40
0.0
 40
1.0
 40
1.0
 40
1.0
 40
2.0
 40
2.0
 40
2.0
 40
3.0
 40
3.0
 40
3.0
 40
4.0
 40
4.0
 40
4.0
 40
5.0
 40
5.0
 40
5.0
 40
6.0
 40
6.0
 40
6.0
 40
7.0
 40
7.0
 40
7.0
 40
8.0
 40
8.0
 40
8.0
 40
9.0
 40
9.0
 40
9.0
 40
10.0
 40
10.0
 40
10.0
 40
11.0
 40
11.0
 40
11.0
 40
12.0
 40
12.0
 40
12.0
 40
13.0
 40
13.0
 40
13.0
 40
14.0
 40
14.0
 40
14.0
 40
14.0
 10
88.19927524984902
 20
-126.2556741351026
 30
0.0
 10
88.19927524984902
 20
-126.2556741351026
 30
0.0
 10
79.37983103040735
 20
-117.436229692863
 30
0.0
 10
79.37983103040735
 20
-117.436229692863
 30
0.0
 10
79.37983103040735
 20
-117.436229692863
 30
0.0
 10
78.82861576669224
 20
-116.2456046931607
 30
0.0
 10
79.42392825150456
 20
-115.7164380266263
 30
0.0
 10
79.42392825150456
 20
-115.7164380266263
 30
0.0
 10
89.32375438782785
 20
-125.572167190829
 30
0.0
 10
89.32375438782785
 20
-125.572167190829
 30
0.0
 10
89.32375438782785
 20
-125.572167190829
 30
0.0
 10
103.2805248650943
 20
-125.6383130241458
 30
0.0
 10
103.2805248650943
 20
-125.6383130241458
 30
0.0
 10
103.2805248650943
 20
-125.6383130241458
 30
0.0
 10
103.1261845912541
 20
-126.6084519127922
 30
0.0
 10
101.6930249055948
 20
-126.6305005238978
 30
0.0
 10
101.6930249055948
 20
-126.6305005238978
 30
0.0
 10
89.36785160892505
 20
-126.6305005238978
 30
0.0
 10
89.36785160892505
 20
-126.6305005238978
 30
0.0
 10
89.36785160892505
 20
-126.6305005238978
 30
0.0
 10
85.35500448907908
 20
-137.0376213546297
 30
0.0
 10
85.35500448907908
 20
-137.0376213546297
 30
0.0
 10
85.35500448907908
 20
-137.0376213546297
 30
0.0
 10
96.68799031106164
 20
-136.9494269102073
 30
0.0
 10
96.68799031106164
 20
-136.9494269102073
 30
0.0
 10
96.68799031106164
 20
-136.9494269102073
 30
0.0
 10
96.20292087899234
 20
-137.9636630210649
 30
0.0
 10
96.20292087899234
 20
-137.9636630210649
 30
0.0
 10
96.20292087899234
 20
-137.9636630210649
 30
0.0
 10
84.14233090890586
 20
-138.0077602432761
 30
0.0
 10
84.14233090890586
 20
-138.0077602432761
 30
0.0
 10
84.14233090890586
 20
-138.0077602432761
 30
0.0
 10
75.74181028988765
 20
-129.4528991343037
 30
0.0
 10
75.74181028988765
 20
-129.4528991343037
 30
0.0
 10
75.74181028988765
 20
-129.4528991343037
 30
0.0
 10
76.09458805866532
 20
-128.5266810789793
 30
0.0
 10
76.09458805866532
 20
-128.5266810789793
 30
0.0
 10
76.09458805866532
 20
-128.5266810789793
 30
0.0
 10
84.27462257219749
 20
-136.6407463547289
 30
0.0
 10
84.27462257219749
 20
-136.6407463547289
 30
0.0
 10
84.27462257219749
 20
-136.6407463547289
 30
0.0
 10
88.19927524984902
 20
-126.2556741351026
 30
0.0
 10
88.19927524984902
 20
-126.2556741351026
 30
0.0
  0
HATCH
  5
42
330
1F
100
AcDbEntity
  8
_U+30EC_U+30A4_U+30E4_U+30FC 1
 62
   253
420
 11711154
100
AcDbHatch
 10
0.0
 20
0.0
 30
0.0
210
0.0
220
0.0
230
1.0
  2
SOLID
 70
     1
 71
     0
 91
        1
 92
        1
 93
        1
 72
     4
 94
        3
 73
     0
 74
     1
 95
       47
 96
       43
 40
0.0
 40
0.0
 40
0.0
 40
0.0
 40
1.0
 40
1.0
 40
1.0
 40
2.0
 40
2.0
 40
2.0
 40
3.0
 40
3.0
 40
3.0
 40
4.0
 40
4.0
 40
4.0
 40
5.0
 40
5.0
 40
5.0
 40
6.0
 40
6.0
 40
6.0
 40
7.0
 40
7.0
 40
7.0
 40
8.0
 40
8.0
 40
8.0
 40
9.0
 40
9.0
 40
9.0
 40
10.0
 40
10.0
 40
10.0
 40
11.0
 40
11.0
 40
11.0
 40
12.0
 40
12.0
 40
12.0
 40
13.0
 40
13.0
 40
13.0
 40
14.0
 40
14.0
 40
14.0
 40
14.0
 10
88.19927524984902
 20
-126.2556741351026
 10
88.19927524984902
 20
-126.2556741351026
 10
79.37983103040735
 20
-117.436229692863
 10
79.37983103040735
 20
-117.436229692863
 10
79.37983103040735
 20
-117.436229692863
 10
78.82861576669224
 20
-116.2456046931607
 10
79.42392825150456
 20
-115.7164380266263
 10
79.42392825150456
 20
-115.7164380266263
 10
89.32375438782785
 20
-125.572167190829
 10
89.32375438782785
 20
-125.572167190829
 10
89.32375438782785
 20
-125.572167190829
 10
103.2805248650943
 20
-125.6383130241458
 10
103.2805248650943
 20
-125.6383130241458
 10
103.2805248650943
 20
-125.6383130241458
 10
103.1261845912541
 20
-126.6084519127922
 10
101.6930249055948
 20
-126.6305005238978
 10
101.6930249055948
 20
-126.6305005238978
 10
89.36785160892505
 20
-126.6305005238978
 10
89.36785160892505
 20
-126.6305005238978
 10
89.36785160892505
 20
-126.6305005238978
 10
85.35500448907908
 20
-137.0376213546297
 10
85.35500448907908
 20
-137.0376213546297
 10
85.35500448907908
 20
-137.0376213546297
 10
96.68799031106164
 20
-136.9494269102073
 10
96.68799031106164
 20
-136.9494269102073
 10
96.68799031106164
 20
-136.9494269102073
 10
96.20292087899234
 20
-137.9636630210649
 10
96.20292087899234
 20
-137.9636630210649
 10
96.20292087899234
 20
-137.9636630210649
 10
84.14233090890586
 20
-138.0077602432761
 10
84.14233090890586
 20
-138.0077602432761
 10
84.14233090890586
 20
-138.0077602432761
 10
75.74181028988765
 20
-129.4528991343037
 10
75.74181028988765
 20
-129.4528991343037
 10
75.74181028988765
 20
-129.4528991343037
 10
76.09458805866532
 20
-128.5266810789793
 10
76.09458805866532
 20
-128.5266810789793
 10
76.09458805866532
 20
-128.5266810789793
 10
84.27462257219749
 20
-136.6407463547289
 10
84.27462257219749
 20
-136.6407463547289
 10
84.27462257219749
 20
-136.6407463547289
 10
88.19927524984902
 20
-126.2556741351026
 10
88.19927524984902
 20
-126.2556741351026
 97
        0
 97
        0
 75
     2
 76
     1
 98
        0
  0
SPLINE
  5
43
330
1F
100
AcDbEntity
  8
_U+30EC_U+30A4_U+30E4_U+30FC 1
 62
     7
420
 16777215
370
     9
100
AcDbSpline
210
0.0
220
0.0
230
1.0
 70
    11
 71
     3
 72
    17
 73
    13
 74
     0
 42
0.0000000001
 43
0.0000000001
 12
1.0
 22
0.0
 32
0.0
 13
1.0
 23
0.0
 33
0.0
 40
0.0
 40
0.0
 40
0.0
 40
0.0
 40
1.0
 40
1.0
 40
1.0
 40
2.0
 40
2.0
 40
2.0
 40
3.0
 40
3.0
 40
3.0
 40
4.0
 40
4.0
 40
4.0
 40
4.0
 10
86.68134306635248
 20
-122.7630330248648
 30
0.0
 10
86.68134306635248
 20
-122.7079291359896
 30
0.0
 10
86.63657775611858
 20
-122.6631263582232
 30
0.0
 10
86.58076612447397
 20
-122.6631263582232
 30
0.0
 10
86.52562695921402
 20
-122.6631263582232
 30
0.0
 10
86.48085946035613
 20
-122.7079291359896
 30
0.0
 10
86.48085946035613
 20
-122.7630330248648
 30
0.0
 10
86.48085946035613
 20
-122.8188424692953
 30
0.0
 10
86.52562695921402
 20
-122.863645247062
 30
0.0
 10
86.58076612447397
 20
-122.863645247062
 30
0.0
 10
86.63657775611858
 20
-122.863645247062
 30
0.0
 10
86.68134306635248
 20
-122.8188424692953
 30
0.0
 10
86.68134306635248
 20
-122.7630330248648
 30
0.0
  0
SPLINE
  5
44
330
1F
100
AcDbEntity
  8
_U+30EC_U+30A4_U+30E4_U+30FC 1
 62
     7
420
 16777215
370
     9
100
AcDbSpline
210
0.0
220
0.0
230
1.0
 70
    11
 71
     3
 72
    17
 73
    13
 74
     0
 42
0.0000000001
 43
0.0000000001
 12
1.0
 22
0.0
 32
0.0
 13
1.0
 23
0.0
 33
0.0
 40
0.0
 40
0.0
 40
0.0
 40
0.0
 40
1.0
 40
1.0
 40
1.0
 40
2.0
 40
2.0
 40
2.0
 40
3.0
 40
3.0
 40
3.0
 40
4.0
 40
4.0
 40
4.0
 40
4.0
 10
93.50953316992862
 20
-125.5914641352689
 30
0.0
 10
93.50953316992862
 20
-125.5363602463936
 30
0.0
 10
93.46476567107074
 20
-125.4915574686272
 30
0.0
 10
93.40962650581078
 20
-125.4915574686272
 30
0.0
 10
93.35452497666152
 20
-125.4915574686272
 30
0.0
 10
93.30972219889479
 20
-125.5363602463936
 30
0.0
 10
93.30972219889479
 20
-125.5914641352689
 30
0.0
 10
93.30972219889479
 20
-125.6472735796993
 30
0.0
 10
93.35452497666152
 20
-125.6920763574657
 30
0.0
 10
93.40962650581078
 20
-125.6920763574657
 30
0.0
 10
93.46476567107074
 20
-125.6920763574657
 30
0.0
 10
93.50953316992862
 20
-125.6472735796993
 30
0.0
 10
93.50953316992862
 20
-125.5914641352689
 30
0.0
  0
SPLINE
  5
45
330
1F
100
AcDbEntity
  8
_U+30EC_U+30A4_U+30E4_U+30FC 1
 62
     7
420
 16777215
370
     9
100
AcDbSpline
210
0.0
220
0.0
230
1.0
 70
     8
 71
     3
 72
    11
 73
     7
 74
     0
 42
0.0000000001
 43
0.0000000001
 12
1.0
 22
0.0
 32
0.0
 13
1.0
 23
0.0
 33
0.0
 40
0.0
 40
0.0
 40
0.0
 40
0.0
 40
1.0
 40
1.0
 40
1.0
 40
2.0
 40
2.0
 40
2.0
 40
2.0
 10
93.40962650581078
 20
-125.5914641352689
 30
0.0
 10
93.40962650581078
 20
-123.38247552471
 30
0.0
 10
91.61885831042873
 20
-121.591704969602
 30
0.0
 10
89.40919716342579
 20
-121.591704969602
 30
0.0
 10
88.348782468257
 20
-121.591704969602
 30
0.0
 10
87.33108916088719
 20
-122.0133802472745
 30
0.0
 10
86.58076612447397
 20
-122.7630330248648
 30
0.0
  0
INSERT
  5
47
330
1F
100
AcDbEntity
  8
_U+30EC_U+30A4_U+30E4_U+30FC 1
100
AcDbBlockReference
  2
block 2
 10
0.0
 20
0.0
 30
0.0
  0
SPLINE
  5
53
330
1F
100
AcDbEntity
  8
_U+30EC_U+30A4_U+30E4_U+30FC 1
 62
     7
420
 16777215
370
     9
100
AcDbSpline
210
0.0
220
0.0
230
1.0
 70
    11
 71
     3
 72
    17
 73
    13
 74
     0
 42
0.0000000001
 43
0.0000000001
 12
1.0
 22
0.0
 32
0.0
 13
1.0
 23
0.0
 33
0.0
 40
0.0
 40
0.0
 40
0.0
 40
0.0
 40
1.0
 40
1.0
 40
1.0
 40
2.0
 40
2.0
 40
2.0
 40
3.0
 40
3.0
 40
3.0
 40
4.0
 40
4.0
 40
4.0
 40
4.0
 10
104.8266792700931
 20
-137.8575474655355
 30
0.0
 10
104.8266792700931
 20
-137.8024435766606
 30
0.0
 10
104.7825820489958
 20
-137.7576407988939
 30
0.0
 10
104.7267726059752
 20
-137.7576407988939
 30
0.0
 10
104.6716360849433
 20
-137.7576407988939
 30
0.0
 10
104.6268659418574
 20
-137.8024435766606
 30
0.0
 10
104.6268659418574
 20
-137.8575474655355
 30
0.0
 10
104.6268659418574
 20
-137.9126866321886
 30
0.0
 10
104.6716360849433
 20
-137.9574541321772
 30
0.0
 10
104.7267726059752
 20
-137.9574541321772
 30
0.0
 10
104.7825820489958
 20
-137.9574541321772
 30
0.0
 10
104.8266792700931
 20
-137.9126866321886
 30
0.0
 10
104.8266792700931
 20
-137.8575474655355
 30
0.0
  0
SPLINE
  5
54
330
1F
100
AcDbEntity
  8
_U+30EC_U+30A4_U+30E4_U+30FC 1
 62
     7
420
 16777215
370
     9
100
AcDbSpline
210
0.0
220
0.0
230
1.0
 70
    11
 71
     3
 72
    17
 73
    13
 74
     0
 42
0.0000000001
 43
0.0000000001
 12
1.0
 22
0.0
 32
0.0
 13
1.0
 23
0.0
 33
0.0
 40
0.0
 40
0.0
 40
0.0
 40
0.0
 40
1.0
 40
1.0
 40
1.0
 40
2.0
 40
2.0
 40
2.0
 40
3.0
 40
3.0
 40
3.0
 40
4.0
 40
4.0
 40
4.0
 40
4.0
 10
104.8266792700931
 20
-136.757198299144
 30
0.0
 10
104.8266792700931
 20
-136.7020944102691
 30
0.0
 10
104.7825820489958
 20
-136.6572916325024
 30
0.0
 10
104.7267726059752
 20
-136.6572916325024
 30
0.0
 10
104.6716360849433
 20
-136.6572916325024
 30
0.0
 10
104.6268659418574
 20
-136.7020944102691
 30
0.0
 10
104.6268659418574
 20
-136.757198299144
 30
0.0
 10
104.6268659418574
 20
-136.8130077435744
 30
0.0
 10
104.6716360849433
 20
-136.8578105213412
 30
0.0
 10
104.7267726059752
 20
-136.8578105213412
 30
0.0
 10
104.7825820489958
 20
-136.8578105213412
 30
0.0
 10
104.8266792700931
 20
-136.8130077435744
 30
0.0
 10
104.8266792700931
 20
-136.757198299144
 30
0.0
  0
POLYLINE
  5
55
330
1F
100
AcDbEntity
  8
_U+30EC_U+30A4_U+30E4_U+30FC 1
 62
     7
420
 16777215
370
     9
100
AcDb2dPolyline
 66
     1
 10
0.0
 20
0.0
 30
0.0
  0
VERTEX
  5
56
330
55
100
AcDbEntity
  8
_U+30EC_U+30A4_U+30E4_U+30FC 1
 62
     7
420
 16777215
370
     9
100
AcDbVertex
100
AcDb2dVertex
 10
104.7267726059752
 20
-136.6448738547276
 30
0.0
  0
VERTEX
  5
57
330
55
100
AcDbEntity
  8
_U+30EC_U+30A4_U+30E4_U+30FC 1
 62
     7
420
 16777215
370
     9
100
AcDbVertex
100
AcDb2dVertex
 10
104.7267726059752
 20
-126.644999690561
 30
0.0
  0
SEQEND
  5
58
330
55
100
AcDbEntity
  8
_U+30EC_U+30A4_U+30E4_U+30FC 1
 62
     7
420
 16777215
370
     9
  0
POLYLINE
  5
59
330
1F
100
AcDbEntity
  8
_U+30EC_U+30A4_U+30E4_U+30FC 1
 62
     7
420
 16777215
370
     9
100
AcDb2dPolyline
 66
     1
 10
0.0
 20
0.0
 30
0.0
  0
VERTEX
  5
5A
330
59
100
AcDbEntity
  8
_U+30EC_U+30A4_U+30E4_U+30FC 1
 62
     7
420
 16777215
370
     9
100
AcDbVertex
100
AcDb2dVertex
 10
104.7267726059752
 20
-140.9381794092099
 30
0.0
  0
VERTEX
  5
5B
330
59
100
AcDbEntity
  8
_U+30EC_U+30A4_U+30E4_U+30FC 1
 62
     7
420
 16777215
370
     9
100
AcDbVertex
100
AcDb2dVertex
 10
104.7267726059752
 20
-136.6448738547276
 30
0.0
  0
SEQEND
  5
5C
330
59
100
AcDbEntity
  8
_U+30EC_U+30A4_U+30E4_U+30FC 1
 62
     7
420
 16777215
370
     9
  0
POLYLINE
  5
5D
330
1F
100
AcDbEntity
  8
_U+30EC_U+30A4_U+30E4_U+30FC 1
 62
     7
420
 16777215
370
     9
100
AcDb2dPolyline
 66
     1
 10
0.0
 20
0.0
 30
0.0
  0
VERTEX
  5
5E
330
5D
100
AcDbEntity
  8
_U+30EC_U+30A4_U+30E4_U+30FC 1
 62
     7
420
 16777215
370
     9
100
AcDbVertex
100
AcDb2dVertex
 10
103.2667312543351
 20
-137.8575474655355
 30
0.0
  0
VERTEX
  5
5F
330
5D
100
AcDbEntity
  8
_U+30EC_U+30A4_U+30E4_U+30FC 1
 62
     7
420
 16777215
370
     9
100
AcDbVertex
100
AcDb2dVertex
 10
105.7272150804518
 20
-137.8575474655355
 30
0.0
  0
SEQEND
  5
60
330
5D
100
AcDbEntity
  8
_U+30EC_U+30A4_U+30E4_U+30FC 1
 62
     7
420
 16777215
370
     9
  0
POLYLINE
  5
61
330
1F
100
AcDbEntity
  8
_U+30EC_U+30A4_U+30E4_U+30FC 1
 62
     7
420
 16777215
370
     9
100
AcDb2dPolyline
 66
     1
 10
0.0
 20
0.0
 30
0.0
  0
VERTEX
  5
62
330
61
100
AcDbEntity
  8
_U+30EC_U+30A4_U+30E4_U+30FC 1
 62
     7
420
 16777215
370
     9
100
AcDbVertex
100
AcDb2dVertex
 10
103.2667312543351
 20
-136.757198299144
 30
0.0
  0
VERTEX
  5
63
330
61
100
AcDbEntity
  8
_U+30EC_U+30A4_U+30E4_U+30FC 1
 62
     7
420
 16777215
370
     9
100
AcDbVertex
100
AcDb2dVertex
 10
105.7272150804518
 20
-136.757198299144
 30
0.0
  0
SEQEND
  5
64
330
61
100
AcDbEntity
  8
_U+30EC_U+30A4_U+30E4_U+30FC 1
 62
     7
420
 16777215
370
     9
  0
SPLINE
  5
65
330
1F
100
AcDbEntity
  8
_U+30EC_U+30A4_U+30E4_U+30FC 1
 62
     7
420
 16777215
370
     9
100
AcDbSpline
210
0.0
220
0.0
230
1.0
 70
    11
 71
     3
 72
    17
 73
    13
 74
     0
 42
0.0000000001
 43
0.0000000001
 12
1.0
 22
0.0
 32
0.0
 13
1.0
 23
0.0
 33
0.0
 40
0.0
 40
0.0
 40
0.0
 40
0.0
 40
1.0
 40
1.0
 40
1.0
 40
2.0
 40
2.0
 40
2.0
 40
3.0
 40
3.0
 40
3.0
 40
4.0
 40
4.0
 40
4.0
 40
4.0
 10
104.8266792700931
 20
-126.6442941350058
 30
0.0
 10
104.8266792700931
 20
-126.5891549683527
 30
0.0
 10
104.7825820489958
 20
-126.5443874683638
 30
0.0
 10
104.7267726059752
 20
-126.5443874683638
 30
0.0
 10
104.6716360849433
 20
-126.5443874683638
 30
0.0
 10
104.6268659418574
 20
-126.5891549683527
 30
0.0
 10
104.6268659418574
 20
-126.6442941350058
 30
0.0
 10
104.6268659418574
 20
-126.7001035794362
 30
0.0
 10
104.6716360849433
 20
-126.7449063572026
 30
0.0
 10
104.7267726059752
 20
-126.7449063572026
 30
0.0
 10
104.7825820489958
 20
-126.7449063572026
 30
0.0
 10
104.8266792700931
 20
-126.7001035794362
 30
0.0
 10
104.8266792700931
 20
-126.6442941350058
 30
0.0
  0
POLYLINE
  5
66
330
1F
100
AcDbEntity
  8
_U+30EC_U+30A4_U+30E4_U+30FC 1
 62
     7
420
 16777215
370
     9
100
AcDb2dPolyline
 66
     1
 10
0.0
 20
0.0
 30
0.0
  0
VERTEX
  5
67
330
66
100
AcDbEntity
  8
_U+30EC_U+30A4_U+30E4_U+30FC 1
 62
     7
420
 16777215
370
     9
100
AcDbVertex
100
AcDb2dVertex
 10
103.2667312543351
 20
-126.6442941350058
 30
0.0
  0
VERTEX
  5
68
330
66
100
AcDbEntity
  8
_U+30EC_U+30A4_U+30E4_U+30FC 1
 62
     7
420
 16777215
370
     9
100
AcDbVertex
100
AcDb2dVertex
 10
105.7272150804518
 20
-126.6442941350058
 30
0.0
  0
SEQEND
  5
69
330
66
100
AcDbEntity
  8
_U+30EC_U+30A4_U+30E4_U+30FC 1
 62
     7
420
 16777215
370
     9
  0
INSERT
  5
6B
330
1F
100
AcDbEntity
  8
_U+30EC_U+30A4_U+30E4_U+30FC 1
100
AcDbBlockReference
  2
block 3
 10
0.0
 20
0.0
 30
0.0
  0
INSERT
  5
74
330
1F
100
AcDbEntity
  8
_U+30EC_U+30A4_U+30E4_U+30FC 1
100
AcDbBlockReference
  2
block 4
 10
0.0
 20
0.0
 30
0.0
  0
POLYLINE
  5
79
330
1F
100
AcDbEntity
  8
_U+30EC_U+30A4_U+30E4_U+30FC 1
 62
     7
420
 16777215
370
    25
100
AcDb2dPolyline
 66
     1
 10
0.0
 20
0.0
 30
0.0
  0
VERTEX
  5
7A
330
79
100
AcDbEntity
  8
_U+30EC_U+30A4_U+30E4_U+30FC 1
 62
     7
420
 16777215
370
    25
100
AcDbVertex
100
AcDb2dVertex
 10
85.33295587853048
 20
-137.001814410194
 30
0.0
  0
VERTEX
  5
7B
330
79
100
AcDbEntity
  8
_U+30EC_U+30A4_U+30E4_U+30FC 1
 62
     7
420
 16777215
370
    25
100
AcDbVertex
100
AcDb2dVertex
 10
96.7031244773422
 20
-136.9577171879828
 30
0.0
  0
VERTEX
  5
7C
330
79
100
AcDbEntity
  8
_U+30EC_U+30A4_U+30E4_U+30FC 1
 62
     7
420
 16777215
370
    25
100
AcDbVertex
100
AcDb2dVertex
 10
96.26215226637012
 20
-137.913356909966
 30
0.0
  0
VERTEX
  5
7D
330
79
100
AcDbEntity
  8
_U+30EC_U+30A4_U+30E4_U+30FC 1
 62
     7
420
 16777215
370
    25
100
AcDbVertex
100
AcDb2dVertex
 10
84.2622047947365
 20
-137.9574541321772
 30
0.0
  0
SEQEND
  5
7E
330
79
100
AcDbEntity
  8
_U+30EC_U+30A4_U+30E4_U+30FC 1
 62
     7
420
 16777215
370
    25
  0
POLYLINE
  5
7F
330
1F
100
AcDbEntity
  8
_U+30EC_U+30A4_U+30E4_U+30FC 1
 62
     7
420
 16777215
370
    25
100
AcDb2dPolyline
 66
     1
 10
0.0
 20
0.0
 30
0.0
  0
VERTEX
  5
80
330
7F
100
AcDbEntity
  8
_U+30EC_U+30A4_U+30E4_U+30FC 1
 62
     7
420
 16777215
370
    25
100
AcDbVertex
100
AcDb2dVertex
 10
84.19401285203179
 20
-136.6111130214028
 30
0.0
  0
VERTEX
  5
81
330
7F
100
AcDbEntity
  8
_U+30EC_U+30A4_U+30E4_U+30FC 1
 62
     7
420
 16777215
370
    25
100
AcDbVertex
100
AcDb2dVertex
 10
76.11251109208312
 20
-128.4529858012201
 30
0.0
  0
VERTEX
  5
82
330
7F
100
AcDbEntity
  8
_U+30EC_U+30A4_U+30E4_U+30FC 1
 62
     7
420
 16777215
370
    25
100
AcDbVertex
100
AcDb2dVertex
 10
75.74801917861815
 20
-129.4405166343064
 30
0.0
  0
VERTEX
  5
83
330
7F
100
AcDbEntity
  8
_U+30EC_U+30A4_U+30E4_U+30FC 1
 62
     7
420
 16777215
370
    25
100
AcDbVertex
100
AcDb2dVertex
 10
84.20226785182118
 20
-137.9574541321772
 30
0.0
  0
SEQEND
  5
84
330
7F
100
AcDbEntity
  8
_U+30EC_U+30A4_U+30E4_U+30FC 1
 62
     7
420
 16777215
370
    25
  0
POLYLINE
  5
85
330
1F
100
AcDbEntity
  8
_U+30EC_U+30A4_U+30E4_U+30FC 1
 62
     7
420
 16777215
370
    25
100
AcDb2dPolyline
 66
     1
 10
0.0
 20
0.0
 30
0.0
  0
VERTEX
  5
86
330
85
100
AcDbEntity
  8
_U+30EC_U+30A4_U+30E4_U+30FC 1
 62
     7
420
 16777215
370
    25
100
AcDbVertex
100
AcDb2dVertex
 10
85.35500448907908
 20
-136.9714755213129
 30
0.0
  0
VERTEX
  5
87
330
85
100
AcDbEntity
  8
_U+30EC_U+30A4_U+30E4_U+30FC 1
 62
     7
420
 16777215
370
    25
100
AcDbVertex
100
AcDb2dVertex
 10
89.32375438782785
 20
-126.674597746109
 30
0.0
  0
SEQEND
  5
88
330
85
100
AcDbEntity
  8
_U+30EC_U+30A4_U+30E4_U+30FC 1
 62
     7
420
 16777215
370
    25
  0
POLYLINE
  5
89
330
1F
100
AcDbEntity
  8
_U+30EC_U+30A4_U+30E4_U+30FC 1
 62
     7
420
 16777215
370
    25
100
AcDb2dPolyline
 66
     1
 10
0.0
 20
0.0
 30
0.0
  0
VERTEX
  5
8A
330
89
100
AcDbEntity
  8
_U+30EC_U+30A4_U+30E4_U+30FC 1
 62
     7
420
 16777215
370
    25
100
AcDbVertex
100
AcDb2dVertex
 10
84.2822072942262
 20
-136.6407463547289
 30
0.0
  0
VERTEX
  5
8B
330
89
100
AcDbEntity
  8
_U+30EC_U+30A4_U+30E4_U+30FC 1
 62
     7
420
 16777215
370
    25
100
AcDbVertex
100
AcDb2dVertex
 10
88.22132386039763
 20
-126.2777227462082
 30
0.0
  0
SEQEND
  5
8C
330
89
100
AcDbEntity
  8
_U+30EC_U+30A4_U+30E4_U+30FC 1
 62
     7
420
 16777215
370
    25
  0
SPLINE
  5
8D
330
1F
100
AcDbEntity
  8
_U+30EC_U+30A4_U+30E4_U+30FC 1
 62
     7
420
 16777215
370
     9
100
AcDbSpline
210
0.0
220
0.0
230
1.0
 70
     8
 71
     3
 72
    17
 73
    13
 74
     0
 42
0.0000000001
 43
0.0000000001
 12
1.0
 22
0.0
 32
0.0
 13
1.0
 23
0.0
 33
0.0
 40
0.0
 40
0.0
 40
0.0
 40
0.0
 40
1.0
 40
1.0
 40
1.0
 40
2.0
 40
2.0
 40
2.0
 40
3.0
 40
3.0
 40
3.0
 40
4.0
 40
4.0
 40
4.0
 40
4.0
 10
96.68590892222585
 20
-141.8428427423167
 30
0.0
 10
96.64664719806083
 20
-141.8035785756604
 30
0.0
 10
96.58325059151156
 20
-141.8035785756604
 30
0.0
 10
96.54398886475278
 20
-141.8428427423167
 30
0.0
 10
96.50539253794231
 20
-141.8821069089738
 30
0.0
 10
96.50539253794231
 20
-141.9448307978475
 30
0.0
 10
96.54398886475278
 20
-141.9840949645038
 30
0.0
 10
96.58325059151156
 20
-142.0233591311608
 30
0.0
 10
96.64664719806083
 20
-142.0233591311608
 30
0.0
 10
96.68590892222585
 20
-141.9840949645038
 30
0.0
 10
96.70450275360152
 20
-141.9655035756195
 30
0.0
 10
96.71483669926562
 20
-141.9399977422926
 30
0.0
 10
96.71483669926562
 20
-141.9131160756328
 30
0.0
  0
SPLINE
  5
8E
330
1F
100
AcDbEntity
  8
_U+30EC_U+30A4_U+30E4_U+30FC 1
 62
     7
420
 16777215
370
     9
100
AcDbSpline
210
0.0
220
0.0
230
1.0
 70
    11
 71
     3
 72
    17
 73
    13
 74
     0
 42
0.0000000001
 43
0.0000000001
 12
1.0
 22
0.0
 32
0.0
 13
1.0
 23
0.0
 33
0.0
 40
0.0
 40
0.0
 40
0.0
 40
0.0
 40
1.0
 40
1.0
 40
1.0
 40
2.0
 40
2.0
 40
2.0
 40
3.0
 40
3.0
 40
3.0
 40
4.0
 40
4.0
 40
4.0
 40
4.0
 10
84.71488922763201
 20
-141.9131160756328
 30
0.0
 10
84.71488922763201
 20
-141.8580121867579
 30
0.0
 10
84.67012172877412
 20
-141.8132094089912
 30
0.0
 10
84.61498256351418
 20
-141.8132094089912
 30
0.0
 10
84.5598786760311
 20
-141.8132094089912
 30
0.0
 10
84.51507589939634
 20
-141.8580121867579
 30
0.0
 10
84.51507589939634
 20
-141.9131160756328
 30
0.0
 10
84.51507589939634
 20
-141.9689255200633
 30
0.0
 10
84.5598786760311
 20
-142.01372829783
 30
0.0
 10
84.61498256351418
 20
-142.01372829783
 30
0.0
 10
84.67012172877412
 20
-142.01372829783
 30
0.0
 10
84.71488922763201
 20
-141.9689255200633
 30
0.0
 10
84.71488922763201
 20
-141.9131160756328
 30
0.0
  0
POLYLINE
  5
8F
330
1F
100
AcDbEntity
  8
_U+30EC_U+30A4_U+30E4_U+30FC 1
 62
     7
420
 16777215
370
     9
100
AcDb2dPolyline
 66
     1
 10
0.0
 20
0.0
 30
0.0
  0
VERTEX
  5
90
330
8F
100
AcDbEntity
  8
_U+30EC_U+30A4_U+30E4_U+30FC 1
 62
     7
420
 16777215
370
     9
100
AcDbVertex
100
AcDb2dVertex
 10
84.61498256351418
 20
-141.9131160756328
 30
0.0
  0
VERTEX
  5
91
330
8F
100
AcDbEntity
  8
_U+30EC_U+30A4_U+30E4_U+30FC 1
 62
     7
420
 16777215
370
     9
100
AcDbVertex
100
AcDb2dVertex
 10
96.61493003514778
 20
-141.9131160756328
 30
0.0
  0
SEQEND
  5
92
330
8F
100
AcDbEntity
  8
_U+30EC_U+30A4_U+30E4_U+30FC 1
 62
     7
420
 16777215
370
     9
  0
POLYLINE
  5
93
330
1F
100
AcDbEntity
  8
_U+30EC_U+30A4_U+30E4_U+30FC 1
 62
     7
420
 16777215
370
     9
100
AcDb2dPolyline
 66
     1
 10
0.0
 20
0.0
 30
0.0
  0
VERTEX
  5
94
330
93
100
AcDbEntity
  8
_U+30EC_U+30A4_U+30E4_U+30FC 1
 62
     7
420
 16777215
370
     9
100
AcDbVertex
100
AcDb2dVertex
 10
84.61498256351418
 20
-140.4531099648867
 30
0.0
  0
VERTEX
  5
95
330
93
100
AcDbEntity
  8
_U+30EC_U+30A4_U+30E4_U+30FC 1
 62
     7
420
 16777215
370
     9
100
AcDbVertex
100
AcDb2dVertex
 10
84.61498256351418
 20
-142.9135938531603
 30
0.0
  0
SEQEND
  5
96
330
93
100
AcDbEntity
  8
_U+30EC_U+30A4_U+30E4_U+30FC 1
 62
     7
420
 16777215
370
     9
  0
POLYLINE
  5
97
330
1F
100
AcDbEntity
  8
_U+30EC_U+30A4_U+30E4_U+30FC 1
 62
     7
420
 16777215
370
     9
100
AcDb2dPolyline
 66
     1
 10
0.0
 20
0.0
 30
0.0
  0
VERTEX
  5
98
330
97
100
AcDbEntity
  8
_U+30EC_U+30A4_U+30E4_U+30FC 1
 62
     7
420
 16777215
370
     9
100
AcDbVertex
100
AcDb2dVertex
 10
96.61493003514778
 20
-140.4531099648867
 30
0.0
  0
VERTEX
  5
99
330
97
100
AcDbEntity
  8
_U+30EC_U+30A4_U+30E4_U+30FC 1
 62
     7
420
 16777215
370
     9
100
AcDbVertex
100
AcDb2dVertex
 10
96.61493003514778
 20
-142.9135938531603
 30
0.0
  0
SEQEND
  5
9A
330
97
100
AcDbEntity
  8
_U+30EC_U+30A4_U+30E4_U+30FC 1
 62
     7
420
 16777215
370
     9
  0
INSERT
  5
9C
330
1F
100
AcDbEntity
  8
_U+30EC_U+30A4_U+30E4_U+30FC 1
100
AcDbBlockReference
  2
block 5
 10
0.0
 20
0.0
 30
0.0
  0
SPLINE
  5
A3
330
1F
100
AcDbEntity
  8
_U+30EC_U+30A4_U+30E4_U+30FC 1
 62
     7
420
 16777215
370
     9
100
AcDbSpline
210
0.0
220
0.0
230
1.0
 70
     8
 71
     3
 72
    17
 73
    13
 74
     0
 42
0.0000000001
 43
0.0000000001
 12
1.0
 22
0.0
 32
0.0
 13
1.0
 23
0.0
 33
0.0
 40
0.0
 40
0.0
 40
0.0
 40
0.0
 40
1.0
 40
1.0
 40
1.0
 40
2.0
 40
2.0
 40
2.0
 40
3.0
 40
3.0
 40
3.0
 40
4.0
 40
4.0
 40
4.0
 40
4.0
 10
103.4059020841179
 20
-116.4667963597722
 30
0.0
 10
103.3666379184529
 20
-116.4275321931155
 30
0.0
 10
103.3039493089411
 20
-116.4275321931155
 30
0.0
 10
103.2646851432762
 20
-116.4667963597722
 30
0.0
 10
103.2253856998343
 20
-116.5060605264289
 30
0.0
 10
103.2253856998343
 20
-116.5687844153022
 30
0.0
 10
103.2646851432762
 20
-116.608048581959
 30
0.0
 10
103.3039493089411
 20
-116.647312748616
 30
0.0
 10
103.3666379184529
 20
-116.647312748616
 30
0.0
 10
103.4059020841179
 20
-116.608048581959
 30
0.0
 10
103.4245287503093
 20
-116.5894219152971
 30
0.0
 10
103.4355354166952
 20
-116.5639513597477
 30
0.0
 10
103.4355354166952
 20
-116.537069693088
 30
0.0
  0
SPLINE
  5
A4
330
1F
100
AcDbEntity
  8
_U+30EC_U+30A4_U+30E4_U+30FC 1
 62
     7
420
 16777215
370
     9
100
AcDbSpline
210
0.0
220
0.0
230
1.0
 70
    11
 71
     3
 72
    17
 73
    13
 74
     0
 42
0.0000000001
 43
0.0000000001
 12
1.0
 22
0.0
 32
0.0
 13
1.0
 23
0.0
 33
0.0
 40
0.0
 40
0.0
 40
0.0
 40
0.0
 40
1.0
 40
1.0
 40
1.0
 40
2.0
 40
2.0
 40
2.0
 40
3.0
 40
3.0
 40
3.0
 40
4.0
 40
4.0
 40
4.0
 40
4.0
 10
89.49393438348619
 20
-116.537069693088
 30
0.0
 10
89.49393438348619
 20
-116.4819658042127
 30
0.0
 10
89.44913160685142
 20
-116.4371630264463
 30
0.0
 10
89.39402771936835
 20
-116.4371630264463
 30
0.0
 10
89.33888855410841
 20
-116.4371630264463
 30
0.0
 10
89.29412105525051
 20
-116.4819658042127
 30
0.0
 10
89.29412105525051
 20
-116.537069693088
 30
0.0
 10
89.29412105525051
 20
-116.5928791375184
 30
0.0
 10
89.33888855410841
 20
-116.6376819152851
 30
0.0
 10
89.39402771936835
 20
-116.6376819152851
 30
0.0
 10
89.44913160685142
 20
-116.6376819152851
 30
0.0
 10
89.49393438348619
 20
-116.5928791375184
 30
0.0
 10
89.49393438348619
 20
-116.537069693088
 30
0.0
  0
POLYLINE
  5
A5
330
1F
100
AcDbEntity
  8
_U+30EC_U+30A4_U+30E4_U+30FC 1
 62
     7
420
 16777215
370
     9
100
AcDb2dPolyline
 66
     1
 10
0.0
 20
0.0
 30
0.0
  0
VERTEX
  5
A6
330
A5
100
AcDbEntity
  8
_U+30EC_U+30A4_U+30E4_U+30FC 1
 62
     7
420
 16777215
370
     9
100
AcDbVertex
100
AcDb2dVertex
 10
89.39402771936835
 20
-116.537069693088
 30
0.0
  0
VERTEX
  5
A7
330
A5
100
AcDbEntity
  8
_U+30EC_U+30A4_U+30E4_U+30FC 1
 62
     7
420
 16777215
370
     9
100
AcDbVertex
100
AcDb2dVertex
 10
103.3941898621945
 20
-116.537069693088
 30
0.0
  0
SEQEND
  5
A8
330
A5
100
AcDbEntity
  8
_U+30EC_U+30A4_U+30E4_U+30FC 1
 62
     7
420
 16777215
370
     9
  0
POLYLINE
  5
A9
330
1F
100
AcDbEntity
  8
_U+30EC_U+30A4_U+30E4_U+30FC 1
 62
     7
420
 16777215
370
     9
100
AcDb2dPolyline
 66
     1
 10
0.0
 20
0.0
 30
0.0
  0
VERTEX
  5
AA
330
A9
100
AcDbEntity
  8
_U+30EC_U+30A4_U+30E4_U+30FC 1
 62
     7
420
 16777215
370
     9
100
AcDbVertex
100
AcDb2dVertex
 10
89.39402771936835
 20
-115.077028304564
 30
0.0
  0
VERTEX
  5
AB
330
A9
100
AcDbEntity
  8
_U+30EC_U+30A4_U+30E4_U+30FC 1
 62
     7
420
 16777215
370
     9
100
AcDbVertex
100
AcDb2dVertex
 10
89.39402771936835
 20
-117.5375121928379
 30
0.0
  0
SEQEND
  5
AC
330
A9
100
AcDbEntity
  8
_U+30EC_U+30A4_U+30E4_U+30FC 1
 62
     7
420
 16777215
370
     9
  0
POLYLINE
  5
AD
330
1F
100
AcDbEntity
  8
_U+30EC_U+30A4_U+30E4_U+30FC 1
 62
     7
420
 16777215
370
     9
100
AcDb2dPolyline
 66
     1
 10
0.0
 20
0.0
 30
0.0
  0
VERTEX
  5
AE
330
AD
100
AcDbEntity
  8
_U+30EC_U+30A4_U+30E4_U+30FC 1
 62
     7
420
 16777215
370
     9
100
AcDbVertex
100
AcDb2dVertex
 10
103.3356287525774
 20
-115.4008783044832
 30
0.0
  0
VERTEX
  5
AF
330
AD
100
AcDbEntity
  8
_U+30EC_U+30A4_U+30E4_U+30FC 1
 62
     7
420
 16777215
370
     9
100
AcDbVertex
100
AcDb2dVertex
 10
103.3356287525774
 20
-117.8606919149794
 30
0.0
  0
SEQEND
  5
B0
330
AD
100
AcDbEntity
  8
_U+30EC_U+30A4_U+30E4_U+30FC 1
 62
     7
420
 16777215
370
     9
  0
INSERT
  5
B2
330
1F
100
AcDbEntity
  8
_U+30EC_U+30A4_U+30E4_U+30FC 1
100
AcDbBlockReference
  2
block 6
 10
0.0
 20
0.0
 30
0.0
  0
SPLINE
  5
CC
330
1F
100
AcDbEntity
  8
_U+30EC_U+30A4_U+30E4_U+30FC 1
 62
     7
420
 16777215
370
    25
100
AcDbSpline
210
0.0
220
0.0
230
1.0
 70
     8
 71
     3
 72
    14
 73
    10
 74
     0
 42
0.0000000001
 43
0.0000000001
 12
1.0
 22
0.0
 32
0.0
 13
1.0
 23
0.0
 33
0.0
 40
0.0
 40
0.0
 40
0.0
 40
0.0
 40
1.0
 40
1.0
 40
1.0
 40
2.0
 40
2.0
 40
2.0
 40
3.0
 40
3.0
 40
3.0
 40
3.0
 10
89.41194883002225
 20
-126.6442941350058
 30
0.0
 10
89.41194883002225
 20
-126.6442941350058
 30
0.0
 10
101.5986215746699
 20
-126.6050299683487
 30
0.0
 10
101.5986215746699
 20
-126.6050299683487
 30
0.0
 10
101.5986215746699
 20
-126.6050299683487
 30
0.0
 10
103.1089337583608
 20
-126.8889102460554
 30
0.0
 10
103.330830974922
 20
-125.6052577463765
 30
0.0
 10
103.330830974922
 20
-125.6052577463765
 30
0.0
 10
89.33063355431901
 20
-125.6052577463765
 30
0.0
 10
89.33063355431901
 20
-125.6052577463765
 30
0.0
  0
POLYLINE
  5
CD
330
1F
100
AcDbEntity
  8
_U+30EC_U+30A4_U+30E4_U+30FC 1
 62
     7
420
 16777215
370
    25
100
AcDb2dPolyline
 66
     1
 10
0.0
 20
0.0
 30
0.0
  0
VERTEX
  5
CE
330
CD
100
AcDbEntity
  8
_U+30EC_U+30A4_U+30E4_U+30FC 1
 62
     7
420
 16777215
370
    25
100
AcDbVertex
100
AcDb2dVertex
 10
79.24753936711572
 20
-117.6925580261326
 30
0.0
  0
VERTEX
  5
D1
330
CD
100
AcDbEntity
  8
0
100
AcDbVertex
100
AcDb2dVertex
 10
79.24753936711572
 20
-117.6925580261326
 30
0.0
  0
SEQEND
  5
CF
330
CD
100
AcDbEntity
  8
_U+30EC_U+30A4_U+30E4_U+30FC 1
 62
     7
420
 16777215
370
    25
  0
SPLINE
  5
D0
330
1F
100
AcDbEntity
  8
_U+30EC_U+30A4_U+30E4_U+30FC 1
 62
     7
420
 16777215
370
    25
100
AcDbSpline
210
0.0
220
0.0
230
1.0
 70
     8
 71
     3
 72
    14
 73
    10
 74
     0
 42
0.0000000001
 43
0.0000000001
 12
1.0
 22
0.0
 32
0.0
 13
1.0
 23
0.0
 33
0.0
 40
0.0
 40
0.0
 40
0.0
 40
0.0
 40
1.0
 40
1.0
 40
1.0
 40
2.0
 40
2.0
 40
2.0
 40
3.0
 40
3.0
 40
3.0
 40
3.0
 10
89.27136688916436
 20
-125.542569135281
 30
0.0
 10
89.27136688916436
 20
-125.542569135281
 30
0.0
 10
79.37154075284107
 20
-115.6434130266448
 30
0.0
 10
79.37154075284107
 20
-115.6434130266448
 30
0.0
 10
79.37154075284107
 20
-115.6434130266448
 30
0.0
 10
78.70870660308472
 20
-116.1905008042858
 30
0.0
 10
79.35640658656051
 20
-117.3900863595413
 30
0.0
 10
79.35640658656051
 20
-117.3900863595413
 30
0.0
 10
88.21786663826362
 20
-126.2508763573263
 30
0.0
 10
88.21786663826362
 20
-126.2508763573263
 30
0.0
  0
ENDSEC
  0
SECTION
  2
OBJECTS
  0
DICTIONARY
  5
C
330
0
100
AcDbDictionary
281
     1
  3
ACAD_GROUP
350
D
  3
ACAD_LAYOUT
350
1A
  3
ACAD_MATERIAL
350
3B
  3
ACAD_MLEADERSTYLE
350
D3
  3
ACAD_MLINESTYLE
350
17
  3
ACAD_PLOTSETTINGS
350
19
  3
ACAD_PLOTSTYLENAME
350
E
  3
ACAD_TABLESTYLE
350
D2
  3
ACAD_VISUALSTYLE
350
2A
  0
SUN
  5
3F
330
29
100
AcDbSun
 90
        1
290
     0
 63
     7
421
 16777215
 40
1.0
291
     1
 91
  2455826
 92
 54000000
292
     0
 70
     2
 71
   256
280
     1
  0
DICTIONARY
  5
D
102
{ACAD_REACTORS
330
C
102
}
330
C
100
AcDbDictionary
281
     1
  0
DICTIONARY
  5
1A
102
{ACAD_REACTORS
330
C
102
}
330
C
100
AcDbDictionary
281
     1
  3
Layout1
350
1E
  3
Layout2
350
26
  3
Model
350
22
  0
DICTIONARY
  5
3B
102
{ACAD_REACTORS
330
C
102
}
330
C
100
AcDbDictionary
281
     1
  3
ByBlock
350
3D
  3
ByLayer
350
3C
  3
Global
350
3E
  0
DICTIONARY
  5
D3
102
{ACAD_REACTORS
330
C
102
}
330
C
100
AcDbDictionary
281
     1
  0
DICTIONARY
  5
17
102
{ACAD_REACTORS
330
C
102
}
330
C
100
AcDbDictionary
281
     1
  3
Standard
350
18
  0
DICTIONARY
  5
19
102
{ACAD_REACTORS
330
C
102
}
330
C
100
AcDbDictionary
281
     1
  0
ACDBDICTIONARYWDFLT
  5
E
102
{ACAD_REACTORS
330
C
102
}
330
C
100
AcDbDictionary
281
     1
  3
Normal
350
F
100
AcDbDictionaryWithDefault
340
F
  0
DICTIONARY
  5
D2
102
{ACAD_REACTORS
330
C
102
}
330
C
100
AcDbDictionary
281
     1
  0
DICTIONARY
  5
2A
102
{ACAD_REACTORS
330
C
102
}
330
C
100
AcDbDictionary
281
     1
  3
2dWireframe
350
2F
  3
3D Hidden
350
31
  3
3dWireframe
350
30
  3
Basic
350
32
  3
Brighten
350
36
  3
ColorChange
350
3A
  3
Conceptual
350
34
  3
Dim
350
35
  3
Facepattern
350
39
  3
Flat
350
2B
  3
FlatWithEdges
350
2C
  3
Gouraud
350
2D
  3
GouraudWithEdges
350
2E
  3
Linepattern
350
38
  3
Realistic
350
33
  3
Thicken
350
37
  0
LAYOUT
  5
1E
102
{ACAD_REACTORS
330
1A
102
}
330
1A
100
AcDbPlotSettings
  1

  2
none_device
  4

  6

 40
0.0
 41
0.0
 42
0.0
 43
0.0
 44
0.0
 45
0.0
 46
0.0
 47
0.0
 48
0.0
 49
0.0
140
0.0
141
0.0
142
1.0
143
1.0
 70
   688
 72
     0
 73
     0
 74
     5
  7

 75
    16
 76
     0
 77
     2
 78
   300
147
1.0
148
0.0
149
0.0
100
AcDbLayout
  1
Layout1
 70
     1
 71
     1
 10
0.0
 20
0.0
 11
12.0
 21
9.0
 12
0.0
 22
0.0
 32
0.0
 14
1.000000000000000E+20
 24
1.000000000000000E+20
 34
1.000000000000000E+20
 15
-1.000000000000000E+20
 25
-1.000000000000000E+20
 35
-1.000000000000000E+20
146
0.0
 13
0.0
 23
0.0
 33
0.0
 16
1.0
 26
0.0
 36
0.0
 17
0.0
 27
1.0
 37
0.0
 76
     0
330
1B
  0
LAYOUT
  5
26
102
{ACAD_REACTORS
330
1A
102
}
330
1A
100
AcDbPlotSettings
  1

  2
none_device
  4

  6

 40
0.0
 41
0.0
 42
0.0
 43
0.0
 44
0.0
 45
0.0
 46
0.0
 47
0.0
 48
0.0
 49
0.0
140
0.0
141
0.0
142
1.0
143
1.0
 70
   688
 72
     0
 73
     0
 74
     5
  7

 75
    16
 76
     0
 77
     2
 78
   300
147
1.0
148
0.0
149
0.0
100
AcDbLayout
  1
Layout2
 70
     1
 71
     2
 10
0.0
 20
0.0
 11
0.0
 21
0.0
 12
0.0
 22
0.0
 32
0.0
 14
0.0
 24
0.0
 34
0.0
 15
0.0
 25
0.0
 35
0.0
146
0.0
 13
0.0
 23
0.0
 33
0.0
 16
1.0
 26
0.0
 36
0.0
 17
0.0
 27
1.0
 37
0.0
 76
     0
330
23
  0
LAYOUT
  5
22
102
{ACAD_REACTORS
330
1A
102
}
330
1A
100
AcDbPlotSettings
  1

  2
none_device
  4

  6

 40
0.0
 41
0.0
 42
0.0
 43
0.0
 44
0.0
 45
0.0
 46
0.0
 47
0.0
 48
0.0
 49
0.0
140
0.0
141
0.0
142
1.0
143
1.0
 70
  1712
 72
     0
 73
     0
 74
     0
  7

 75
     0
 76
     0
 77
     2
 78
   300
147
1.0
148
0.0
149
0.0
100
AcDbLayout
  1
Model
 70
     1
 71
     0
 10
0.0
 20
0.0
 11
12.0
 21
9.0
 12
0.0
 22
0.0
 32
0.0
 14
1.000000000000000E+20
 24
1.000000000000000E+20
 34
1.000000000000000E+20
 15
-1.000000000000000E+20
 25
-1.000000000000000E+20
 35
-1.000000000000000E+20
146
0.0
 13
0.0
 23
0.0
 33
0.0
 16
1.0
 26
0.0
 36
0.0
 17
0.0
 27
1.0
 37
0.0
 76
     0
330
1F
331
29
  0
MATERIAL
  5
3D
102
{ACAD_REACTORS
330
3B
102
}
330
3B
100
AcDbMaterial
  1
ByBlock
 72
     1
 94
      127
  0
MATERIAL
  5
3C
102
{ACAD_REACTORS
330
3B
102
}
330
3B
100
AcDbMaterial
  1
ByLayer
 72
     1
 94
      127
  0
MATERIAL
  5
3E
102
{ACAD_REACTORS
330
3B
102
}
330
3B
100
AcDbMaterial
  1
Global
 72
     1
 94
      127
  0
MLINESTYLE
  5
18
102
{ACAD_REACTORS
330
17
102
}
330
17
100
AcDbMlineStyle
  2
Standard
 70
     0
  3

 62
   256
 51
90.0
 52
90.0
 71
     2
 49
0.5
 62
   256
  6
BYLAYER
 49
-0.5
 62
   256
  6
BYLAYER
  0
ACDBPLACEHOLDER
  5
F
102
{ACAD_REACTORS
330
E
102
}
330
E
  0
VISUALSTYLE
  5
2F
102
{ACAD_REACTORS
330
2A
102
}
330
2A
100
AcDbVisualStyle
  2
2dWireframe
 70
     4
177
     2
291
     0
 71
     0
176
     1
 72
     2
176
     1
 73
     0
176
     1
 90
        0
176
     1
 40
-0.6
176
     1
 41
-30.0
176
     1
 62
     5
 63
     7
421
 16777215
176
     1
 74
     1
176
     1
 91
        4
176
     1
 64
     7
176
     1
 65
   257
176
     1
 75
     1
176
     1
175
     1
176
     1
 42
1.0
176
     1
 92
        0
176
     1
 66
   257
176
     1
 43
1.0
176
     1
 76
     1
176
     1
 77
     6
176
     1
 78
     2
176
     1
 67
     7
176
     1
 79
     5
176
     1
170
     0
176
     1
171
     0
176
     1
290
     0
176
     1
 93
        1
176
     1
 44
0.0
176
     1
173
     0
176
     1
  0
VISUALSTYLE
  5
31
102
{ACAD_REACTORS
330
2A
102
}
330
2A
100
AcDbVisualStyle
  2
3D Hidden
 70
     6
177
     2
291
     0
 71
     1
176
     1
 72
     2
176
     1
 73
     2
176
     1
 90
        0
176
     1
 40
-0.6
176
     1
 41
-30.0
176
     1
 62
     5
 63
     7
421
 16777215
176
     1
 74
     2
176
     1
 91
        2
176
     1
 64
     7
176
     1
 65
   257
176
     1
 75
     2
176
     1
175
     1
176
     1
 42
40.0
176
     1
 92
        0
176
     1
 66
   257
176
     1
 43
1.0
176
     1
 76
     1
176
     1
 77
     6
176
     1
 78
     2
176
     1
 67
     7
176
     1
 79
     3
176
     1
170
     0
176
     1
171
     0
176
     1
290
     0
176
     1
 93
        1
176
     1
 44
0.0
176
     1
173
     0
176
     1
  0
VISUALSTYLE
  5
30
102
{ACAD_REACTORS
330
2A
102
}
330
2A
100
AcDbVisualStyle
  2
3dWireframe
 70
     5
177
     2
291
     0
 71
     0
176
     1
 72
     2
176
     1
 73
     0
176
     1
 90
        0
176
     1
 40
-0.6
176
     1
 41
-30.0
176
     1
 62
     5
 63
     7
421
 16777215
176
     1
 74
     1
176
     1
 91
        4
176
     1
 64
     7
176
     1
 65
   257
176
     1
 75
     1
176
     1
175
     1
176
     1
 42
1.0
176
     1
 92
        0
176
     1
 66
   257
176
     1
 43
1.0
176
     1
 76
     1
176
     1
 77
     6
176
     1
 78
     2
176
     1
 67
     7
176
     1
 79
     5
176
     1
170
     0
176
     1
171
     0
176
     1
290
     0
176
     1
 93
        1
176
     1
 44
0.0
176
     1
173
     0
176
     1
  0
VISUALSTYLE
  5
32
102
{ACAD_REACTORS
330
2A
102
}
330
2A
100
AcDbVisualStyle
  2
Basic
 70
     7
177
     2
291
     1
 71
     1
176
     1
 72
     0
176
     1
 73
     1
176
     1
 90
        0
176
     1
 40
-0.6
176
     1
 41
-30.0
176
     1
 62
     5
 63
     7
421
 16777215
176
     1
 74
     0
176
     1
 91
        4
176
     1
 64
     7
176
     1
 65
   257
176
     1
 75
     1
176
     1
175
     1
176
     1
 42
1.0
176
     1
 92
        8
176
     1
 66
     7
176
     1
 43
1.0
176
     1
 76
     1
176
     1
 77
     6
176
     1
 78
     2
176
     1
 67
     7
176
     1
 79
     5
176
     1
170
     0
176
     1
171
     0
176
     1
290
     0
176
     1
 93
        1
176
     1
 44
0.0
176
     1
173
     0
176
     1
  0
VISUALSTYLE
  5
36
102
{ACAD_REACTORS
330
2A
102
}
330
2A
100
AcDbVisualStyle
  2
Brighten
 70
    12
177
     2
291
     1
 71
     2
176
     1
 72
     2
176
     1
 73
     0
176
     1
 90
        0
176
     1
 40
-0.6
176
     1
 41
-30.0
176
     1
 62
     5
 63
     7
421
 16777215
176
     1
 74
     1
176
     1
 91
        4
176
     1
 64
     7
176
     1
 65
   257
176
     1
 75
     1
176
     1
175
     1
176
     1
 42
1.0
176
     1
 92
        8
176
     1
 66
     7
176
     1
 43
1.0
176
     1
 76
     1
176
     1
 77
     6
176
     1
 78
     2
176
     1
 67
     7
176
     1
 79
     5
176
     1
170
     0
176
     1
171
     0
176
     1
290
     0
176
     1
 93
        1
176
     1
 44
50.0
176
     1
173
     0
176
     1
  0
VISUALSTYLE
  5
3A
102
{ACAD_REACTORS
330
2A
102
}
330
2A
100
AcDbVisualStyle
  2
ColorChange
 70
    16
177
     2
291
     1
 71
     2
176
     1
 72
     2
176
     1
 73
     3
176
     1
 90
        0
176
     1
 40
-0.6
176
     1
 41
-30.0
176
     1
 62
     5
 63
     8
421
  8421504
176
     1
 74
     1
176
     1
 91
        4
176
     1
 64
     7
176
     1
 65
   257
176
     1
 75
     1
176
     1
175
     1
176
     1
 42
1.0
176
     1
 92
        8
176
     1
 66
     8
424
  8421504
176
     1
 43
1.0
176
     1
 76
     1
176
     1
 77
     6
176
     1
 78
     2
176
     1
 67
     7
176
     1
 79
     5
176
     1
170
     0
176
     1
171
     0
176
     1
290
     0
176
     1
 93
        1
176
     1
 44
0.0
176
     1
173
     0
176
     1
  0
VISUALSTYLE
  5
34
102
{ACAD_REACTORS
330
2A
102
}
330
2A
100
AcDbVisualStyle
  2
Conceptual
 70
     9
177
     2
291
     0
 71
     3
176
     1
 72
     2
176
     1
 73
     0
176
     1
 90
        0
176
     1
 40
-0.6
176
     1
 41
-30.0
176
     1
 62
     5
 63
     7
421
 16777215
176
     1
 74
     2
176
     1
 91
        2
176
     1
 64
     7
176
     1
 65
   257
176
     1
 75
     1
176
     1
175
     1
176
     1
 42
40.0
176
     1
 92
        8
176
     1
 66
     7
176
     1
 43
1.0
176
     1
 76
     1
176
     1
 77
     6
176
     1
 78
     2
176
     1
 67
     7
176
     1
 79
     3
176
     1
170
     0
176
     1
171
     0
176
     1
290
     0
176
     1
 93
        1
176
     1
 44
0.0
176
     1
173
     0
176
     1
  0
VISUALSTYLE
  5
35
102
{ACAD_REACTORS
330
2A
102
}
330
2A
100
AcDbVisualStyle
  2
Dim
 70
    11
177
     2
291
     1
 71
     2
176
     1
 72
     2
176
     1
 73
     0
176
     1
 90
        0
176
     1
 40
-0.6
176
     1
 41
-30.0
176
     1
 62
     5
 63
     7
421
 16777215
176
     1
 74
     1
176
     1
 91
        4
176
     1
 64
     7
176
     1
 65
   257
176
     1
 75
     1
176
     1
175
     1
176
     1
 42
1.0
176
     1
 92
        8
176
     1
 66
     7
176
     1
 43
1.0
176
     1
 76
     1
176
     1
 77
     6
176
     1
 78
     2
176
     1
 67
     7
176
     1
 79
     5
176
     1
170
     0
176
     1
171
     0
176
     1
290
     0
176
     1
 93
        1
176
     1
 44
-50.0
176
     1
173
     0
176
     1
  0
VISUALSTYLE
  5
39
102
{ACAD_REACTORS
330
2A
102
}
330
2A
100
AcDbVisualStyle
  2
Facepattern
 70
    15
177
     2
291
     1
 71
     2
176
     1
 72
     2
176
     1
 73
     0
176
     1
 90
        0
176
     1
 40
-0.6
176
     1
 41
-30.0
176
     1
 62
     5
 63
     7
421
 16777215
176
     1
 74
     1
176
     1
 91
        4
176
     1
 64
     7
176
     1
 65
   257
176
     1
 75
     1
176
     1
175
     1
176
     1
 42
1.0
176
     1
 92
        8
176
     1
 66
     7
176
     1
 43
1.0
176
     1
 76
     1
176
     1
 77
     6
176
     1
 78
     2
176
     1
 67
     7
176
     1
 79
     5
176
     1
170
     0
176
     1
171
     0
176
     1
290
     0
176
     1
 93
        1
176
     1
 44
0.0
176
     1
173
     0
176
     1
  0
VISUALSTYLE
  5
2B
102
{ACAD_REACTORS
330
2A
102
}
330
2A
100
AcDbVisualStyle
  2
Flat
 70
     0
177
     2
291
     1
 71
     2
176
     1
 72
     1
176
     1
 73
     1
176
     1
 90
        2
176
     1
 40
-0.6
176
     1
 41
30.0
176
     1
 62
     5
 63
     7
421
 16777215
176
     1
 74
     0
176
     1
 91
        4
176
     1
 64
     7
176
     1
 65
   257
176
     1
 75
     1
176
     1
175
     1
176
     1
 42
1.0
176
     1
 92
        8
176
     1
 66
     7
176
     1
 43
1.0
176
     1
 76
     1
176
     1
 77
     6
176
     1
 78
     2
176
     1
 67
     7
176
     1
 79
     5
176
     1
170
     0
176
     1
171
     0
176
     1
290
     0
176
     1
 93
       13
176
     1
 44
0.0
176
     1
173
     0
176
     1
  0
VISUALSTYLE
  5
2C
102
{ACAD_REACTORS
330
2A
102
}
330
2A
100
AcDbVisualStyle
  2
FlatWithEdges
 70
     1
177
     2
291
     1
 71
     2
176
     1
 72
     1
176
     1
 73
     1
176
     1
 90
        2
176
     1
 40
-0.6
176
     1
 41
30.0
176
     1
 62
     5
 63
     7
421
 16777215
176
     1
 74
     1
176
     1
 91
        4
176
     1
 64
     7
176
     1
 65
   257
176
     1
 75
     1
176
     1
175
     1
176
     1
 42
1.0
176
     1
 92
        0
176
     1
 66
   257
176
     1
 43
1.0
176
     1
 76
     1
176
     1
 77
     6
176
     1
 78
     2
176
     1
 67
     7
176
     1
 79
     5
176
     1
170
     0
176
     1
171
     0
176
     1
290
     0
176
     1
 93
       13
176
     1
 44
0.0
176
     1
173
     0
176
     1
  0
VISUALSTYLE
  5
2D
102
{ACAD_REACTORS
330
2A
102
}
330
2A
100
AcDbVisualStyle
  2
Gouraud
 70
     2
177
     2
291
     1
 71
     2
176
     1
 72
     2
176
     1
 73
     1
176
     1
 90
        2
176
     1
 40
-0.6
176
     1
 41
30.0
176
     1
 62
     5
 63
     7
421
 16777215
176
     1
 74
     0
176
     1
 91
        4
176
     1
 64
     7
176
     1
 65
   257
176
     1
 75
     1
176
     1
175
     1
176
     1
 42
1.0
176
     1
 92
        0
176
     1
 66
     7
176
     1
 43
1.0
176
     1
 76
     1
176
     1
 77
     6
176
     1
 78
     2
176
     1
 67
     7
176
     1
 79
     5
176
     1
170
     0
176
     1
171
     0
176
     1
290
     0
176
     1
 93
       13
176
     1
 44
0.0
176
     1
173
     0
176
     1
  0
VISUALSTYLE
  5
2E
102
{ACAD_REACTORS
330
2A
102
}
330
2A
100
AcDbVisualStyle
  2
GouraudWithEdges
 70
     3
177
     2
291
     1
 71
     2
176
     1
 72
     2
176
     1
 73
     1
176
     1
 90
        2
176
     1
 40
-0.6
176
     1
 41
30.0
176
     1
 62
     5
 63
     7
421
 16777215
176
     1
 74
     1
176
     1
 91
        4
176
     1
 64
     7
176
     1
 65
   257
176
     1
 75
     1
176
     1
175
     1
176
     1
 42
1.0
176
     1
 92
        0
176
     1
 66
   257
176
     1
 43
1.0
176
     1
 76
     1
176
     1
 77
     6
176
     1
 78
     2
176
     1
 67
     7
176
     1
 79
     5
176
     1
170
     0
176
     1
171
     0
176
     1
290
     0
176
     1
 93
       13
176
     1
 44
0.0
176
     1
173
     0
176
     1
  0
VISUALSTYLE
  5
38
102
{ACAD_REACTORS
330
2A
102
}
330
2A
100
AcDbVisualStyle
  2
Linepattern
 70
    14
177
     2
291
     1
 71
     2
176
     1
 72
     2
176
     1
 73
     0
176
     1
 90
        0
176
     1
 40
-0.6
176
     1
 41
-30.0
176
     1
 62
     5
 63
     7
421
 16777215
176
     1
 74
     1
176
     1
 91
        4
176
     1
 64
     7
176
     1
 65
   257
176
     1
 75
     7
176
     1
175
     7
176
     1
 42
1.0
176
     1
 92
        8
176
     1
 66
     7
176
     1
 43
1.0
176
     1
 76
     1
176
     1
 77
     6
176
     1
 78
     2
176
     1
 67
     7
176
     1
 79
     5
176
     1
170
     0
176
     1
171
     0
176
     1
290
     0
176
     1
 93
        1
176
     1
 44
0.0
176
     1
173
     0
176
     1
  0
VISUALSTYLE
  5
33
102
{ACAD_REACTORS
330
2A
102
}
330
2A
100
AcDbVisualStyle
  2
Realistic
 70
     8
177
     2
291
     0
 71
     2
176
     1
 72
     2
176
     1
 73
     0
176
     1
 90
        0
176
     1
 40
-0.6
176
     1
 41
-30.0
176
     1
 62
     5
 63
     7
421
 16777215
176
     1
 74
     1
176
     1
 91
        0
176
     1
 64
     7
176
     1
 65
   257
176
     1
 75
     1
176
     1
175
     1
176
     1
 42
1.0
176
     1
 92
        8
176
     1
 66
     8
424
  7895160
176
     1
 43
1.0
176
     1
 76
     1
176
     1
 77
     6
176
     1
 78
     2
176
     1
 67
     7
176
     1
 79
     5
176
     1
170
     0
176
     1
171
     0
176
     1
290
     0
176
     1
 93
       13
176
     1
 44
0.0
176
     1
173
     0
176
     1
  0
VISUALSTYLE
  5
37
102
{ACAD_REACTORS
330
2A
102
}
330
2A
100
AcDbVisualStyle
  2
Thicken
 70
    13
177
     2
291
     1
 71
     2
176
     1
 72
     2
176
     1
 73
     0
176
     1
 90
        0
176
     1
 40
-0.6
176
     1
 41
-30.0
176
     1
 62
     5
 63
     7
421
 16777215
176
     1
 74
     1
176
     1
 91
        4
176
     1
 64
     7
176
     1
 65
   257
176
     1
 75
     1
176
     1
175
     1
176
     1
 42
1.0
176
     1
 92
       12
176
     1
 66
     7
176
     1
 43
1.0
176
     1
 76
     1
176
     1
 77
     6
176
     1
 78
     2
176
     1
 67
     7
176
     1
 79
     5
176
     1
170
     0
176
     1
171
     0
176
     1
290
     0
176
     1
 93
        1
176
     1
 44
0.0
176
     1
173
     0
176
     1
  0
ENDSEC
  0
EOF
