  0
SECTION
  2
HEADER
  9
$ACADVER
  1
AC1024
  9
$ACADMAINTVER
 70
     6
  9
$DWGCODEPAGE
  3
UNDEFINED
  9
$INSBASE
 10
0.0
 20
0.0
 30
0.0
  9
$EXTMIN
 10
1.000000000000000E+20
 20
1.000000000000000E+20
 30
1.000000000000000E+20
  9
$EXTMAX
 10
-1.000000000000000E+20
 20
-1.000000000000000E+20
 30
-1.000000000000000E+20
  9
$LIMMIN
 10
0.0
 20
0.0
  9
$LIMMAX
 10
12.0
 20
9.0
  9
$ORTHOMODE
 70
     0
  9
$REGENMODE
 70
     1
  9
$FILLMODE
 70
     1
  9
$QTEXTMODE
 70
     0
  9
$MIRRTEXT
 70
     1
  9
$LTSCALE
 40
1.0
  9
$ATTMODE
 70
     1
  9
$TEXTSIZE
 40
0.2
  9
$TRACEWID
 40
0.05
  9
$TEXTSTYLE
  7
Standard
  9
$CLAYER
  8
0
  9
$CELTYPE
  6
ByLayer
  9
$CECOLOR
 62
   256
  9
$CELTSCALE
 40
1.0
  9
$DISPSILH
 70
     0
  9
$DIMSCALE
 40
1.0
  9
$DIMASZ
 40
0.18
  9
$DIMEXO
 40
0.0625
  9
$DIMDLI
 40
0.38
  9
$DIMRND
 40
0.0
  9
$DIMDLE
 40
0.0
  9
$DIMEXE
 40
0.18
  9
$DIMTP
 40
0.0
  9
$DIMTM
 40
0.0
  9
$DIMTXT
 40
0.18
  9
$DIMCEN
 40
0.09
  9
$DIMTSZ
 40
0.0
  9
$DIMTOL
 70
     0
  9
$DIMLIM
 70
     0
  9
$DIMTIH
 70
     1
  9
$DIMTOH
 70
     1
  9
$DIMSE1
 70
     0
  9
$DIMSE2
 70
     0
  9
$DIMTAD
 70
     0
  9
$DIMZIN
 70
     0
  9
$DIMBLK
  1

  9
$DIMASO
 70
     1
  9
$DIMSHO
 70
     1
  9
$DIMPOST
  1

  9
$DIMAPOST
  1

  9
$DIMALT
 70
     0
  9
$DIMALTD
 70
     2
  9
$DIMALTF
 40
25.4
  9
$DIMLFAC
 40
1.0
  9
$DIMTOFL
 70
     0
  9
$DIMTVP
 40
0.0
  9
$DIMTIX
 70
     0
  9
$DIMSOXD
 70
     0
  9
$DIMSAH
 70
     0
  9
$DIMBLK1
  1

  9
$DIMBLK2
  1

  9
$DIMSTYLE
  2
Standard
  9
$DIMCLRD
 70
     0
  9
$DIMCLRE
 70
     0
  9
$DIMCLRT
 70
     0
  9
$DIMTFAC
 40
1.0
  9
$DIMGAP
 40
0.09
  9
$DIMJUST
 70
     0
  9
$DIMSD1
 70
     0
  9
$DIMSD2
 70
     0
  9
$DIMTOLJ
 70
     1
  9
$DIMTZIN
 70
     0
  9
$DIMALTZ
 70
     0
  9
$DIMALTTZ
 70
     0
  9
$DIMUPT
 70
     0
  9
$DIMDEC
 70
     4
  9
$DIMTDEC
 70
     4
  9
$DIMALTU
 70
     2
  9
$DIMALTTD
 70
     2
  9
$DIMTXSTY
  7
Standard
  9
$DIMAUNIT
 70
     0
  9
$DIMADEC
 70
     0
  9
$DIMALTRND
 40
0.0
  9
$DIMAZIN
 70
     0
  9
$DIMDSEP
 70
    46
  9
$DIMATFIT
 70
     3
  9
$DIMFRAC
 70
     0
  9
$DIMLDRBLK
  1

  9
$DIMLUNIT
 70
     2
  9
$DIMLWD
 70
    -2
  9
$DIMLWE
 70
    -2
  9
$DIMTMOVE
 70
     0
  9
$DIMFXL
 40
1.0
  9
$DIMFXLON
 70
     0
  9
$DIMJOGANG
 40
0.7853981633974483
  9
$DIMTFILL
 70
     0
  9
$DIMTFILLCLR
 70
     0
  9
$DIMARCSYM
 70
     0
  9
$DIMLTYPE
  6

  9
$DIMLTEX1
  6

  9
$DIMLTEX2
  6

  9
$DIMTXTDIRECTION
 70
     0
  9
$LUNITS
 70
     2
  9
$LUPREC
 70
     4
  9
$SKETCHINC
 40
0.1
  9
$FILLETRAD
 40
0.5
  9
$AUNITS
 70
     0
  9
$AUPREC
 70
     0
  9
$MENU
  1
.
  9
$ELEVATION
 40
0.0
  9
$PELEVATION
 40
0.0
  9
$THICKNESS
 40
0.0
  9
$LIMCHECK
 70
     0
  9
$CHAMFERA
 40
0.5
  9
$CHAMFERB
 40
0.5
  9
$CHAMFERC
 40
1.0
  9
$CHAMFERD
 40
0.0
  9
$SKPOLY
 70
     0
  9
$TDCREATE
 40
2457917.619432859
  9
$TDUCREATE
 40
2457917.24443287
  9
$TDUPDATE
 40
2457917.619432859
  9
$TDUUPDATE
 40
2457917.24443287
  9
$TDINDWG
 40
0.0000000116
  9
$TDUSRTIMER
 40
0.0000000116
  9
$USRTIMER
 70
     1
  9
$ANGBASE
 50
0.0
  9
$ANGDIR
 70
     0
  9
$PDMODE
 70
     0
  9
$PDSIZE
 40
0.0
  9
$PLINEWID
 40
0.0
  9
$SPLFRAME
 70
     0
  9
$SPLINETYPE
 70
     6
  9
$SPLINESEGS
 70
     8
  9
$HANDSEED
  5
C9
  9
$SURFTAB1
 70
     6
  9
$SURFTAB2
 70
     6
  9
$SURFTYPE
 70
     6
  9
$SURFU
 70
     6
  9
$SURFV
 70
     6
  9
$UCSBASE
  2

  9
$UCSNAME
  2

  9
$UCSORG
 10
0.0
 20
0.0
 30
0.0
  9
$UCSXDIR
 10
1.0
 20
0.0
 30
0.0
  9
$UCSYDIR
 10
0.0
 20
1.0
 30
0.0
  9
$UCSORTHOREF
  2

  9
$UCSORTHOVIEW
 70
     0
  9
$UCSORGTOP
 10
0.0
 20
0.0
 30
0.0
  9
$UCSORGBOTTOM
 10
0.0
 20
0.0
 30
0.0
  9
$UCSORGLEFT
 10
0.0
 20
0.0
 30
0.0
  9
$UCSORGRIGHT
 10
0.0
 20
0.0
 30
0.0
  9
$UCSORGFRONT
 10
0.0
 20
0.0
 30
0.0
  9
$UCSORGBACK
 10
0.0
 20
0.0
 30
0.0
  9
$PUCSBASE
  2

  9
$PUCSNAME
  2

  9
$PUCSORG
 10
0.0
 20
0.0
 30
0.0
  9
$PUCSXDIR
 10
1.0
 20
0.0
 30
0.0
  9
$PUCSYDIR
 10
0.0
 20
1.0
 30
0.0
  9
$PUCSORTHOREF
  2

  9
$PUCSORTHOVIEW
 70
     0
  9
$PUCSORGTOP
 10
0.0
 20
0.0
 30
0.0
  9
$PUCSORGBOTTOM
 10
0.0
 20
0.0
 30
0.0
  9
$PUCSORGLEFT
 10
0.0
 20
0.0
 30
0.0
  9
$PUCSORGRIGHT
 10
0.0
 20
0.0
 30
0.0
  9
$PUCSORGFRONT
 10
0.0
 20
0.0
 30
0.0
  9
$PUCSORGBACK
 10
0.0
 20
0.0
 30
0.0
  9
$USERI1
 70
     0
  9
$USERI2
 70
     0
  9
$USERI3
 70
     0
  9
$USERI4
 70
     0
  9
$USERI5
 70
     0
  9
$USERR1
 40
0.0
  9
$USERR2
 40
0.0
  9
$USERR3
 40
0.0
  9
$USERR4
 40
0.0
  9
$USERR5
 40
0.0
  9
$WORLDVIEW
 70
     1
  9
$SHADEDGE
 70
     3
  9
$SHADEDIF
 70
    70
  9
$TILEMODE
 70
     1
  9
$MAXACTVP
 70
    64
  9
$PINSBASE
 10
0.0
 20
0.0
 30
0.0
  9
$PLIMCHECK
 70
     0
  9
$PEXTMIN
 10
1.000000000000000E+20
 20
1.000000000000000E+20
 30
1.000000000000000E+20
  9
$PEXTMAX
 10
-1.000000000000000E+20
 20
-1.000000000000000E+20
 30
-1.000000000000000E+20
  9
$PLIMMIN
 10
0.0
 20
0.0
  9
$PLIMMAX
 10
12.0
 20
9.0
  9
$UNITMODE
 70
     0
  9
$VISRETAIN
 70
     1
  9
$PLINEGEN
 70
     0
  9
$PSLTSCALE
 70
     1
  9
$TREEDEPTH
 70
  3020
  9
$CMLSTYLE
  2
Standard
  9
$CMLJUST
 70
     0
  9
$CMLSCALE
 40
1.0
  9
$PROXYGRAPHICS
 70
     1
  9
$MEASUREMENT
 70
     0
  9
$CELWEIGHT
370
    -1
  9
$ENDCAPS
280
     0
  9
$JOINSTYLE
280
     0
  9
$LWDISPLAY
290
     1
  9
$INSUNITS
 70
     1
  9
$HYPERLINKBASE
  1

  9
$STYLESHEET
  1

  9
$XEDIT
290
     1
  9
$CEPSNTYPE
380
     0
  9
$PSTYLEMODE
290
     1
  9
$FINGERPRINTGUID
  2
{C34F0693-3538-9C43-D742-9BF36428D1F1}
  9
$VERSIONGUID
  2
{FAEB1C32-E019-11D5-929B-00C0DF256EC4}
  9
$EXTNAMES
290
     1
  9
$PSVPSCALE
 40
0.0
  9
$OLESTARTUP
290
     0
  9
$SORTENTS
280
   127
  9
$INDEXCTL
280
     0
  9
$HIDETEXT
280
     1
  9
$XCLIPFRAME
280
     2
  9
$HALOGAP
280
     0
  9
$OBSCOLOR
 70
   257
  9
$OBSLTYPE
280
     0
  9
$INTERSECTIONDISPLAY
280
     0
  9
$INTERSECTIONCOLOR
 70
   257
  9
$DIMASSOC
280
     2
  9
$PROJECTNAME
  1

  9
$CAMERADISPLAY
290
     0
  9
$LENSLENGTH
 40
50.0
  9
$CAMERAHEIGHT
 40
0.0
  9
$STEPSPERSEC
 40
2.0
  9
$STEPSIZE
 40
6.0
  9
$3DDWFPREC
 40
2.0
  9
$PSOLWIDTH
 40
0.25
  9
$PSOLHEIGHT
 40
4.0
  9
$LOFTANG1
 40
1.570796326794897
  9
$LOFTANG2
 40
1.570796326794897
  9
$LOFTMAG1
 40
0.0
  9
$LOFTMAG2
 40
0.0
  9
$LOFTPARAM
 70
     7
  9
$LOFTNORMALS
280
     1
  9
$LATITUDE
 40
37.795
  9
$LONGITUDE
 40
-122.394
  9
$NORTHDIRECTION
 40
0.0
  9
$TIMEZONE
 70
 -8000
  9
$LIGHTGLYPHDISPLAY
280
     1
  9
$TILEMODELIGHTSYNCH
280
     1
  9
$CMATERIAL
347
3C
  9
$SOLIDHIST
280
     1
  9
$SHOWHIST
280
     1
  9
$DWFFRAME
280
     2
  9
$DGNFRAME
280
     2
  9
$REALWORLDSCALE
290
     1
  9
$INTERFERECOLOR
 62
   256
  9
$CSHADOW
280
     0
  9
$SHADOWPLANELOCATION
 40
0.0
  0
ENDSEC
  0
SECTION
  2
CLASSES
  0
CLASS
  1
ACDBDICTIONARYWDFLT
  2
AcDbDictionaryWithDefault
  3
ObjectDBX Classes
 90
        0
 91
        4
280
     0
281
     0
  0
CLASS
  1
VISUALSTYLE
  2
AcDbVisualStyle
  3
ObjectDBX Classes
 90
     4095
 91
        4
280
     0
281
     0
  0
CLASS
  1
MATERIAL
  2
AcDbMaterial
  3
ObjectDBX Classes
 90
     1153
 91
        4
280
     0
281
     0
  0
CLASS
  1
SUN
  2
AcDbSun
  3
SCENEOE
 90
     1024
 91
        4
280
     0
281
     0
  0
ENDSEC
  0
SECTION
  2
TABLES
  0
TABLE
  2
VPORT
  5
8
330
0
100
AcDbSymbolTable
 70
     1
  0
VPORT
  5
29
330
8
100
AcDbSymbolTableRecord
100
AcDbViewportTableRecord
  2
*Active
 70
     0
 10
0.0
 20
0.0
 11
1.0
 21
1.0
 12
0.0
 22
0.0
 13
0.0
 23
0.0
 14
0.5
 24
0.5
 15
0.5
 25
0.5
 16
0.0
 26
0.0
 36
1.0
 17
91.00082462281999
 27
-128.4993055234307
 37
0.0
 40
256.9986110468615
 41
0.7081814508812795
 42
50.0
 43
0.0
 44
0.0
 50
0.0
 51
0.0
 71
     0
 72
   100
 73
     1
 74
     3
 75
     0
 76
     0
 77
     0
 78
     0
281
     0
 65
     1
110
0.0
120
0.0
130
0.0
111
1.0
121
0.0
131
0.0
112
0.0
122
1.0
132
0.0
 79
     0
146
0.0
 60
     3
 61
     5
292
     1
282
     1
141
0.0
142
0.0
 63
   250
361
3F
  0
ENDTAB
  0
TABLE
  2
LTYPE
  5
5
330
0
100
AcDbSymbolTable
 70
     1
  0
LTYPE
  5
14
330
5
100
AcDbSymbolTableRecord
100
AcDbLinetypeTableRecord
  2
ByBlock
 70
     0
  3

 72
    65
 73
     0
 40
0.0
  0
LTYPE
  5
15
330
5
100
AcDbSymbolTableRecord
100
AcDbLinetypeTableRecord
  2
ByLayer
 70
     0
  3

 72
    65
 73
     0
 40
0.0
  0
LTYPE
  5
16
330
5
100
AcDbSymbolTableRecord
100
AcDbLinetypeTableRecord
  2
Continuous
 70
     0
  3
Solid line
 72
    65
 73
     0
 40
0.0
  0
ENDTAB
  0
TABLE
  2
LAYER
  5
2
330
0
100
AcDbSymbolTable
 70
     2
  0
LAYER
  5
10
330
2
100
AcDbSymbolTableRecord
100
AcDbLayerTableRecord
  2
0
 70
     0
 62
     7
  6
Continuous
370
    -3
390
F
347
3E
  0
LAYER
  5
40
330
2
100
AcDbSymbolTableRecord
100
AcDbLayerTableRecord
  2
_U+30EC_U+30A4_U+30E4_U+30FC 1
 70
     0
 62
     7
  6
Continuous
370
    -3
390
F
347
3E
  0
ENDTAB
  0
TABLE
  2
STYLE
  5
3
330
0
100
AcDbSymbolTable
 70
     1
  0
STYLE
  5
11
330
3
100
AcDbSymbolTableRecord
100
AcDbTextStyleTableRecord
  2
Standard
 70
     0
 40
0.0
 41
1.0
 50
0.0
 71
     0
 42
0.2
  3
txt
  4

  0
ENDTAB
  0
TABLE
  2
VIEW
  5
6
330
0
100
AcDbSymbolTable
 70
     0
  0
ENDTAB
  0
TABLE
  2
UCS
  5
7
330
0
100
AcDbSymbolTable
 70
     0
  0
ENDTAB
  0
TABLE
  2
APPID
  5
9
330
0
100
AcDbSymbolTable
 70
     1
  0
APPID
  5
12
330
9
100
AcDbSymbolTableRecord
100
AcDbRegAppTableRecord
  2
ACAD
 70
     0
  0
ENDTAB
  0
TABLE
  2
DIMSTYLE
  5
A
330
0
100
AcDbSymbolTable
 70
     1
100
AcDbDimStyleTable
  0
DIMSTYLE
105
27
330
A
100
AcDbSymbolTableRecord
100
AcDbDimStyleTableRecord
  2
Standard
 70
     0
178
     0
340
11
  0
ENDTAB
  0
TABLE
  2
BLOCK_RECORD
  5
1
330
0
100
AcDbSymbolTable
 70
     6
  0
BLOCK_RECORD
  5
1F
330
1
100
AcDbSymbolTableRecord
100
AcDbBlockTableRecord
  2
*Model_Space
340
22
 70
     0
280
     1
281
     0
  0
BLOCK_RECORD
  5
1B
330
1
100
AcDbSymbolTableRecord
100
AcDbBlockTableRecord
  2
*Paper_Space
340
1E
 70
     0
280
     1
281
     0
  0
BLOCK_RECORD
  5
23
330
1
100
AcDbSymbolTableRecord
100
AcDbBlockTableRecord
  2
*Paper_Space0
340
26
 70
     0
280
     1
281
     0
  0
BLOCK_RECORD
  5
59
330
1
100
AcDbSymbolTableRecord
100
AcDbBlockTableRecord
  2
block 2
340
0
102
{BLKREFS
331
5A
102
}
 70
     0
280
     1
281
     0
  0
BLOCK_RECORD
  5
6D
330
1
100
AcDbSymbolTableRecord
100
AcDbBlockTableRecord
  2
block 3
340
0
102
{BLKREFS
331
6E
102
}
 70
     0
280
     1
281
     0
  0
BLOCK_RECORD
  5
8A
330
1
100
AcDbSymbolTableRecord
100
AcDbBlockTableRecord
  2
block 4
340
0
102
{BLKREFS
331
8B
102
}
 70
     0
280
     1
281
     0
  0
BLOCK_RECORD
  5
A5
330
1
100
AcDbSymbolTableRecord
100
AcDbBlockTableRecord
  2
block 5
340
0
102
{BLKREFS
331
A6
102
}
 70
     0
280
     1
281
     0
  0
BLOCK_RECORD
  5
C1
330
1
100
AcDbSymbolTableRecord
100
AcDbBlockTableRecord
  2
block 6
340
0
102
{BLKREFS
331
C2
102
}
 70
     0
280
     1
281
     0
  0
ENDTAB
  0
ENDSEC
  0
SECTION
  2
BLOCKS
  0
BLOCK
  5
20
330
1F
100
AcDbEntity
  8
0
100
AcDbBlockBegin
  2
*Model_Space
 70
     0
 10
0.0
 20
0.0
 30
0.0
  3
*Model_Space
  1

  0
ENDBLK
  5
21
330
1F
100
AcDbEntity
  8
0
100
AcDbBlockEnd
  0
BLOCK
  5
1C
330
1B
100
AcDbEntity
 67
     1
  8
0
100
AcDbBlockBegin
  2
*Paper_Space
 70
     0
 10
0.0
 20
0.0
 30
0.0
  3
*Paper_Space
  1

  0
ENDBLK
  5
1D
330
1B
100
AcDbEntity
 67
     1
  8
0
100
AcDbBlockEnd
  0
BLOCK
  5
24
330
23
100
AcDbEntity
  8
0
100
AcDbBlockBegin
  2
*Paper_Space0
 70
     0
 10
0.0
 20
0.0
 30
0.0
  3
*Paper_Space0
  1

  0
ENDBLK
  5
25
330
23
100
AcDbEntity
  8
0
100
AcDbBlockEnd
  0
BLOCK
  5
5B
330
59
100
AcDbEntity
  8
0
100
AcDbBlockBegin
  2
block 2
 70
     0
 10
0.0
 20
0.0
 30
0.0
  3
block 2
  1

  0
SPLINE
  5
5D
330
59
100
AcDbEntity
  8
_U+30EC_U+30A4_U+30E4_U+30FC 1
370
     0
100
AcDbSpline
210
0.0
220
0.0
230
1.0
 70
    11
 71
     3
 72
    29
 73
    25
 74
     0
 42
0.0000000001
 43
0.0000000001
 12
1.0
 22
0.0
 32
0.0
 13
1.0
 23
0.0
 33
0.0
 40
0.0
 40
0.0
 40
0.0
 40
0.0
 40
1.0
 40
1.0
 40
1.0
 40
2.0
 40
2.0
 40
2.0
 40
3.0
 40
3.0
 40
3.0
 40
4.0
 40
4.0
 40
4.0
 40
5.0
 40
5.0
 40
5.0
 40
6.0
 40
6.0
 40
6.0
 40
7.0
 40
7.0
 40
7.0
 40
8.0
 40
8.0
 40
8.0
 40
8.0
 10
100.8296766240981
 20
-122.1336303405603
 30
0.0
 10
100.5451117370165
 20
-122.1336303405603
 30
0.0
 10
100.2736382127788
 20
-121.9959987759246
 30
0.0
 10
100.2736382127788
 20
-121.6470106032688
 30
0.0
 10
100.2736382127788
 20
-121.3910400087147
 30
0.0
 10
100.4252224141298
 20
-121.2957831185476
 30
0.0
 10
100.538221546046
 20
-121.2344604189101
 30
0.0
 10
100.4048963507668
 20
-121.1752047765638
 30
0.0
 10
100.3232475877664
 20
-121.0609998612278
 30
0.0
 10
100.3232475877664
 20
-120.9002861568409
 30
0.0
 10
100.3232475877664
 20
-120.6251952823437
 30
0.0
 10
100.5358099792063
 20
-120.4898030297734
 30
0.0
 10
100.8296766240981
 20
-120.4898030297734
 30
0.0
 10
101.1328450268001
 20
-120.4898030297734
 30
0.0
 10
101.3361056604299
 20
-120.6336357662826
 30
0.0
 10
101.3361056604299
 20
-120.9002861568409
 30
0.0
 10
101.3361056604299
 20
-121.0609998612278
 30
0.0
 10
101.2527343496868
 20
-121.1752047765638
 30
0.0
 10
101.1190646448591
 20
-121.2344604189101
 30
0.0
 10
101.214149280252
 20
-121.2852755773176
 30
0.0
 10
101.3836479781263
 20
-121.3805324674847
 30
0.0
 10
101.3836479781263
 20
-121.6428764886865
 30
0.0
 10
101.3836479781263
 20
-122.0171861131589
 30
0.0
 10
101.0853027091037
 20
-122.1336303405603
 30
0.0
 10
100.8296766240981
 20
-122.1336303405603
 30
0.0
  0
SPLINE
  5
5E
330
59
100
AcDbEntity
  8
_U+30EC_U+30A4_U+30E4_U+30FC 1
370
     0
100
AcDbSpline
210
0.0
220
0.0
230
1.0
 70
    11
 71
     3
 72
    17
 73
    13
 74
     0
 42
0.0000000001
 43
0.0000000001
 12
1.0
 22
0.0
 32
0.0
 13
1.0
 23
0.0
 33
0.0
 40
0.0
 40
0.0
 40
0.0
 40
0.0
 40
1.0
 40
1.0
 40
1.0
 40
2.0
 40
2.0
 40
2.0
 40
3.0
 40
3.0
 40
3.0
 40
4.0
 40
4.0
 40
4.0
 40
4.0
 10
100.8296766240981
 20
-121.3424641623727
 30
0.0
 10
100.676025365456
 20
-121.3424641623727
 30
0.0
 10
100.5134168585522
 20
-121.4291083138268
 30
0.0
 10
100.5134168585522
 20
-121.6321966926822
 30
0.0
 10
100.5134168585522
 20
-121.8373521288289
 30
0.0
 10
100.6488091111225
 20
-121.9389824456437
 30
0.0
 10
100.8296766240981
 20
-121.9389824456437
 30
0.0
 10
101.0288031431456
 20
-121.9389824456437
 30
0.0
 10
101.1462808991926
 20
-121.8163370463688
 30
0.0
 10
101.1462808991926
 20
-121.6385701193299
 30
0.0
 10
101.1462808991926
 20
-121.4163614605313
 30
0.0
 10
100.9723035771875
 20
-121.3424641623727
 30
0.0
 10
100.8296766240981
 20
-121.3424641623727
 30
0.0
  0
SPLINE
  5
5F
330
59
100
AcDbEntity
  8
_U+30EC_U+30A4_U+30E4_U+30FC 1
370
     0
100
AcDbSpline
210
0.0
220
0.0
230
1.0
 70
    11
 71
     3
 72
    17
 73
    13
 74
     0
 42
0.0000000001
 43
0.0000000001
 12
1.0
 22
0.0
 32
0.0
 13
1.0
 23
0.0
 33
0.0
 40
0.0
 40
0.0
 40
0.0
 40
0.0
 40
1.0
 40
1.0
 40
1.0
 40
2.0
 40
2.0
 40
2.0
 40
3.0
 40
3.0
 40
3.0
 40
4.0
 40
4.0
 40
4.0
 40
4.0
 10
100.8296766240981
 20
-120.6823838673989
 30
0.0
 10
100.6532877352533
 20
-120.6823838673989
 30
0.0
 10
100.5630262335398
 20
-120.7774685027917
 30
0.0
 10
100.5630262335398
 20
-120.9128607553621
 30
0.0
 10
100.5630262335398
 20
-121.0356784094112
 30
0.0
 10
100.6398518628609
 20
-121.1541896941038
 30
0.0
 10
100.8296766240981
 20
-121.1541896941038
 30
0.0
 10
101.0198458948839
 20
-121.1541896941038
 30
0.0
 10
101.096671524205
 20
-121.0356784094112
 30
0.0
 10
101.096671524205
 20
-120.9128607553621
 30
0.0
 10
101.096671524205
 20
-120.7774685027917
 30
0.0
 10
101.0039984556518
 20
-120.6823838673989
 30
0.0
 10
100.8296766240981
 20
-120.6823838673989
 30
0.0
  0
HATCH
  5
60
330
59
100
AcDbEntity
  8
_U+30EC_U+30A4_U+30E4_U+30FC 1
 62
   179
420
  2234388
100
AcDbHatch
 10
0.0
 20
0.0
 30
0.0
210
0.0
220
0.0
230
1.0
  2
SOLID
 70
     1
 71
     0
 91
        3
 92
        1
 93
        1
 72
     4
 94
        3
 73
     0
 74
     1
 95
       29
 96
       25
 40
0.0
 40
0.0
 40
0.0
 40
0.0
 40
1.0
 40
1.0
 40
1.0
 40
2.0
 40
2.0
 40
2.0
 40
3.0
 40
3.0
 40
3.0
 40
4.0
 40
4.0
 40
4.0
 40
5.0
 40
5.0
 40
5.0
 40
6.0
 40
6.0
 40
6.0
 40
7.0
 40
7.0
 40
7.0
 40
8.0
 40
8.0
 40
8.0
 40
8.0
 10
100.8296766240981
 20
-122.1336303405603
 10
100.5451117370165
 20
-122.1336303405603
 10
100.2736382127788
 20
-121.9959987759246
 10
100.2736382127788
 20
-121.6470106032688
 10
100.2736382127788
 20
-121.3910400087147
 10
100.4252224141298
 20
-121.2957831185476
 10
100.538221546046
 20
-121.2344604189101
 10
100.4048963507668
 20
-121.1752047765638
 10
100.3232475877664
 20
-121.0609998612278
 10
100.3232475877664
 20
-120.9002861568409
 10
100.3232475877664
 20
-120.6251952823437
 10
100.5358099792063
 20
-120.4898030297734
 10
100.8296766240981
 20
-120.4898030297734
 10
101.1328450268001
 20
-120.4898030297734
 10
101.3361056604299
 20
-120.6336357662826
 10
101.3361056604299
 20
-120.9002861568409
 10
101.3361056604299
 20
-121.0609998612278
 10
101.2527343496868
 20
-121.1752047765638
 10
101.1190646448591
 20
-121.2344604189101
 10
101.214149280252
 20
-121.2852755773176
 10
101.3836479781263
 20
-121.3805324674847
 10
101.3836479781263
 20
-121.6428764886865
 10
101.3836479781263
 20
-122.0171861131589
 10
101.0853027091037
 20
-122.1336303405603
 10
100.8296766240981
 20
-122.1336303405603
 97
        0
 97
        0
 92
        1
 93
        1
 72
     4
 94
        3
 73
     0
 74
     1
 95
       17
 96
       13
 40
0.0
 40
0.0
 40
0.0
 40
0.0
 40
1.0
 40
1.0
 40
1.0
 40
2.0
 40
2.0
 40
2.0
 40
3.0
 40
3.0
 40
3.0
 40
4.0
 40
4.0
 40
4.0
 40
4.0
 10
100.8296766240981
 20
-121.3424641623727
 10
100.676025365456
 20
-121.3424641623727
 10
100.5134168585522
 20
-121.4291083138268
 10
100.5134168585522
 20
-121.6321966926822
 10
100.5134168585522
 20
-121.8373521288289
 10
100.6488091111225
 20
-121.9389824456437
 10
100.8296766240981
 20
-121.9389824456437
 10
101.0288031431456
 20
-121.9389824456437
 10
101.1462808991926
 20
-121.8163370463688
 10
101.1462808991926
 20
-121.6385701193299
 10
101.1462808991926
 20
-121.4163614605313
 10
100.9723035771875
 20
-121.3424641623727
 10
100.8296766240981
 20
-121.3424641623727
 97
        0
 97
        0
 92
        1
 93
        1
 72
     4
 94
        3
 73
     0
 74
     1
 95
       17
 96
       13
 40
0.0
 40
0.0
 40
0.0
 40
0.0
 40
1.0
 40
1.0
 40
1.0
 40
2.0
 40
2.0
 40
2.0
 40
3.0
 40
3.0
 40
3.0
 40
4.0
 40
4.0
 40
4.0
 40
4.0
 10
100.8296766240981
 20
-120.6823838673989
 10
100.6532877352533
 20
-120.6823838673989
 10
100.5630262335398
 20
-120.7774685027917
 10
100.5630262335398
 20
-120.9128607553621
 10
100.5630262335398
 20
-121.0356784094112
 10
100.6398518628609
 20
-121.1541896941038
 10
100.8296766240981
 20
-121.1541896941038
 10
101.0198458948839
 20
-121.1541896941038
 10
101.096671524205
 20
-121.0356784094112
 10
101.096671524205
 20
-120.9128607553621
 10
101.096671524205
 20
-120.7774685027917
 10
101.0039984556518
 20
-120.6823838673989
 10
100.8296766240981
 20
-120.6823838673989
 97
        0
 97
        0
 75
     2
 76
     1
 98
        0
  0
ENDBLK
  5
5C
330
59
100
AcDbEntity
  8
0
100
AcDbBlockEnd
  0
BLOCK
  5
6F
330
6D
100
AcDbEntity
  8
0
100
AcDbBlockBegin
  2
block 3
 70
     0
 10
0.0
 20
0.0
 30
0.0
  3
block 3
  1

  0
SPLINE
  5
71
330
6D
100
AcDbEntity
  8
_U+30EC_U+30A4_U+30E4_U+30FC 1
370
     0
100
AcDbSpline
210
0.0
220
0.0
230
1.0
 70
    11
 71
     3
 72
    32
 73
    28
 74
     0
 42
0.0000000001
 43
0.0000000001
 12
1.0
 22
0.0
 32
0.0
 13
1.0
 23
0.0
 33
0.0
 40
0.0
 40
0.0
 40
0.0
 40
0.0
 40
1.0
 40
1.0
 40
1.0
 40
2.0
 40
2.0
 40
2.0
 40
3.0
 40
3.0
 40
3.0
 40
4.0
 40
4.0
 40
4.0
 40
5.0
 40
5.0
 40
5.0
 40
6.0
 40
6.0
 40
6.0
 40
7.0
 40
7.0
 40
7.0
 40
8.0
 40
8.0
 40
8.0
 40
9.0
 40
9.0
 40
9.0
 40
9.0
 10
91.76769745969698
 20
-119.4993380777641
 30
0.0
 10
91.21596541773421
 20
-119.4993380777641
 30
0.0
 10
91.20700816947256
 20
-118.9453667237359
 30
0.0
 10
91.20700816947256
 20
-118.7314262941019
 30
0.0
 10
91.20700816947256
 20
-118.5009494061387
 30
0.0
 10
91.22733423283553
 20
-117.8536159644602
 30
0.0
 10
91.80869409597145
 20
-117.8536159644602
 30
0.0
 10
91.99404023307788
 20
-117.8536159644602
 30
0.0
 10
92.2562119995054
 20
-117.9233791480365
 30
0.0
 10
92.29686412623134
 20
-118.2556586075889
 30
0.0
 10
92.29686412623134
 20
-118.2556586075889
 30
0.0
 10
92.06845429555928
 20
-118.2556586075889
 30
0.0
 10
92.06845429555928
 20
-118.2556586075889
 30
0.0
 10
92.05708548045796
 20
-118.1984700225337
 30
0.0
 10
92.0233235447025
 20
-118.050330916668
 30
0.0
 10
91.80628252913176
 20
-118.050330916668
 30
0.0
 10
91.49415687816813
 20
-118.050330916668
 30
0.0
 10
91.45143769415104
 20
-118.3783040068638
 30
0.0
 10
91.43765731221004
 20
-118.5832871882361
 30
0.0
 10
91.53722057173376
 20
-118.505083520721
 30
0.0
 10
91.60956757692401
 20
-118.4458278783747
 30
0.0
 10
91.80421547184062
 20
-118.4458278783747
 30
0.0
 10
91.99610729036904
 20
-118.4458278783747
 30
0.0
 10
92.319601756434
 20
-118.5540038766115
 30
0.0
 10
92.319601756434
 20
-118.9601806343225
 30
0.0
 10
92.319601756434
 20
-119.2795409858051
 30
0.0
 10
92.10703936499408
 20
-119.4993380777641
 30
0.0
 10
91.76769745969698
 20
-119.4993380777641
 30
0.0
  0
SPLINE
  5
72
330
6D
100
AcDbEntity
  8
_U+30EC_U+30A4_U+30E4_U+30FC 1
370
     0
100
AcDbSpline
210
0.0
220
0.0
230
1.0
 70
    11
 71
     3
 72
    17
 73
    13
 74
     0
 42
0.0000000001
 43
0.0000000001
 12
1.0
 22
0.0
 32
0.0
 13
1.0
 23
0.0
 33
0.0
 40
0.0
 40
0.0
 40
0.0
 40
0.0
 40
1.0
 40
1.0
 40
1.0
 40
2.0
 40
2.0
 40
2.0
 40
3.0
 40
3.0
 40
3.0
 40
4.0
 40
4.0
 40
4.0
 40
4.0
 10
91.78595646576879
 20
-118.6404757732913
 30
0.0
 10
91.50552569326946
 20
-118.6404757732913
 30
0.0
 10
91.4648735665435
 20
-118.8520046360856
 30
0.0
 10
91.4648735665435
 20
-118.9684488634871
 30
0.0
 10
91.4648735665435
 20
-119.1441487332348
 30
0.0
 10
91.56650388335838
 20
-119.3071017496871
 30
0.0
 10
91.76321883556615
 20
-119.3071017496871
 30
0.0
 10
91.8920654067145
 20
-119.3071017496871
 30
0.0
 10
92.0798231106606
 20
-119.2478461073408
 30
0.0
 10
92.0798231106606
 20
-118.9622476916136
 30
0.0
 10
92.0798231106606
 20
-118.7379719755238
 30
0.0
 10
91.93065047614928
 20
-118.6404757732913
 30
0.0
 10
91.78595646576879
 20
-118.6404757732913
 30
0.0
  0
HATCH
  5
73
330
6D
100
AcDbEntity
  8
_U+30EC_U+30A4_U+30E4_U+30FC 1
 62
   179
420
  2234388
100
AcDbHatch
 10
0.0
 20
0.0
 30
0.0
210
0.0
220
0.0
230
1.0
  2
SOLID
 70
     1
 71
     0
 91
        2
 92
        1
 93
        1
 72
     4
 94
        3
 73
     0
 74
     1
 95
       32
 96
       28
 40
0.0
 40
0.0
 40
0.0
 40
0.0
 40
1.0
 40
1.0
 40
1.0
 40
2.0
 40
2.0
 40
2.0
 40
3.0
 40
3.0
 40
3.0
 40
4.0
 40
4.0
 40
4.0
 40
5.0
 40
5.0
 40
5.0
 40
6.0
 40
6.0
 40
6.0
 40
7.0
 40
7.0
 40
7.0
 40
8.0
 40
8.0
 40
8.0
 40
9.0
 40
9.0
 40
9.0
 40
9.0
 10
91.76769745969698
 20
-119.4993380777641
 10
91.21596541773421
 20
-119.4993380777641
 10
91.20700816947256
 20
-118.9453667237359
 10
91.20700816947256
 20
-118.7314262941019
 10
91.20700816947256
 20
-118.5009494061387
 10
91.22733423283553
 20
-117.8536159644602
 10
91.80869409597145
 20
-117.8536159644602
 10
91.99404023307788
 20
-117.8536159644602
 10
92.2562119995054
 20
-117.9233791480365
 10
92.29686412623134
 20
-118.2556586075889
 10
92.29686412623134
 20
-118.2556586075889
 10
92.06845429555928
 20
-118.2556586075889
 10
92.06845429555928
 20
-118.2556586075889
 10
92.05708548045796
 20
-118.1984700225337
 10
92.0233235447025
 20
-118.050330916668
 10
91.80628252913176
 20
-118.050330916668
 10
91.49415687816813
 20
-118.050330916668
 10
91.45143769415104
 20
-118.3783040068638
 10
91.43765731221004
 20
-118.5832871882361
 10
91.53722057173376
 20
-118.505083520721
 10
91.60956757692401
 20
-118.4458278783747
 10
91.80421547184062
 20
-118.4458278783747
 10
91.99610729036904
 20
-118.4458278783747
 10
92.319601756434
 20
-118.5540038766115
 10
92.319601756434
 20
-118.9601806343225
 10
92.319601756434
 20
-119.2795409858051
 10
92.10703936499408
 20
-119.4993380777641
 10
91.76769745969698
 20
-119.4993380777641
 97
        0
 97
        0
 92
        1
 93
        1
 72
     4
 94
        3
 73
     0
 74
     1
 95
       17
 96
       13
 40
0.0
 40
0.0
 40
0.0
 40
0.0
 40
1.0
 40
1.0
 40
1.0
 40
2.0
 40
2.0
 40
2.0
 40
3.0
 40
3.0
 40
3.0
 40
4.0
 40
4.0
 40
4.0
 40
4.0
 10
91.78595646576879
 20
-118.6404757732913
 10
91.50552569326946
 20
-118.6404757732913
 10
91.4648735665435
 20
-118.8520046360856
 10
91.4648735665435
 20
-118.9684488634871
 10
91.4648735665435
 20
-119.1441487332348
 10
91.56650388335838
 20
-119.3071017496871
 10
91.76321883556615
 20
-119.3071017496871
 10
91.8920654067145
 20
-119.3071017496871
 10
92.0798231106606
 20
-119.2478461073408
 10
92.0798231106606
 20
-118.9622476916136
 10
92.0798231106606
 20
-118.7379719755238
 10
91.93065047614928
 20
-118.6404757732913
 10
91.78595646576879
 20
-118.6404757732913
 97
        0
 97
        0
 75
     2
 76
     1
 98
        0
  0
POLYLINE
  5
74
330
6D
100
AcDbEntity
  8
_U+30EC_U+30A4_U+30E4_U+30FC 1
370
     0
100
AcDb2dPolyline
 66
     1
 10
0.0
 20
0.0
 30
0.0
  0
VERTEX
  5
75
330
74
100
AcDbEntity
  8
_U+30EC_U+30A4_U+30E4_U+30FC 1
370
     0
100
AcDbVertex
100
AcDb2dVertex
 10
92.55076766349426
 20
-119.4486951741309
 30
0.0
  0
VERTEX
  5
76
330
74
100
AcDbEntity
  8
_U+30EC_U+30A4_U+30E4_U+30FC 1
370
     0
100
AcDbVertex
100
AcDb2dVertex
 10
92.55076766349426
 20
-119.1968586941591
 30
0.0
  0
VERTEX
  5
77
330
74
100
AcDbEntity
  8
_U+30EC_U+30A4_U+30E4_U+30FC 1
370
     0
100
AcDbVertex
100
AcDb2dVertex
 10
92.81982962089226
 20
-119.1968586941591
 30
0.0
  0
VERTEX
  5
78
330
74
100
AcDbEntity
  8
_U+30EC_U+30A4_U+30E4_U+30FC 1
370
     0
100
AcDbVertex
100
AcDb2dVertex
 10
92.81982962089226
 20
-119.4486951741309
 30
0.0
  0
VERTEX
  5
79
330
74
100
AcDbEntity
  8
_U+30EC_U+30A4_U+30E4_U+30FC 1
370
     0
100
AcDbVertex
100
AcDb2dVertex
 10
92.55076766349426
 20
-119.4486951741309
 30
0.0
  0
SEQEND
  5
7A
330
74
100
AcDbEntity
  8
_U+30EC_U+30A4_U+30E4_U+30FC 1
370
     0
  0
HATCH
  5
7B
330
6D
100
AcDbEntity
  8
_U+30EC_U+30A4_U+30E4_U+30FC 1
 62
   179
420
  2234388
100
AcDbHatch
 10
0.0
 20
0.0
 30
0.0
210
0.0
220
0.0
230
1.0
  2
SOLID
 70
     1
 71
     0
 91
        1
 92
        1
 93
        4
 72
     1
 10
92.55076766349426
 20
-119.4486951741309
 11
92.55076766349426
 21
-119.1968586941591
 72
     1
 10
92.55076766349426
 20
-119.1968586941591
 11
92.81982962089226
 21
-119.1968586941591
 72
     1
 10
92.81982962089226
 20
-119.1968586941591
 11
92.81982962089226
 21
-119.4486951741309
 72
     1
 10
92.81982962089226
 20
-119.4486951741309
 11
92.55076766349426
 21
-119.4486951741309
 97
        0
 75
     2
 76
     1
 98
        0
  0
SPLINE
  5
7C
330
6D
100
AcDbEntity
  8
_U+30EC_U+30A4_U+30E4_U+30FC 1
370
     0
100
AcDbSpline
210
0.0
220
0.0
230
1.0
 70
    11
 71
     3
 72
    53
 73
    49
 74
     0
 42
0.0000000001
 43
0.0000000001
 12
1.0
 22
0.0
 32
0.0
 13
1.0
 23
0.0
 33
0.0
 40
0.0
 40
0.0
 40
0.0
 40
0.0
 40
1.0
 40
1.0
 40
1.0
 40
2.0
 40
2.0
 40
2.0
 40
3.0
 40
3.0
 40
3.0
 40
4.0
 40
4.0
 40
4.0
 40
5.0
 40
5.0
 40
5.0
 40
6.0
 40
6.0
 40
6.0
 40
7.0
 40
7.0
 40
7.0
 40
8.0
 40
8.0
 40
8.0
 40
9.0
 40
9.0
 40
9.0
 40
10.0
 40
10.0
 40
10.0
 40
11.0
 40
11.0
 40
11.0
 40
12.0
 40
12.0
 40
12.0
 40
13.0
 40
13.0
 40
13.0
 40
14.0
 40
14.0
 40
14.0
 40
15.0
 40
15.0
 40
15.0
 40
16.0
 40
16.0
 40
16.0
 40
16.0
 10
93.58670787590889
 20
-119.4993380777641
 30
0.0
 10
93.50333656516584
 20
-119.4993380777641
 30
0.0
 10
93.39447154783194
 20
-119.4824571098863
 30
0.0
 10
93.2862955495951
 20
-119.4190673529577
 30
0.0
 10
93.10060490294013
 20
-119.3091688069783
 30
0.0
 10
93.078211782286
 20
-119.1779106689903
 30
0.0
 10
93.05788571892303
 20
-119.0700791803019
 30
0.0
 10
93.05788571892303
 20
-119.0700791803019
 30
0.0
 10
93.29525279785675
 20
-119.0700791803019
 30
0.0
 10
93.29525279785675
 20
-119.0700791803019
 30
0.0
 10
93.353819421106
 20
-119.2688611898008
 30
0.0
 10
93.48955618322483
 20
-119.298489010974
 30
0.0
 10
93.58911944274855
 20
-119.298489010974
 30
0.0
 10
93.73829207725987
 20
-119.298489010974
 30
0.0
 10
93.90090058416367
 20
-119.1989257514503
 30
0.0
 10
93.90090058416367
 20
-118.9663818061959
 30
0.0
 10
93.90090058416367
 20
-118.7104112116418
 30
0.0
 10
93.70900876563525
 20
-118.6404757732913
 30
0.0
 10
93.5801621944869
 20
-118.6404757732913
 30
0.0
 10
93.54605574918294
 20
-118.6404757732913
 30
0.0
 10
93.39447154783194
 20
-118.6404757732913
 30
0.0
 10
93.29973142198757
 20
-118.7696668539881
 30
0.0
 10
93.29973142198757
 20
-118.7696668539881
 30
0.0
 10
93.11197371804145
 20
-118.7507188288193
 30
0.0
 10
93.11197371804145
 20
-118.7507188288193
 30
0.0
 10
93.11197371804145
 20
-118.7507188288193
 30
0.0
 10
93.2408202891898
 20
-117.9044311228676
 30
0.0
 10
93.2408202891898
 20
-117.9044311228676
 30
0.0
 10
93.2408202891898
 20
-117.9044311228676
 30
0.0
 10
94.07281084887764
 20
-117.9044311228676
 30
0.0
 10
94.07281084887764
 20
-117.9044311228676
 30
0.0
 10
94.07281084887764
 20
-117.9044311228676
 30
0.0
 10
94.07281084887764
 20
-118.09890676301
 30
0.0
 10
94.07281084887764
 20
-118.09890676301
 30
0.0
 10
94.07281084887764
 20
-118.09890676301
 30
0.0
 10
93.41514212074344
 20
-118.09890676301
 30
0.0
 10
93.41514212074344
 20
-118.09890676301
 30
0.0
 10
93.41514212074344
 20
-118.09890676301
 30
0.0
 10
93.34486217284434
 20
-118.5219644885987
 30
0.0
 10
93.34486217284434
 20
-118.5219644885987
 30
0.0
 10
93.41031898706409
 20
-118.4882025528432
 30
0.0
 10
93.49851343148649
 20
-118.4478949356658
 30
0.0
 10
93.62529294534369
 20
-118.4478949356658
 30
0.0
 10
93.89642196003284
 20
-118.4478949356658
 30
0.0
 10
94.1496364781987
 20
-118.6342746014178
 30
0.0
 10
94.1496364781987
 20
-118.947433781027
 30
0.0
 10
94.1496364781987
 20
-119.2647270752185
 30
0.0
 10
93.91020234197384
 20
-119.4993380777641
 30
0.0
 10
93.58670787590889
 20
-119.4993380777641
 30
0.0
  0
HATCH
  5
7D
330
6D
100
AcDbEntity
  8
_U+30EC_U+30A4_U+30E4_U+30FC 1
 62
   179
420
  2234388
100
AcDbHatch
 10
0.0
 20
0.0
 30
0.0
210
0.0
220
0.0
230
1.0
  2
SOLID
 70
     1
 71
     0
 91
        1
 92
        1
 93
        1
 72
     4
 94
        3
 73
     0
 74
     1
 95
       53
 96
       49
 40
0.0
 40
0.0
 40
0.0
 40
0.0
 40
1.0
 40
1.0
 40
1.0
 40
2.0
 40
2.0
 40
2.0
 40
3.0
 40
3.0
 40
3.0
 40
4.0
 40
4.0
 40
4.0
 40
5.0
 40
5.0
 40
5.0
 40
6.0
 40
6.0
 40
6.0
 40
7.0
 40
7.0
 40
7.0
 40
8.0
 40
8.0
 40
8.0
 40
9.0
 40
9.0
 40
9.0
 40
10.0
 40
10.0
 40
10.0
 40
11.0
 40
11.0
 40
11.0
 40
12.0
 40
12.0
 40
12.0
 40
13.0
 40
13.0
 40
13.0
 40
14.0
 40
14.0
 40
14.0
 40
15.0
 40
15.0
 40
15.0
 40
16.0
 40
16.0
 40
16.0
 40
16.0
 10
93.58670787590889
 20
-119.4993380777641
 10
93.50333656516584
 20
-119.4993380777641
 10
93.39447154783194
 20
-119.4824571098863
 10
93.2862955495951
 20
-119.4190673529577
 10
93.10060490294013
 20
-119.3091688069783
 10
93.078211782286
 20
-119.1779106689903
 10
93.05788571892303
 20
-119.0700791803019
 10
93.05788571892303
 20
-119.0700791803019
 10
93.29525279785675
 20
-119.0700791803019
 10
93.29525279785675
 20
-119.0700791803019
 10
93.353819421106
 20
-119.2688611898008
 10
93.48955618322483
 20
-119.298489010974
 10
93.58911944274855
 20
-119.298489010974
 10
93.73829207725987
 20
-119.298489010974
 10
93.90090058416367
 20
-119.1989257514503
 10
93.90090058416367
 20
-118.9663818061959
 10
93.90090058416367
 20
-118.7104112116418
 10
93.70900876563525
 20
-118.6404757732913
 10
93.5801621944869
 20
-118.6404757732913
 10
93.54605574918294
 20
-118.6404757732913
 10
93.39447154783194
 20
-118.6404757732913
 10
93.29973142198757
 20
-118.7696668539881
 10
93.29973142198757
 20
-118.7696668539881
 10
93.11197371804145
 20
-118.7507188288193
 10
93.11197371804145
 20
-118.7507188288193
 10
93.11197371804145
 20
-118.7507188288193
 10
93.2408202891898
 20
-117.9044311228676
 10
93.2408202891898
 20
-117.9044311228676
 10
93.2408202891898
 20
-117.9044311228676
 10
94.07281084887764
 20
-117.9044311228676
 10
94.07281084887764
 20
-117.9044311228676
 10
94.07281084887764
 20
-117.9044311228676
 10
94.07281084887764
 20
-118.09890676301
 10
94.07281084887764
 20
-118.09890676301
 10
94.07281084887764
 20
-118.09890676301
 10
93.41514212074344
 20
-118.09890676301
 10
93.41514212074344
 20
-118.09890676301
 10
93.41514212074344
 20
-118.09890676301
 10
93.34486217284434
 20
-118.5219644885987
 10
93.34486217284434
 20
-118.5219644885987
 10
93.41031898706409
 20
-118.4882025528432
 10
93.49851343148649
 20
-118.4478949356658
 10
93.62529294534369
 20
-118.4478949356658
 10
93.89642196003284
 20
-118.4478949356658
 10
94.1496364781987
 20
-118.6342746014178
 10
94.1496364781987
 20
-118.947433781027
 10
94.1496364781987
 20
-119.2647270752185
 10
93.91020234197384
 20
-119.4993380777641
 10
93.58670787590889
 20
-119.4993380777641
 97
        0
 97
        0
 75
     2
 76
     1
 98
        0
  0
ENDBLK
  5
70
330
6D
100
AcDbEntity
  8
0
100
AcDbBlockEnd
  0
BLOCK
  5
8C
330
8A
100
AcDbEntity
  8
0
100
AcDbBlockBegin
  2
block 4
 70
     0
 10
0.0
 20
0.0
 30
0.0
  3
block 4
  1

  0
SPLINE
  5
8E
330
8A
100
AcDbEntity
  8
_U+30EC_U+30A4_U+30E4_U+30FC 1
370
     0
100
AcDbSpline
210
0.0
220
0.0
230
1.0
 70
    11
 71
     3
 72
    26
 73
    22
 74
     0
 42
0.0000000001
 43
0.0000000001
 12
1.0
 22
0.0
 32
0.0
 13
1.0
 23
0.0
 33
0.0
 40
0.0
 40
0.0
 40
0.0
 40
0.0
 40
1.0
 40
1.0
 40
1.0
 40
2.0
 40
2.0
 40
2.0
 40
3.0
 40
3.0
 40
3.0
 40
4.0
 40
4.0
 40
4.0
 40
5.0
 40
5.0
 40
5.0
 40
6.0
 40
6.0
 40
6.0
 40
7.0
 40
7.0
 40
7.0
 40
7.0
 10
83.69153236840003
 20
-131.2729518986054
 30
0.0
 10
83.69153236840003
 20
-131.2729518986054
 30
0.0
 10
82.58737926537746
 20
-131.2729518986054
 30
0.0
 10
82.58737926537746
 20
-131.2729518986054
 30
0.0
 10
82.58737926537746
 20
-131.2729518986054
 30
0.0
 10
82.58737926537746
 20
-131.6253851667464
 30
0.0
 10
82.58737926537746
 20
-131.6253851667464
 30
0.0
 10
82.58737926537746
 20
-131.6253851667464
 30
0.0
 10
82.43924015951173
 20
-131.6253851667464
 30
0.0
 10
82.43924015951173
 20
-131.6253851667464
 30
0.0
 10
82.42442624892514
 20
-131.2705403317657
 30
0.0
 10
82.26147323247282
 20
-131.2209309567781
 30
0.0
 10
82.14709606236254
 20
-131.1892360783138
 30
0.0
 10
82.14709606236254
 20
-131.1892360783138
 30
0.0
 10
82.14709606236254
 20
-131.033173252832
 30
0.0
 10
82.14709606236254
 20
-131.033173252832
 30
0.0
 10
82.14709606236254
 20
-131.033173252832
 30
0.0
 10
83.69153236840003
 20
-131.033173252832
 30
0.0
 10
83.69153236840003
 20
-131.033173252832
 30
0.0
 10
83.69153236840003
 20
-131.033173252832
 30
0.0
 10
83.69153236840003
 20
-131.2729518986054
 30
0.0
 10
83.69153236840003
 20
-131.2729518986054
 30
0.0
  0
HATCH
  5
8F
330
8A
100
AcDbEntity
  8
_U+30EC_U+30A4_U+30E4_U+30FC 1
 62
   179
420
  2234388
100
AcDbHatch
 10
0.0
 20
0.0
 30
0.0
210
0.0
220
0.0
230
1.0
  2
SOLID
 70
     1
 71
     0
 91
        1
 92
        1
 93
        1
 72
     4
 94
        3
 73
     0
 74
     1
 95
       26
 96
       22
 40
0.0
 40
0.0
 40
0.0
 40
0.0
 40
1.0
 40
1.0
 40
1.0
 40
2.0
 40
2.0
 40
2.0
 40
3.0
 40
3.0
 40
3.0
 40
4.0
 40
4.0
 40
4.0
 40
5.0
 40
5.0
 40
5.0
 40
6.0
 40
6.0
 40
6.0
 40
7.0
 40
7.0
 40
7.0
 40
7.0
 10
83.69153236840003
 20
-131.2729518986054
 10
83.69153236840003
 20
-131.2729518986054
 10
82.58737926537746
 20
-131.2729518986054
 10
82.58737926537746
 20
-131.2729518986054
 10
82.58737926537746
 20
-131.2729518986054
 10
82.58737926537746
 20
-131.6253851667464
 10
82.58737926537746
 20
-131.6253851667464
 10
82.58737926537746
 20
-131.6253851667464
 10
82.43924015951173
 20
-131.6253851667464
 10
82.43924015951173
 20
-131.6253851667464
 10
82.42442624892514
 20
-131.2705403317657
 10
82.26147323247282
 20
-131.2209309567781
 10
82.14709606236254
 20
-131.1892360783138
 10
82.14709606236254
 20
-131.1892360783138
 10
82.14709606236254
 20
-131.033173252832
 10
82.14709606236254
 20
-131.033173252832
 10
82.14709606236254
 20
-131.033173252832
 10
83.69153236840003
 20
-131.033173252832
 10
83.69153236840003
 20
-131.033173252832
 10
83.69153236840003
 20
-131.033173252832
 10
83.69153236840003
 20
-131.2729518986054
 10
83.69153236840003
 20
-131.2729518986054
 97
        0
 97
        0
 75
     2
 76
     1
 98
        0
  0
SPLINE
  5
90
330
8A
100
AcDbEntity
  8
_U+30EC_U+30A4_U+30E4_U+30FC 1
370
     0
100
AcDbSpline
210
0.0
220
0.0
230
1.0
 70
    11
 71
     3
 72
    29
 73
    25
 74
     0
 42
0.0000000001
 43
0.0000000001
 12
1.0
 22
0.0
 32
0.0
 13
1.0
 23
0.0
 33
0.0
 40
0.0
 40
0.0
 40
0.0
 40
0.0
 40
1.0
 40
1.0
 40
1.0
 40
2.0
 40
2.0
 40
2.0
 40
3.0
 40
3.0
 40
3.0
 40
4.0
 40
4.0
 40
4.0
 40
5.0
 40
5.0
 40
5.0
 40
6.0
 40
6.0
 40
6.0
 40
7.0
 40
7.0
 40
7.0
 40
8.0
 40
8.0
 40
8.0
 40
8.0
 10
83.51376544136114
 20
-129.5380018122336
 30
0.0
 10
83.72322724686434
 20
-129.6534125109894
 30
0.0
 10
83.74217527203321
 20
-129.8387586480959
 30
0.0
 10
83.74217527203321
 20
-129.9631265951134
 30
0.0
 10
83.74217527203321
 20
-130.1346923502788
 30
0.0
 10
83.69566648298233
 20
-130.2862765516298
 30
0.0
 10
83.51376544136114
 20
-130.3879068684447
 30
0.0
 10
83.31911754644453
 20
-130.4988389430697
 30
0.0
 10
83.08243948660787
 20
-130.5191650064327
 30
0.0
 10
82.91948647015555
 20
-130.5191650064327
 30
0.0
 10
82.77548147887211
 20
-130.5191650064327
 30
0.0
 10
82.52364499890034
 20
-130.5012505099094
 30
0.0
 10
82.32486298940142
 20
-130.3879068684447
 30
0.0
 10
82.12194686532021
 20
-130.2728406792374
 30
0.0
 10
82.09852021602052
 20
-130.1009304145234
 30
0.0
 10
82.09852021602052
 20
-129.9631265951134
 30
0.0
 10
82.09852021602052
 20
-129.7932833876906
 30
0.0
 10
82.14296194778024
 20
-129.6396321290484
 30
0.0
 10
82.32486298940142
 20
-129.5380018122336
 30
0.0
 10
82.5174438270269
 20
-129.4315483617393
 30
0.0
 10
82.74585365769896
 20
-129.4067436742455
 30
0.0
 10
82.91948647015555
 20
-129.4067436742455
 30
0.0
 10
83.09070771577247
 20
-129.4067436742455
 30
0.0
 10
83.32118460373567
 20
-129.4294813044482
 30
0.0
 10
83.51376544136114
 20
-129.5380018122336
 30
0.0
  0
SPLINE
  5
91
330
8A
100
AcDbEntity
  8
_U+30EC_U+30A4_U+30E4_U+30FC 1
370
     0
100
AcDbSpline
210
0.0
220
0.0
230
1.0
 70
    11
 71
     3
 72
    17
 73
    13
 74
     0
 42
0.0000000001
 43
0.0000000001
 12
1.0
 22
0.0
 32
0.0
 13
1.0
 23
0.0
 33
0.0
 40
0.0
 40
0.0
 40
0.0
 40
0.0
 40
1.0
 40
1.0
 40
1.0
 40
2.0
 40
2.0
 40
2.0
 40
3.0
 40
3.0
 40
3.0
 40
4.0
 40
4.0
 40
4.0
 40
4.0
 10
82.29110105364597
 20
-129.9631265951134
 30
0.0
 10
82.29110105364597
 20
-130.2297769856717
 30
0.0
 10
82.57463241208204
 20
-130.2793863606593
 30
0.0
 10
82.91948647015555
 20
-130.2793863606593
 30
0.0
 10
83.2388468216382
 20
-130.2793863606593
 30
0.0
 10
83.5475273771166
 20
-130.241145800773
 30
0.0
 10
83.5475273771166
 20
-129.9631265951134
 30
0.0
 10
83.5475273771166
 20
-129.6985432618462
 30
0.0
 10
83.26640758552021
 20
-129.6465223200189
 30
0.0
 10
82.91948647015555
 20
-129.6465223200189
 30
0.0
 10
82.59978160912436
 20
-129.6465223200189
 30
0.0
 10
82.29110105364597
 20
-129.6871744467449
 30
0.0
 10
82.29110105364597
 20
-129.9631265951134
 30
0.0
  0
HATCH
  5
92
330
8A
100
AcDbEntity
  8
_U+30EC_U+30A4_U+30E4_U+30FC 1
 62
   179
420
  2234388
100
AcDbHatch
 10
0.0
 20
0.0
 30
0.0
210
0.0
220
0.0
230
1.0
  2
SOLID
 70
     1
 71
     0
 91
        2
 92
        1
 93
        1
 72
     4
 94
        3
 73
     0
 74
     1
 95
       29
 96
       25
 40
0.0
 40
0.0
 40
0.0
 40
0.0
 40
1.0
 40
1.0
 40
1.0
 40
2.0
 40
2.0
 40
2.0
 40
3.0
 40
3.0
 40
3.0
 40
4.0
 40
4.0
 40
4.0
 40
5.0
 40
5.0
 40
5.0
 40
6.0
 40
6.0
 40
6.0
 40
7.0
 40
7.0
 40
7.0
 40
8.0
 40
8.0
 40
8.0
 40
8.0
 10
83.51376544136114
 20
-129.5380018122336
 10
83.72322724686434
 20
-129.6534125109894
 10
83.74217527203321
 20
-129.8387586480959
 10
83.74217527203321
 20
-129.9631265951134
 10
83.74217527203321
 20
-130.1346923502788
 10
83.69566648298233
 20
-130.2862765516298
 10
83.51376544136114
 20
-130.3879068684447
 10
83.31911754644453
 20
-130.4988389430697
 10
83.08243948660787
 20
-130.5191650064327
 10
82.91948647015555
 20
-130.5191650064327
 10
82.77548147887211
 20
-130.5191650064327
 10
82.52364499890034
 20
-130.5012505099094
 10
82.32486298940142
 20
-130.3879068684447
 10
82.12194686532021
 20
-130.2728406792374
 10
82.09852021602052
 20
-130.1009304145234
 10
82.09852021602052
 20
-129.9631265951134
 10
82.09852021602052
 20
-129.7932833876906
 10
82.14296194778024
 20
-129.6396321290484
 10
82.32486298940142
 20
-129.5380018122336
 10
82.5174438270269
 20
-129.4315483617393
 10
82.74585365769896
 20
-129.4067436742455
 10
82.91948647015555
 20
-129.4067436742455
 10
83.09070771577247
 20
-129.4067436742455
 10
83.32118460373567
 20
-129.4294813044482
 10
83.51376544136114
 20
-129.5380018122336
 97
        0
 97
        0
 92
        1
 93
        1
 72
     4
 94
        3
 73
     0
 74
     1
 95
       17
 96
       13
 40
0.0
 40
0.0
 40
0.0
 40
0.0
 40
1.0
 40
1.0
 40
1.0
 40
2.0
 40
2.0
 40
2.0
 40
3.0
 40
3.0
 40
3.0
 40
4.0
 40
4.0
 40
4.0
 40
4.0
 10
82.29110105364597
 20
-129.9631265951134
 10
82.29110105364597
 20
-130.2297769856717
 10
82.57463241208204
 20
-130.2793863606593
 10
82.91948647015555
 20
-130.2793863606593
 10
83.2388468216382
 20
-130.2793863606593
 10
83.5475273771166
 20
-130.241145800773
 10
83.5475273771166
 20
-129.9631265951134
 10
83.5475273771166
 20
-129.6985432618462
 10
83.26640758552021
 20
-129.6465223200189
 10
82.91948647015555
 20
-129.6465223200189
 10
82.59978160912436
 20
-129.6465223200189
 10
82.29110105364597
 20
-129.6871744467449
 10
82.29110105364597
 20
-129.9631265951134
 97
        0
 97
        0
 75
     2
 76
     1
 98
        0
  0
POLYLINE
  5
93
330
8A
100
AcDbEntity
  8
_U+30EC_U+30A4_U+30E4_U+30FC 1
370
     0
100
AcDb2dPolyline
 66
     1
 10
0.0
 20
0.0
 30
0.0
  0
VERTEX
  5
94
330
93
100
AcDbEntity
  8
_U+30EC_U+30A4_U+30E4_U+30FC 1
370
     0
100
AcDbVertex
100
AcDb2dVertex
 10
83.69153236840003
 20
-129.1755777671853
 30
0.0
  0
VERTEX
  5
95
330
93
100
AcDbEntity
  8
_U+30EC_U+30A4_U+30E4_U+30FC 1
370
     0
100
AcDbVertex
100
AcDb2dVertex
 10
83.43969588842828
 20
-129.1755777671853
 30
0.0
  0
VERTEX
  5
96
330
93
100
AcDbEntity
  8
_U+30EC_U+30A4_U+30E4_U+30FC 1
370
     0
100
AcDbVertex
100
AcDb2dVertex
 10
83.43969588842828
 20
-128.9065158097873
 30
0.0
  0
VERTEX
  5
97
330
93
100
AcDbEntity
  8
_U+30EC_U+30A4_U+30E4_U+30FC 1
370
     0
100
AcDbVertex
100
AcDb2dVertex
 10
83.69153236840003
 20
-128.9065158097873
 30
0.0
  0
VERTEX
  5
98
330
93
100
AcDbEntity
  8
_U+30EC_U+30A4_U+30E4_U+30FC 1
370
     0
100
AcDbVertex
100
AcDb2dVertex
 10
83.69153236840003
 20
-129.1755777671853
 30
0.0
  0
SEQEND
  5
99
330
93
100
AcDbEntity
  8
_U+30EC_U+30A4_U+30E4_U+30FC 1
370
     0
  0
HATCH
  5
9A
330
8A
100
AcDbEntity
  8
_U+30EC_U+30A4_U+30E4_U+30FC 1
 62
   179
420
  2234388
100
AcDbHatch
 10
0.0
 20
0.0
 30
0.0
210
0.0
220
0.0
230
1.0
  2
SOLID
 70
     1
 71
     0
 91
        1
 92
        1
 93
        4
 72
     1
 10
83.69153236840003
 20
-129.1755777671853
 11
83.43969588842828
 21
-129.1755777671853
 72
     1
 10
83.43969588842828
 20
-129.1755777671853
 11
83.43969588842828
 21
-128.9065158097873
 72
     1
 10
83.43969588842828
 20
-128.9065158097873
 11
83.69153236840003
 21
-128.9065158097873
 72
     1
 10
83.69153236840003
 20
-128.9065158097873
 11
83.69153236840003
 21
-129.1755777671853
 97
        0
 75
     2
 76
     1
 98
        0
  0
SPLINE
  5
9B
330
8A
100
AcDbEntity
  8
_U+30EC_U+30A4_U+30E4_U+30FC 1
370
     0
100
AcDbSpline
210
0.0
220
0.0
230
1.0
 70
    11
 71
     3
 72
    53
 73
    49
 74
     0
 42
0.0000000001
 43
0.0000000001
 12
1.0
 22
0.0
 32
0.0
 13
1.0
 23
0.0
 33
0.0
 40
0.0
 40
0.0
 40
0.0
 40
0.0
 40
1.0
 40
1.0
 40
1.0
 40
2.0
 40
2.0
 40
2.0
 40
3.0
 40
3.0
 40
3.0
 40
4.0
 40
4.0
 40
4.0
 40
5.0
 40
5.0
 40
5.0
 40
6.0
 40
6.0
 40
6.0
 40
7.0
 40
7.0
 40
7.0
 40
8.0
 40
8.0
 40
8.0
 40
9.0
 40
9.0
 40
9.0
 40
10.0
 40
10.0
 40
10.0
 40
11.0
 40
11.0
 40
11.0
 40
12.0
 40
12.0
 40
12.0
 40
13.0
 40
13.0
 40
13.0
 40
14.0
 40
14.0
 40
14.0
 40
15.0
 40
15.0
 40
15.0
 40
16.0
 40
16.0
 40
16.0
 40
16.0
 10
83.74217527203321
 20
-128.1396375547706
 30
0.0
 10
83.74217527203321
 20
-128.2233533750622
 30
0.0
 10
83.72529430415548
 20
-128.3315293732991
 30
0.0
 10
83.66190454722688
 20
-128.440394390633
 30
0.0
 10
83.55200600124742
 20
-128.6257405277394
 30
0.0
 10
83.4207478632594
 20
-128.6481336483935
 30
0.0
 10
83.31291637457107
 20
-128.6684597117565
 30
0.0
 10
83.31291637457107
 20
-128.6684597117565
 30
0.0
 10
83.31291637457107
 20
-128.4310926328228
 30
0.0
 10
83.31291637457107
 20
-128.4310926328228
 30
0.0
 10
83.51169838407
 20
-128.3725260095735
 30
0.0
 10
83.54132620524314
 20
-128.2367892474547
 30
0.0
 10
83.54132620524314
 20
-128.137225987931
 30
0.0
 10
83.54132620524314
 20
-127.9880533534197
 30
0.0
 10
83.44176294571942
 20
-127.8251003369673
 30
0.0
 10
83.20921900046505
 20
-127.8251003369673
 30
0.0
 10
82.953248405911
 20
-127.8251003369673
 30
0.0
 10
82.88331296756043
 20
-128.0173366650443
 30
0.0
 10
82.88331296756043
 20
-128.1461832361926
 30
0.0
 10
82.88331296756043
 20
-128.1802896814966
 30
0.0
 10
82.88331296756043
 20
-128.3315293732991
 30
0.0
 10
83.0125040482573
 20
-128.426614008692
 30
0.0
 10
83.0125040482573
 20
-128.426614008692
 30
0.0
 10
82.99355602308842
 20
-128.6143717126381
 30
0.0
 10
82.99355602308842
 20
-128.6143717126381
 30
0.0
 10
82.99355602308842
 20
-128.6143717126381
 30
0.0
 10
82.14709606236254
 20
-128.4855251414897
 30
0.0
 10
82.14709606236254
 20
-128.4855251414897
 30
0.0
 10
82.14709606236254
 20
-128.4855251414897
 30
0.0
 10
82.14709606236254
 20
-127.6535345818019
 30
0.0
 10
82.14709606236254
 20
-127.6535345818019
 30
0.0
 10
82.14709606236254
 20
-127.6535345818019
 30
0.0
 10
82.34174395727915
 20
-127.6535345818019
 30
0.0
 10
82.34174395727915
 20
-127.6535345818019
 30
0.0
 10
82.34174395727915
 20
-127.6535345818019
 30
0.0
 10
82.34174395727915
 20
-128.3112033099361
 30
0.0
 10
82.34174395727915
 20
-128.3112033099361
 30
0.0
 10
82.34174395727915
 20
-128.3112033099361
 30
0.0
 10
82.76480168286783
 20
-128.3814832578352
 30
0.0
 10
82.76480168286783
 20
-128.3814832578352
 30
0.0
 10
82.73103974711238
 20
-128.3160264436154
 30
0.0
 10
82.69073212993496
 20
-128.2278319991931
 30
0.0
 10
82.69073212993496
 20
-128.1010524853359
 30
0.0
 10
82.69073212993496
 20
-127.8299234706467
 30
0.0
 10
82.87711179568697
 20
-127.5767089524808
 30
0.0
 10
83.19027097529619
 20
-127.5767089524808
 30
0.0
 10
83.5075642694877
 20
-127.5767089524808
 30
0.0
 10
83.74217527203321
 20
-127.8161430887057
 30
0.0
 10
83.74217527203321
 20
-128.1396375547706
 30
0.0
  0
HATCH
  5
9C
330
8A
100
AcDbEntity
  8
_U+30EC_U+30A4_U+30E4_U+30FC 1
 62
   179
420
  2234388
100
AcDbHatch
 10
0.0
 20
0.0
 30
0.0
210
0.0
220
0.0
230
1.0
  2
SOLID
 70
     1
 71
     0
 91
        1
 92
        1
 93
        1
 72
     4
 94
        3
 73
     0
 74
     1
 95
       53
 96
       49
 40
0.0
 40
0.0
 40
0.0
 40
0.0
 40
1.0
 40
1.0
 40
1.0
 40
2.0
 40
2.0
 40
2.0
 40
3.0
 40
3.0
 40
3.0
 40
4.0
 40
4.0
 40
4.0
 40
5.0
 40
5.0
 40
5.0
 40
6.0
 40
6.0
 40
6.0
 40
7.0
 40
7.0
 40
7.0
 40
8.0
 40
8.0
 40
8.0
 40
9.0
 40
9.0
 40
9.0
 40
10.0
 40
10.0
 40
10.0
 40
11.0
 40
11.0
 40
11.0
 40
12.0
 40
12.0
 40
12.0
 40
13.0
 40
13.0
 40
13.0
 40
14.0
 40
14.0
 40
14.0
 40
15.0
 40
15.0
 40
15.0
 40
16.0
 40
16.0
 40
16.0
 40
16.0
 10
83.74217527203321
 20
-128.1396375547706
 10
83.74217527203321
 20
-128.2233533750622
 10
83.72529430415548
 20
-128.3315293732991
 10
83.66190454722688
 20
-128.440394390633
 10
83.55200600124742
 20
-128.6257405277394
 10
83.4207478632594
 20
-128.6481336483935
 10
83.31291637457107
 20
-128.6684597117565
 10
83.31291637457107
 20
-128.6684597117565
 10
83.31291637457107
 20
-128.4310926328228
 10
83.31291637457107
 20
-128.4310926328228
 10
83.51169838407
 20
-128.3725260095735
 10
83.54132620524314
 20
-128.2367892474547
 10
83.54132620524314
 20
-128.137225987931
 10
83.54132620524314
 20
-127.9880533534197
 10
83.44176294571942
 20
-127.8251003369673
 10
83.20921900046505
 20
-127.8251003369673
 10
82.953248405911
 20
-127.8251003369673
 10
82.88331296756043
 20
-128.0173366650443
 10
82.88331296756043
 20
-128.1461832361926
 10
82.88331296756043
 20
-128.1802896814966
 10
82.88331296756043
 20
-128.3315293732991
 10
83.0125040482573
 20
-128.426614008692
 10
83.0125040482573
 20
-128.426614008692
 10
82.99355602308842
 20
-128.6143717126381
 10
82.99355602308842
 20
-128.6143717126381
 10
82.99355602308842
 20
-128.6143717126381
 10
82.14709606236254
 20
-128.4855251414897
 10
82.14709606236254
 20
-128.4855251414897
 10
82.14709606236254
 20
-128.4855251414897
 10
82.14709606236254
 20
-127.6535345818019
 10
82.14709606236254
 20
-127.6535345818019
 10
82.14709606236254
 20
-127.6535345818019
 10
82.34174395727915
 20
-127.6535345818019
 10
82.34174395727915
 20
-127.6535345818019
 10
82.34174395727915
 20
-127.6535345818019
 10
82.34174395727915
 20
-128.3112033099361
 10
82.34174395727915
 20
-128.3112033099361
 10
82.34174395727915
 20
-128.3112033099361
 10
82.76480168286783
 20
-128.3814832578352
 10
82.76480168286783
 20
-128.3814832578352
 10
82.73103974711238
 20
-128.3160264436154
 10
82.69073212993496
 20
-128.2278319991931
 10
82.69073212993496
 20
-128.1010524853359
 10
82.69073212993496
 20
-127.8299234706467
 10
82.87711179568697
 20
-127.5767089524808
 10
83.19027097529619
 20
-127.5767089524808
 10
83.5075642694877
 20
-127.5767089524808
 10
83.74217527203321
 20
-127.8161430887057
 10
83.74217527203321
 20
-128.1396375547706
 97
        0
 97
        0
 75
     2
 76
     1
 98
        0
  0
ENDBLK
  5
8D
330
8A
100
AcDbEntity
  8
0
100
AcDbBlockEnd
  0
BLOCK
  5
A7
330
A5
100
AcDbEntity
  8
0
100
AcDbBlockBegin
  2
block 5
 70
     0
 10
0.0
 20
0.0
 30
0.0
  3
block 5
  1

  0
SPLINE
  5
A9
330
A5
100
AcDbEntity
  8
_U+30EC_U+30A4_U+30E4_U+30FC 1
370
     0
100
AcDbSpline
210
0.0
220
0.0
230
1.0
 70
    11
 71
     3
 72
    44
 73
    40
 74
     0
 42
0.0000000001
 43
0.0000000001
 12
1.0
 22
0.0
 32
0.0
 13
1.0
 23
0.0
 33
0.0
 40
0.0
 40
0.0
 40
0.0
 40
0.0
 40
1.0
 40
1.0
 40
1.0
 40
2.0
 40
2.0
 40
2.0
 40
3.0
 40
3.0
 40
3.0
 40
4.0
 40
4.0
 40
4.0
 40
5.0
 40
5.0
 40
5.0
 40
6.0
 40
6.0
 40
6.0
 40
7.0
 40
7.0
 40
7.0
 40
8.0
 40
8.0
 40
8.0
 40
9.0
 40
9.0
 40
9.0
 40
10.0
 40
10.0
 40
10.0
 40
11.0
 40
11.0
 40
11.0
 40
12.0
 40
12.0
 40
12.0
 40
13.0
 40
13.0
 40
13.0
 40
13.0
 10
78.7938123717946
 20
-138.0008788717498
 30
0.0
 10
78.56092391699171
 20
-138.1596977736198
 30
0.0
 10
78.46153291224226
 20
-138.2337673265527
 30
0.0
 10
78.40951197041498
 20
-138.3774278082876
 30
0.0
 10
78.40951197041498
 20
-138.3774278082876
 30
0.0
 10
79.24150253010282
 20
-138.3774278082876
 30
0.0
 10
79.24150253010282
 20
-138.3774278082876
 30
0.0
 10
79.24150253010282
 20
-138.3774278082876
 30
0.0
 10
79.24150253010282
 20
-138.5827554992085
 30
0.0
 10
79.24150253010282
 20
-138.5827554992085
 30
0.0
 10
79.24150253010282
 20
-138.5827554992085
 30
0.0
 10
78.14268932508239
 20
-138.5827554992085
 30
0.0
 10
78.14268932508239
 20
-138.5827554992085
 30
0.0
 10
78.17662351561209
 20
-138.2251545878395
 30
0.0
 10
78.24673120873693
 20
-138.1469509203244
 30
0.0
 10
78.65824786445002
 20
-137.8486056513017
 30
0.0
 10
78.93178844597887
 20
-137.6498236418028
 30
0.0
 10
79.00189613910369
 20
-137.5819552607434
 30
0.0
 10
79.00189613910369
 20
-137.4444959508819
 30
0.0
 10
79.00189613910369
 20
-137.3259846661894
 30
0.0
 10
78.92507050978263
 20
-137.1950710377498
 30
0.0
 10
78.71474743040812
 20
-137.1950710377498
 30
0.0
 10
78.4365559699742
 20
-137.1950710377498
 30
0.0
 10
78.42759872171254
 20
-137.4255479257131
 30
0.0
 10
78.42312009758173
 20
-137.5419921531145
 30
0.0
 10
78.42312009758173
 20
-137.5419921531145
 30
0.0
 10
78.18334145180833
 20
-137.5419921531145
 30
0.0
 10
78.18334145180833
 20
-137.5419921531145
 30
0.0
 10
78.19247095484425
 20
-137.4148681297088
 30
0.0
 10
78.20383976994557
 20
-137.3029025264382
 30
0.0
 10
78.28962264752829
 20
-137.1843912417456
 30
0.0
 10
78.40727265834957
 20
-137.0235052825844
 30
0.0
 10
78.60622692262275
 20
-136.989743346829
 30
0.0
 10
78.73059486964027
 20
-136.989743346829
 30
0.0
 10
79.02670082659749
 20
-136.989743346829
 30
0.0
 10
79.24822046629906
 20
-137.1737114457413
 30
0.0
 10
79.24822046629906
 20
-137.4465630081731
 30
0.0
 10
79.24822046629906
 20
-137.6753173483937
 30
0.0
 10
79.12385251928154
 20
-137.7745360983689
 30
0.0
 10
78.7938123717946
 20
-138.0008788717498
 30
0.0
  0
HATCH
  5
AA
330
A5
100
AcDbEntity
  8
_U+30EC_U+30A4_U+30E4_U+30FC 1
 62
   179
420
  2234388
100
AcDbHatch
 10
0.0
 20
0.0
 30
0.0
210
0.0
220
0.0
230
1.0
  2
SOLID
 70
     1
 71
     0
 91
        1
 92
        1
 93
        1
 72
     4
 94
        3
 73
     0
 74
     1
 95
       44
 96
       40
 40
0.0
 40
0.0
 40
0.0
 40
0.0
 40
1.0
 40
1.0
 40
1.0
 40
2.0
 40
2.0
 40
2.0
 40
3.0
 40
3.0
 40
3.0
 40
4.0
 40
4.0
 40
4.0
 40
5.0
 40
5.0
 40
5.0
 40
6.0
 40
6.0
 40
6.0
 40
7.0
 40
7.0
 40
7.0
 40
8.0
 40
8.0
 40
8.0
 40
9.0
 40
9.0
 40
9.0
 40
10.0
 40
10.0
 40
10.0
 40
11.0
 40
11.0
 40
11.0
 40
12.0
 40
12.0
 40
12.0
 40
13.0
 40
13.0
 40
13.0
 40
13.0
 10
78.7938123717946
 20
-138.0008788717498
 10
78.56092391699171
 20
-138.1596977736198
 10
78.46153291224226
 20
-138.2337673265527
 10
78.40951197041498
 20
-138.3774278082876
 10
78.40951197041498
 20
-138.3774278082876
 10
79.24150253010282
 20
-138.3774278082876
 10
79.24150253010282
 20
-138.3774278082876
 10
79.24150253010282
 20
-138.3774278082876
 10
79.24150253010282
 20
-138.5827554992085
 10
79.24150253010282
 20
-138.5827554992085
 10
79.24150253010282
 20
-138.5827554992085
 10
78.14268932508239
 20
-138.5827554992085
 10
78.14268932508239
 20
-138.5827554992085
 10
78.17662351561209
 20
-138.2251545878395
 10
78.24673120873693
 20
-138.1469509203244
 10
78.65824786445002
 20
-137.8486056513017
 10
78.93178844597887
 20
-137.6498236418028
 10
79.00189613910369
 20
-137.5819552607434
 10
79.00189613910369
 20
-137.4444959508819
 10
79.00189613910369
 20
-137.3259846661894
 10
78.92507050978263
 20
-137.1950710377498
 10
78.71474743040812
 20
-137.1950710377498
 10
78.4365559699742
 20
-137.1950710377498
 10
78.42759872171254
 20
-137.4255479257131
 10
78.42312009758173
 20
-137.5419921531145
 10
78.42312009758173
 20
-137.5419921531145
 10
78.18334145180833
 20
-137.5419921531145
 10
78.18334145180833
 20
-137.5419921531145
 10
78.19247095484425
 20
-137.4148681297088
 10
78.20383976994557
 20
-137.3029025264382
 10
78.28962264752829
 20
-137.1843912417456
 10
78.40727265834957
 20
-137.0235052825844
 10
78.60622692262275
 20
-136.989743346829
 10
78.73059486964027
 20
-136.989743346829
 10
79.02670082659749
 20
-136.989743346829
 10
79.24822046629906
 20
-137.1737114457413
 10
79.24822046629906
 20
-137.4465630081731
 10
79.24822046629906
 20
-137.6753173483937
 10
79.12385251928154
 20
-137.7745360983689
 10
78.7938123717946
 20
-138.0008788717498
 97
        0
 97
        0
 75
     2
 76
     1
 98
        0
  0
POLYLINE
  5
AB
330
A5
100
AcDbEntity
  8
_U+30EC_U+30A4_U+30E4_U+30FC 1
370
     0
100
AcDb2dPolyline
 66
     1
 10
0.0
 20
0.0
 30
0.0
  0
VERTEX
  5
AC
330
AB
100
AcDbEntity
  8
_U+30EC_U+30A4_U+30E4_U+30FC 1
370
     0
100
AcDbVertex
100
AcDb2dVertex
 10
79.48197019497326
 20
-138.5827554992085
 30
0.0
  0
VERTEX
  5
AD
330
AB
100
AcDbEntity
  8
_U+30EC_U+30A4_U+30E4_U+30FC 1
370
     0
100
AcDbVertex
100
AcDb2dVertex
 10
79.48197019497326
 20
-138.3309190192367
 30
0.0
  0
VERTEX
  5
AE
330
AB
100
AcDbEntity
  8
_U+30EC_U+30A4_U+30E4_U+30FC 1
370
     0
100
AcDbVertex
100
AcDb2dVertex
 10
79.75103215237128
 20
-138.3309190192367
 30
0.0
  0
VERTEX
  5
AF
330
AB
100
AcDbEntity
  8
_U+30EC_U+30A4_U+30E4_U+30FC 1
370
     0
100
AcDbVertex
100
AcDb2dVertex
 10
79.75103215237128
 20
-138.5827554992085
 30
0.0
  0
VERTEX
  5
B0
330
AB
100
AcDbEntity
  8
_U+30EC_U+30A4_U+30E4_U+30FC 1
370
     0
100
AcDbVertex
100
AcDb2dVertex
 10
79.48197019497326
 20
-138.5827554992085
 30
0.0
  0
SEQEND
  5
B1
330
AB
100
AcDbEntity
  8
_U+30EC_U+30A4_U+30E4_U+30FC 1
370
     0
  0
HATCH
  5
B2
330
A5
100
AcDbEntity
  8
_U+30EC_U+30A4_U+30E4_U+30FC 1
 62
   179
420
  2234388
100
AcDbHatch
 10
0.0
 20
0.0
 30
0.0
210
0.0
220
0.0
230
1.0
  2
SOLID
 70
     1
 71
     0
 91
        1
 92
        1
 93
        4
 72
     1
 10
79.48197019497326
 20
-138.5827554992085
 11
79.48197019497326
 21
-138.3309190192367
 72
     1
 10
79.48197019497326
 20
-138.3309190192367
 11
79.75103215237128
 21
-138.3309190192367
 72
     1
 10
79.75103215237128
 20
-138.3309190192367
 11
79.75103215237128
 21
-138.5827554992085
 72
     1
 10
79.75103215237128
 20
-138.5827554992085
 11
79.48197019497326
 21
-138.5827554992085
 97
        0
 75
     2
 76
     1
 98
        0
  0
SPLINE
  5
B3
330
A5
100
AcDbEntity
  8
_U+30EC_U+30A4_U+30E4_U+30FC 1
370
     0
100
AcDbSpline
210
0.0
220
0.0
230
1.0
 70
    11
 71
     3
 72
    53
 73
    49
 74
     0
 42
0.0000000001
 43
0.0000000001
 12
1.0
 22
0.0
 32
0.0
 13
1.0
 23
0.0
 33
0.0
 40
0.0
 40
0.0
 40
0.0
 40
0.0
 40
1.0
 40
1.0
 40
1.0
 40
2.0
 40
2.0
 40
2.0
 40
3.0
 40
3.0
 40
3.0
 40
4.0
 40
4.0
 40
4.0
 40
5.0
 40
5.0
 40
5.0
 40
6.0
 40
6.0
 40
6.0
 40
7.0
 40
7.0
 40
7.0
 40
8.0
 40
8.0
 40
8.0
 40
9.0
 40
9.0
 40
9.0
 40
10.0
 40
10.0
 40
10.0
 40
11.0
 40
11.0
 40
11.0
 40
12.0
 40
12.0
 40
12.0
 40
13.0
 40
13.0
 40
13.0
 40
14.0
 40
14.0
 40
14.0
 40
15.0
 40
15.0
 40
15.0
 40
16.0
 40
16.0
 40
16.0
 40
16.0
 10
80.51791040738789
 20
-138.6333984028417
 30
0.0
 10
80.43419458709631
 20
-138.6333984028417
 30
0.0
 10
80.32567407931094
 20
-138.6165174349639
 30
0.0
 10
80.21715357152557
 20
-138.5531276780353
 30
0.0
 10
80.03180743441914
 20
-138.4432291320559
 30
0.0
 10
80.00924205899075
 20
-138.3119709940678
 30
0.0
 10
79.98874374085351
 20
-138.2041395053795
 30
0.0
 10
79.98874374085351
 20
-138.2041395053795
 30
0.0
 10
80.2262830745615
 20
-138.2041395053795
 30
0.0
 10
80.2262830745615
 20
-138.2041395053795
 30
0.0
 10
80.285021952585
 20
-138.4029215148784
 30
0.0
 10
80.42058645992958
 20
-138.4325493360516
 30
0.0
 10
80.5201497194533
 20
-138.4325493360516
 30
0.0
 10
80.66932235396462
 20
-138.4325493360516
 30
0.0
 10
80.83210311564267
 20
-138.3329860765279
 30
0.0
 10
80.83210311564267
 20
-138.1004421312735
 30
0.0
 10
80.83210311564267
 20
-137.8444715367195
 30
0.0
 10
80.63986678756574
 20
-137.7745360983689
 30
0.0
 10
80.51102021641739
 20
-137.7745360983689
 30
0.0
 10
80.47708602588767
 20
-137.7745360983689
 30
0.0
 10
80.32567407931094
 20
-137.7745360983689
 30
0.0
 10
80.23076169869232
 20
-137.9037271790658
 30
0.0
 10
80.23076169869232
 20
-137.9037271790658
 30
0.0
 10
80.0430039947462
 20
-137.8847791538969
 30
0.0
 10
80.0430039947462
 20
-137.8847791538969
 30
0.0
 10
80.0430039947462
 20
-137.8847791538969
 30
0.0
 10
80.17185056589454
 20
-137.038319193171
 30
0.0
 10
80.17185056589454
 20
-137.038319193171
 30
0.0
 10
80.17185056589454
 20
-137.038319193171
 30
0.0
 10
81.00384112558238
 20
-137.038319193171
 30
0.0
 10
81.00384112558238
 20
-137.038319193171
 30
0.0
 10
81.00384112558238
 20
-137.038319193171
 30
0.0
 10
81.00384112558238
 20
-137.2329670880876
 30
0.0
 10
81.00384112558238
 20
-137.2329670880876
 30
0.0
 10
81.00384112558238
 20
-137.2329670880876
 30
0.0
 10
80.34600014267392
 20
-137.2329670880876
 30
0.0
 10
80.34600014267392
 20
-137.2329670880876
 30
0.0
 10
80.34600014267392
 20
-137.2329670880876
 30
0.0
 10
80.27589244954909
 20
-137.6560248136763
 30
0.0
 10
80.27589244954909
 20
-137.6560248136763
 30
0.0
 10
80.34152151854309
 20
-137.6222628779208
 30
0.0
 10
80.42971596296549
 20
-137.5819552607434
 30
0.0
 10
80.55632322204842
 20
-137.5819552607434
 30
0.0
 10
80.82762449151184
 20
-137.5819552607434
 30
0.0
 10
81.08083900967772
 20
-137.7683349264954
 30
0.0
 10
81.08083900967772
 20
-138.0814941061046
 30
0.0
 10
81.08083900967772
 20
-138.3987874002961
 30
0.0
 10
80.84123261867859
 20
-138.6333984028417
 30
0.0
 10
80.51791040738789
 20
-138.6333984028417
 30
0.0
  0
HATCH
  5
B4
330
A5
100
AcDbEntity
  8
_U+30EC_U+30A4_U+30E4_U+30FC 1
 62
   179
420
  2234388
100
AcDbHatch
 10
0.0
 20
0.0
 30
0.0
210
0.0
220
0.0
230
1.0
  2
SOLID
 70
     1
 71
     0
 91
        1
 92
        1
 93
        1
 72
     4
 94
        3
 73
     0
 74
     1
 95
       53
 96
       49
 40
0.0
 40
0.0
 40
0.0
 40
0.0
 40
1.0
 40
1.0
 40
1.0
 40
2.0
 40
2.0
 40
2.0
 40
3.0
 40
3.0
 40
3.0
 40
4.0
 40
4.0
 40
4.0
 40
5.0
 40
5.0
 40
5.0
 40
6.0
 40
6.0
 40
6.0
 40
7.0
 40
7.0
 40
7.0
 40
8.0
 40
8.0
 40
8.0
 40
9.0
 40
9.0
 40
9.0
 40
10.0
 40
10.0
 40
10.0
 40
11.0
 40
11.0
 40
11.0
 40
12.0
 40
12.0
 40
12.0
 40
13.0
 40
13.0
 40
13.0
 40
14.0
 40
14.0
 40
14.0
 40
15.0
 40
15.0
 40
15.0
 40
16.0
 40
16.0
 40
16.0
 40
16.0
 10
80.51791040738789
 20
-138.6333984028417
 10
80.43419458709631
 20
-138.6333984028417
 10
80.32567407931094
 20
-138.6165174349639
 10
80.21715357152557
 20
-138.5531276780353
 10
80.03180743441914
 20
-138.4432291320559
 10
80.00924205899075
 20
-138.3119709940678
 10
79.98874374085351
 20
-138.2041395053795
 10
79.98874374085351
 20
-138.2041395053795
 10
80.2262830745615
 20
-138.2041395053795
 10
80.2262830745615
 20
-138.2041395053795
 10
80.285021952585
 20
-138.4029215148784
 10
80.42058645992958
 20
-138.4325493360516
 10
80.5201497194533
 20
-138.4325493360516
 10
80.66932235396462
 20
-138.4325493360516
 10
80.83210311564267
 20
-138.3329860765279
 10
80.83210311564267
 20
-138.1004421312735
 10
80.83210311564267
 20
-137.8444715367195
 10
80.63986678756574
 20
-137.7745360983689
 10
80.51102021641739
 20
-137.7745360983689
 10
80.47708602588767
 20
-137.7745360983689
 10
80.32567407931094
 20
-137.7745360983689
 10
80.23076169869232
 20
-137.9037271790658
 10
80.23076169869232
 20
-137.9037271790658
 10
80.0430039947462
 20
-137.8847791538969
 10
80.0430039947462
 20
-137.8847791538969
 10
80.0430039947462
 20
-137.8847791538969
 10
80.17185056589454
 20
-137.038319193171
 10
80.17185056589454
 20
-137.038319193171
 10
80.17185056589454
 20
-137.038319193171
 10
81.00384112558238
 20
-137.038319193171
 10
81.00384112558238
 20
-137.038319193171
 10
81.00384112558238
 20
-137.038319193171
 10
81.00384112558238
 20
-137.2329670880876
 10
81.00384112558238
 20
-137.2329670880876
 10
81.00384112558238
 20
-137.2329670880876
 10
80.34600014267392
 20
-137.2329670880876
 10
80.34600014267392
 20
-137.2329670880876
 10
80.34600014267392
 20
-137.2329670880876
 10
80.27589244954909
 20
-137.6560248136763
 10
80.27589244954909
 20
-137.6560248136763
 10
80.34152151854309
 20
-137.6222628779208
 10
80.42971596296549
 20
-137.5819552607434
 10
80.55632322204842
 20
-137.5819552607434
 10
80.82762449151184
 20
-137.5819552607434
 10
81.08083900967772
 20
-137.7683349264954
 10
81.08083900967772
 20
-138.0814941061046
 10
81.08083900967772
 20
-138.3987874002961
 10
80.84123261867859
 20
-138.6333984028417
 10
80.51791040738789
 20
-138.6333984028417
 97
        0
 97
        0
 75
     2
 76
     1
 98
        0
  0
SPLINE
  5
B5
330
A5
100
AcDbEntity
  8
_U+30EC_U+30A4_U+30E4_U+30FC 1
370
     0
100
AcDbSpline
210
0.0
220
0.0
230
1.0
 70
    11
 71
     3
 72
    44
 73
    40
 74
     0
 42
0.0000000001
 43
0.0000000001
 12
1.0
 22
0.0
 32
0.0
 13
1.0
 23
0.0
 33
0.0
 40
0.0
 40
0.0
 40
0.0
 40
0.0
 40
1.0
 40
1.0
 40
1.0
 40
2.0
 40
2.0
 40
2.0
 40
3.0
 40
3.0
 40
3.0
 40
4.0
 40
4.0
 40
4.0
 40
5.0
 40
5.0
 40
5.0
 40
6.0
 40
6.0
 40
6.0
 40
7.0
 40
7.0
 40
7.0
 40
8.0
 40
8.0
 40
8.0
 40
9.0
 40
9.0
 40
9.0
 40
10.0
 40
10.0
 40
10.0
 40
11.0
 40
11.0
 40
11.0
 40
12.0
 40
12.0
 40
12.0
 40
13.0
 40
13.0
 40
13.0
 40
13.0
 10
82.34536130753867
 20
-138.5827554992085
 30
0.0
 10
82.32055662004487
 20
-138.5383137674488
 30
0.0
 10
82.29781898984221
 20
-138.4856038065244
 30
0.0
 10
82.29575193255107
 20
-138.2547824090127
 30
0.0
 10
82.29127330842024
 20
-138.0115586677541
 30
0.0
 10
82.22788355149164
 20
-137.9416232294035
 30
0.0
 10
82.03805879025438
 20
-137.9416232294035
 30
0.0
 10
82.03805879025438
 20
-137.9416232294035
 30
0.0
 10
81.60156519227323
 20
-137.9416232294035
 30
0.0
 10
81.60156519227323
 20
-137.9416232294035
 30
0.0
 10
81.60156519227323
 20
-137.9416232294035
 30
0.0
 10
81.60156519227323
 20
-138.5827554992085
 30
0.0
 10
81.60156519227323
 20
-138.5827554992085
 30
0.0
 10
81.60156519227323
 20
-138.5827554992085
 30
0.0
 10
81.35076224094703
 20
-138.5827554992085
 30
0.0
 10
81.35076224094703
 20
-138.5827554992085
 30
0.0
 10
81.35076224094703
 20
-138.5827554992085
 30
0.0
 10
81.35076224094703
 20
-137.038319193171
 30
0.0
 10
81.35076224094703
 20
-137.038319193171
 30
0.0
 10
81.35076224094703
 20
-137.038319193171
 30
0.0
 10
82.07182072600983
 20
-137.038319193171
 30
0.0
 10
82.07182072600983
 20
-137.038319193171
 30
0.0
 10
82.39979381620562
 20
-137.038319193171
 30
0.0
 10
82.57824976234156
 20
-137.2098849483364
 30
0.0
 10
82.57824976234156
 20
-137.4658555428905
 30
0.0
 10
82.57824976234156
 20
-137.5164984465237
 30
0.0
 10
82.5692925140799
 20
-137.5991807381697
 30
0.0
 10
82.52175019638345
 20
-137.679451462976
 30
0.0
 10
82.45836043945486
 20
-137.783148837082
 30
0.0
 10
82.38842500110428
 20
-137.8020968622509
 30
0.0
 10
82.32262367733601
 20
-137.8189778301286
 30
0.0
 10
82.46972925455619
 20
-137.8613525045972
 30
0.0
 10
82.54207625974642
 20
-137.9099283509392
 30
0.0
 10
82.54655488387725
 20
-138.2251545878395
 30
0.0
 10
82.55103350800808
 20
-138.4959390929802
 30
0.0
 10
82.58961857744288
 20
-138.5276339714445
 30
0.0
 10
82.66196558263313
 20
-138.5827554992085
 30
0.0
 10
82.66196558263313
 20
-138.5827554992085
 30
0.0
 10
82.34536130753867
 20
-138.5827554992085
 30
0.0
 10
82.34536130753867
 20
-138.5827554992085
 30
0.0
  0
SPLINE
  5
B6
330
A5
100
AcDbEntity
  8
_U+30EC_U+30A4_U+30E4_U+30FC 1
370
     0
100
AcDbSpline
210
0.0
220
0.0
230
1.0
 70
    11
 71
     3
 72
    20
 73
    16
 74
     0
 42
0.0000000001
 43
0.0000000001
 12
1.0
 22
0.0
 32
0.0
 13
1.0
 23
0.0
 33
0.0
 40
0.0
 40
0.0
 40
0.0
 40
0.0
 40
1.0
 40
1.0
 40
1.0
 40
2.0
 40
2.0
 40
2.0
 40
3.0
 40
3.0
 40
3.0
 40
4.0
 40
4.0
 40
4.0
 40
5.0
 40
5.0
 40
5.0
 40
5.0
 10
82.07629935014064
 20
-137.2498480559653
 30
0.0
 10
82.07629935014064
 20
-137.2498480559653
 30
0.0
 10
81.60156519227323
 20
-137.2498480559653
 30
0.0
 10
81.60156519227323
 20
-137.2498480559653
 30
0.0
 10
81.60156519227323
 20
-137.2498480559653
 30
0.0
 10
81.60156519227323
 20
-137.7300943666091
 30
0.0
 10
81.60156519227323
 20
-137.7300943666091
 30
0.0
 10
81.60156519227323
 20
-137.7300943666091
 30
0.0
 10
82.0742322928495
 20
-137.7300943666091
 30
0.0
 10
82.0742322928495
 20
-137.7300943666091
 30
0.0
 10
82.18034123379519
 20
-137.7300943666091
 30
0.0
 10
82.3250352441757
 20
-137.6539577563851
 30
0.0
 10
82.3250352441757
 20
-137.4827365107682
 30
0.0
 10
82.3250352441757
 20
-137.404532843253
 30
0.0
 10
82.28886174158056
 20
-137.2498480559653
 30
0.0
 10
82.07629935014064
 20
-137.2498480559653
 30
0.0
  0
HATCH
  5
B7
330
A5
100
AcDbEntity
  8
_U+30EC_U+30A4_U+30E4_U+30FC 1
 62
   179
420
  2234388
100
AcDbHatch
 10
0.0
 20
0.0
 30
0.0
210
0.0
220
0.0
230
1.0
  2
SOLID
 70
     1
 71
     0
 91
        2
 92
        1
 93
        1
 72
     4
 94
        3
 73
     0
 74
     1
 95
       44
 96
       40
 40
0.0
 40
0.0
 40
0.0
 40
0.0
 40
1.0
 40
1.0
 40
1.0
 40
2.0
 40
2.0
 40
2.0
 40
3.0
 40
3.0
 40
3.0
 40
4.0
 40
4.0
 40
4.0
 40
5.0
 40
5.0
 40
5.0
 40
6.0
 40
6.0
 40
6.0
 40
7.0
 40
7.0
 40
7.0
 40
8.0
 40
8.0
 40
8.0
 40
9.0
 40
9.0
 40
9.0
 40
10.0
 40
10.0
 40
10.0
 40
11.0
 40
11.0
 40
11.0
 40
12.0
 40
12.0
 40
12.0
 40
13.0
 40
13.0
 40
13.0
 40
13.0
 10
82.34536130753867
 20
-138.5827554992085
 10
82.32055662004487
 20
-138.5383137674488
 10
82.29781898984221
 20
-138.4856038065244
 10
82.29575193255107
 20
-138.2547824090127
 10
82.29127330842024
 20
-138.0115586677541
 10
82.22788355149164
 20
-137.9416232294035
 10
82.03805879025438
 20
-137.9416232294035
 10
82.03805879025438
 20
-137.9416232294035
 10
81.60156519227323
 20
-137.9416232294035
 10
81.60156519227323
 20
-137.9416232294035
 10
81.60156519227323
 20
-137.9416232294035
 10
81.60156519227323
 20
-138.5827554992085
 10
81.60156519227323
 20
-138.5827554992085
 10
81.60156519227323
 20
-138.5827554992085
 10
81.35076224094703
 20
-138.5827554992085
 10
81.35076224094703
 20
-138.5827554992085
 10
81.35076224094703
 20
-138.5827554992085
 10
81.35076224094703
 20
-137.038319193171
 10
81.35076224094703
 20
-137.038319193171
 10
81.35076224094703
 20
-137.038319193171
 10
82.07182072600983
 20
-137.038319193171
 10
82.07182072600983
 20
-137.038319193171
 10
82.39979381620562
 20
-137.038319193171
 10
82.57824976234156
 20
-137.2098849483364
 10
82.57824976234156
 20
-137.4658555428905
 10
82.57824976234156
 20
-137.5164984465237
 10
82.5692925140799
 20
-137.5991807381697
 10
82.52175019638345
 20
-137.679451462976
 10
82.45836043945486
 20
-137.783148837082
 10
82.38842500110428
 20
-137.8020968622509
 10
82.32262367733601
 20
-137.8189778301286
 10
82.46972925455619
 20
-137.8613525045972
 10
82.54207625974642
 20
-137.9099283509392
 10
82.54655488387725
 20
-138.2251545878395
 10
82.55103350800808
 20
-138.4959390929802
 10
82.58961857744288
 20
-138.5276339714445
 10
82.66196558263313
 20
-138.5827554992085
 10
82.66196558263313
 20
-138.5827554992085
 10
82.34536130753867
 20
-138.5827554992085
 10
82.34536130753867
 20
-138.5827554992085
 97
        0
 97
        0
 92
        1
 93
        1
 72
     4
 94
        3
 73
     0
 74
     1
 95
       20
 96
       16
 40
0.0
 40
0.0
 40
0.0
 40
0.0
 40
1.0
 40
1.0
 40
1.0
 40
2.0
 40
2.0
 40
2.0
 40
3.0
 40
3.0
 40
3.0
 40
4.0
 40
4.0
 40
4.0
 40
5.0
 40
5.0
 40
5.0
 40
5.0
 10
82.07629935014064
 20
-137.2498480559653
 10
82.07629935014064
 20
-137.2498480559653
 10
81.60156519227323
 20
-137.2498480559653
 10
81.60156519227323
 20
-137.2498480559653
 10
81.60156519227323
 20
-137.2498480559653
 10
81.60156519227323
 20
-137.7300943666091
 10
81.60156519227323
 20
-137.7300943666091
 10
81.60156519227323
 20
-137.7300943666091
 10
82.0742322928495
 20
-137.7300943666091
 10
82.0742322928495
 20
-137.7300943666091
 10
82.18034123379519
 20
-137.7300943666091
 10
82.3250352441757
 20
-137.6539577563851
 10
82.3250352441757
 20
-137.4827365107682
 10
82.3250352441757
 20
-137.404532843253
 10
82.28886174158056
 20
-137.2498480559653
 10
82.07629935014064
 20
-137.2498480559653
 97
        0
 97
        0
 75
     2
 76
     1
 98
        0
  0
ENDBLK
  5
A8
330
A5
100
AcDbEntity
  8
0
100
AcDbBlockEnd
  0
BLOCK
  5
C3
330
C1
100
AcDbEntity
  8
0
100
AcDbBlockBegin
  2
block 6
 70
     0
 10
0.0
 20
0.0
 30
0.0
  3
block 6
  1

  0
SPLINE
  5
C5
330
C1
100
AcDbEntity
  8
_U+30EC_U+30A4_U+30E4_U+30FC 1
370
     0
100
AcDbSpline
210
0.0
220
0.0
230
1.0
 70
    11
 71
     3
 72
    26
 73
    22
 74
     0
 42
0.0000000001
 43
0.0000000001
 12
1.0
 22
0.0
 32
0.0
 13
1.0
 23
0.0
 33
0.0
 40
0.0
 40
0.0
 40
0.0
 40
0.0
 40
1.0
 40
1.0
 40
1.0
 40
2.0
 40
2.0
 40
2.0
 40
3.0
 40
3.0
 40
3.0
 40
4.0
 40
4.0
 40
4.0
 40
5.0
 40
5.0
 40
5.0
 40
6.0
 40
6.0
 40
6.0
 40
7.0
 40
7.0
 40
7.0
 40
7.0
 10
87.1659111652745
 20
-119.4486951741309
 30
0.0
 10
87.1659111652745
 20
-119.4486951741309
 30
0.0
 10
87.1659111652745
 20
-118.3445420711083
 30
0.0
 10
87.1659111652745
 20
-118.3445420711083
 30
0.0
 10
87.1659111652745
 20
-118.3445420711083
 30
0.0
 10
86.81347789713344
 20
-118.3445420711083
 30
0.0
 10
86.81347789713344
 20
-118.3445420711083
 30
0.0
 10
86.81347789713344
 20
-118.3445420711083
 30
0.0
 10
86.81347789713344
 20
-118.1964029652426
 30
0.0
 10
86.81347789713344
 20
-118.1964029652426
 30
0.0
 10
87.16832273211418
 20
-118.181589054656
 30
0.0
 10
87.21793210710177
 20
-118.0186360382037
 30
0.0
 10
87.24962698556607
 20
-117.9042588680934
 30
0.0
 10
87.24962698556607
 20
-117.9042588680934
 30
0.0
 10
87.40568981104789
 20
-117.9042588680934
 30
0.0
 10
87.40568981104789
 20
-117.9042588680934
 30
0.0
 10
87.40568981104789
 20
-117.9042588680934
 30
0.0
 10
87.40568981104789
 20
-119.4486951741309
 30
0.0
 10
87.40568981104789
 20
-119.4486951741309
 30
0.0
 10
87.40568981104789
 20
-119.4486951741309
 30
0.0
 10
87.1659111652745
 20
-119.4486951741309
 30
0.0
 10
87.1659111652745
 20
-119.4486951741309
 30
0.0
  0
HATCH
  5
C6
330
C1
100
AcDbEntity
  8
_U+30EC_U+30A4_U+30E4_U+30FC 1
 62
   179
420
  2234388
100
AcDbHatch
 10
0.0
 20
0.0
 30
0.0
210
0.0
220
0.0
230
1.0
  2
SOLID
 70
     1
 71
     0
 91
        1
 92
        1
 93
        1
 72
     4
 94
        3
 73
     0
 74
     1
 95
       26
 96
       22
 40
0.0
 40
0.0
 40
0.0
 40
0.0
 40
1.0
 40
1.0
 40
1.0
 40
2.0
 40
2.0
 40
2.0
 40
3.0
 40
3.0
 40
3.0
 40
4.0
 40
4.0
 40
4.0
 40
5.0
 40
5.0
 40
5.0
 40
6.0
 40
6.0
 40
6.0
 40
7.0
 40
7.0
 40
7.0
 40
7.0
 10
87.1659111652745
 20
-119.4486951741309
 10
87.1659111652745
 20
-119.4486951741309
 10
87.1659111652745
 20
-118.3445420711083
 10
87.1659111652745
 20
-118.3445420711083
 10
87.1659111652745
 20
-118.3445420711083
 10
86.81347789713344
 20
-118.3445420711083
 10
86.81347789713344
 20
-118.3445420711083
 10
86.81347789713344
 20
-118.3445420711083
 10
86.81347789713344
 20
-118.1964029652426
 10
86.81347789713344
 20
-118.1964029652426
 10
87.16832273211418
 20
-118.181589054656
 10
87.21793210710177
 20
-118.0186360382037
 10
87.24962698556607
 20
-117.9042588680934
 10
87.24962698556607
 20
-117.9042588680934
 10
87.40568981104789
 20
-117.9042588680934
 10
87.40568981104789
 20
-117.9042588680934
 10
87.40568981104789
 20
-117.9042588680934
 10
87.40568981104789
 20
-119.4486951741309
 10
87.40568981104789
 20
-119.4486951741309
 10
87.40568981104789
 20
-119.4486951741309
 10
87.1659111652745
 20
-119.4486951741309
 10
87.1659111652745
 20
-119.4486951741309
 97
        0
 97
        0
 75
     2
 76
     1
 98
        0
  0
ENDBLK
  5
C4
330
C1
100
AcDbEntity
  8
0
100
AcDbBlockEnd
  0
ENDSEC
  0
SECTION
  2
ENTITIES
  0
POLYLINE
  5
41
330
1F
100
AcDbEntity
  8
_U+30EC_U+30A4_U+30E4_U+30FC 1
 62
   179
420
  2234388
370
     9
100
AcDb2dPolyline
 66
     1
 10
0.0
 20
0.0
 30
0.0
  0
VERTEX
  5
42
330
41
100
AcDbEntity
  8
_U+30EC_U+30A4_U+30E4_U+30FC 1
 62
   179
420
  2234388
370
     9
100
AcDbVertex
100
AcDb2dVertex
 10
88.15397858433798
 20
-134.9468132995969
 30
0.0
  0
VERTEX
  5
43
330
41
100
AcDbEntity
  8
_U+30EC_U+30A4_U+30E4_U+30FC 1
 62
   179
420
  2234388
370
     9
100
AcDbVertex
100
AcDb2dVertex
 10
89.01973050669525
 20
-134.4465744108325
 30
0.0
  0
SEQEND
  5
44
330
41
100
AcDbEntity
  8
_U+30EC_U+30A4_U+30E4_U+30FC 1
 62
   179
420
  2234388
370
     9
  0
POLYLINE
  5
45
330
1F
100
AcDbEntity
  8
_U+30EC_U+30A4_U+30E4_U+30FC 1
 62
   179
420
  2234388
370
     9
100
AcDb2dPolyline
 66
     1
 10
0.0
 20
0.0
 30
0.0
  0
VERTEX
  5
46
330
45
100
AcDbEntity
  8
_U+30EC_U+30A4_U+30E4_U+30FC 1
 62
   179
420
  2234388
370
     9
100
AcDbVertex
100
AcDb2dVertex
 10
88.51984440833729
 20
-135.3126791328386
 30
0.0
  0
VERTEX
  5
47
330
45
100
AcDbEntity
  8
_U+30EC_U+30A4_U+30E4_U+30FC 1
 62
   179
420
  2234388
370
     9
100
AcDbVertex
100
AcDb2dVertex
 10
89.01973050669525
 20
-134.4465744108325
 30
0.0
  0
SEQEND
  5
48
330
45
100
AcDbEntity
  8
_U+30EC_U+30A4_U+30E4_U+30FC 1
 62
   179
420
  2234388
370
     9
  0
SPLINE
  5
49
330
1F
100
AcDbEntity
  8
_U+30EC_U+30A4_U+30E4_U+30FC 1
 62
   179
420
  2234388
370
     9
100
AcDbSpline
210
0.0
220
0.0
230
1.0
 70
    11
 71
     3
 72
    17
 73
    13
 74
     0
 42
0.0000000001
 43
0.0000000001
 12
1.0
 22
0.0
 32
0.0
 13
1.0
 23
0.0
 33
0.0
 40
0.0
 40
0.0
 40
0.0
 40
0.0
 40
1.0
 40
1.0
 40
1.0
 40
2.0
 40
2.0
 40
2.0
 40
3.0
 40
3.0
 40
3.0
 40
4.0
 40
4.0
 40
4.0
 40
4.0
 10
96.88780363929732
 20
-122.6788249693304
 30
0.0
 10
96.88780363929732
 20
-122.6236858026773
 30
0.0
 10
96.84300086266255
 20
-122.5789183026887
 30
0.0
 10
96.78789697517948
 20
-122.5789183026887
 30
0.0
 10
96.73275780991953
 20
-122.5789183026887
 30
0.0
 10
96.68799031106164
 20
-122.6236858026773
 30
0.0
 10
96.68799031106164
 20
-122.6788249693304
 30
0.0
 10
96.68799031106164
 20
-122.7339288582053
 30
0.0
 10
96.73275780991953
 20
-122.778731635972
 30
0.0
 10
96.78789697517948
 20
-122.778731635972
 30
0.0
 10
96.84300086266255
 20
-122.778731635972
 30
0.0
 10
96.88780363929732
 20
-122.7339288582053
 30
0.0
 10
96.88780363929732
 20
-122.6788249693304
 30
0.0
  0
SPLINE
  5
4A
330
1F
100
AcDbEntity
  8
_U+30EC_U+30A4_U+30E4_U+30FC 1
 62
   179
420
  2234388
370
    25
100
AcDbSpline
210
0.0
220
0.0
230
1.0
 70
    11
 71
     3
 72
    83
 73
    79
 74
     0
 42
0.0000000001
 43
0.0000000001
 12
1.0
 22
0.0
 32
0.0
 13
1.0
 23
0.0
 33
0.0
 40
0.0
 40
0.0
 40
0.0
 40
0.0
 40
1.0
 40
1.0
 40
1.0
 40
2.0
 40
2.0
 40
2.0
 40
3.0
 40
3.0
 40
3.0
 40
4.0
 40
4.0
 40
4.0
 40
5.0
 40
5.0
 40
5.0
 40
6.0
 40
6.0
 40
6.0
 40
7.0
 40
7.0
 40
7.0
 40
8.0
 40
8.0
 40
8.0
 40
9.0
 40
9.0
 40
9.0
 40
10.0
 40
10.0
 40
10.0
 40
11.0
 40
11.0
 40
11.0
 40
12.0
 40
12.0
 40
12.0
 40
13.0
 40
13.0
 40
13.0
 40
14.0
 40
14.0
 40
14.0
 40
15.0
 40
15.0
 40
15.0
 40
16.0
 40
16.0
 40
16.0
 40
17.0
 40
17.0
 40
17.0
 40
18.0
 40
18.0
 40
18.0
 40
19.0
 40
19.0
 40
19.0
 40
20.0
 40
20.0
 40
20.0
 40
21.0
 40
21.0
 40
21.0
 40
22.0
 40
22.0
 40
22.0
 40
23.0
 40
23.0
 40
23.0
 40
24.0
 40
24.0
 40
24.0
 40
25.0
 40
25.0
 40
25.0
 40
26.0
 40
26.0
 40
26.0
 40
26.0
 10
96.80581808583338
 20
-126.717848301654
 30
0.0
 10
96.80581808583338
 20
-126.717848301654
 30
0.0
 10
96.80581808583338
 20
-118.7248916369853
 30
0.0
 10
96.80581808583338
 20
-118.7248916369853
 30
0.0
 10
96.52952497586777
 20
-118.7224574703195
 30
0.0
 10
96.36689442035247
 20
-118.9436491369307
 30
0.0
 10
96.36414031932374
 20
-119.2199446924171
 30
0.0
 10
96.36414031932374
 20
-119.2199446924171
 30
0.0
 10
96.34830059750563
 20
-120.8198271920172
 30
0.0
 10
96.34830059750563
 20
-120.8198271920172
 30
0.0
 10
96.34830059750563
 20
-120.8198271920172
 30
0.0
 10
96.64389308996444
 20
-121.2229110808053
 30
0.0
 10
96.64389308996444
 20
-121.2229110808053
 30
0.0
 10
96.64389308996444
 20
-121.2229110808053
 30
0.0
 10
96.34001031993935
 20
-121.6201388584839
 30
0.0
 10
96.34001031993935
 20
-121.6201388584839
 30
0.0
 10
96.34001031993935
 20
-121.6201388584839
 30
0.0
 10
96.32487615365879
 20
-123.2200566358618
 30
0.0
 10
96.32487615365879
 20
-123.2200566358618
 30
0.0
 10
96.01344393938186
 20
-123.3953871913733
 30
0.0
 10
95.8198042220998
 20
-123.7240702468467
 30
0.0
 10
95.8156767222051
 20
-124.0806227467575
 30
0.0
 10
95.8156767222051
 20
-124.0806227467575
 30
0.0
 10
95.8156767222051
 20
-127.0072319126925
 30
0.0
 10
95.8156767222051
 20
-127.0072319126925
 30
0.0
 10
95.8156767222051
 20
-127.0072319126925
 30
0.0
 10
89.28773577763565
 20
-133.4750596888533
 30
0.0
 10
89.28773577763565
 20
-133.4750596888533
 30
0.0
 10
89.28773577763565
 20
-133.4750596888533
 30
0.0
 10
89.28773577763565
 20
-124.6824969132738
 30
0.0
 10
89.28773577763565
 20
-124.6824969132738
 30
0.0
 10
88.73549745839108
 20
-124.6769583021641
 30
0.0
 10
88.28348330325626
 20
-125.1203646909422
 30
0.0
 10
88.27797997006333
 20
-125.6726030241373
 30
0.0
 10
88.27797997006333
 20
-125.6726030241373
 30
0.0
 10
88.28521191432327
 20
-132.6723491334989
 30
0.0
 10
88.28521191432327
 20
-132.6723491334989
 30
0.0
 10
88.2783327478321
 20
-133.3627352444369
 30
0.0
 10
88.55222940751108
 20
-133.99043274428
 30
0.0
 10
88.99972800720555
 20
-134.447279966388
 30
0.0
 10
89.45174442208162
 20
-134.8992588551644
 30
0.0
 10
90.07665270195314
 20
-135.1790116328721
 30
0.0
 10
90.76742685099669
 20
-135.1790116328721
 30
0.0
 10
90.76742685099669
 20
-135.1790116328721
 30
0.0
 10
97.7676666724057
 20
-135.1790116328721
 30
0.0
 10
97.7676666724057
 20
-135.1790116328721
 30
0.0
 10
98.31958749165835
 20
-135.1790116328721
 30
0.0
 10
98.7674388691216
 20
-134.7311249663175
 30
0.0
 10
98.7674388691216
 20
-134.1788866331218
 30
0.0
 10
98.7674388691216
 20
-134.1788866331218
 30
0.0
 10
89.97434714900761
 20
-134.178533855344
 30
0.0
 10
89.97434714900761
 20
-134.178533855344
 30
0.0
 10
89.97434714900761
 20
-134.178533855344
 30
0.0
 10
96.506062815703
 20
-127.7107060791836
 30
0.0
 10
96.506062815703
 20
-127.7107060791836
 30
0.0
 10
96.506062815703
 20
-127.7107060791836
 30
0.0
 10
99.43302468547442
 20
-127.711058856961
 30
0.0
 10
99.43302468547442
 20
-127.711058856961
 30
0.0
 10
99.78992995414679
 20
-127.7107060791836
 30
0.0
 10
100.1206591123758
 20
-127.5202060792309
 30
0.0
 10
100.2991293856005
 20
-127.2108552459752
 30
0.0
 10
100.2991293856005
 20
-127.2108552459752
 30
0.0
 10
101.8990471225609
 20
-127.2111727459751
 30
0.0
 10
101.8990471225609
 20
-127.2111727459751
 30
0.0
 10
101.8990471225609
 20
-127.2111727459751
 30
0.0
 10
102.2986737790323
 20
-126.9107824682722
 30
0.0
 10
102.2986737790323
 20
-126.9107824682722
 30
0.0
 10
102.2986737790323
 20
-126.9107824682722
 30
0.0
 10
102.6989707132643
 20
-127.2111727459751
 30
0.0
 10
102.6989707132643
 20
-127.2111727459751
 30
0.0
 10
102.6989707132643
 20
-127.2111727459751
 30
0.0
 10
104.2988884502248
 20
-127.2108552459752
 30
0.0
 10
104.2988884502248
 20
-127.2108552459752
 30
0.0
 10
104.5751839987315
 20
-127.2111727459751
 30
0.0
 10
104.7991273263515
 20
-126.9869119126979
 30
0.0
 10
104.7991273263515
 20
-126.7109691349889
 30
0.0
 10
104.7991273263515
 20
-126.7109691349889
 30
0.0
 10
96.80581808583338
 20
-126.717848301654
 30
0.0
 10
96.80581808583338
 20
-126.717848301654
 30
0.0
  0
HATCH
  5
4B
330
1F
100
AcDbEntity
  8
_U+30EC_U+30A4_U+30E4_U+30FC 1
 62
   253
420
 11711154
100
AcDbHatch
 10
0.0
 20
0.0
 30
0.0
210
0.0
220
0.0
230
1.0
  2
SOLID
 70
     1
 71
     0
 91
        1
 92
        1
 93
        1
 72
     4
 94
        3
 73
     0
 74
     1
 95
       83
 96
       79
 40
0.0
 40
0.0
 40
0.0
 40
0.0
 40
1.0
 40
1.0
 40
1.0
 40
2.0
 40
2.0
 40
2.0
 40
3.0
 40
3.0
 40
3.0
 40
4.0
 40
4.0
 40
4.0
 40
5.0
 40
5.0
 40
5.0
 40
6.0
 40
6.0
 40
6.0
 40
7.0
 40
7.0
 40
7.0
 40
8.0
 40
8.0
 40
8.0
 40
9.0
 40
9.0
 40
9.0
 40
10.0
 40
10.0
 40
10.0
 40
11.0
 40
11.0
 40
11.0
 40
12.0
 40
12.0
 40
12.0
 40
13.0
 40
13.0
 40
13.0
 40
14.0
 40
14.0
 40
14.0
 40
15.0
 40
15.0
 40
15.0
 40
16.0
 40
16.0
 40
16.0
 40
17.0
 40
17.0
 40
17.0
 40
18.0
 40
18.0
 40
18.0
 40
19.0
 40
19.0
 40
19.0
 40
20.0
 40
20.0
 40
20.0
 40
21.0
 40
21.0
 40
21.0
 40
22.0
 40
22.0
 40
22.0
 40
23.0
 40
23.0
 40
23.0
 40
24.0
 40
24.0
 40
24.0
 40
25.0
 40
25.0
 40
25.0
 40
26.0
 40
26.0
 40
26.0
 40
26.0
 10
96.80581808583338
 20
-126.717848301654
 10
96.80581808583338
 20
-126.717848301654
 10
96.80581808583338
 20
-118.7248916369853
 10
96.80581808583338
 20
-118.7248916369853
 10
96.52952497586777
 20
-118.7224574703195
 10
96.36689442035247
 20
-118.9436491369307
 10
96.36414031932374
 20
-119.2199446924171
 10
96.36414031932374
 20
-119.2199446924171
 10
96.34830059750563
 20
-120.8198271920172
 10
96.34830059750563
 20
-120.8198271920172
 10
96.34830059750563
 20
-120.8198271920172
 10
96.64389308996444
 20
-121.2229110808053
 10
96.64389308996444
 20
-121.2229110808053
 10
96.64389308996444
 20
-121.2229110808053
 10
96.34001031993935
 20
-121.6201388584839
 10
96.34001031993935
 20
-121.6201388584839
 10
96.34001031993935
 20
-121.6201388584839
 10
96.32487615365879
 20
-123.2200566358618
 10
96.32487615365879
 20
-123.2200566358618
 10
96.01344393938186
 20
-123.3953871913733
 10
95.8198042220998
 20
-123.7240702468467
 10
95.8156767222051
 20
-124.0806227467575
 10
95.8156767222051
 20
-124.0806227467575
 10
95.8156767222051
 20
-127.0072319126925
 10
95.8156767222051
 20
-127.0072319126925
 10
95.8156767222051
 20
-127.0072319126925
 10
89.28773577763565
 20
-133.4750596888533
 10
89.28773577763565
 20
-133.4750596888533
 10
89.28773577763565
 20
-133.4750596888533
 10
89.28773577763565
 20
-124.6824969132738
 10
89.28773577763565
 20
-124.6824969132738
 10
88.73549745839108
 20
-124.6769583021641
 10
88.28348330325626
 20
-125.1203646909422
 10
88.27797997006333
 20
-125.6726030241373
 10
88.27797997006333
 20
-125.6726030241373
 10
88.28521191432327
 20
-132.6723491334989
 10
88.28521191432327
 20
-132.6723491334989
 10
88.2783327478321
 20
-133.3627352444369
 10
88.55222940751108
 20
-133.99043274428
 10
88.99972800720555
 20
-134.447279966388
 10
89.45174442208162
 20
-134.8992588551644
 10
90.07665270195314
 20
-135.1790116328721
 10
90.76742685099669
 20
-135.1790116328721
 10
90.76742685099669
 20
-135.1790116328721
 10
97.7676666724057
 20
-135.1790116328721
 10
97.7676666724057
 20
-135.1790116328721
 10
98.31958749165835
 20
-135.1790116328721
 10
98.7674388691216
 20
-134.7311249663175
 10
98.7674388691216
 20
-134.1788866331218
 10
98.7674388691216
 20
-134.1788866331218
 10
89.97434714900761
 20
-134.178533855344
 10
89.97434714900761
 20
-134.178533855344
 10
89.97434714900761
 20
-134.178533855344
 10
96.506062815703
 20
-127.7107060791836
 10
96.506062815703
 20
-127.7107060791836
 10
96.506062815703
 20
-127.7107060791836
 10
99.43302468547442
 20
-127.711058856961
 10
99.43302468547442
 20
-127.711058856961
 10
99.78992995414679
 20
-127.7107060791836
 10
100.1206591123758
 20
-127.5202060792309
 10
100.2991293856005
 20
-127.2108552459752
 10
100.2991293856005
 20
-127.2108552459752
 10
101.8990471225609
 20
-127.2111727459751
 10
101.8990471225609
 20
-127.2111727459751
 10
101.8990471225609
 20
-127.2111727459751
 10
102.2986737790323
 20
-126.9107824682722
 10
102.2986737790323
 20
-126.9107824682722
 10
102.2986737790323
 20
-126.9107824682722
 10
102.6989707132643
 20
-127.2111727459751
 10
102.6989707132643
 20
-127.2111727459751
 10
102.6989707132643
 20
-127.2111727459751
 10
104.2988884502248
 20
-127.2108552459752
 10
104.2988884502248
 20
-127.2108552459752
 10
104.5751839987315
 20
-127.2111727459751
 10
104.7991273263515
 20
-126.9869119126979
 10
104.7991273263515
 20
-126.7109691349889
 10
104.7991273263515
 20
-126.7109691349889
 10
96.80581808583338
 20
-126.717848301654
 10
96.80581808583338
 20
-126.717848301654
 97
        0
 97
        0
 75
     2
 76
     1
 98
        0
  0
SPLINE
  5
4C
330
1F
100
AcDbEntity
  8
_U+30EC_U+30A4_U+30E4_U+30FC 1
 62
   179
420
  2234388
370
     9
100
AcDbSpline
210
0.0
220
0.0
230
1.0
 70
    11
 71
     3
 72
    17
 73
    13
 74
     0
 42
0.0000000001
 43
0.0000000001
 12
1.0
 22
0.0
 32
0.0
 13
1.0
 23
0.0
 33
0.0
 40
0.0
 40
0.0
 40
0.0
 40
0.0
 40
1.0
 40
1.0
 40
1.0
 40
2.0
 40
2.0
 40
2.0
 40
3.0
 40
3.0
 40
3.0
 40
4.0
 40
4.0
 40
4.0
 40
4.0
 10
104.8879920463066
 20
-122.6788249693304
 30
0.0
 10
104.8879920463066
 20
-122.6236858026773
 30
0.0
 10
104.8432245474487
 20
-122.5789183026887
 30
0.0
 10
104.7874151044281
 20
-122.5789183026887
 30
0.0
 10
104.7322759391681
 20
-122.5789183026887
 30
0.0
 10
104.6875110849394
 20
-122.6236858026773
 30
0.0
 10
104.6875110849394
 20
-122.6788249693304
 30
0.0
 10
104.6875110849394
 20
-122.7339288582053
 30
0.0
 10
104.7322759391681
 20
-122.778731635972
 30
0.0
 10
104.7874151044281
 20
-122.778731635972
 30
0.0
 10
104.8432245474487
 20
-122.778731635972
 30
0.0
 10
104.8879920463066
 20
-122.7339288582053
 30
0.0
 10
104.8879920463066
 20
-122.6788249693304
 30
0.0
  0
SPLINE
  5
4D
330
1F
100
AcDbEntity
  8
_U+30EC_U+30A4_U+30E4_U+30FC 1
 62
   179
420
  2234388
370
     9
100
AcDbSpline
210
0.0
220
0.0
230
1.0
 70
    11
 71
     3
 72
    17
 73
    13
 74
     0
 42
0.0000000001
 43
0.0000000001
 12
1.0
 22
0.0
 32
0.0
 13
1.0
 23
0.0
 33
0.0
 40
0.0
 40
0.0
 40
0.0
 40
0.0
 40
1.0
 40
1.0
 40
1.0
 40
2.0
 40
2.0
 40
2.0
 40
3.0
 40
3.0
 40
3.0
 40
4.0
 40
4.0
 40
4.0
 40
4.0
 10
95.88803144258141
 20
-120.0450566366555
 30
0.0
 10
95.88803144258141
 20
-119.989564692225
 30
0.0
 10
95.84322866594664
 20
-119.9447971922361
 30
0.0
 10
95.78741922292602
 20
-119.9447971922361
 30
0.0
 10
95.73231533544293
 20
-119.9447971922361
 30
0.0
 10
95.68751255880818
 20
-119.989564692225
 30
0.0
 10
95.68751255880818
 20
-120.0450566366555
 30
0.0
 10
95.68751255880818
 20
-120.1001605255304
 30
0.0
 10
95.73231533544293
 20
-120.1449633032971
 30
0.0
 10
95.78741922292602
 20
-120.1449633032971
 30
0.0
 10
95.84322866594664
 20
-120.1449633032971
 30
0.0
 10
95.88803144258141
 20
-120.1001605255304
 30
0.0
 10
95.88803144258141
 20
-120.0450566366555
 30
0.0
  0
SPLINE
  5
4E
330
1F
100
AcDbEntity
  8
_U+30EC_U+30A4_U+30E4_U+30FC 1
 62
   179
420
  2234388
370
     9
100
AcDbSpline
210
0.0
220
0.0
230
1.0
 70
    11
 71
     3
 72
    17
 73
    13
 74
     0
 42
0.0000000001
 43
0.0000000001
 12
1.0
 22
0.0
 32
0.0
 13
1.0
 23
0.0
 33
0.0
 40
0.0
 40
0.0
 40
0.0
 40
0.0
 40
1.0
 40
1.0
 40
1.0
 40
2.0
 40
2.0
 40
2.0
 40
3.0
 40
3.0
 40
3.0
 40
4.0
 40
4.0
 40
4.0
 40
4.0
 10
89.38764244175347
 20
-120.0450566366555
 30
0.0
 10
89.38764244175347
 20
-119.989564692225
 30
0.0
 10
89.34287494289559
 20
-119.9447971922361
 30
0.0
 10
89.28773577763565
 20
-119.9447971922361
 30
0.0
 10
89.23263189015258
 20
-119.9447971922361
 30
0.0
 10
89.18782911351781
 20
-119.989564692225
 30
0.0
 10
89.18782911351781
 20
-120.0450566366555
 30
0.0
 10
89.18782911351781
 20
-120.1001605255304
 30
0.0
 10
89.23263189015258
 20
-120.1449633032971
 30
0.0
 10
89.28773577763565
 20
-120.1449633032971
 30
0.0
 10
89.34287494289559
 20
-120.1449633032971
 30
0.0
 10
89.38764244175347
 20
-120.1001605255304
 30
0.0
 10
89.38764244175347
 20
-120.0450566366555
 30
0.0
  0
SPLINE
  5
4F
330
1F
100
AcDbEntity
  8
_U+30EC_U+30A4_U+30E4_U+30FC 1
 62
   179
420
  2234388
370
     9
100
AcDbSpline
210
0.0
220
0.0
230
1.0
 70
    11
 71
     3
 72
    17
 73
    13
 74
     0
 42
0.0000000001
 43
0.0000000001
 12
1.0
 22
0.0
 32
0.0
 13
1.0
 23
0.0
 33
0.0
 40
0.0
 40
0.0
 40
0.0
 40
0.0
 40
1.0
 40
1.0
 40
1.0
 40
2.0
 40
2.0
 40
2.0
 40
3.0
 40
3.0
 40
3.0
 40
4.0
 40
4.0
 40
4.0
 40
4.0
 10
84.38744090265257
 20
-124.6790396910525
 30
0.0
 10
84.38744090265257
 20
-124.6239005243997
 30
0.0
 10
84.34299090378659
 20
-124.5791330244109
 30
0.0
 10
84.28753423853475
 20
-124.5791330244109
 30
0.0
 10
84.2323972011642
 20
-124.5791330244109
 30
0.0
 10
84.18762757441691
 20
-124.6239005243997
 30
0.0
 10
84.18762757441691
 20
-124.6790396910525
 30
0.0
 10
84.18762757441691
 20
-124.7341435799277
 30
0.0
 10
84.2323972011642
 20
-124.7789463576941
 30
0.0
 10
84.28753423853475
 20
-124.7789463576941
 30
0.0
 10
84.34299090378659
 20
-124.7789463576941
 30
0.0
 10
84.38744090265257
 20
-124.7341435799277
 30
0.0
 10
84.38744090265257
 20
-124.6790396910525
 30
0.0
  0
SPLINE
  5
50
330
1F
100
AcDbEntity
  8
_U+30EC_U+30A4_U+30E4_U+30FC 1
 62
   179
420
  2234388
370
     9
100
AcDbSpline
210
0.0
220
0.0
230
1.0
 70
    11
 71
     3
 72
    17
 73
    13
 74
     0
 42
0.0000000001
 43
0.0000000001
 12
1.0
 22
0.0
 32
0.0
 13
1.0
 23
0.0
 33
0.0
 40
0.0
 40
0.0
 40
0.0
 40
0.0
 40
1.0
 40
1.0
 40
1.0
 40
2.0
 40
2.0
 40
2.0
 40
3.0
 40
3.0
 40
3.0
 40
4.0
 40
4.0
 40
4.0
 40
4.0
 10
84.38744090265257
 20
-135.1790116328721
 30
0.0
 10
84.38744090265257
 20
-135.123872466219
 30
0.0
 10
84.34299090378659
 20
-135.0791049662305
 30
0.0
 10
84.28753423853475
 20
-135.0791049662305
 30
0.0
 10
84.2323972011642
 20
-135.0791049662305
 30
0.0
 10
84.18762757441691
 20
-135.123872466219
 30
0.0
 10
84.18762757441691
 20
-135.1790116328721
 30
0.0
 10
84.18762757441691
 20
-135.234115521747
 30
0.0
 10
84.2323972011642
 20
-135.2789182995137
 30
0.0
 10
84.28753423853475
 20
-135.2789182995137
 30
0.0
 10
84.34299090378659
 20
-135.2789182995137
 30
0.0
 10
84.38744090265257
 20
-135.234115521747
 30
0.0
 10
84.38744090265257
 20
-135.1790116328721
 30
0.0
  0
POLYLINE
  5
51
330
1F
100
AcDbEntity
  8
_U+30EC_U+30A4_U+30E4_U+30FC 1
 62
   179
420
  2234388
370
     9
100
AcDb2dPolyline
 66
     1
 10
0.0
 20
0.0
 30
0.0
  0
VERTEX
  5
52
330
51
100
AcDbEntity
  8
_U+30EC_U+30A4_U+30E4_U+30FC 1
 62
   179
420
  2234388
370
     9
100
AcDbVertex
100
AcDb2dVertex
 10
96.78789697517948
 20
-122.6788249693304
 30
0.0
  0
VERTEX
  5
53
330
51
100
AcDbEntity
  8
_U+30EC_U+30A4_U+30E4_U+30FC 1
 62
   179
420
  2234388
370
     9
100
AcDbVertex
100
AcDb2dVertex
 10
104.7874151044281
 20
-122.6788249693304
 30
0.0
  0
SEQEND
  5
54
330
51
100
AcDbEntity
  8
_U+30EC_U+30A4_U+30E4_U+30FC 1
 62
   179
420
  2234388
370
     9
  0
POLYLINE
  5
55
330
1F
100
AcDbEntity
  8
_U+30EC_U+30A4_U+30E4_U+30FC 1
 62
   179
420
  2234388
370
     9
100
AcDb2dPolyline
 66
     1
 10
0.0
 20
0.0
 30
0.0
  0
VERTEX
  5
56
330
55
100
AcDbEntity
  8
_U+30EC_U+30A4_U+30E4_U+30FC 1
 62
   179
420
  2234388
370
     9
100
AcDbVertex
100
AcDb2dVertex
 10
104.7874151044281
 20
-124.1388310800766
 30
0.0
  0
VERTEX
  5
57
330
55
100
AcDbEntity
  8
_U+30EC_U+30A4_U+30E4_U+30FC 1
 62
   179
420
  2234388
370
     9
100
AcDbVertex
100
AcDb2dVertex
 10
104.7874151044281
 20
-121.6790527473582
 30
0.0
  0
SEQEND
  5
58
330
55
100
AcDbEntity
  8
_U+30EC_U+30A4_U+30E4_U+30FC 1
 62
   179
420
  2234388
370
     9
  0
INSERT
  5
5A
330
1F
100
AcDbEntity
  8
_U+30EC_U+30A4_U+30E4_U+30FC 1
100
AcDbBlockReference
  2
block 2
 10
0.0
 20
0.0
 30
0.0
  0
POLYLINE
  5
61
330
1F
100
AcDbEntity
  8
_U+30EC_U+30A4_U+30E4_U+30FC 1
 62
   179
420
  2234388
370
     9
100
AcDb2dPolyline
 66
     1
 10
0.0
 20
0.0
 30
0.0
  0
VERTEX
  5
62
330
61
100
AcDbEntity
  8
_U+30EC_U+30A4_U+30E4_U+30FC 1
 62
   179
420
  2234388
370
     9
100
AcDbVertex
100
AcDb2dVertex
 10
89.28773577763565
 20
-120.0450566366555
 30
0.0
  0
VERTEX
  5
63
330
61
100
AcDbEntity
  8
_U+30EC_U+30A4_U+30E4_U+30FC 1
 62
   179
420
  2234388
370
     9
100
AcDbVertex
100
AcDb2dVertex
 10
95.78741922292602
 20
-120.0450566366555
 30
0.0
  0
SEQEND
  5
64
330
61
100
AcDbEntity
  8
_U+30EC_U+30A4_U+30E4_U+30FC 1
 62
   179
420
  2234388
370
     9
  0
POLYLINE
  5
65
330
1F
100
AcDbEntity
  8
_U+30EC_U+30A4_U+30E4_U+30FC 1
 62
   179
420
  2234388
370
     9
100
AcDb2dPolyline
 66
     1
 10
0.0
 20
0.0
 30
0.0
  0
VERTEX
  5
66
330
65
100
AcDbEntity
  8
_U+30EC_U+30A4_U+30E4_U+30FC 1
 62
   179
420
  2234388
370
     9
100
AcDbVertex
100
AcDb2dVertex
 10
89.28773577763565
 20
-121.5012880251802
 30
0.0
  0
VERTEX
  5
67
330
65
100
AcDbEntity
  8
_U+30EC_U+30A4_U+30E4_U+30FC 1
 62
   179
420
  2234388
370
     9
100
AcDbVertex
100
AcDb2dVertex
 10
89.28773577763565
 20
-119.0449316369055
 30
0.0
  0
SEQEND
  5
68
330
65
100
AcDbEntity
  8
_U+30EC_U+30A4_U+30E4_U+30FC 1
 62
   179
420
  2234388
370
     9
  0
POLYLINE
  5
69
330
1F
100
AcDbEntity
  8
_U+30EC_U+30A4_U+30E4_U+30FC 1
 62
   179
420
  2234388
370
     9
100
AcDb2dPolyline
 66
     1
 10
0.0
 20
0.0
 30
0.0
  0
VERTEX
  5
6A
330
69
100
AcDbEntity
  8
_U+30EC_U+30A4_U+30E4_U+30FC 1
 62
   179
420
  2234388
370
     9
100
AcDbVertex
100
AcDb2dVertex
 10
95.78741922292602
 20
-121.5047452474014
 30
0.0
  0
VERTEX
  5
6B
330
69
100
AcDbEntity
  8
_U+30EC_U+30A4_U+30E4_U+30FC 1
 62
   179
420
  2234388
370
     9
100
AcDbVertex
100
AcDb2dVertex
 10
95.78741922292602
 20
-119.0449316369055
 30
0.0
  0
SEQEND
  5
6C
330
69
100
AcDbEntity
  8
_U+30EC_U+30A4_U+30E4_U+30FC 1
 62
   179
420
  2234388
370
     9
  0
INSERT
  5
6E
330
1F
100
AcDbEntity
  8
_U+30EC_U+30A4_U+30E4_U+30FC 1
100
AcDbBlockReference
  2
block 3
 10
0.0
 20
0.0
 30
0.0
  0
POLYLINE
  5
7E
330
1F
100
AcDbEntity
  8
_U+30EC_U+30A4_U+30E4_U+30FC 1
 62
   179
420
  2234388
370
     9
100
AcDb2dPolyline
 66
     1
 10
0.0
 20
0.0
 30
0.0
  0
VERTEX
  5
7F
330
7E
100
AcDbEntity
  8
_U+30EC_U+30A4_U+30E4_U+30FC 1
 62
   179
420
  2234388
370
     9
100
AcDbVertex
100
AcDb2dVertex
 10
84.28753423853475
 20
-135.1790116328721
 30
0.0
  0
VERTEX
  5
80
330
7E
100
AcDbEntity
  8
_U+30EC_U+30A4_U+30E4_U+30FC 1
 62
   179
420
  2234388
370
     9
100
AcDbVertex
100
AcDb2dVertex
 10
84.28753423853475
 20
-124.6790396910525
 30
0.0
  0
SEQEND
  5
81
330
7E
100
AcDbEntity
  8
_U+30EC_U+30A4_U+30E4_U+30FC 1
 62
   179
420
  2234388
370
     9
  0
POLYLINE
  5
82
330
1F
100
AcDbEntity
  8
_U+30EC_U+30A4_U+30E4_U+30FC 1
 62
   179
420
  2234388
370
     9
100
AcDb2dPolyline
 66
     1
 10
0.0
 20
0.0
 30
0.0
  0
VERTEX
  5
83
330
82
100
AcDbEntity
  8
_U+30EC_U+30A4_U+30E4_U+30FC 1
 62
   179
420
  2234388
370
     9
100
AcDbVertex
100
AcDb2dVertex
 10
87.37500999310001
 20
-135.1790116328721
 30
0.0
  0
VERTEX
  5
84
330
82
100
AcDbEntity
  8
_U+30EC_U+30A4_U+30E4_U+30FC 1
 62
   179
420
  2234388
370
     9
100
AcDbVertex
100
AcDb2dVertex
 10
83.28776204181884
 20
-135.1790116328721
 30
0.0
  0
SEQEND
  5
85
330
82
100
AcDbEntity
  8
_U+30EC_U+30A4_U+30E4_U+30FC 1
 62
   179
420
  2234388
370
     9
  0
POLYLINE
  5
86
330
1F
100
AcDbEntity
  8
_U+30EC_U+30A4_U+30E4_U+30FC 1
 62
   179
420
  2234388
370
     9
100
AcDb2dPolyline
 66
     1
 10
0.0
 20
0.0
 30
0.0
  0
VERTEX
  5
87
330
86
100
AcDbEntity
  8
_U+30EC_U+30A4_U+30E4_U+30FC 1
 62
   179
420
  2234388
370
     9
100
AcDbVertex
100
AcDb2dVertex
 10
85.747577756341
 20
-124.6790396910525
 30
0.0
  0
VERTEX
  5
88
330
86
100
AcDbEntity
  8
_U+30EC_U+30A4_U+30E4_U+30FC 1
 62
   179
420
  2234388
370
     9
100
AcDbVertex
100
AcDb2dVertex
 10
83.28776204181884
 20
-124.6790396910525
 30
0.0
  0
SEQEND
  5
89
330
86
100
AcDbEntity
  8
_U+30EC_U+30A4_U+30E4_U+30FC 1
 62
   179
420
  2234388
370
     9
  0
INSERT
  5
8B
330
1F
100
AcDbEntity
  8
_U+30EC_U+30A4_U+30E4_U+30FC 1
100
AcDbBlockReference
  2
block 4
 10
0.0
 20
0.0
 30
0.0
  0
POLYLINE
  5
9D
330
1F
100
AcDbEntity
  8
_U+30EC_U+30A4_U+30E4_U+30FC 1
 62
   179
420
  2234388
370
     9
100
AcDb2dPolyline
 66
     1
 10
0.0
 20
0.0
 30
0.0
  0
VERTEX
  5
9E
330
9D
100
AcDbEntity
  8
_U+30EC_U+30A4_U+30E4_U+30FC 1
 62
   179
420
  2234388
370
     9
100
AcDbVertex
100
AcDb2dVertex
 10
89.01973050669525
 20
-134.4465744108325
 30
0.0
  0
VERTEX
  5
9F
330
9D
100
AcDbEntity
  8
_U+30EC_U+30A4_U+30E4_U+30FC 1
 62
   179
420
  2234388
370
     9
100
AcDbVertex
100
AcDb2dVertex
 10
84.28753423853475
 20
-139.1787707985384
 30
0.0
  0
SEQEND
  5
A0
330
9D
100
AcDbEntity
  8
_U+30EC_U+30A4_U+30E4_U+30FC 1
 62
   179
420
  2234388
370
     9
  0
POLYLINE
  5
A1
330
1F
100
AcDbEntity
  8
_U+30EC_U+30A4_U+30E4_U+30FC 1
 62
   179
420
  2234388
370
     9
100
AcDb2dPolyline
 66
     1
 10
0.0
 20
0.0
 30
0.0
  0
VERTEX
  5
A2
330
A1
100
AcDbEntity
  8
_U+30EC_U+30A4_U+30E4_U+30FC 1
 62
   179
420
  2234388
370
     9
100
AcDbVertex
100
AcDb2dVertex
 10
84.28753423853475
 20
-139.1787707985384
 30
0.0
  0
VERTEX
  5
A3
330
A1
100
AcDbEntity
  8
_U+30EC_U+30A4_U+30E4_U+30FC 1
 62
   179
420
  2234388
370
     9
100
AcDbVertex
100
AcDb2dVertex
 10
77.01286859079359
 20
-139.1787707985384
 30
0.0
  0
SEQEND
  5
A4
330
A1
100
AcDbEntity
  8
_U+30EC_U+30A4_U+30E4_U+30FC 1
 62
   179
420
  2234388
370
     9
  0
INSERT
  5
A6
330
1F
100
AcDbEntity
  8
_U+30EC_U+30A4_U+30E4_U+30FC 1
100
AcDbBlockReference
  2
block 5
 10
0.0
 20
0.0
 30
0.0
  0
POLYLINE
  5
B8
330
1F
100
AcDbEntity
  8
_U+30EC_U+30A4_U+30E4_U+30FC 1
 62
   179
420
  2234388
370
     9
100
AcDb2dPolyline
 66
     1
 10
0.0
 20
0.0
 30
0.0
  0
VERTEX
  5
B9
330
B8
100
AcDbEntity
  8
_U+30EC_U+30A4_U+30E4_U+30FC 1
 62
   179
420
  2234388
370
     9
100
AcDbVertex
100
AcDb2dVertex
 10
86.74353778698799
 20
-120.0450566366555
 30
0.0
  0
VERTEX
  5
BA
330
B8
100
AcDbEntity
  8
_U+30EC_U+30A4_U+30E4_U+30FC 1
 62
   179
420
  2234388
370
     9
100
AcDbVertex
100
AcDb2dVertex
 10
92.7833048551229
 20
-120.0450566366555
 30
0.0
  0
SEQEND
  5
BB
330
B8
100
AcDbEntity
  8
_U+30EC_U+30A4_U+30E4_U+30FC 1
 62
   179
420
  2234388
370
     9
  0
SPLINE
  5
BC
330
1F
100
AcDbEntity
  8
_U+30EC_U+30A4_U+30E4_U+30FC 1
 62
   179
420
  2234388
370
     9
100
AcDbSpline
210
0.0
220
0.0
230
1.0
 70
    11
 71
     3
 72
    17
 73
    13
 74
     0
 42
0.0000000001
 43
0.0000000001
 12
1.0
 22
0.0
 32
0.0
 13
1.0
 23
0.0
 33
0.0
 40
0.0
 40
0.0
 40
0.0
 40
0.0
 40
1.0
 40
1.0
 40
1.0
 40
2.0
 40
2.0
 40
2.0
 40
3.0
 40
3.0
 40
3.0
 40
4.0
 40
4.0
 40
4.0
 40
4.0
 10
88.38338996737409
 20
-120.0412466366564
 30
0.0
 10
88.38338996737409
 20
-119.9861427477812
 30
0.0
 10
88.3386224685162
 20
-119.9413399700148
 30
0.0
 10
88.28348330325626
 20
-119.9413399700148
 30
0.0
 10
88.22837941577319
 20
-119.9413399700148
 30
0.0
 10
88.18357663913842
 20
-119.9861427477812
 30
0.0
 10
88.18357663913842
 20
-120.0412466366564
 30
0.0
 10
88.18357663913842
 20
-120.0963858033092
 30
0.0
 10
88.22837941577319
 20
-120.1411533032981
 30
0.0
 10
88.28348330325626
 20
-120.1411533032981
 30
0.0
 10
88.3386224685162
 20
-120.1411533032981
 30
0.0
 10
88.38338996737409
 20
-120.0963858033092
 30
0.0
 10
88.38338996737409
 20
-120.0412466366564
 30
0.0
  0
POLYLINE
  5
BD
330
1F
100
AcDbEntity
  8
_U+30EC_U+30A4_U+30E4_U+30FC 1
 62
   179
420
  2234388
370
     9
100
AcDb2dPolyline
 66
     1
 10
0.0
 20
0.0
 30
0.0
  0
VERTEX
  5
BE
330
BD
100
AcDbEntity
  8
_U+30EC_U+30A4_U+30E4_U+30FC 1
 62
   179
420
  2234388
370
     9
100
AcDbVertex
100
AcDb2dVertex
 10
88.28348330325626
 20
-121.5012880251802
 30
0.0
  0
VERTEX
  5
BF
330
BD
100
AcDbEntity
  8
_U+30EC_U+30A4_U+30E4_U+30FC 1
 62
   179
420
  2234388
370
     9
100
AcDbVertex
100
AcDb2dVertex
 10
88.28348330325626
 20
-119.0414744146842
 30
0.0
  0
SEQEND
  5
C0
330
BD
100
AcDbEntity
  8
_U+30EC_U+30A4_U+30E4_U+30FC 1
 62
   179
420
  2234388
370
     9
  0
INSERT
  5
C2
330
1F
100
AcDbEntity
  8
_U+30EC_U+30A4_U+30E4_U+30FC 1
100
AcDbBlockReference
  2
block 6
 10
0.0
 20
0.0
 30
0.0
  0
ENDSEC
  0
SECTION
  2
OBJECTS
  0
DICTIONARY
  5
C
330
0
100
AcDbDictionary
281
     1
  3
ACAD_GROUP
350
D
  3
ACAD_LAYOUT
350
1A
  3
ACAD_MATERIAL
350
3B
  3
ACAD_MLEADERSTYLE
350
C8
  3
ACAD_MLINESTYLE
350
17
  3
ACAD_PLOTSETTINGS
350
19
  3
ACAD_PLOTSTYLENAME
350
E
  3
ACAD_TABLESTYLE
350
C7
  3
ACAD_VISUALSTYLE
350
2A
  0
SUN
  5
3F
330
29
100
AcDbSun
 90
        1
290
     0
 63
     7
421
 16777215
 40
1.0
291
     1
 91
  2455826
 92
 54000000
292
     0
 70
     2
 71
   256
280
     1
  0
DICTIONARY
  5
D
102
{ACAD_REACTORS
330
C
102
}
330
C
100
AcDbDictionary
281
     1
  0
DICTIONARY
  5
1A
102
{ACAD_REACTORS
330
C
102
}
330
C
100
AcDbDictionary
281
     1
  3
Layout1
350
1E
  3
Layout2
350
26
  3
Model
350
22
  0
DICTIONARY
  5
3B
102
{ACAD_REACTORS
330
C
102
}
330
C
100
AcDbDictionary
281
     1
  3
ByBlock
350
3D
  3
ByLayer
350
3C
  3
Global
350
3E
  0
DICTIONARY
  5
C8
102
{ACAD_REACTORS
330
C
102
}
330
C
100
AcDbDictionary
281
     1
  0
DICTIONARY
  5
17
102
{ACAD_REACTORS
330
C
102
}
330
C
100
AcDbDictionary
281
     1
  3
Standard
350
18
  0
DICTIONARY
  5
19
102
{ACAD_REACTORS
330
C
102
}
330
C
100
AcDbDictionary
281
     1
  0
ACDBDICTIONARYWDFLT
  5
E
102
{ACAD_REACTORS
330
C
102
}
330
C
100
AcDbDictionary
281
     1
  3
Normal
350
F
100
AcDbDictionaryWithDefault
340
F
  0
DICTIONARY
  5
C7
102
{ACAD_REACTORS
330
C
102
}
330
C
100
AcDbDictionary
281
     1
  0
DICTIONARY
  5
2A
102
{ACAD_REACTORS
330
C
102
}
330
C
100
AcDbDictionary
281
     1
  3
2dWireframe
350
2F
  3
3D Hidden
350
31
  3
3dWireframe
350
30
  3
Basic
350
32
  3
Brighten
350
36
  3
ColorChange
350
3A
  3
Conceptual
350
34
  3
Dim
350
35
  3
Facepattern
350
39
  3
Flat
350
2B
  3
FlatWithEdges
350
2C
  3
Gouraud
350
2D
  3
GouraudWithEdges
350
2E
  3
Linepattern
350
38
  3
Realistic
350
33
  3
Thicken
350
37
  0
LAYOUT
  5
1E
102
{ACAD_REACTORS
330
1A
102
}
330
1A
100
AcDbPlotSettings
  1

  2
none_device
  4

  6

 40
0.0
 41
0.0
 42
0.0
 43
0.0
 44
0.0
 45
0.0
 46
0.0
 47
0.0
 48
0.0
 49
0.0
140
0.0
141
0.0
142
1.0
143
1.0
 70
   688
 72
     0
 73
     0
 74
     5
  7

 75
    16
 76
     0
 77
     2
 78
   300
147
1.0
148
0.0
149
0.0
100
AcDbLayout
  1
Layout1
 70
     1
 71
     1
 10
0.0
 20
0.0
 11
12.0
 21
9.0
 12
0.0
 22
0.0
 32
0.0
 14
1.000000000000000E+20
 24
1.000000000000000E+20
 34
1.000000000000000E+20
 15
-1.000000000000000E+20
 25
-1.000000000000000E+20
 35
-1.000000000000000E+20
146
0.0
 13
0.0
 23
0.0
 33
0.0
 16
1.0
 26
0.0
 36
0.0
 17
0.0
 27
1.0
 37
0.0
 76
     0
330
1B
  0
LAYOUT
  5
26
102
{ACAD_REACTORS
330
1A
102
}
330
1A
100
AcDbPlotSettings
  1

  2
none_device
  4

  6

 40
0.0
 41
0.0
 42
0.0
 43
0.0
 44
0.0
 45
0.0
 46
0.0
 47
0.0
 48
0.0
 49
0.0
140
0.0
141
0.0
142
1.0
143
1.0
 70
   688
 72
     0
 73
     0
 74
     5
  7

 75
    16
 76
     0
 77
     2
 78
   300
147
1.0
148
0.0
149
0.0
100
AcDbLayout
  1
Layout2
 70
     1
 71
     2
 10
0.0
 20
0.0
 11
0.0
 21
0.0
 12
0.0
 22
0.0
 32
0.0
 14
0.0
 24
0.0
 34
0.0
 15
0.0
 25
0.0
 35
0.0
146
0.0
 13
0.0
 23
0.0
 33
0.0
 16
1.0
 26
0.0
 36
0.0
 17
0.0
 27
1.0
 37
0.0
 76
     0
330
23
  0
LAYOUT
  5
22
102
{ACAD_REACTORS
330
1A
102
}
330
1A
100
AcDbPlotSettings
  1

  2
none_device
  4

  6

 40
0.0
 41
0.0
 42
0.0
 43
0.0
 44
0.0
 45
0.0
 46
0.0
 47
0.0
 48
0.0
 49
0.0
140
0.0
141
0.0
142
1.0
143
1.0
 70
  1712
 72
     0
 73
     0
 74
     0
  7

 75
     0
 76
     0
 77
     2
 78
   300
147
1.0
148
0.0
149
0.0
100
AcDbLayout
  1
Model
 70
     1
 71
     0
 10
0.0
 20
0.0
 11
12.0
 21
9.0
 12
0.0
 22
0.0
 32
0.0
 14
1.000000000000000E+20
 24
1.000000000000000E+20
 34
1.000000000000000E+20
 15
-1.000000000000000E+20
 25
-1.000000000000000E+20
 35
-1.000000000000000E+20
146
0.0
 13
0.0
 23
0.0
 33
0.0
 16
1.0
 26
0.0
 36
0.0
 17
0.0
 27
1.0
 37
0.0
 76
     0
330
1F
331
29
  0
MATERIAL
  5
3D
102
{ACAD_REACTORS
330
3B
102
}
330
3B
100
AcDbMaterial
  1
ByBlock
 72
     1
 94
      127
  0
MATERIAL
  5
3C
102
{ACAD_REACTORS
330
3B
102
}
330
3B
100
AcDbMaterial
  1
ByLayer
 72
     1
 94
      127
  0
MATERIAL
  5
3E
102
{ACAD_REACTORS
330
3B
102
}
330
3B
100
AcDbMaterial
  1
Global
 72
     1
 94
      127
  0
MLINESTYLE
  5
18
102
{ACAD_REACTORS
330
17
102
}
330
17
100
AcDbMlineStyle
  2
Standard
 70
     0
  3

 62
   256
 51
90.0
 52
90.0
 71
     2
 49
0.5
 62
   256
  6
BYLAYER
 49
-0.5
 62
   256
  6
BYLAYER
  0
ACDBPLACEHOLDER
  5
F
102
{ACAD_REACTORS
330
E
102
}
330
E
  0
VISUALSTYLE
  5
2F
102
{ACAD_REACTORS
330
2A
102
}
330
2A
100
AcDbVisualStyle
  2
2dWireframe
 70
     4
177
     2
291
     0
 71
     0
176
     1
 72
     2
176
     1
 73
     0
176
     1
 90
        0
176
     1
 40
-0.6
176
     1
 41
-30.0
176
     1
 62
     5
 63
     7
421
 16777215
176
     1
 74
     1
176
     1
 91
        4
176
     1
 64
     7
176
     1
 65
   257
176
     1
 75
     1
176
     1
175
     1
176
     1
 42
1.0
176
     1
 92
        0
176
     1
 66
   257
176
     1
 43
1.0
176
     1
 76
     1
176
     1
 77
     6
176
     1
 78
     2
176
     1
 67
     7
176
     1
 79
     5
176
     1
170
     0
176
     1
171
     0
176
     1
290
     0
176
     1
 93
        1
176
     1
 44
0.0
176
     1
173
     0
176
     1
  0
VISUALSTYLE
  5
31
102
{ACAD_REACTORS
330
2A
102
}
330
2A
100
AcDbVisualStyle
  2
3D Hidden
 70
     6
177
     2
291
     0
 71
     1
176
     1
 72
     2
176
     1
 73
     2
176
     1
 90
        0
176
     1
 40
-0.6
176
     1
 41
-30.0
176
     1
 62
     5
 63
     7
421
 16777215
176
     1
 74
     2
176
     1
 91
        2
176
     1
 64
     7
176
     1
 65
   257
176
     1
 75
     2
176
     1
175
     1
176
     1
 42
40.0
176
     1
 92
        0
176
     1
 66
   257
176
     1
 43
1.0
176
     1
 76
     1
176
     1
 77
     6
176
     1
 78
     2
176
     1
 67
     7
176
     1
 79
     3
176
     1
170
     0
176
     1
171
     0
176
     1
290
     0
176
     1
 93
        1
176
     1
 44
0.0
176
     1
173
     0
176
     1
  0
VISUALSTYLE
  5
30
102
{ACAD_REACTORS
330
2A
102
}
330
2A
100
AcDbVisualStyle
  2
3dWireframe
 70
     5
177
     2
291
     0
 71
     0
176
     1
 72
     2
176
     1
 73
     0
176
     1
 90
        0
176
     1
 40
-0.6
176
     1
 41
-30.0
176
     1
 62
     5
 63
     7
421
 16777215
176
     1
 74
     1
176
     1
 91
        4
176
     1
 64
     7
176
     1
 65
   257
176
     1
 75
     1
176
     1
175
     1
176
     1
 42
1.0
176
     1
 92
        0
176
     1
 66
   257
176
     1
 43
1.0
176
     1
 76
     1
176
     1
 77
     6
176
     1
 78
     2
176
     1
 67
     7
176
     1
 79
     5
176
     1
170
     0
176
     1
171
     0
176
     1
290
     0
176
     1
 93
        1
176
     1
 44
0.0
176
     1
173
     0
176
     1
  0
VISUALSTYLE
  5
32
102
{ACAD_REACTORS
330
2A
102
}
330
2A
100
AcDbVisualStyle
  2
Basic
 70
     7
177
     2
291
     1
 71
     1
176
     1
 72
     0
176
     1
 73
     1
176
     1
 90
        0
176
     1
 40
-0.6
176
     1
 41
-30.0
176
     1
 62
     5
 63
     7
421
 16777215
176
     1
 74
     0
176
     1
 91
        4
176
     1
 64
     7
176
     1
 65
   257
176
     1
 75
     1
176
     1
175
     1
176
     1
 42
1.0
176
     1
 92
        8
176
     1
 66
     7
176
     1
 43
1.0
176
     1
 76
     1
176
     1
 77
     6
176
     1
 78
     2
176
     1
 67
     7
176
     1
 79
     5
176
     1
170
     0
176
     1
171
     0
176
     1
290
     0
176
     1
 93
        1
176
     1
 44
0.0
176
     1
173
     0
176
     1
  0
VISUALSTYLE
  5
36
102
{ACAD_REACTORS
330
2A
102
}
330
2A
100
AcDbVisualStyle
  2
Brighten
 70
    12
177
     2
291
     1
 71
     2
176
     1
 72
     2
176
     1
 73
     0
176
     1
 90
        0
176
     1
 40
-0.6
176
     1
 41
-30.0
176
     1
 62
     5
 63
     7
421
 16777215
176
     1
 74
     1
176
     1
 91
        4
176
     1
 64
     7
176
     1
 65
   257
176
     1
 75
     1
176
     1
175
     1
176
     1
 42
1.0
176
     1
 92
        8
176
     1
 66
     7
176
     1
 43
1.0
176
     1
 76
     1
176
     1
 77
     6
176
     1
 78
     2
176
     1
 67
     7
176
     1
 79
     5
176
     1
170
     0
176
     1
171
     0
176
     1
290
     0
176
     1
 93
        1
176
     1
 44
50.0
176
     1
173
     0
176
     1
  0
VISUALSTYLE
  5
3A
102
{ACAD_REACTORS
330
2A
102
}
330
2A
100
AcDbVisualStyle
  2
ColorChange
 70
    16
177
     2
291
     1
 71
     2
176
     1
 72
     2
176
     1
 73
     3
176
     1
 90
        0
176
     1
 40
-0.6
176
     1
 41
-30.0
176
     1
 62
     5
 63
     8
421
  8421504
176
     1
 74
     1
176
     1
 91
        4
176
     1
 64
     7
176
     1
 65
   257
176
     1
 75
     1
176
     1
175
     1
176
     1
 42
1.0
176
     1
 92
        8
176
     1
 66
     8
424
  8421504
176
     1
 43
1.0
176
     1
 76
     1
176
     1
 77
     6
176
     1
 78
     2
176
     1
 67
     7
176
     1
 79
     5
176
     1
170
     0
176
     1
171
     0
176
     1
290
     0
176
     1
 93
        1
176
     1
 44
0.0
176
     1
173
     0
176
     1
  0
VISUALSTYLE
  5
34
102
{ACAD_REACTORS
330
2A
102
}
330
2A
100
AcDbVisualStyle
  2
Conceptual
 70
     9
177
     2
291
     0
 71
     3
176
     1
 72
     2
176
     1
 73
     0
176
     1
 90
        0
176
     1
 40
-0.6
176
     1
 41
-30.0
176
     1
 62
     5
 63
     7
421
 16777215
176
     1
 74
     2
176
     1
 91
        2
176
     1
 64
     7
176
     1
 65
   257
176
     1
 75
     1
176
     1
175
     1
176
     1
 42
40.0
176
     1
 92
        8
176
     1
 66
     7
176
     1
 43
1.0
176
     1
 76
     1
176
     1
 77
     6
176
     1
 78
     2
176
     1
 67
     7
176
     1
 79
     3
176
     1
170
     0
176
     1
171
     0
176
     1
290
     0
176
     1
 93
        1
176
     1
 44
0.0
176
     1
173
     0
176
     1
  0
VISUALSTYLE
  5
35
102
{ACAD_REACTORS
330
2A
102
}
330
2A
100
AcDbVisualStyle
  2
Dim
 70
    11
177
     2
291
     1
 71
     2
176
     1
 72
     2
176
     1
 73
     0
176
     1
 90
        0
176
     1
 40
-0.6
176
     1
 41
-30.0
176
     1
 62
     5
 63
     7
421
 16777215
176
     1
 74
     1
176
     1
 91
        4
176
     1
 64
     7
176
     1
 65
   257
176
     1
 75
     1
176
     1
175
     1
176
     1
 42
1.0
176
     1
 92
        8
176
     1
 66
     7
176
     1
 43
1.0
176
     1
 76
     1
176
     1
 77
     6
176
     1
 78
     2
176
     1
 67
     7
176
     1
 79
     5
176
     1
170
     0
176
     1
171
     0
176
     1
290
     0
176
     1
 93
        1
176
     1
 44
-50.0
176
     1
173
     0
176
     1
  0
VISUALSTYLE
  5
39
102
{ACAD_REACTORS
330
2A
102
}
330
2A
100
AcDbVisualStyle
  2
Facepattern
 70
    15
177
     2
291
     1
 71
     2
176
     1
 72
     2
176
     1
 73
     0
176
     1
 90
        0
176
     1
 40
-0.6
176
     1
 41
-30.0
176
     1
 62
     5
 63
     7
421
 16777215
176
     1
 74
     1
176
     1
 91
        4
176
     1
 64
     7
176
     1
 65
   257
176
     1
 75
     1
176
     1
175
     1
176
     1
 42
1.0
176
     1
 92
        8
176
     1
 66
     7
176
     1
 43
1.0
176
     1
 76
     1
176
     1
 77
     6
176
     1
 78
     2
176
     1
 67
     7
176
     1
 79
     5
176
     1
170
     0
176
     1
171
     0
176
     1
290
     0
176
     1
 93
        1
176
     1
 44
0.0
176
     1
173
     0
176
     1
  0
VISUALSTYLE
  5
2B
102
{ACAD_REACTORS
330
2A
102
}
330
2A
100
AcDbVisualStyle
  2
Flat
 70
     0
177
     2
291
     1
 71
     2
176
     1
 72
     1
176
     1
 73
     1
176
     1
 90
        2
176
     1
 40
-0.6
176
     1
 41
30.0
176
     1
 62
     5
 63
     7
421
 16777215
176
     1
 74
     0
176
     1
 91
        4
176
     1
 64
     7
176
     1
 65
   257
176
     1
 75
     1
176
     1
175
     1
176
     1
 42
1.0
176
     1
 92
        8
176
     1
 66
     7
176
     1
 43
1.0
176
     1
 76
     1
176
     1
 77
     6
176
     1
 78
     2
176
     1
 67
     7
176
     1
 79
     5
176
     1
170
     0
176
     1
171
     0
176
     1
290
     0
176
     1
 93
       13
176
     1
 44
0.0
176
     1
173
     0
176
     1
  0
VISUALSTYLE
  5
2C
102
{ACAD_REACTORS
330
2A
102
}
330
2A
100
AcDbVisualStyle
  2
FlatWithEdges
 70
     1
177
     2
291
     1
 71
     2
176
     1
 72
     1
176
     1
 73
     1
176
     1
 90
        2
176
     1
 40
-0.6
176
     1
 41
30.0
176
     1
 62
     5
 63
     7
421
 16777215
176
     1
 74
     1
176
     1
 91
        4
176
     1
 64
     7
176
     1
 65
   257
176
     1
 75
     1
176
     1
175
     1
176
     1
 42
1.0
176
     1
 92
        0
176
     1
 66
   257
176
     1
 43
1.0
176
     1
 76
     1
176
     1
 77
     6
176
     1
 78
     2
176
     1
 67
     7
176
     1
 79
     5
176
     1
170
     0
176
     1
171
     0
176
     1
290
     0
176
     1
 93
       13
176
     1
 44
0.0
176
     1
173
     0
176
     1
  0
VISUALSTYLE
  5
2D
102
{ACAD_REACTORS
330
2A
102
}
330
2A
100
AcDbVisualStyle
  2
Gouraud
 70
     2
177
     2
291
     1
 71
     2
176
     1
 72
     2
176
     1
 73
     1
176
     1
 90
        2
176
     1
 40
-0.6
176
     1
 41
30.0
176
     1
 62
     5
 63
     7
421
 16777215
176
     1
 74
     0
176
     1
 91
        4
176
     1
 64
     7
176
     1
 65
   257
176
     1
 75
     1
176
     1
175
     1
176
     1
 42
1.0
176
     1
 92
        0
176
     1
 66
     7
176
     1
 43
1.0
176
     1
 76
     1
176
     1
 77
     6
176
     1
 78
     2
176
     1
 67
     7
176
     1
 79
     5
176
     1
170
     0
176
     1
171
     0
176
     1
290
     0
176
     1
 93
       13
176
     1
 44
0.0
176
     1
173
     0
176
     1
  0
VISUALSTYLE
  5
2E
102
{ACAD_REACTORS
330
2A
102
}
330
2A
100
AcDbVisualStyle
  2
GouraudWithEdges
 70
     3
177
     2
291
     1
 71
     2
176
     1
 72
     2
176
     1
 73
     1
176
     1
 90
        2
176
     1
 40
-0.6
176
     1
 41
30.0
176
     1
 62
     5
 63
     7
421
 16777215
176
     1
 74
     1
176
     1
 91
        4
176
     1
 64
     7
176
     1
 65
   257
176
     1
 75
     1
176
     1
175
     1
176
     1
 42
1.0
176
     1
 92
        0
176
     1
 66
   257
176
     1
 43
1.0
176
     1
 76
     1
176
     1
 77
     6
176
     1
 78
     2
176
     1
 67
     7
176
     1
 79
     5
176
     1
170
     0
176
     1
171
     0
176
     1
290
     0
176
     1
 93
       13
176
     1
 44
0.0
176
     1
173
     0
176
     1
  0
VISUALSTYLE
  5
38
102
{ACAD_REACTORS
330
2A
102
}
330
2A
100
AcDbVisualStyle
  2
Linepattern
 70
    14
177
     2
291
     1
 71
     2
176
     1
 72
     2
176
     1
 73
     0
176
     1
 90
        0
176
     1
 40
-0.6
176
     1
 41
-30.0
176
     1
 62
     5
 63
     7
421
 16777215
176
     1
 74
     1
176
     1
 91
        4
176
     1
 64
     7
176
     1
 65
   257
176
     1
 75
     7
176
     1
175
     7
176
     1
 42
1.0
176
     1
 92
        8
176
     1
 66
     7
176
     1
 43
1.0
176
     1
 76
     1
176
     1
 77
     6
176
     1
 78
     2
176
     1
 67
     7
176
     1
 79
     5
176
     1
170
     0
176
     1
171
     0
176
     1
290
     0
176
     1
 93
        1
176
     1
 44
0.0
176
     1
173
     0
176
     1
  0
VISUALSTYLE
  5
33
102
{ACAD_REACTORS
330
2A
102
}
330
2A
100
AcDbVisualStyle
  2
Realistic
 70
     8
177
     2
291
     0
 71
     2
176
     1
 72
     2
176
     1
 73
     0
176
     1
 90
        0
176
     1
 40
-0.6
176
     1
 41
-30.0
176
     1
 62
     5
 63
     7
421
 16777215
176
     1
 74
     1
176
     1
 91
        0
176
     1
 64
     7
176
     1
 65
   257
176
     1
 75
     1
176
     1
175
     1
176
     1
 42
1.0
176
     1
 92
        8
176
     1
 66
     8
424
  7895160
176
     1
 43
1.0
176
     1
 76
     1
176
     1
 77
     6
176
     1
 78
     2
176
     1
 67
     7
176
     1
 79
     5
176
     1
170
     0
176
     1
171
     0
176
     1
290
     0
176
     1
 93
       13
176
     1
 44
0.0
176
     1
173
     0
176
     1
  0
VISUALSTYLE
  5
37
102
{ACAD_REACTORS
330
2A
102
}
330
2A
100
AcDbVisualStyle
  2
Thicken
 70
    13
177
     2
291
     1
 71
     2
176
     1
 72
     2
176
     1
 73
     0
176
     1
 90
        0
176
     1
 40
-0.6
176
     1
 41
-30.0
176
     1
 62
     5
 63
     7
421
 16777215
176
     1
 74
     1
176
     1
 91
        4
176
     1
 64
     7
176
     1
 65
   257
176
     1
 75
     1
176
     1
175
     1
176
     1
 42
1.0
176
     1
 92
       12
176
     1
 66
     7
176
     1
 43
1.0
176
     1
 76
     1
176
     1
 77
     6
176
     1
 78
     2
176
     1
 67
     7
176
     1
 79
     5
176
     1
170
     0
176
     1
171
     0
176
     1
290
     0
176
     1
 93
        1
176
     1
 44
0.0
176
     1
173
     0
176
     1
  0
ENDSEC
  0
EOF
