  0
SECTION
  2
HEADER
  9
$ACADVER
  1
AC1024
  9
$ACADMAINTVER
 70
     6
  9
$DWGCODEPAGE
  3
UNDEFINED
  9
$INSBASE
 10
0.0
 20
0.0
 30
0.0
  9
$EXTMIN
 10
1.000000000000000E+20
 20
1.000000000000000E+20
 30
1.000000000000000E+20
  9
$EXTMAX
 10
-1.000000000000000E+20
 20
-1.000000000000000E+20
 30
-1.000000000000000E+20
  9
$LIMMIN
 10
0.0
 20
0.0
  9
$LIMMAX
 10
12.0
 20
9.0
  9
$ORTHOMODE
 70
     0
  9
$REGENMODE
 70
     1
  9
$FILLMODE
 70
     1
  9
$QTEXTMODE
 70
     0
  9
$MIRRTEXT
 70
     1
  9
$LTSCALE
 40
1.0
  9
$ATTMODE
 70
     1
  9
$TEXTSIZE
 40
0.2
  9
$TRACEWID
 40
0.05
  9
$TEXTSTYLE
  7
Standard
  9
$CLAYER
  8
0
  9
$CELTYPE
  6
ByLayer
  9
$CECOLOR
 62
   256
  9
$CELTSCALE
 40
1.0
  9
$DISPSILH
 70
     0
  9
$DIMSCALE
 40
1.0
  9
$DIMASZ
 40
0.18
  9
$DIMEXO
 40
0.0625
  9
$DIMDLI
 40
0.38
  9
$DIMRND
 40
0.0
  9
$DIMDLE
 40
0.0
  9
$DIMEXE
 40
0.18
  9
$DIMTP
 40
0.0
  9
$DIMTM
 40
0.0
  9
$DIMTXT
 40
0.18
  9
$DIMCEN
 40
0.09
  9
$DIMTSZ
 40
0.0
  9
$DIMTOL
 70
     0
  9
$DIMLIM
 70
     0
  9
$DIMTIH
 70
     1
  9
$DIMTOH
 70
     1
  9
$DIMSE1
 70
     0
  9
$DIMSE2
 70
     0
  9
$DIMTAD
 70
     0
  9
$DIMZIN
 70
     0
  9
$DIMBLK
  1

  9
$DIMASO
 70
     1
  9
$DIMSHO
 70
     1
  9
$DIMPOST
  1

  9
$DIMAPOST
  1

  9
$DIMALT
 70
     0
  9
$DIMALTD
 70
     2
  9
$DIMALTF
 40
25.4
  9
$DIMLFAC
 40
1.0
  9
$DIMTOFL
 70
     0
  9
$DIMTVP
 40
0.0
  9
$DIMTIX
 70
     0
  9
$DIMSOXD
 70
     0
  9
$DIMSAH
 70
     0
  9
$DIMBLK1
  1

  9
$DIMBLK2
  1

  9
$DIMSTYLE
  2
Standard
  9
$DIMCLRD
 70
     0
  9
$DIMCLRE
 70
     0
  9
$DIMCLRT
 70
     0
  9
$DIMTFAC
 40
1.0
  9
$DIMGAP
 40
0.09
  9
$DIMJUST
 70
     0
  9
$DIMSD1
 70
     0
  9
$DIMSD2
 70
     0
  9
$DIMTOLJ
 70
     1
  9
$DIMTZIN
 70
     0
  9
$DIMALTZ
 70
     0
  9
$DIMALTTZ
 70
     0
  9
$DIMUPT
 70
     0
  9
$DIMDEC
 70
     4
  9
$DIMTDEC
 70
     4
  9
$DIMALTU
 70
     2
  9
$DIMALTTD
 70
     2
  9
$DIMTXSTY
  7
Standard
  9
$DIMAUNIT
 70
     0
  9
$DIMADEC
 70
     0
  9
$DIMALTRND
 40
0.0
  9
$DIMAZIN
 70
     0
  9
$DIMDSEP
 70
    46
  9
$DIMATFIT
 70
     3
  9
$DIMFRAC
 70
     0
  9
$DIMLDRBLK
  1

  9
$DIMLUNIT
 70
     2
  9
$DIMLWD
 70
    -2
  9
$DIMLWE
 70
    -2
  9
$DIMTMOVE
 70
     0
  9
$DIMFXL
 40
1.0
  9
$DIMFXLON
 70
     0
  9
$DIMJOGANG
 40
0.7853981633974483
  9
$DIMTFILL
 70
     0
  9
$DIMTFILLCLR
 70
     0
  9
$DIMARCSYM
 70
     0
  9
$DIMLTYPE
  6

  9
$DIMLTEX1
  6

  9
$DIMLTEX2
  6

  9
$DIMTXTDIRECTION
 70
     0
  9
$LUNITS
 70
     2
  9
$LUPREC
 70
     4
  9
$SKETCHINC
 40
0.1
  9
$FILLETRAD
 40
0.5
  9
$AUNITS
 70
     0
  9
$AUPREC
 70
     0
  9
$MENU
  1
.
  9
$ELEVATION
 40
0.0
  9
$PELEVATION
 40
0.0
  9
$THICKNESS
 40
0.0
  9
$LIMCHECK
 70
     0
  9
$CHAMFERA
 40
0.5
  9
$CHAMFERB
 40
0.5
  9
$CHAMFERC
 40
1.0
  9
$CHAMFERD
 40
0.0
  9
$SKPOLY
 70
     0
  9
$TDCREATE
 40
2457917.619409722
  9
$TDUCREATE
 40
2457917.244409722
  9
$TDUPDATE
 40
2457917.619409722
  9
$TDUUPDATE
 40
2457917.244409722
  9
$TDINDWG
 40
0.0000000116
  9
$TDUSRTIMER
 40
0.0000000116
  9
$USRTIMER
 70
     1
  9
$ANGBASE
 50
0.0
  9
$ANGDIR
 70
     0
  9
$PDMODE
 70
     0
  9
$PDSIZE
 40
0.0
  9
$PLINEWID
 40
0.0
  9
$SPLFRAME
 70
     0
  9
$SPLINETYPE
 70
     6
  9
$SPLINESEGS
 70
     8
  9
$HANDSEED
  5
BF
  9
$SURFTAB1
 70
     6
  9
$SURFTAB2
 70
     6
  9
$SURFTYPE
 70
     6
  9
$SURFU
 70
     6
  9
$SURFV
 70
     6
  9
$UCSBASE
  2

  9
$UCSNAME
  2

  9
$UCSORG
 10
0.0
 20
0.0
 30
0.0
  9
$UCSXDIR
 10
1.0
 20
0.0
 30
0.0
  9
$UCSYDIR
 10
0.0
 20
1.0
 30
0.0
  9
$UCSORTHOREF
  2

  9
$UCSORTHOVIEW
 70
     0
  9
$UCSORGTOP
 10
0.0
 20
0.0
 30
0.0
  9
$UCSORGBOTTOM
 10
0.0
 20
0.0
 30
0.0
  9
$UCSORGLEFT
 10
0.0
 20
0.0
 30
0.0
  9
$UCSORGRIGHT
 10
0.0
 20
0.0
 30
0.0
  9
$UCSORGFRONT
 10
0.0
 20
0.0
 30
0.0
  9
$UCSORGBACK
 10
0.0
 20
0.0
 30
0.0
  9
$PUCSBASE
  2

  9
$PUCSNAME
  2

  9
$PUCSORG
 10
0.0
 20
0.0
 30
0.0
  9
$PUCSXDIR
 10
1.0
 20
0.0
 30
0.0
  9
$PUCSYDIR
 10
0.0
 20
1.0
 30
0.0
  9
$PUCSORTHOREF
  2

  9
$PUCSORTHOVIEW
 70
     0
  9
$PUCSORGTOP
 10
0.0
 20
0.0
 30
0.0
  9
$PUCSORGBOTTOM
 10
0.0
 20
0.0
 30
0.0
  9
$PUCSORGLEFT
 10
0.0
 20
0.0
 30
0.0
  9
$PUCSORGRIGHT
 10
0.0
 20
0.0
 30
0.0
  9
$PUCSORGFRONT
 10
0.0
 20
0.0
 30
0.0
  9
$PUCSORGBACK
 10
0.0
 20
0.0
 30
0.0
  9
$USERI1
 70
     0
  9
$USERI2
 70
     0
  9
$USERI3
 70
     0
  9
$USERI4
 70
     0
  9
$USERI5
 70
     0
  9
$USERR1
 40
0.0
  9
$USERR2
 40
0.0
  9
$USERR3
 40
0.0
  9
$USERR4
 40
0.0
  9
$USERR5
 40
0.0
  9
$WORLDVIEW
 70
     1
  9
$SHADEDGE
 70
     3
  9
$SHADEDIF
 70
    70
  9
$TILEMODE
 70
     1
  9
$MAXACTVP
 70
    64
  9
$PINSBASE
 10
0.0
 20
0.0
 30
0.0
  9
$PLIMCHECK
 70
     0
  9
$PEXTMIN
 10
1.000000000000000E+20
 20
1.000000000000000E+20
 30
1.000000000000000E+20
  9
$PEXTMAX
 10
-1.000000000000000E+20
 20
-1.000000000000000E+20
 30
-1.000000000000000E+20
  9
$PLIMMIN
 10
0.0
 20
0.0
  9
$PLIMMAX
 10
12.0
 20
9.0
  9
$UNITMODE
 70
     0
  9
$VISRETAIN
 70
     1
  9
$PLINEGEN
 70
     0
  9
$PSLTSCALE
 70
     1
  9
$TREEDEPTH
 70
  3020
  9
$CMLSTYLE
  2
Standard
  9
$CMLJUST
 70
     0
  9
$CMLSCALE
 40
1.0
  9
$PROXYGRAPHICS
 70
     1
  9
$MEASUREMENT
 70
     0
  9
$CELWEIGHT
370
    -1
  9
$ENDCAPS
280
     0
  9
$JOINSTYLE
280
     0
  9
$LWDISPLAY
290
     1
  9
$INSUNITS
 70
     1
  9
$HYPERLINKBASE
  1

  9
$STYLESHEET
  1

  9
$XEDIT
290
     1
  9
$CEPSNTYPE
380
     0
  9
$PSTYLEMODE
290
     1
  9
$FINGERPRINTGUID
  2
{A247CC8D-F512-E354-FFFE-18A17DD4AA6E}
  9
$VERSIONGUID
  2
{FAEB1C32-E019-11D5-929B-00C0DF256EC4}
  9
$EXTNAMES
290
     1
  9
$PSVPSCALE
 40
0.0
  9
$OLESTARTUP
290
     0
  9
$SORTENTS
280
   127
  9
$INDEXCTL
280
     0
  9
$HIDETEXT
280
     1
  9
$XCLIPFRAME
280
     2
  9
$HALOGAP
280
     0
  9
$OBSCOLOR
 70
   257
  9
$OBSLTYPE
280
     0
  9
$INTERSECTIONDISPLAY
280
     0
  9
$INTERSECTIONCOLOR
 70
   257
  9
$DIMASSOC
280
     2
  9
$PROJECTNAME
  1

  9
$CAMERADISPLAY
290
     0
  9
$LENSLENGTH
 40
50.0
  9
$CAMERAHEIGHT
 40
0.0
  9
$STEPSPERSEC
 40
2.0
  9
$STEPSIZE
 40
6.0
  9
$3DDWFPREC
 40
2.0
  9
$PSOLWIDTH
 40
0.25
  9
$PSOLHEIGHT
 40
4.0
  9
$LOFTANG1
 40
1.570796326794897
  9
$LOFTANG2
 40
1.570796326794897
  9
$LOFTMAG1
 40
0.0
  9
$LOFTMAG2
 40
0.0
  9
$LOFTPARAM
 70
     7
  9
$LOFTNORMALS
280
     1
  9
$LATITUDE
 40
37.795
  9
$LONGITUDE
 40
-122.394
  9
$NORTHDIRECTION
 40
0.0
  9
$TIMEZONE
 70
 -8000
  9
$LIGHTGLYPHDISPLAY
280
     1
  9
$TILEMODELIGHTSYNCH
280
     1
  9
$CMATERIAL
347
3C
  9
$SOLIDHIST
280
     1
  9
$SHOWHIST
280
     1
  9
$DWFFRAME
280
     2
  9
$DGNFRAME
280
     2
  9
$REALWORLDSCALE
290
     1
  9
$INTERFERECOLOR
 62
   256
  9
$CSHADOW
280
     0
  9
$SHADOWPLANELOCATION
 40
0.0
  0
ENDSEC
  0
SECTION
  2
CLASSES
  0
CLASS
  1
ACDBDICTIONARYWDFLT
  2
AcDbDictionaryWithDefault
  3
ObjectDBX Classes
 90
        0
 91
        4
280
     0
281
     0
  0
CLASS
  1
VISUALSTYLE
  2
AcDbVisualStyle
  3
ObjectDBX Classes
 90
     4095
 91
        4
280
     0
281
     0
  0
CLASS
  1
MATERIAL
  2
AcDbMaterial
  3
ObjectDBX Classes
 90
     1153
 91
        4
280
     0
281
     0
  0
CLASS
  1
SUN
  2
AcDbSun
  3
SCENEOE
 90
     1024
 91
        4
280
     0
281
     0
  0
ENDSEC
  0
SECTION
  2
TABLES
  0
TABLE
  2
VPORT
  5
8
330
0
100
AcDbSymbolTable
 70
     1
  0
VPORT
  5
29
330
8
100
AcDbSymbolTableRecord
100
AcDbViewportTableRecord
  2
*Active
 70
     0
 10
0.0
 20
0.0
 11
1.0
 21
1.0
 12
0.0
 22
0.0
 13
0.0
 23
0.0
 14
0.5
 24
0.5
 15
0.5
 25
0.5
 16
0.0
 26
0.0
 36
1.0
 17
91.00082462281999
 27
-128.4993055234307
 37
0.0
 40
256.9986110468615
 41
0.7081814508812795
 42
50.0
 43
0.0
 44
0.0
 50
0.0
 51
0.0
 71
     0
 72
   100
 73
     1
 74
     3
 75
     0
 76
     0
 77
     0
 78
     0
281
     0
 65
     1
110
0.0
120
0.0
130
0.0
111
1.0
121
0.0
131
0.0
112
0.0
122
1.0
132
0.0
 79
     0
146
0.0
 60
     3
 61
     5
292
     1
282
     1
141
0.0
142
0.0
 63
   250
361
3F
  0
ENDTAB
  0
TABLE
  2
LTYPE
  5
5
330
0
100
AcDbSymbolTable
 70
     1
  0
LTYPE
  5
14
330
5
100
AcDbSymbolTableRecord
100
AcDbLinetypeTableRecord
  2
ByBlock
 70
     0
  3

 72
    65
 73
     0
 40
0.0
  0
LTYPE
  5
15
330
5
100
AcDbSymbolTableRecord
100
AcDbLinetypeTableRecord
  2
ByLayer
 70
     0
  3

 72
    65
 73
     0
 40
0.0
  0
LTYPE
  5
16
330
5
100
AcDbSymbolTableRecord
100
AcDbLinetypeTableRecord
  2
Continuous
 70
     0
  3
Solid line
 72
    65
 73
     0
 40
0.0
  0
ENDTAB
  0
TABLE
  2
LAYER
  5
2
330
0
100
AcDbSymbolTable
 70
     2
  0
LAYER
  5
10
330
2
100
AcDbSymbolTableRecord
100
AcDbLayerTableRecord
  2
0
 70
     0
 62
     7
  6
Continuous
370
    -3
390
F
347
3E
  0
LAYER
  5
40
330
2
100
AcDbSymbolTableRecord
100
AcDbLayerTableRecord
  2
_U+30EC_U+30A4_U+30E4_U+30FC 1
 70
     0
 62
     7
  6
Continuous
370
    -3
390
F
347
3E
  0
ENDTAB
  0
TABLE
  2
STYLE
  5
3
330
0
100
AcDbSymbolTable
 70
     1
  0
STYLE
  5
11
330
3
100
AcDbSymbolTableRecord
100
AcDbTextStyleTableRecord
  2
Standard
 70
     0
 40
0.0
 41
1.0
 50
0.0
 71
     0
 42
0.2
  3
txt
  4

  0
ENDTAB
  0
TABLE
  2
VIEW
  5
6
330
0
100
AcDbSymbolTable
 70
     0
  0
ENDTAB
  0
TABLE
  2
UCS
  5
7
330
0
100
AcDbSymbolTable
 70
     0
  0
ENDTAB
  0
TABLE
  2
APPID
  5
9
330
0
100
AcDbSymbolTable
 70
     1
  0
APPID
  5
12
330
9
100
AcDbSymbolTableRecord
100
AcDbRegAppTableRecord
  2
ACAD
 70
     0
  0
ENDTAB
  0
TABLE
  2
DIMSTYLE
  5
A
330
0
100
AcDbSymbolTable
 70
     1
100
AcDbDimStyleTable
  0
DIMSTYLE
105
27
330
A
100
AcDbSymbolTableRecord
100
AcDbDimStyleTableRecord
  2
Standard
 70
     0
178
     0
340
11
  0
ENDTAB
  0
TABLE
  2
BLOCK_RECORD
  5
1
330
0
100
AcDbSymbolTable
 70
     6
  0
BLOCK_RECORD
  5
1F
330
1
100
AcDbSymbolTableRecord
100
AcDbBlockTableRecord
  2
*Model_Space
340
22
 70
     0
280
     1
281
     0
  0
BLOCK_RECORD
  5
1B
330
1
100
AcDbSymbolTableRecord
100
AcDbBlockTableRecord
  2
*Paper_Space
340
1E
 70
     0
280
     1
281
     0
  0
BLOCK_RECORD
  5
23
330
1
100
AcDbSymbolTableRecord
100
AcDbBlockTableRecord
  2
*Paper_Space0
340
26
 70
     0
280
     1
281
     0
  0
BLOCK_RECORD
  5
59
330
1
100
AcDbSymbolTableRecord
100
AcDbBlockTableRecord
  2
block 2
340
0
102
{BLKREFS
331
5A
102
}
 70
     0
280
     1
281
     0
  0
BLOCK_RECORD
  5
6E
330
1
100
AcDbSymbolTableRecord
100
AcDbBlockTableRecord
  2
block 3
340
0
102
{BLKREFS
331
6F
102
}
 70
     0
280
     1
281
     0
  0
BLOCK_RECORD
  5
8A
330
1
100
AcDbSymbolTableRecord
100
AcDbBlockTableRecord
  2
block 4
340
0
102
{BLKREFS
331
8B
102
}
 70
     0
280
     1
281
     0
  0
BLOCK_RECORD
  5
9B
330
1
100
AcDbSymbolTableRecord
100
AcDbBlockTableRecord
  2
block 5
340
0
102
{BLKREFS
331
9C
102
}
 70
     0
280
     1
281
     0
  0
BLOCK_RECORD
  5
B7
330
1
100
AcDbSymbolTableRecord
100
AcDbBlockTableRecord
  2
block 6
340
0
102
{BLKREFS
331
B8
102
}
 70
     0
280
     1
281
     0
  0
ENDTAB
  0
ENDSEC
  0
SECTION
  2
BLOCKS
  0
BLOCK
  5
20
330
1F
100
AcDbEntity
  8
0
100
AcDbBlockBegin
  2
*Model_Space
 70
     0
 10
0.0
 20
0.0
 30
0.0
  3
*Model_Space
  1

  0
ENDBLK
  5
21
330
1F
100
AcDbEntity
  8
0
100
AcDbBlockEnd
  0
BLOCK
  5
1C
330
1B
100
AcDbEntity
 67
     1
  8
0
100
AcDbBlockBegin
  2
*Paper_Space
 70
     0
 10
0.0
 20
0.0
 30
0.0
  3
*Paper_Space
  1

  0
ENDBLK
  5
1D
330
1B
100
AcDbEntity
 67
     1
  8
0
100
AcDbBlockEnd
  0
BLOCK
  5
24
330
23
100
AcDbEntity
  8
0
100
AcDbBlockBegin
  2
*Paper_Space0
 70
     0
 10
0.0
 20
0.0
 30
0.0
  3
*Paper_Space0
  1

  0
ENDBLK
  5
25
330
23
100
AcDbEntity
  8
0
100
AcDbBlockEnd
  0
BLOCK
  5
5B
330
59
100
AcDbEntity
  8
0
100
AcDbBlockBegin
  2
block 2
 70
     0
 10
0.0
 20
0.0
 30
0.0
  3
block 2
  1

  0
SPLINE
  5
5D
330
59
100
AcDbEntity
  8
_U+30EC_U+30A4_U+30E4_U+30FC 1
370
     0
100
AcDbSpline
210
0.0
220
0.0
230
1.0
 70
    11
 71
     3
 72
    26
 73
    22
 74
     0
 42
0.0000000001
 43
0.0000000001
 12
1.0
 22
0.0
 32
0.0
 13
1.0
 23
0.0
 33
0.0
 40
0.0
 40
0.0
 40
0.0
 40
0.0
 40
1.0
 40
1.0
 40
1.0
 40
2.0
 40
2.0
 40
2.0
 40
3.0
 40
3.0
 40
3.0
 40
4.0
 40
4.0
 40
4.0
 40
5.0
 40
5.0
 40
5.0
 40
6.0
 40
6.0
 40
6.0
 40
7.0
 40
7.0
 40
7.0
 40
7.0
 10
99.58048500114656
 20
-123.1266791141836
 30
0.0
 10
99.58048500114656
 20
-123.1266791141836
 30
0.0
 10
99.58048500114656
 20
-122.022526011161
 30
0.0
 10
99.58048500114656
 20
-122.022526011161
 30
0.0
 10
99.58048500114656
 20
-122.022526011161
 30
0.0
 10
99.22805173300549
 20
-122.022526011161
 30
0.0
 10
99.22805173300549
 20
-122.022526011161
 30
0.0
 10
99.22805173300549
 20
-122.022526011161
 30
0.0
 10
99.22805173300549
 20
-121.8743869052953
 30
0.0
 10
99.22805173300549
 20
-121.8743869052953
 30
0.0
 10
99.58289656798623
 20
-121.8595729947087
 30
0.0
 10
99.63250594297382
 20
-121.6966199782564
 30
0.0
 10
99.66420082143811
 20
-121.5822428081461
 30
0.0
 10
99.66420082143811
 20
-121.5822428081461
 30
0.0
 10
99.82026364691994
 20
-121.5822428081461
 30
0.0
 10
99.82026364691994
 20
-121.5822428081461
 30
0.0
 10
99.82026364691994
 20
-121.5822428081461
 30
0.0
 10
99.82026364691994
 20
-123.1266791141836
 30
0.0
 10
99.82026364691994
 20
-123.1266791141836
 30
0.0
 10
99.82026364691994
 20
-123.1266791141836
 30
0.0
 10
99.58048500114656
 20
-123.1266791141836
 30
0.0
 10
99.58048500114656
 20
-123.1266791141836
 30
0.0
  0
HATCH
  5
5E
330
59
100
AcDbEntity
  8
_U+30EC_U+30A4_U+30E4_U+30FC 1
 62
   179
420
  2234388
100
AcDbHatch
 10
0.0
 20
0.0
 30
0.0
210
0.0
220
0.0
230
1.0
  2
SOLID
 70
     1
 71
     0
 91
        1
 92
        1
 93
        1
 72
     4
 94
        3
 73
     0
 74
     1
 95
       26
 96
       22
 40
0.0
 40
0.0
 40
0.0
 40
0.0
 40
1.0
 40
1.0
 40
1.0
 40
2.0
 40
2.0
 40
2.0
 40
3.0
 40
3.0
 40
3.0
 40
4.0
 40
4.0
 40
4.0
 40
5.0
 40
5.0
 40
5.0
 40
6.0
 40
6.0
 40
6.0
 40
7.0
 40
7.0
 40
7.0
 40
7.0
 10
99.58048500114656
 20
-123.1266791141836
 10
99.58048500114656
 20
-123.1266791141836
 10
99.58048500114656
 20
-122.022526011161
 10
99.58048500114656
 20
-122.022526011161
 10
99.58048500114656
 20
-122.022526011161
 10
99.22805173300549
 20
-122.022526011161
 10
99.22805173300549
 20
-122.022526011161
 10
99.22805173300549
 20
-122.022526011161
 10
99.22805173300549
 20
-121.8743869052953
 10
99.22805173300549
 20
-121.8743869052953
 10
99.58289656798623
 20
-121.8595729947087
 10
99.63250594297382
 20
-121.6966199782564
 10
99.66420082143811
 20
-121.5822428081461
 10
99.66420082143811
 20
-121.5822428081461
 10
99.82026364691994
 20
-121.5822428081461
 10
99.82026364691994
 20
-121.5822428081461
 10
99.82026364691994
 20
-121.5822428081461
 10
99.82026364691994
 20
-123.1266791141836
 10
99.82026364691994
 20
-123.1266791141836
 10
99.82026364691994
 20
-123.1266791141836
 10
99.58048500114656
 20
-123.1266791141836
 10
99.58048500114656
 20
-123.1266791141836
 97
        0
 97
        0
 75
     2
 76
     1
 98
        0
  0
SPLINE
  5
5F
330
59
100
AcDbEntity
  8
_U+30EC_U+30A4_U+30E4_U+30FC 1
370
     0
100
AcDbSpline
210
0.0
220
0.0
230
1.0
 70
    11
 71
     3
 72
    29
 73
    25
 74
     0
 42
0.0000000001
 43
0.0000000001
 12
1.0
 22
0.0
 32
0.0
 13
1.0
 23
0.0
 33
0.0
 40
0.0
 40
0.0
 40
0.0
 40
0.0
 40
1.0
 40
1.0
 40
1.0
 40
2.0
 40
2.0
 40
2.0
 40
3.0
 40
3.0
 40
3.0
 40
4.0
 40
4.0
 40
4.0
 40
5.0
 40
5.0
 40
5.0
 40
6.0
 40
6.0
 40
6.0
 40
7.0
 40
7.0
 40
7.0
 40
8.0
 40
8.0
 40
8.0
 40
8.0
 10
101.3154350875184
 20
-122.9489121871447
 30
0.0
 10
101.2000243887625
 20
-123.1583739926479
 30
0.0
 10
101.0146782516561
 20
-123.1773220178168
 30
0.0
 10
100.8903103046385
 20
-123.1773220178168
 30
0.0
 10
100.7187445494731
 20
-123.1773220178168
 30
0.0
 10
100.5671603481221
 20
-123.1308132287659
 30
0.0
 10
100.4655300313072
 20
-122.9489121871447
 30
0.0
 10
100.3545979566822
 20
-122.7542642922281
 30
0.0
 10
100.3342718933192
 20
-122.5175862323914
 30
0.0
 10
100.3342718933192
 20
-122.3546332159391
 30
0.0
 10
100.3342718933192
 20
-122.2106282246557
 30
0.0
 10
100.3521863898425
 20
-121.9587917446839
 30
0.0
 10
100.4655300313072
 20
-121.760009735185
 30
0.0
 10
100.5805962205146
 20
-121.5570936111038
 30
0.0
 10
100.7525064852286
 20
-121.5336669618041
 30
0.0
 10
100.8903103046385
 20
-121.5336669618041
 30
0.0
 10
101.0601535120614
 20
-121.5336669618041
 30
0.0
 10
101.2138047707035
 20
-121.5781086935638
 30
0.0
 10
101.3154350875184
 20
-121.760009735185
 30
0.0
 10
101.4218885380126
 20
-121.9525905728105
 30
0.0
 10
101.4466932255064
 20
-122.1810004034825
 30
0.0
 10
101.4466932255064
 20
-122.3546332159391
 30
0.0
 10
101.4466932255064
 20
-122.525854461556
 30
0.0
 10
101.4239555953037
 20
-122.7563313495193
 30
0.0
 10
101.3154350875184
 20
-122.9489121871447
 30
0.0
  0
SPLINE
  5
60
330
59
100
AcDbEntity
  8
_U+30EC_U+30A4_U+30E4_U+30FC 1
370
     0
100
AcDbSpline
210
0.0
220
0.0
230
1.0
 70
    11
 71
     3
 72
    17
 73
    13
 74
     0
 42
0.0000000001
 43
0.0000000001
 12
1.0
 22
0.0
 32
0.0
 13
1.0
 23
0.0
 33
0.0
 40
0.0
 40
0.0
 40
0.0
 40
0.0
 40
1.0
 40
1.0
 40
1.0
 40
2.0
 40
2.0
 40
2.0
 40
3.0
 40
3.0
 40
3.0
 40
4.0
 40
4.0
 40
4.0
 40
4.0
 10
100.8903103046385
 20
-121.7262477994296
 30
0.0
 10
100.6236599140802
 20
-121.7262477994296
 30
0.0
 10
100.5740505390926
 20
-122.0097791578656
 30
0.0
 10
100.5740505390926
 20
-122.3546332159391
 30
0.0
 10
100.5740505390926
 20
-122.6739935674218
 30
0.0
 10
100.6122910989789
 20
-122.9826741229002
 30
0.0
 10
100.8903103046385
 20
-122.9826741229002
 30
0.0
 10
101.1548936379057
 20
-122.9826741229002
 30
0.0
 10
101.206914579733
 20
-122.7015543313038
 30
0.0
 10
101.206914579733
 20
-122.3546332159391
 30
0.0
 10
101.206914579733
 20
-122.0349283549079
 30
0.0
 10
101.1662624530071
 20
-121.7262477994296
 30
0.0
 10
100.8903103046385
 20
-121.7262477994296
 30
0.0
  0
HATCH
  5
61
330
59
100
AcDbEntity
  8
_U+30EC_U+30A4_U+30E4_U+30FC 1
 62
   179
420
  2234388
100
AcDbHatch
 10
0.0
 20
0.0
 30
0.0
210
0.0
220
0.0
230
1.0
  2
SOLID
 70
     1
 71
     0
 91
        2
 92
        1
 93
        1
 72
     4
 94
        3
 73
     0
 74
     1
 95
       29
 96
       25
 40
0.0
 40
0.0
 40
0.0
 40
0.0
 40
1.0
 40
1.0
 40
1.0
 40
2.0
 40
2.0
 40
2.0
 40
3.0
 40
3.0
 40
3.0
 40
4.0
 40
4.0
 40
4.0
 40
5.0
 40
5.0
 40
5.0
 40
6.0
 40
6.0
 40
6.0
 40
7.0
 40
7.0
 40
7.0
 40
8.0
 40
8.0
 40
8.0
 40
8.0
 10
101.3154350875184
 20
-122.9489121871447
 10
101.2000243887625
 20
-123.1583739926479
 10
101.0146782516561
 20
-123.1773220178168
 10
100.8903103046385
 20
-123.1773220178168
 10
100.7187445494731
 20
-123.1773220178168
 10
100.5671603481221
 20
-123.1308132287659
 10
100.4655300313072
 20
-122.9489121871447
 10
100.3545979566822
 20
-122.7542642922281
 10
100.3342718933192
 20
-122.5175862323914
 10
100.3342718933192
 20
-122.3546332159391
 10
100.3342718933192
 20
-122.2106282246557
 10
100.3521863898425
 20
-121.9587917446839
 10
100.4655300313072
 20
-121.760009735185
 10
100.5805962205146
 20
-121.5570936111038
 10
100.7525064852286
 20
-121.5336669618041
 10
100.8903103046385
 20
-121.5336669618041
 10
101.0601535120614
 20
-121.5336669618041
 10
101.2138047707035
 20
-121.5781086935638
 10
101.3154350875184
 20
-121.760009735185
 10
101.4218885380126
 20
-121.9525905728105
 10
101.4466932255064
 20
-122.1810004034825
 10
101.4466932255064
 20
-122.3546332159391
 10
101.4466932255064
 20
-122.525854461556
 10
101.4239555953037
 20
-122.7563313495193
 10
101.3154350875184
 20
-122.9489121871447
 97
        0
 97
        0
 92
        1
 93
        1
 72
     4
 94
        3
 73
     0
 74
     1
 95
       17
 96
       13
 40
0.0
 40
0.0
 40
0.0
 40
0.0
 40
1.0
 40
1.0
 40
1.0
 40
2.0
 40
2.0
 40
2.0
 40
3.0
 40
3.0
 40
3.0
 40
4.0
 40
4.0
 40
4.0
 40
4.0
 10
100.8903103046385
 20
-121.7262477994296
 10
100.6236599140802
 20
-121.7262477994296
 10
100.5740505390926
 20
-122.0097791578656
 10
100.5740505390926
 20
-122.3546332159391
 10
100.5740505390926
 20
-122.6739935674218
 10
100.6122910989789
 20
-122.9826741229002
 10
100.8903103046385
 20
-122.9826741229002
 10
101.1548936379057
 20
-122.9826741229002
 10
101.206914579733
 20
-122.7015543313038
 10
101.206914579733
 20
-122.3546332159391
 10
101.206914579733
 20
-122.0349283549079
 10
101.1662624530071
 20
-121.7262477994296
 10
100.8903103046385
 20
-121.7262477994296
 97
        0
 97
        0
 75
     2
 76
     1
 98
        0
  0
ENDBLK
  5
5C
330
59
100
AcDbEntity
  8
0
100
AcDbBlockEnd
  0
BLOCK
  5
70
330
6E
100
AcDbEntity
  8
0
100
AcDbBlockBegin
  2
block 3
 70
     0
 10
0.0
 20
0.0
 30
0.0
  3
block 3
  1

  0
SPLINE
  5
72
330
6E
100
AcDbEntity
  8
_U+30EC_U+30A4_U+30E4_U+30FC 1
370
     0
100
AcDbSpline
210
0.0
220
0.0
230
1.0
 70
    11
 71
     3
 72
    53
 73
    49
 74
     0
 42
0.0000000001
 43
0.0000000001
 12
1.0
 22
0.0
 32
0.0
 13
1.0
 23
0.0
 33
0.0
 40
0.0
 40
0.0
 40
0.0
 40
0.0
 40
1.0
 40
1.0
 40
1.0
 40
2.0
 40
2.0
 40
2.0
 40
3.0
 40
3.0
 40
3.0
 40
4.0
 40
4.0
 40
4.0
 40
5.0
 40
5.0
 40
5.0
 40
6.0
 40
6.0
 40
6.0
 40
7.0
 40
7.0
 40
7.0
 40
8.0
 40
8.0
 40
8.0
 40
9.0
 40
9.0
 40
9.0
 40
10.0
 40
10.0
 40
10.0
 40
11.0
 40
11.0
 40
11.0
 40
12.0
 40
12.0
 40
12.0
 40
13.0
 40
13.0
 40
13.0
 40
14.0
 40
14.0
 40
14.0
 40
15.0
 40
15.0
 40
15.0
 40
16.0
 40
16.0
 40
16.0
 40
16.0
 10
90.7117756934679
 20
-120.5432020097948
 30
0.0
 10
90.62805987317633
 20
-120.5432020097948
 30
0.0
 10
90.51988387493948
 20
-120.526321041917
 30
0.0
 10
90.41101885760558
 20
-120.4629312849884
 30
0.0
 10
90.22567272049915
 20
-120.353032739009
 30
0.0
 10
90.20327959984502
 20
-120.221774601021
 30
0.0
 10
90.18295353648205
 20
-120.1139431123326
 30
0.0
 10
90.18295353648205
 20
-120.1139431123326
 30
0.0
 10
90.42032061541576
 20
-120.1139431123326
 30
0.0
 10
90.42032061541576
 20
-120.1139431123326
 30
0.0
 10
90.47888723866501
 20
-120.3127251218315
 30
0.0
 10
90.61462400078385
 20
-120.3423529430047
 30
0.0
 10
90.71418726030757
 20
-120.3423529430047
 30
0.0
 10
90.86335989481888
 20
-120.3423529430047
 30
0.0
 10
91.0263129112712
 20
-120.242789683481
 30
0.0
 10
91.0263129112712
 20
-120.0102457382266
 30
0.0
 10
91.0263129112712
 20
-119.7542751436725
 30
0.0
 10
90.83407658319426
 20
-119.684339705322
 30
0.0
 10
90.70523001204592
 20
-119.684339705322
 30
0.0
 10
90.67112356674194
 20
-119.684339705322
 30
0.0
 10
90.51988387493948
 20
-119.684339705322
 30
0.0
 10
90.42479923954659
 20
-119.8135307860188
 30
0.0
 10
90.42479923954659
 20
-119.8135307860188
 30
0.0
 10
90.23704153560047
 20
-119.79458276085
 30
0.0
 10
90.23704153560047
 20
-119.79458276085
 30
0.0
 10
90.23704153560047
 20
-119.79458276085
 30
0.0
 10
90.36588810674881
 20
-118.9481228001241
 30
0.0
 10
90.36588810674881
 20
-118.9481228001241
 30
0.0
 10
90.36588810674881
 20
-118.9481228001241
 30
0.0
 10
91.19787866643665
 20
-118.9481228001241
 30
0.0
 10
91.19787866643665
 20
-118.9481228001241
 30
0.0
 10
91.19787866643665
 20
-118.9481228001241
 30
0.0
 10
91.19787866643665
 20
-119.1427706950407
 30
0.0
 10
91.19787866643665
 20
-119.1427706950407
 30
0.0
 10
91.19787866643665
 20
-119.1427706950407
 30
0.0
 10
90.54020993830245
 20
-119.1427706950407
 30
0.0
 10
90.54020993830245
 20
-119.1427706950407
 30
0.0
 10
90.54020993830245
 20
-119.1427706950407
 30
0.0
 10
90.46992999040336
 20
-119.5658284206294
 30
0.0
 10
90.46992999040336
 20
-119.5658284206294
 30
0.0
 10
90.5353868046231
 20
-119.5320664848739
 30
0.0
 10
90.6235812490455
 20
-119.4917588676965
 30
0.0
 10
90.75036076290269
 20
-119.4917588676965
 30
0.0
 10
91.02148977759185
 20
-119.4917588676965
 30
0.0
 10
91.27470429575772
 20
-119.6781385334485
 30
0.0
 10
91.27470429575772
 20
-119.9912977130577
 30
0.0
 10
91.27470429575772
 20
-120.3085910072492
 30
0.0
 10
91.03527015953286
 20
-120.5432020097948
 30
0.0
 10
90.7117756934679
 20
-120.5432020097948
 30
0.0
  0
HATCH
  5
73
330
6E
100
AcDbEntity
  8
_U+30EC_U+30A4_U+30E4_U+30FC 1
 62
   179
420
  2234388
100
AcDbHatch
 10
0.0
 20
0.0
 30
0.0
210
0.0
220
0.0
230
1.0
  2
SOLID
 70
     1
 71
     0
 91
        1
 92
        1
 93
        1
 72
     4
 94
        3
 73
     0
 74
     1
 95
       53
 96
       49
 40
0.0
 40
0.0
 40
0.0
 40
0.0
 40
1.0
 40
1.0
 40
1.0
 40
2.0
 40
2.0
 40
2.0
 40
3.0
 40
3.0
 40
3.0
 40
4.0
 40
4.0
 40
4.0
 40
5.0
 40
5.0
 40
5.0
 40
6.0
 40
6.0
 40
6.0
 40
7.0
 40
7.0
 40
7.0
 40
8.0
 40
8.0
 40
8.0
 40
9.0
 40
9.0
 40
9.0
 40
10.0
 40
10.0
 40
10.0
 40
11.0
 40
11.0
 40
11.0
 40
12.0
 40
12.0
 40
12.0
 40
13.0
 40
13.0
 40
13.0
 40
14.0
 40
14.0
 40
14.0
 40
15.0
 40
15.0
 40
15.0
 40
16.0
 40
16.0
 40
16.0
 40
16.0
 10
90.7117756934679
 20
-120.5432020097948
 10
90.62805987317633
 20
-120.5432020097948
 10
90.51988387493948
 20
-120.526321041917
 10
90.41101885760558
 20
-120.4629312849884
 10
90.22567272049915
 20
-120.353032739009
 10
90.20327959984502
 20
-120.221774601021
 10
90.18295353648205
 20
-120.1139431123326
 10
90.18295353648205
 20
-120.1139431123326
 10
90.42032061541576
 20
-120.1139431123326
 10
90.42032061541576
 20
-120.1139431123326
 10
90.47888723866501
 20
-120.3127251218315
 10
90.61462400078385
 20
-120.3423529430047
 10
90.71418726030757
 20
-120.3423529430047
 10
90.86335989481888
 20
-120.3423529430047
 10
91.0263129112712
 20
-120.242789683481
 10
91.0263129112712
 20
-120.0102457382266
 10
91.0263129112712
 20
-119.7542751436725
 10
90.83407658319426
 20
-119.684339705322
 10
90.70523001204592
 20
-119.684339705322
 10
90.67112356674194
 20
-119.684339705322
 10
90.51988387493948
 20
-119.684339705322
 10
90.42479923954659
 20
-119.8135307860188
 10
90.42479923954659
 20
-119.8135307860188
 10
90.23704153560047
 20
-119.79458276085
 10
90.23704153560047
 20
-119.79458276085
 10
90.23704153560047
 20
-119.79458276085
 10
90.36588810674881
 20
-118.9481228001241
 10
90.36588810674881
 20
-118.9481228001241
 10
90.36588810674881
 20
-118.9481228001241
 10
91.19787866643665
 20
-118.9481228001241
 10
91.19787866643665
 20
-118.9481228001241
 10
91.19787866643665
 20
-118.9481228001241
 10
91.19787866643665
 20
-119.1427706950407
 10
91.19787866643665
 20
-119.1427706950407
 10
91.19787866643665
 20
-119.1427706950407
 10
90.54020993830245
 20
-119.1427706950407
 10
90.54020993830245
 20
-119.1427706950407
 10
90.54020993830245
 20
-119.1427706950407
 10
90.46992999040336
 20
-119.5658284206294
 10
90.46992999040336
 20
-119.5658284206294
 10
90.5353868046231
 20
-119.5320664848739
 10
90.6235812490455
 20
-119.4917588676965
 10
90.75036076290269
 20
-119.4917588676965
 10
91.02148977759185
 20
-119.4917588676965
 10
91.27470429575772
 20
-119.6781385334485
 10
91.27470429575772
 20
-119.9912977130577
 10
91.27470429575772
 20
-120.3085910072492
 10
91.03527015953286
 20
-120.5432020097948
 10
90.7117756934679
 20
-120.5432020097948
 97
        0
 97
        0
 75
     2
 76
     1
 98
        0
  0
POLYLINE
  5
74
330
6E
100
AcDbEntity
  8
_U+30EC_U+30A4_U+30E4_U+30FC 1
370
     0
100
AcDb2dPolyline
 66
     1
 10
0.0
 20
0.0
 30
0.0
  0
VERTEX
  5
75
330
74
100
AcDbEntity
  8
_U+30EC_U+30A4_U+30E4_U+30FC 1
370
     0
100
AcDbVertex
100
AcDb2dVertex
 10
91.51965058475898
 20
-120.4925591061616
 30
0.0
  0
VERTEX
  5
76
330
74
100
AcDbEntity
  8
_U+30EC_U+30A4_U+30E4_U+30FC 1
370
     0
100
AcDbVertex
100
AcDb2dVertex
 10
91.51965058475898
 20
-120.2407226261898
 30
0.0
  0
VERTEX
  5
77
330
74
100
AcDbEntity
  8
_U+30EC_U+30A4_U+30E4_U+30FC 1
370
     0
100
AcDbVertex
100
AcDb2dVertex
 10
91.78871254215699
 20
-120.2407226261898
 30
0.0
  0
VERTEX
  5
78
330
74
100
AcDbEntity
  8
_U+30EC_U+30A4_U+30E4_U+30FC 1
370
     0
100
AcDbVertex
100
AcDb2dVertex
 10
91.78871254215699
 20
-120.4925591061616
 30
0.0
  0
VERTEX
  5
79
330
74
100
AcDbEntity
  8
_U+30EC_U+30A4_U+30E4_U+30FC 1
370
     0
100
AcDbVertex
100
AcDb2dVertex
 10
91.51965058475898
 20
-120.4925591061616
 30
0.0
  0
SEQEND
  5
7A
330
74
100
AcDbEntity
  8
_U+30EC_U+30A4_U+30E4_U+30FC 1
370
     0
  0
HATCH
  5
7B
330
6E
100
AcDbEntity
  8
_U+30EC_U+30A4_U+30E4_U+30FC 1
 62
   179
420
  2234388
100
AcDbHatch
 10
0.0
 20
0.0
 30
0.0
210
0.0
220
0.0
230
1.0
  2
SOLID
 70
     1
 71
     0
 91
        1
 92
        1
 93
        4
 72
     1
 10
91.51965058475898
 20
-120.4925591061616
 11
91.51965058475898
 21
-120.2407226261898
 72
     1
 10
91.51965058475898
 20
-120.2407226261898
 11
91.78871254215699
 21
-120.2407226261898
 72
     1
 10
91.78871254215699
 20
-120.2407226261898
 11
91.78871254215699
 21
-120.4925591061616
 72
     1
 10
91.78871254215699
 20
-120.4925591061616
 11
91.51965058475898
 21
-120.4925591061616
 97
        0
 75
     2
 76
     1
 98
        0
  0
SPLINE
  5
7C
330
6E
100
AcDbEntity
  8
_U+30EC_U+30A4_U+30E4_U+30FC 1
370
     0
100
AcDbSpline
210
0.0
220
0.0
230
1.0
 70
    11
 71
     3
 72
    53
 73
    49
 74
     0
 42
0.0000000001
 43
0.0000000001
 12
1.0
 22
0.0
 32
0.0
 13
1.0
 23
0.0
 33
0.0
 40
0.0
 40
0.0
 40
0.0
 40
0.0
 40
1.0
 40
1.0
 40
1.0
 40
2.0
 40
2.0
 40
2.0
 40
3.0
 40
3.0
 40
3.0
 40
4.0
 40
4.0
 40
4.0
 40
5.0
 40
5.0
 40
5.0
 40
6.0
 40
6.0
 40
6.0
 40
7.0
 40
7.0
 40
7.0
 40
8.0
 40
8.0
 40
8.0
 40
9.0
 40
9.0
 40
9.0
 40
10.0
 40
10.0
 40
10.0
 40
11.0
 40
11.0
 40
11.0
 40
12.0
 40
12.0
 40
12.0
 40
13.0
 40
13.0
 40
13.0
 40
14.0
 40
14.0
 40
14.0
 40
15.0
 40
15.0
 40
15.0
 40
16.0
 40
16.0
 40
16.0
 40
16.0
 10
92.55559079717361
 20
-120.5432020097948
 30
0.0
 10
92.47187497688203
 20
-120.5432020097948
 30
0.0
 10
92.36369897864519
 20
-120.526321041917
 30
0.0
 10
92.25483396131129
 20
-120.4629312849884
 30
0.0
 10
92.06948782420486
 20
-120.353032739009
 30
0.0
 10
92.04709470355073
 20
-120.221774601021
 30
0.0
 10
92.02676864018775
 20
-120.1139431123326
 30
0.0
 10
92.02676864018775
 20
-120.1139431123326
 30
0.0
 10
92.26413571912147
 20
-120.1139431123326
 30
0.0
 10
92.26413571912147
 20
-120.1139431123326
 30
0.0
 10
92.32270234237072
 20
-120.3127251218315
 30
0.0
 10
92.45843910448956
 20
-120.3423529430047
 30
0.0
 10
92.55800236401328
 20
-120.3423529430047
 30
0.0
 10
92.7071749985246
 20
-120.3423529430047
 30
0.0
 10
92.87012801497691
 20
-120.242789683481
 30
0.0
 10
92.87012801497691
 20
-120.0102457382266
 30
0.0
 10
92.87012801497691
 20
-119.7542751436725
 30
0.0
 10
92.67789168689997
 20
-119.684339705322
 30
0.0
 10
92.54904511575162
 20
-119.684339705322
 30
0.0
 10
92.51493867044766
 20
-119.684339705322
 30
0.0
 10
92.36369897864519
 20
-119.684339705322
 30
0.0
 10
92.2686143432523
 20
-119.8135307860188
 30
0.0
 10
92.2686143432523
 20
-119.8135307860188
 30
0.0
 10
92.08085663930618
 20
-119.79458276085
 30
0.0
 10
92.08085663930618
 20
-119.79458276085
 30
0.0
 10
92.08085663930618
 20
-119.79458276085
 30
0.0
 10
92.20970321045452
 20
-118.9481228001241
 30
0.0
 10
92.20970321045452
 20
-118.9481228001241
 30
0.0
 10
92.20970321045452
 20
-118.9481228001241
 30
0.0
 10
93.04169377014236
 20
-118.9481228001241
 30
0.0
 10
93.04169377014236
 20
-118.9481228001241
 30
0.0
 10
93.04169377014236
 20
-118.9481228001241
 30
0.0
 10
93.04169377014236
 20
-119.1427706950407
 30
0.0
 10
93.04169377014236
 20
-119.1427706950407
 30
0.0
 10
93.04169377014236
 20
-119.1427706950407
 30
0.0
 10
92.38402504200816
 20
-119.1427706950407
 30
0.0
 10
92.38402504200816
 20
-119.1427706950407
 30
0.0
 10
92.38402504200816
 20
-119.1427706950407
 30
0.0
 10
92.31374509410907
 20
-119.5658284206294
 30
0.0
 10
92.31374509410907
 20
-119.5658284206294
 30
0.0
 10
92.37920190832881
 20
-119.5320664848739
 30
0.0
 10
92.46739635275121
 20
-119.4917588676965
 30
0.0
 10
92.59417586660841
 20
-119.4917588676965
 30
0.0
 10
92.86530488129756
 20
-119.4917588676965
 30
0.0
 10
93.11851939946342
 20
-119.6781385334485
 30
0.0
 10
93.11851939946342
 20
-119.9912977130577
 30
0.0
 10
93.11851939946342
 20
-120.3085910072492
 30
0.0
 10
92.87908526323857
 20
-120.5432020097948
 30
0.0
 10
92.55559079717361
 20
-120.5432020097948
 30
0.0
  0
HATCH
  5
7D
330
6E
100
AcDbEntity
  8
_U+30EC_U+30A4_U+30E4_U+30FC 1
 62
   179
420
  2234388
100
AcDbHatch
 10
0.0
 20
0.0
 30
0.0
210
0.0
220
0.0
230
1.0
  2
SOLID
 70
     1
 71
     0
 91
        1
 92
        1
 93
        1
 72
     4
 94
        3
 73
     0
 74
     1
 95
       53
 96
       49
 40
0.0
 40
0.0
 40
0.0
 40
0.0
 40
1.0
 40
1.0
 40
1.0
 40
2.0
 40
2.0
 40
2.0
 40
3.0
 40
3.0
 40
3.0
 40
4.0
 40
4.0
 40
4.0
 40
5.0
 40
5.0
 40
5.0
 40
6.0
 40
6.0
 40
6.0
 40
7.0
 40
7.0
 40
7.0
 40
8.0
 40
8.0
 40
8.0
 40
9.0
 40
9.0
 40
9.0
 40
10.0
 40
10.0
 40
10.0
 40
11.0
 40
11.0
 40
11.0
 40
12.0
 40
12.0
 40
12.0
 40
13.0
 40
13.0
 40
13.0
 40
14.0
 40
14.0
 40
14.0
 40
15.0
 40
15.0
 40
15.0
 40
16.0
 40
16.0
 40
16.0
 40
16.0
 10
92.55559079717361
 20
-120.5432020097948
 10
92.47187497688203
 20
-120.5432020097948
 10
92.36369897864519
 20
-120.526321041917
 10
92.25483396131129
 20
-120.4629312849884
 10
92.06948782420486
 20
-120.353032739009
 10
92.04709470355073
 20
-120.221774601021
 10
92.02676864018775
 20
-120.1139431123326
 10
92.02676864018775
 20
-120.1139431123326
 10
92.26413571912147
 20
-120.1139431123326
 10
92.26413571912147
 20
-120.1139431123326
 10
92.32270234237072
 20
-120.3127251218315
 10
92.45843910448956
 20
-120.3423529430047
 10
92.55800236401328
 20
-120.3423529430047
 10
92.7071749985246
 20
-120.3423529430047
 10
92.87012801497691
 20
-120.242789683481
 10
92.87012801497691
 20
-120.0102457382266
 10
92.87012801497691
 20
-119.7542751436725
 10
92.67789168689997
 20
-119.684339705322
 10
92.54904511575162
 20
-119.684339705322
 10
92.51493867044766
 20
-119.684339705322
 10
92.36369897864519
 20
-119.684339705322
 10
92.2686143432523
 20
-119.8135307860188
 10
92.2686143432523
 20
-119.8135307860188
 10
92.08085663930618
 20
-119.79458276085
 10
92.08085663930618
 20
-119.79458276085
 10
92.08085663930618
 20
-119.79458276085
 10
92.20970321045452
 20
-118.9481228001241
 10
92.20970321045452
 20
-118.9481228001241
 10
92.20970321045452
 20
-118.9481228001241
 10
93.04169377014236
 20
-118.9481228001241
 10
93.04169377014236
 20
-118.9481228001241
 10
93.04169377014236
 20
-118.9481228001241
 10
93.04169377014236
 20
-119.1427706950407
 10
93.04169377014236
 20
-119.1427706950407
 10
93.04169377014236
 20
-119.1427706950407
 10
92.38402504200816
 20
-119.1427706950407
 10
92.38402504200816
 20
-119.1427706950407
 10
92.38402504200816
 20
-119.1427706950407
 10
92.31374509410907
 20
-119.5658284206294
 10
92.31374509410907
 20
-119.5658284206294
 10
92.37920190832881
 20
-119.5320664848739
 10
92.46739635275121
 20
-119.4917588676965
 10
92.59417586660841
 20
-119.4917588676965
 10
92.86530488129756
 20
-119.4917588676965
 10
93.11851939946342
 20
-119.6781385334485
 10
93.11851939946342
 20
-119.9912977130577
 10
93.11851939946342
 20
-120.3085910072492
 10
92.87908526323857
 20
-120.5432020097948
 10
92.55559079717361
 20
-120.5432020097948
 97
        0
 97
        0
 75
     2
 76
     1
 98
        0
  0
ENDBLK
  5
71
330
6E
100
AcDbEntity
  8
0
100
AcDbBlockEnd
  0
BLOCK
  5
8C
330
8A
100
AcDbEntity
  8
0
100
AcDbBlockBegin
  2
block 4
 70
     0
 10
0.0
 20
0.0
 30
0.0
  3
block 4
  1

  0
SPLINE
  5
8E
330
8A
100
AcDbEntity
  8
_U+30EC_U+30A4_U+30E4_U+30FC 1
370
     0
100
AcDbSpline
210
0.0
220
0.0
230
1.0
 70
    11
 71
     3
 72
    26
 73
    22
 74
     0
 42
0.0000000001
 43
0.0000000001
 12
1.0
 22
0.0
 32
0.0
 13
1.0
 23
0.0
 33
0.0
 40
0.0
 40
0.0
 40
0.0
 40
0.0
 40
1.0
 40
1.0
 40
1.0
 40
2.0
 40
2.0
 40
2.0
 40
3.0
 40
3.0
 40
3.0
 40
4.0
 40
4.0
 40
4.0
 40
5.0
 40
5.0
 40
5.0
 40
6.0
 40
6.0
 40
6.0
 40
7.0
 40
7.0
 40
7.0
 40
7.0
 10
83.16047089934878
 20
-130.8991590384558
 30
0.0
 10
83.16047089934878
 20
-130.8991590384558
 30
0.0
 10
82.0563177963262
 20
-130.8991590384558
 30
0.0
 10
82.0563177963262
 20
-130.8991590384558
 30
0.0
 10
82.0563177963262
 20
-130.8991590384558
 30
0.0
 10
82.0563177963262
 20
-131.2515923065968
 30
0.0
 10
82.0563177963262
 20
-131.2515923065968
 30
0.0
 10
82.0563177963262
 20
-131.2515923065968
 30
0.0
 10
81.90817869046046
 20
-131.2515923065968
 30
0.0
 10
81.90817869046046
 20
-131.2515923065968
 30
0.0
 10
81.89336477987389
 20
-130.8967474716161
 30
0.0
 10
81.73041176342157
 20
-130.8471380966285
 30
0.0
 10
81.61603459331127
 20
-130.8154432181642
 30
0.0
 10
81.61603459331127
 20
-130.8154432181642
 30
0.0
 10
81.61603459331127
 20
-130.6593803926824
 30
0.0
 10
81.61603459331127
 20
-130.6593803926824
 30
0.0
 10
81.61603459331127
 20
-130.6593803926824
 30
0.0
 10
83.16047089934878
 20
-130.6593803926824
 30
0.0
 10
83.16047089934878
 20
-130.6593803926824
 30
0.0
 10
83.16047089934878
 20
-130.6593803926824
 30
0.0
 10
83.16047089934878
 20
-130.8991590384558
 30
0.0
 10
83.16047089934878
 20
-130.8991590384558
 30
0.0
  0
HATCH
  5
8F
330
8A
100
AcDbEntity
  8
_U+30EC_U+30A4_U+30E4_U+30FC 1
 62
   179
420
  2234388
100
AcDbHatch
 10
0.0
 20
0.0
 30
0.0
210
0.0
220
0.0
230
1.0
  2
SOLID
 70
     1
 71
     0
 91
        1
 92
        1
 93
        1
 72
     4
 94
        3
 73
     0
 74
     1
 95
       26
 96
       22
 40
0.0
 40
0.0
 40
0.0
 40
0.0
 40
1.0
 40
1.0
 40
1.0
 40
2.0
 40
2.0
 40
2.0
 40
3.0
 40
3.0
 40
3.0
 40
4.0
 40
4.0
 40
4.0
 40
5.0
 40
5.0
 40
5.0
 40
6.0
 40
6.0
 40
6.0
 40
7.0
 40
7.0
 40
7.0
 40
7.0
 10
83.16047089934878
 20
-130.8991590384558
 10
83.16047089934878
 20
-130.8991590384558
 10
82.0563177963262
 20
-130.8991590384558
 10
82.0563177963262
 20
-130.8991590384558
 10
82.0563177963262
 20
-130.8991590384558
 10
82.0563177963262
 20
-131.2515923065968
 10
82.0563177963262
 20
-131.2515923065968
 10
82.0563177963262
 20
-131.2515923065968
 10
81.90817869046046
 20
-131.2515923065968
 10
81.90817869046046
 20
-131.2515923065968
 10
81.89336477987389
 20
-130.8967474716161
 10
81.73041176342157
 20
-130.8471380966285
 10
81.61603459331127
 20
-130.8154432181642
 10
81.61603459331127
 20
-130.8154432181642
 10
81.61603459331127
 20
-130.6593803926824
 10
81.61603459331127
 20
-130.6593803926824
 10
81.61603459331127
 20
-130.6593803926824
 10
83.16047089934878
 20
-130.6593803926824
 10
83.16047089934878
 20
-130.6593803926824
 10
83.16047089934878
 20
-130.6593803926824
 10
83.16047089934878
 20
-130.8991590384558
 10
83.16047089934878
 20
-130.8991590384558
 97
        0
 97
        0
 75
     2
 76
     1
 98
        0
  0
SPLINE
  5
90
330
8A
100
AcDbEntity
  8
_U+30EC_U+30A4_U+30E4_U+30FC 1
370
     0
100
AcDbSpline
210
0.0
220
0.0
230
1.0
 70
    11
 71
     3
 72
    29
 73
    25
 74
     0
 42
0.0000000001
 43
0.0000000001
 12
1.0
 22
0.0
 32
0.0
 13
1.0
 23
0.0
 33
0.0
 40
0.0
 40
0.0
 40
0.0
 40
0.0
 40
1.0
 40
1.0
 40
1.0
 40
2.0
 40
2.0
 40
2.0
 40
3.0
 40
3.0
 40
3.0
 40
4.0
 40
4.0
 40
4.0
 40
5.0
 40
5.0
 40
5.0
 40
6.0
 40
6.0
 40
6.0
 40
7.0
 40
7.0
 40
7.0
 40
8.0
 40
8.0
 40
8.0
 40
8.0
 10
82.98270397230988
 20
-129.164208952084
 30
0.0
 10
83.19216577781307
 20
-129.2796196508398
 30
0.0
 10
83.21111380298194
 20
-129.4649657879463
 30
0.0
 10
83.21111380298194
 20
-129.5893337349638
 30
0.0
 10
83.21111380298194
 20
-129.7608994901292
 30
0.0
 10
83.16460501393108
 20
-129.9124836914802
 30
0.0
 10
82.98270397230988
 20
-130.0141140082951
 30
0.0
 10
82.78805607739326
 20
-130.1250460829201
 30
0.0
 10
82.5513780175566
 20
-130.1453721462831
 30
0.0
 10
82.38842500110428
 20
-130.1453721462831
 30
0.0
 10
82.24442000982084
 20
-130.1453721462831
 30
0.0
 10
81.99258352984909
 20
-130.1271131402113
 30
0.0
 10
81.79380152035016
 20
-130.0141140082951
 30
0.0
 10
81.59088539626894
 20
-129.8990478190877
 30
0.0
 10
81.56745874696925
 20
-129.7271375543738
 30
0.0
 10
81.56745874696925
 20
-129.5893337349638
 30
0.0
 10
81.56745874696925
 20
-129.419490527541
 30
0.0
 10
81.61190047872897
 20
-129.2658392688988
 30
0.0
 10
81.79380152035016
 20
-129.164208952084
 30
0.0
 10
81.98638235797563
 20
-129.0577555015897
 30
0.0
 10
82.21479218864769
 20
-129.0329508140959
 30
0.0
 10
82.38842500110428
 20
-129.0329508140959
 30
0.0
 10
82.5596462467212
 20
-129.0329508140959
 30
0.0
 10
82.79012313468442
 20
-129.0556884442986
 30
0.0
 10
82.98270397230988
 20
-129.164208952084
 30
0.0
  0
SPLINE
  5
91
330
8A
100
AcDbEntity
  8
_U+30EC_U+30A4_U+30E4_U+30FC 1
370
     0
100
AcDbSpline
210
0.0
220
0.0
230
1.0
 70
    11
 71
     3
 72
    17
 73
    13
 74
     0
 42
0.0000000001
 43
0.0000000001
 12
1.0
 22
0.0
 32
0.0
 13
1.0
 23
0.0
 33
0.0
 40
0.0
 40
0.0
 40
0.0
 40
0.0
 40
1.0
 40
1.0
 40
1.0
 40
2.0
 40
2.0
 40
2.0
 40
3.0
 40
3.0
 40
3.0
 40
4.0
 40
4.0
 40
4.0
 40
4.0
 10
81.76003958459472
 20
-129.5893337349638
 30
0.0
 10
81.76003958459472
 20
-129.8559841255221
 30
0.0
 10
82.04357094303077
 20
-129.9055935005097
 30
0.0
 10
82.38842500110428
 20
-129.9055935005097
 30
0.0
 10
82.70778535258695
 20
-129.9055935005097
 30
0.0
 10
83.01646590806533
 20
-129.8673529406234
 30
0.0
 10
83.01646590806533
 20
-129.5893337349638
 30
0.0
 10
83.01646590806533
 20
-129.3247504016966
 30
0.0
 10
82.73534611646895
 20
-129.2727294598693
 30
0.0
 10
82.38842500110428
 20
-129.2727294598693
 30
0.0
 10
82.0687201400731
 20
-129.2727294598693
 30
0.0
 10
81.76003958459472
 20
-129.3133815865953
 30
0.0
 10
81.76003958459472
 20
-129.5893337349638
 30
0.0
  0
HATCH
  5
92
330
8A
100
AcDbEntity
  8
_U+30EC_U+30A4_U+30E4_U+30FC 1
 62
   179
420
  2234388
100
AcDbHatch
 10
0.0
 20
0.0
 30
0.0
210
0.0
220
0.0
230
1.0
  2
SOLID
 70
     1
 71
     0
 91
        2
 92
        1
 93
        1
 72
     4
 94
        3
 73
     0
 74
     1
 95
       29
 96
       25
 40
0.0
 40
0.0
 40
0.0
 40
0.0
 40
1.0
 40
1.0
 40
1.0
 40
2.0
 40
2.0
 40
2.0
 40
3.0
 40
3.0
 40
3.0
 40
4.0
 40
4.0
 40
4.0
 40
5.0
 40
5.0
 40
5.0
 40
6.0
 40
6.0
 40
6.0
 40
7.0
 40
7.0
 40
7.0
 40
8.0
 40
8.0
 40
8.0
 40
8.0
 10
82.98270397230988
 20
-129.164208952084
 10
83.19216577781307
 20
-129.2796196508398
 10
83.21111380298194
 20
-129.4649657879463
 10
83.21111380298194
 20
-129.5893337349638
 10
83.21111380298194
 20
-129.7608994901292
 10
83.16460501393108
 20
-129.9124836914802
 10
82.98270397230988
 20
-130.0141140082951
 10
82.78805607739326
 20
-130.1250460829201
 10
82.5513780175566
 20
-130.1453721462831
 10
82.38842500110428
 20
-130.1453721462831
 10
82.24442000982084
 20
-130.1453721462831
 10
81.99258352984909
 20
-130.1271131402113
 10
81.79380152035016
 20
-130.0141140082951
 10
81.59088539626894
 20
-129.8990478190877
 10
81.56745874696925
 20
-129.7271375543738
 10
81.56745874696925
 20
-129.5893337349638
 10
81.56745874696925
 20
-129.419490527541
 10
81.61190047872897
 20
-129.2658392688988
 10
81.79380152035016
 20
-129.164208952084
 10
81.98638235797563
 20
-129.0577555015897
 10
82.21479218864769
 20
-129.0329508140959
 10
82.38842500110428
 20
-129.0329508140959
 10
82.5596462467212
 20
-129.0329508140959
 10
82.79012313468442
 20
-129.0556884442986
 10
82.98270397230988
 20
-129.164208952084
 97
        0
 97
        0
 92
        1
 93
        1
 72
     4
 94
        3
 73
     0
 74
     1
 95
       17
 96
       13
 40
0.0
 40
0.0
 40
0.0
 40
0.0
 40
1.0
 40
1.0
 40
1.0
 40
2.0
 40
2.0
 40
2.0
 40
3.0
 40
3.0
 40
3.0
 40
4.0
 40
4.0
 40
4.0
 40
4.0
 10
81.76003958459472
 20
-129.5893337349638
 10
81.76003958459472
 20
-129.8559841255221
 10
82.04357094303077
 20
-129.9055935005097
 10
82.38842500110428
 20
-129.9055935005097
 10
82.70778535258695
 20
-129.9055935005097
 10
83.01646590806533
 20
-129.8673529406234
 10
83.01646590806533
 20
-129.5893337349638
 10
83.01646590806533
 20
-129.3247504016966
 10
82.73534611646895
 20
-129.2727294598693
 10
82.38842500110428
 20
-129.2727294598693
 10
82.0687201400731
 20
-129.2727294598693
 10
81.76003958459472
 20
-129.3133815865953
 10
81.76003958459472
 20
-129.5893337349638
 97
        0
 97
        0
 75
     2
 76
     1
 98
        0
  0
ENDBLK
  5
8D
330
8A
100
AcDbEntity
  8
0
100
AcDbBlockEnd
  0
BLOCK
  5
9D
330
9B
100
AcDbEntity
  8
0
100
AcDbBlockBegin
  2
block 5
 70
     0
 10
0.0
 20
0.0
 30
0.0
  3
block 5
  1

  0
SPLINE
  5
9F
330
9B
100
AcDbEntity
  8
_U+30EC_U+30A4_U+30E4_U+30FC 1
370
     0
100
AcDbSpline
210
0.0
220
0.0
230
1.0
 70
    11
 71
     3
 72
    44
 73
    40
 74
     0
 42
0.0000000001
 43
0.0000000001
 12
1.0
 22
0.0
 32
0.0
 13
1.0
 23
0.0
 33
0.0
 40
0.0
 40
0.0
 40
0.0
 40
0.0
 40
1.0
 40
1.0
 40
1.0
 40
2.0
 40
2.0
 40
2.0
 40
3.0
 40
3.0
 40
3.0
 40
4.0
 40
4.0
 40
4.0
 40
5.0
 40
5.0
 40
5.0
 40
6.0
 40
6.0
 40
6.0
 40
7.0
 40
7.0
 40
7.0
 40
8.0
 40
8.0
 40
8.0
 40
9.0
 40
9.0
 40
9.0
 40
10.0
 40
10.0
 40
10.0
 40
11.0
 40
11.0
 40
11.0
 40
12.0
 40
12.0
 40
12.0
 40
13.0
 40
13.0
 40
13.0
 40
13.0
 10
78.2629231575176
 20
-138.0446315844125
 30
0.0
 10
78.03003470271472
 20
-138.2034504862825
 30
0.0
 10
77.93064369796527
 20
-138.2775200392153
 30
0.0
 10
77.87862275613799
 20
-138.4211805209503
 30
0.0
 10
77.87862275613799
 20
-138.4211805209503
 30
0.0
 10
78.71061331582582
 20
-138.4211805209503
 30
0.0
 10
78.71061331582582
 20
-138.4211805209503
 30
0.0
 10
78.71061331582582
 20
-138.4211805209503
 30
0.0
 10
78.71061331582582
 20
-138.6265082118712
 30
0.0
 10
78.71061331582582
 20
-138.6265082118712
 30
0.0
 10
78.71061331582582
 20
-138.6265082118712
 30
0.0
 10
77.61180011080539
 20
-138.6265082118712
 30
0.0
 10
77.61180011080539
 20
-138.6265082118712
 30
0.0
 10
77.6457343013351
 20
-138.2689073005022
 30
0.0
 10
77.71584199445994
 20
-138.1907036329871
 30
0.0
 10
78.12735865017302
 20
-137.8923583639644
 30
0.0
 10
78.40089923170186
 20
-137.6935763544655
 30
0.0
 10
78.4710069248267
 20
-137.6257079734061
 30
0.0
 10
78.4710069248267
 20
-137.4882486635446
 30
0.0
 10
78.4710069248267
 20
-137.369737378852
 30
0.0
 10
78.39418129550562
 20
-137.2388237504125
 30
0.0
 10
78.18385821613113
 20
-137.2388237504125
 30
0.0
 10
77.9056667556972
 20
-137.2388237504125
 30
0.0
 10
77.89670950743555
 20
-137.4693006383757
 30
0.0
 10
77.89223088330472
 20
-137.5857448657772
 30
0.0
 10
77.89223088330472
 20
-137.5857448657772
 30
0.0
 10
77.65245223753134
 20
-137.5857448657772
 30
0.0
 10
77.65245223753134
 20
-137.5857448657772
 30
0.0
 10
77.66158174056724
 20
-137.4586208423715
 30
0.0
 10
77.67295055566858
 20
-137.3466552391008
 30
0.0
 10
77.7587334332513
 20
-137.2281439544082
 30
0.0
 10
77.87638344407257
 20
-137.0672579952471
 30
0.0
 10
78.07533770834576
 20
-137.0334960594916
 30
0.0
 10
78.19970565536327
 20
-137.0334960594916
 30
0.0
 10
78.4958116123205
 20
-137.0334960594916
 30
0.0
 10
78.71733125202206
 20
-137.217464158404
 30
0.0
 10
78.71733125202206
 20
-137.4903157208358
 30
0.0
 10
78.71733125202206
 20
-137.7190700610564
 30
0.0
 10
78.59296330500455
 20
-137.8182888110316
 30
0.0
 10
78.2629231575176
 20
-138.0446315844125
 30
0.0
  0
HATCH
  5
A0
330
9B
100
AcDbEntity
  8
_U+30EC_U+30A4_U+30E4_U+30FC 1
 62
   179
420
  2234388
100
AcDbHatch
 10
0.0
 20
0.0
 30
0.0
210
0.0
220
0.0
230
1.0
  2
SOLID
 70
     1
 71
     0
 91
        1
 92
        1
 93
        1
 72
     4
 94
        3
 73
     0
 74
     1
 95
       44
 96
       40
 40
0.0
 40
0.0
 40
0.0
 40
0.0
 40
1.0
 40
1.0
 40
1.0
 40
2.0
 40
2.0
 40
2.0
 40
3.0
 40
3.0
 40
3.0
 40
4.0
 40
4.0
 40
4.0
 40
5.0
 40
5.0
 40
5.0
 40
6.0
 40
6.0
 40
6.0
 40
7.0
 40
7.0
 40
7.0
 40
8.0
 40
8.0
 40
8.0
 40
9.0
 40
9.0
 40
9.0
 40
10.0
 40
10.0
 40
10.0
 40
11.0
 40
11.0
 40
11.0
 40
12.0
 40
12.0
 40
12.0
 40
13.0
 40
13.0
 40
13.0
 40
13.0
 10
78.2629231575176
 20
-138.0446315844125
 10
78.03003470271472
 20
-138.2034504862825
 10
77.93064369796527
 20
-138.2775200392153
 10
77.87862275613799
 20
-138.4211805209503
 10
77.87862275613799
 20
-138.4211805209503
 10
78.71061331582582
 20
-138.4211805209503
 10
78.71061331582582
 20
-138.4211805209503
 10
78.71061331582582
 20
-138.4211805209503
 10
78.71061331582582
 20
-138.6265082118712
 10
78.71061331582582
 20
-138.6265082118712
 10
78.71061331582582
 20
-138.6265082118712
 10
77.61180011080539
 20
-138.6265082118712
 10
77.61180011080539
 20
-138.6265082118712
 10
77.6457343013351
 20
-138.2689073005022
 10
77.71584199445994
 20
-138.1907036329871
 10
78.12735865017302
 20
-137.8923583639644
 10
78.40089923170186
 20
-137.6935763544655
 10
78.4710069248267
 20
-137.6257079734061
 10
78.4710069248267
 20
-137.4882486635446
 10
78.4710069248267
 20
-137.369737378852
 10
78.39418129550562
 20
-137.2388237504125
 10
78.18385821613113
 20
-137.2388237504125
 10
77.9056667556972
 20
-137.2388237504125
 10
77.89670950743555
 20
-137.4693006383757
 10
77.89223088330472
 20
-137.5857448657772
 10
77.89223088330472
 20
-137.5857448657772
 10
77.65245223753134
 20
-137.5857448657772
 10
77.65245223753134
 20
-137.5857448657772
 10
77.66158174056724
 20
-137.4586208423715
 10
77.67295055566858
 20
-137.3466552391008
 10
77.7587334332513
 20
-137.2281439544082
 10
77.87638344407257
 20
-137.0672579952471
 10
78.07533770834576
 20
-137.0334960594916
 10
78.19970565536327
 20
-137.0334960594916
 10
78.4958116123205
 20
-137.0334960594916
 10
78.71733125202206
 20
-137.217464158404
 10
78.71733125202206
 20
-137.4903157208358
 10
78.71733125202206
 20
-137.7190700610564
 10
78.59296330500455
 20
-137.8182888110316
 10
78.2629231575176
 20
-138.0446315844125
 97
        0
 97
        0
 75
     2
 76
     1
 98
        0
  0
POLYLINE
  5
A1
330
9B
100
AcDbEntity
  8
_U+30EC_U+30A4_U+30E4_U+30FC 1
370
     0
100
AcDb2dPolyline
 66
     1
 10
0.0
 20
0.0
 30
0.0
  0
VERTEX
  5
A2
330
A1
100
AcDbEntity
  8
_U+30EC_U+30A4_U+30E4_U+30FC 1
370
     0
100
AcDbVertex
100
AcDb2dVertex
 10
78.95108098069626
 20
-138.6265082118712
 30
0.0
  0
VERTEX
  5
A3
330
A1
100
AcDbEntity
  8
_U+30EC_U+30A4_U+30E4_U+30FC 1
370
     0
100
AcDbVertex
100
AcDb2dVertex
 10
78.95108098069626
 20
-138.3746717318994
 30
0.0
  0
VERTEX
  5
A4
330
A1
100
AcDbEntity
  8
_U+30EC_U+30A4_U+30E4_U+30FC 1
370
     0
100
AcDbVertex
100
AcDb2dVertex
 10
79.22014293809427
 20
-138.3746717318994
 30
0.0
  0
VERTEX
  5
A5
330
A1
100
AcDbEntity
  8
_U+30EC_U+30A4_U+30E4_U+30FC 1
370
     0
100
AcDbVertex
100
AcDb2dVertex
 10
79.22014293809427
 20
-138.6265082118712
 30
0.0
  0
VERTEX
  5
A6
330
A1
100
AcDbEntity
  8
_U+30EC_U+30A4_U+30E4_U+30FC 1
370
     0
100
AcDbVertex
100
AcDb2dVertex
 10
78.95108098069626
 20
-138.6265082118712
 30
0.0
  0
SEQEND
  5
A7
330
A1
100
AcDbEntity
  8
_U+30EC_U+30A4_U+30E4_U+30FC 1
370
     0
  0
HATCH
  5
A8
330
9B
100
AcDbEntity
  8
_U+30EC_U+30A4_U+30E4_U+30FC 1
 62
   179
420
  2234388
100
AcDbHatch
 10
0.0
 20
0.0
 30
0.0
210
0.0
220
0.0
230
1.0
  2
SOLID
 70
     1
 71
     0
 91
        1
 92
        1
 93
        4
 72
     1
 10
78.95108098069626
 20
-138.6265082118712
 11
78.95108098069626
 21
-138.3746717318994
 72
     1
 10
78.95108098069626
 20
-138.3746717318994
 11
79.22014293809427
 21
-138.3746717318994
 72
     1
 10
79.22014293809427
 20
-138.3746717318994
 11
79.22014293809427
 21
-138.6265082118712
 72
     1
 10
79.22014293809427
 20
-138.6265082118712
 11
78.95108098069626
 21
-138.6265082118712
 97
        0
 75
     2
 76
     1
 98
        0
  0
SPLINE
  5
A9
330
9B
100
AcDbEntity
  8
_U+30EC_U+30A4_U+30E4_U+30FC 1
370
     0
100
AcDbSpline
210
0.0
220
0.0
230
1.0
 70
    11
 71
     3
 72
    53
 73
    49
 74
     0
 42
0.0000000001
 43
0.0000000001
 12
1.0
 22
0.0
 32
0.0
 13
1.0
 23
0.0
 33
0.0
 40
0.0
 40
0.0
 40
0.0
 40
0.0
 40
1.0
 40
1.0
 40
1.0
 40
2.0
 40
2.0
 40
2.0
 40
3.0
 40
3.0
 40
3.0
 40
4.0
 40
4.0
 40
4.0
 40
5.0
 40
5.0
 40
5.0
 40
6.0
 40
6.0
 40
6.0
 40
7.0
 40
7.0
 40
7.0
 40
8.0
 40
8.0
 40
8.0
 40
9.0
 40
9.0
 40
9.0
 40
10.0
 40
10.0
 40
10.0
 40
11.0
 40
11.0
 40
11.0
 40
12.0
 40
12.0
 40
12.0
 40
13.0
 40
13.0
 40
13.0
 40
14.0
 40
14.0
 40
14.0
 40
15.0
 40
15.0
 40
15.0
 40
16.0
 40
16.0
 40
16.0
 40
16.0
 10
79.98702119311089
 20
-138.6771511155043
 30
0.0
 10
79.90330537281932
 20
-138.6771511155043
 30
0.0
 10
79.79478486503395
 20
-138.6602701476266
 30
0.0
 10
79.68626435724858
 20
-138.596880390698
 30
0.0
 10
79.50091822014214
 20
-138.4869818447185
 30
0.0
 10
79.47835284471375
 20
-138.3557237067305
 30
0.0
 10
79.45785452657651
 20
-138.2478922180422
 30
0.0
 10
79.45785452657651
 20
-138.2478922180422
 30
0.0
 10
79.69539386028448
 20
-138.2478922180422
 30
0.0
 10
79.69539386028448
 20
-138.2478922180422
 30
0.0
 10
79.754132738308
 20
-138.4466742275411
 30
0.0
 10
79.88969724565258
 20
-138.4763020487143
 30
0.0
 10
79.9892605051763
 20
-138.4763020487143
 30
0.0
 10
80.13843313968762
 20
-138.4763020487143
 30
0.0
 10
80.30121390136567
 20
-138.3767387891905
 30
0.0
 10
80.30121390136567
 20
-138.1441948439362
 30
0.0
 10
80.30121390136567
 20
-137.8882242493821
 30
0.0
 10
80.10897757328873
 20
-137.8182888110316
 30
0.0
 10
79.98013100214038
 20
-137.8182888110316
 30
0.0
 10
79.94619681161068
 20
-137.8182888110316
 30
0.0
 10
79.79478486503395
 20
-137.8182888110316
 30
0.0
 10
79.69987248441531
 20
-137.9474798917284
 30
0.0
 10
79.69987248441531
 20
-137.9474798917284
 30
0.0
 10
79.51211478046919
 20
-137.9285318665596
 30
0.0
 10
79.51211478046919
 20
-137.9285318665596
 30
0.0
 10
79.51211478046919
 20
-137.9285318665596
 30
0.0
 10
79.64096135161753
 20
-137.0820719058337
 30
0.0
 10
79.64096135161753
 20
-137.0820719058337
 30
0.0
 10
79.64096135161753
 20
-137.0820719058337
 30
0.0
 10
80.47295191130537
 20
-137.0820719058337
 30
0.0
 10
80.47295191130537
 20
-137.0820719058337
 30
0.0
 10
80.47295191130537
 20
-137.0820719058337
 30
0.0
 10
80.47295191130537
 20
-137.2767198007503
 30
0.0
 10
80.47295191130537
 20
-137.2767198007503
 30
0.0
 10
80.47295191130537
 20
-137.2767198007503
 30
0.0
 10
79.81511092839692
 20
-137.2767198007503
 30
0.0
 10
79.81511092839692
 20
-137.2767198007503
 30
0.0
 10
79.81511092839692
 20
-137.2767198007503
 30
0.0
 10
79.74500323527208
 20
-137.6997775263389
 30
0.0
 10
79.74500323527208
 20
-137.6997775263389
 30
0.0
 10
79.8106323042661
 20
-137.6660155905835
 30
0.0
 10
79.89882674868849
 20
-137.6257079734061
 30
0.0
 10
80.02543400777142
 20
-137.6257079734061
 30
0.0
 10
80.29673527723484
 20
-137.6257079734061
 30
0.0
 10
80.5499497954007
 20
-137.8120876391581
 30
0.0
 10
80.5499497954007
 20
-138.1252468187673
 30
0.0
 10
80.5499497954007
 20
-138.4425401129588
 30
0.0
 10
80.31034340440158
 20
-138.6771511155043
 30
0.0
 10
79.98702119311089
 20
-138.6771511155043
 30
0.0
  0
HATCH
  5
AA
330
9B
100
AcDbEntity
  8
_U+30EC_U+30A4_U+30E4_U+30FC 1
 62
   179
420
  2234388
100
AcDbHatch
 10
0.0
 20
0.0
 30
0.0
210
0.0
220
0.0
230
1.0
  2
SOLID
 70
     1
 71
     0
 91
        1
 92
        1
 93
        1
 72
     4
 94
        3
 73
     0
 74
     1
 95
       53
 96
       49
 40
0.0
 40
0.0
 40
0.0
 40
0.0
 40
1.0
 40
1.0
 40
1.0
 40
2.0
 40
2.0
 40
2.0
 40
3.0
 40
3.0
 40
3.0
 40
4.0
 40
4.0
 40
4.0
 40
5.0
 40
5.0
 40
5.0
 40
6.0
 40
6.0
 40
6.0
 40
7.0
 40
7.0
 40
7.0
 40
8.0
 40
8.0
 40
8.0
 40
9.0
 40
9.0
 40
9.0
 40
10.0
 40
10.0
 40
10.0
 40
11.0
 40
11.0
 40
11.0
 40
12.0
 40
12.0
 40
12.0
 40
13.0
 40
13.0
 40
13.0
 40
14.0
 40
14.0
 40
14.0
 40
15.0
 40
15.0
 40
15.0
 40
16.0
 40
16.0
 40
16.0
 40
16.0
 10
79.98702119311089
 20
-138.6771511155043
 10
79.90330537281932
 20
-138.6771511155043
 10
79.79478486503395
 20
-138.6602701476266
 10
79.68626435724858
 20
-138.596880390698
 10
79.50091822014214
 20
-138.4869818447185
 10
79.47835284471375
 20
-138.3557237067305
 10
79.45785452657651
 20
-138.2478922180422
 10
79.45785452657651
 20
-138.2478922180422
 10
79.69539386028448
 20
-138.2478922180422
 10
79.69539386028448
 20
-138.2478922180422
 10
79.754132738308
 20
-138.4466742275411
 10
79.88969724565258
 20
-138.4763020487143
 10
79.9892605051763
 20
-138.4763020487143
 10
80.13843313968762
 20
-138.4763020487143
 10
80.30121390136567
 20
-138.3767387891905
 10
80.30121390136567
 20
-138.1441948439362
 10
80.30121390136567
 20
-137.8882242493821
 10
80.10897757328873
 20
-137.8182888110316
 10
79.98013100214038
 20
-137.8182888110316
 10
79.94619681161068
 20
-137.8182888110316
 10
79.79478486503395
 20
-137.8182888110316
 10
79.69987248441531
 20
-137.9474798917284
 10
79.69987248441531
 20
-137.9474798917284
 10
79.51211478046919
 20
-137.9285318665596
 10
79.51211478046919
 20
-137.9285318665596
 10
79.51211478046919
 20
-137.9285318665596
 10
79.64096135161753
 20
-137.0820719058337
 10
79.64096135161753
 20
-137.0820719058337
 10
79.64096135161753
 20
-137.0820719058337
 10
80.47295191130537
 20
-137.0820719058337
 10
80.47295191130537
 20
-137.0820719058337
 10
80.47295191130537
 20
-137.0820719058337
 10
80.47295191130537
 20
-137.2767198007503
 10
80.47295191130537
 20
-137.2767198007503
 10
80.47295191130537
 20
-137.2767198007503
 10
79.81511092839692
 20
-137.2767198007503
 10
79.81511092839692
 20
-137.2767198007503
 10
79.81511092839692
 20
-137.2767198007503
 10
79.74500323527208
 20
-137.6997775263389
 10
79.74500323527208
 20
-137.6997775263389
 10
79.8106323042661
 20
-137.6660155905835
 10
79.89882674868849
 20
-137.6257079734061
 10
80.02543400777142
 20
-137.6257079734061
 10
80.29673527723484
 20
-137.6257079734061
 10
80.5499497954007
 20
-137.8120876391581
 10
80.5499497954007
 20
-138.1252468187673
 10
80.5499497954007
 20
-138.4425401129588
 10
80.31034340440158
 20
-138.6771511155043
 10
79.98702119311089
 20
-138.6771511155043
 97
        0
 97
        0
 75
     2
 76
     1
 98
        0
  0
SPLINE
  5
AB
330
9B
100
AcDbEntity
  8
_U+30EC_U+30A4_U+30E4_U+30FC 1
370
     0
100
AcDbSpline
210
0.0
220
0.0
230
1.0
 70
    11
 71
     3
 72
    44
 73
    40
 74
     0
 42
0.0000000001
 43
0.0000000001
 12
1.0
 22
0.0
 32
0.0
 13
1.0
 23
0.0
 33
0.0
 40
0.0
 40
0.0
 40
0.0
 40
0.0
 40
1.0
 40
1.0
 40
1.0
 40
2.0
 40
2.0
 40
2.0
 40
3.0
 40
3.0
 40
3.0
 40
4.0
 40
4.0
 40
4.0
 40
5.0
 40
5.0
 40
5.0
 40
6.0
 40
6.0
 40
6.0
 40
7.0
 40
7.0
 40
7.0
 40
8.0
 40
8.0
 40
8.0
 40
9.0
 40
9.0
 40
9.0
 40
10.0
 40
10.0
 40
10.0
 40
11.0
 40
11.0
 40
11.0
 40
12.0
 40
12.0
 40
12.0
 40
13.0
 40
13.0
 40
13.0
 40
13.0
 10
81.81447209326166
 20
-138.6265082118712
 30
0.0
 10
81.78966740576786
 20
-138.5820664801114
 30
0.0
 10
81.76692977556522
 20
-138.5293565191871
 30
0.0
 10
81.76486271827406
 20
-138.2985351216754
 30
0.0
 10
81.76038409414325
 20
-138.0553113804167
 30
0.0
 10
81.69699433721465
 20
-137.9853759420662
 30
0.0
 10
81.50716957597737
 20
-137.9853759420662
 30
0.0
 10
81.50716957597737
 20
-137.9853759420662
 30
0.0
 10
81.07067597799622
 20
-137.9853759420662
 30
0.0
 10
81.07067597799622
 20
-137.9853759420662
 30
0.0
 10
81.07067597799622
 20
-137.9853759420662
 30
0.0
 10
81.07067597799622
 20
-138.6265082118712
 30
0.0
 10
81.07067597799622
 20
-138.6265082118712
 30
0.0
 10
81.07067597799622
 20
-138.6265082118712
 30
0.0
 10
80.81970077189577
 20
-138.6265082118712
 30
0.0
 10
80.81970077189577
 20
-138.6265082118712
 30
0.0
 10
80.81970077189577
 20
-138.6265082118712
 30
0.0
 10
80.81970077189577
 20
-137.0820719058337
 30
0.0
 10
80.81970077189577
 20
-137.0820719058337
 30
0.0
 10
80.81970077189577
 20
-137.0820719058337
 30
0.0
 10
81.54093151173282
 20
-137.0820719058337
 30
0.0
 10
81.54093151173282
 20
-137.0820719058337
 30
0.0
 10
81.8689046019286
 20
-137.0820719058337
 30
0.0
 10
82.04736054806455
 20
-137.2536376609991
 30
0.0
 10
82.04736054806455
 20
-137.5096082555532
 30
0.0
 10
82.04736054806455
 20
-137.5602511591863
 30
0.0
 10
82.03840329980291
 20
-137.6429334508323
 30
0.0
 10
81.99086098210645
 20
-137.7232041756386
 30
0.0
 10
81.92747122517785
 20
-137.8269015497447
 30
0.0
 10
81.85753578682728
 20
-137.8458495749136
 30
0.0
 10
81.79173446305902
 20
-137.8627305427913
 30
0.0
 10
81.93884004027919
 20
-137.9051052172598
 30
0.0
 10
82.01118704546943
 20
-137.9536810636019
 30
0.0
 10
82.01566566960025
 20
-138.2689073005022
 30
0.0
 10
82.02014429373108
 20
-138.5396918056429
 30
0.0
 10
82.05872936316588
 20
-138.5713866841072
 30
0.0
 10
82.13107636835612
 20
-138.6265082118712
 30
0.0
 10
82.13107636835612
 20
-138.6265082118712
 30
0.0
 10
81.81447209326166
 20
-138.6265082118712
 30
0.0
 10
81.81447209326166
 20
-138.6265082118712
 30
0.0
  0
SPLINE
  5
AC
330
9B
100
AcDbEntity
  8
_U+30EC_U+30A4_U+30E4_U+30FC 1
370
     0
100
AcDbSpline
210
0.0
220
0.0
230
1.0
 70
    11
 71
     3
 72
    20
 73
    16
 74
     0
 42
0.0000000001
 43
0.0000000001
 12
1.0
 22
0.0
 32
0.0
 13
1.0
 23
0.0
 33
0.0
 40
0.0
 40
0.0
 40
0.0
 40
0.0
 40
1.0
 40
1.0
 40
1.0
 40
2.0
 40
2.0
 40
2.0
 40
3.0
 40
3.0
 40
3.0
 40
4.0
 40
4.0
 40
4.0
 40
5.0
 40
5.0
 40
5.0
 40
5.0
 10
81.54541013586365
 20
-137.293600768628
 30
0.0
 10
81.54541013586365
 20
-137.293600768628
 30
0.0
 10
81.07067597799622
 20
-137.293600768628
 30
0.0
 10
81.07067597799622
 20
-137.293600768628
 30
0.0
 10
81.07067597799622
 20
-137.293600768628
 30
0.0
 10
81.07067597799622
 20
-137.7738470792718
 30
0.0
 10
81.07067597799622
 20
-137.7738470792718
 30
0.0
 10
81.07067597799622
 20
-137.7738470792718
 30
0.0
 10
81.5433430785725
 20
-137.7738470792718
 30
0.0
 10
81.5433430785725
 20
-137.7738470792718
 30
0.0
 10
81.6494520195182
 20
-137.7738470792718
 30
0.0
 10
81.79414602989868
 20
-137.6977104690478
 30
0.0
 10
81.79414602989868
 20
-137.5264892234309
 30
0.0
 10
81.79414602989868
 20
-137.4482855559157
 30
0.0
 10
81.75797252730356
 20
-137.293600768628
 30
0.0
 10
81.54541013586365
 20
-137.293600768628
 30
0.0
  0
HATCH
  5
AD
330
9B
100
AcDbEntity
  8
_U+30EC_U+30A4_U+30E4_U+30FC 1
 62
   179
420
  2234388
100
AcDbHatch
 10
0.0
 20
0.0
 30
0.0
210
0.0
220
0.0
230
1.0
  2
SOLID
 70
     1
 71
     0
 91
        2
 92
        1
 93
        1
 72
     4
 94
        3
 73
     0
 74
     1
 95
       44
 96
       40
 40
0.0
 40
0.0
 40
0.0
 40
0.0
 40
1.0
 40
1.0
 40
1.0
 40
2.0
 40
2.0
 40
2.0
 40
3.0
 40
3.0
 40
3.0
 40
4.0
 40
4.0
 40
4.0
 40
5.0
 40
5.0
 40
5.0
 40
6.0
 40
6.0
 40
6.0
 40
7.0
 40
7.0
 40
7.0
 40
8.0
 40
8.0
 40
8.0
 40
9.0
 40
9.0
 40
9.0
 40
10.0
 40
10.0
 40
10.0
 40
11.0
 40
11.0
 40
11.0
 40
12.0
 40
12.0
 40
12.0
 40
13.0
 40
13.0
 40
13.0
 40
13.0
 10
81.81447209326166
 20
-138.6265082118712
 10
81.78966740576786
 20
-138.5820664801114
 10
81.76692977556522
 20
-138.5293565191871
 10
81.76486271827406
 20
-138.2985351216754
 10
81.76038409414325
 20
-138.0553113804167
 10
81.69699433721465
 20
-137.9853759420662
 10
81.50716957597737
 20
-137.9853759420662
 10
81.50716957597737
 20
-137.9853759420662
 10
81.07067597799622
 20
-137.9853759420662
 10
81.07067597799622
 20
-137.9853759420662
 10
81.07067597799622
 20
-137.9853759420662
 10
81.07067597799622
 20
-138.6265082118712
 10
81.07067597799622
 20
-138.6265082118712
 10
81.07067597799622
 20
-138.6265082118712
 10
80.81970077189577
 20
-138.6265082118712
 10
80.81970077189577
 20
-138.6265082118712
 10
80.81970077189577
 20
-138.6265082118712
 10
80.81970077189577
 20
-137.0820719058337
 10
80.81970077189577
 20
-137.0820719058337
 10
80.81970077189577
 20
-137.0820719058337
 10
81.54093151173282
 20
-137.0820719058337
 10
81.54093151173282
 20
-137.0820719058337
 10
81.8689046019286
 20
-137.0820719058337
 10
82.04736054806455
 20
-137.2536376609991
 10
82.04736054806455
 20
-137.5096082555532
 10
82.04736054806455
 20
-137.5602511591863
 10
82.03840329980291
 20
-137.6429334508323
 10
81.99086098210645
 20
-137.7232041756386
 10
81.92747122517785
 20
-137.8269015497447
 10
81.85753578682728
 20
-137.8458495749136
 10
81.79173446305902
 20
-137.8627305427913
 10
81.93884004027919
 20
-137.9051052172598
 10
82.01118704546943
 20
-137.9536810636019
 10
82.01566566960025
 20
-138.2689073005022
 10
82.02014429373108
 20
-138.5396918056429
 10
82.05872936316588
 20
-138.5713866841072
 10
82.13107636835612
 20
-138.6265082118712
 10
82.13107636835612
 20
-138.6265082118712
 10
81.81447209326166
 20
-138.6265082118712
 10
81.81447209326166
 20
-138.6265082118712
 97
        0
 97
        0
 92
        1
 93
        1
 72
     4
 94
        3
 73
     0
 74
     1
 95
       20
 96
       16
 40
0.0
 40
0.0
 40
0.0
 40
0.0
 40
1.0
 40
1.0
 40
1.0
 40
2.0
 40
2.0
 40
2.0
 40
3.0
 40
3.0
 40
3.0
 40
4.0
 40
4.0
 40
4.0
 40
5.0
 40
5.0
 40
5.0
 40
5.0
 10
81.54541013586365
 20
-137.293600768628
 10
81.54541013586365
 20
-137.293600768628
 10
81.07067597799622
 20
-137.293600768628
 10
81.07067597799622
 20
-137.293600768628
 10
81.07067597799622
 20
-137.293600768628
 10
81.07067597799622
 20
-137.7738470792718
 10
81.07067597799622
 20
-137.7738470792718
 10
81.07067597799622
 20
-137.7738470792718
 10
81.5433430785725
 20
-137.7738470792718
 10
81.5433430785725
 20
-137.7738470792718
 10
81.6494520195182
 20
-137.7738470792718
 10
81.79414602989868
 20
-137.6977104690478
 10
81.79414602989868
 20
-137.5264892234309
 10
81.79414602989868
 20
-137.4482855559157
 10
81.75797252730356
 20
-137.293600768628
 10
81.54541013586365
 20
-137.293600768628
 97
        0
 97
        0
 75
     2
 76
     1
 98
        0
  0
ENDBLK
  5
9E
330
9B
100
AcDbEntity
  8
0
100
AcDbBlockEnd
  0
BLOCK
  5
B9
330
B7
100
AcDbEntity
  8
0
100
AcDbBlockBegin
  2
block 6
 70
     0
 10
0.0
 20
0.0
 30
0.0
  3
block 6
  1

  0
SPLINE
  5
BB
330
B7
100
AcDbEntity
  8
_U+30EC_U+30A4_U+30E4_U+30FC 1
370
     0
100
AcDbSpline
210
0.0
220
0.0
230
1.0
 70
    11
 71
     3
 72
    26
 73
    22
 74
     0
 42
0.0000000001
 43
0.0000000001
 12
1.0
 22
0.0
 32
0.0
 13
1.0
 23
0.0
 33
0.0
 40
0.0
 40
0.0
 40
0.0
 40
0.0
 40
1.0
 40
1.0
 40
1.0
 40
2.0
 40
2.0
 40
2.0
 40
3.0
 40
3.0
 40
3.0
 40
4.0
 40
4.0
 40
4.0
 40
5.0
 40
5.0
 40
5.0
 40
6.0
 40
6.0
 40
6.0
 40
7.0
 40
7.0
 40
7.0
 40
7.0
 10
86.63932832035407
 20
-120.4932481252586
 30
0.0
 10
86.63932832035407
 20
-120.4932481252586
 30
0.0
 10
86.63932832035407
 20
-119.3890950222361
 30
0.0
 10
86.63932832035407
 20
-119.3890950222361
 30
0.0
 10
86.63932832035407
 20
-119.3890950222361
 30
0.0
 10
86.286895052213
 20
-119.3890950222361
 30
0.0
 10
86.286895052213
 20
-119.3890950222361
 30
0.0
 10
86.286895052213
 20
-119.3890950222361
 30
0.0
 10
86.286895052213
 20
-119.2409559163703
 30
0.0
 10
86.286895052213
 20
-119.2409559163703
 30
0.0
 10
86.64173988719374
 20
-119.2261420057837
 30
0.0
 10
86.69134926218133
 20
-119.0631889893314
 30
0.0
 10
86.72304414064563
 20
-118.9488118192211
 30
0.0
 10
86.72304414064563
 20
-118.9488118192211
 30
0.0
 10
86.87910696612745
 20
-118.9488118192211
 30
0.0
 10
86.87910696612745
 20
-118.9488118192211
 30
0.0
 10
86.87910696612745
 20
-118.9488118192211
 30
0.0
 10
86.87910696612745
 20
-120.4932481252586
 30
0.0
 10
86.87910696612745
 20
-120.4932481252586
 30
0.0
 10
86.87910696612745
 20
-120.4932481252586
 30
0.0
 10
86.63932832035407
 20
-120.4932481252586
 30
0.0
 10
86.63932832035407
 20
-120.4932481252586
 30
0.0
  0
HATCH
  5
BC
330
B7
100
AcDbEntity
  8
_U+30EC_U+30A4_U+30E4_U+30FC 1
 62
   179
420
  2234388
100
AcDbHatch
 10
0.0
 20
0.0
 30
0.0
210
0.0
220
0.0
230
1.0
  2
SOLID
 70
     1
 71
     0
 91
        1
 92
        1
 93
        1
 72
     4
 94
        3
 73
     0
 74
     1
 95
       26
 96
       22
 40
0.0
 40
0.0
 40
0.0
 40
0.0
 40
1.0
 40
1.0
 40
1.0
 40
2.0
 40
2.0
 40
2.0
 40
3.0
 40
3.0
 40
3.0
 40
4.0
 40
4.0
 40
4.0
 40
5.0
 40
5.0
 40
5.0
 40
6.0
 40
6.0
 40
6.0
 40
7.0
 40
7.0
 40
7.0
 40
7.0
 10
86.63932832035407
 20
-120.4932481252586
 10
86.63932832035407
 20
-120.4932481252586
 10
86.63932832035407
 20
-119.3890950222361
 10
86.63932832035407
 20
-119.3890950222361
 10
86.63932832035407
 20
-119.3890950222361
 10
86.286895052213
 20
-119.3890950222361
 10
86.286895052213
 20
-119.3890950222361
 10
86.286895052213
 20
-119.3890950222361
 10
86.286895052213
 20
-119.2409559163703
 10
86.286895052213
 20
-119.2409559163703
 10
86.64173988719374
 20
-119.2261420057837
 10
86.69134926218133
 20
-119.0631889893314
 10
86.72304414064563
 20
-118.9488118192211
 10
86.72304414064563
 20
-118.9488118192211
 10
86.87910696612745
 20
-118.9488118192211
 10
86.87910696612745
 20
-118.9488118192211
 10
86.87910696612745
 20
-118.9488118192211
 10
86.87910696612745
 20
-120.4932481252586
 10
86.87910696612745
 20
-120.4932481252586
 10
86.87910696612745
 20
-120.4932481252586
 10
86.63932832035407
 20
-120.4932481252586
 10
86.63932832035407
 20
-120.4932481252586
 97
        0
 97
        0
 75
     2
 76
     1
 98
        0
  0
ENDBLK
  5
BA
330
B7
100
AcDbEntity
  8
0
100
AcDbBlockEnd
  0
ENDSEC
  0
SECTION
  2
ENTITIES
  0
SPLINE
  5
41
330
1F
100
AcDbEntity
  8
_U+30EC_U+30A4_U+30E4_U+30FC 1
 62
   179
420
  2234388
370
    25
100
AcDbSpline
210
0.0
220
0.0
230
1.0
 70
    11
 71
     3
 72
    83
 73
    79
 74
     0
 42
0.0000000001
 43
0.0000000001
 12
1.0
 22
0.0
 32
0.0
 13
1.0
 23
0.0
 33
0.0
 40
0.0
 40
0.0
 40
0.0
 40
0.0
 40
1.0
 40
1.0
 40
1.0
 40
2.0
 40
2.0
 40
2.0
 40
3.0
 40
3.0
 40
3.0
 40
4.0
 40
4.0
 40
4.0
 40
5.0
 40
5.0
 40
5.0
 40
6.0
 40
6.0
 40
6.0
 40
7.0
 40
7.0
 40
7.0
 40
8.0
 40
8.0
 40
8.0
 40
9.0
 40
9.0
 40
9.0
 40
10.0
 40
10.0
 40
10.0
 40
11.0
 40
11.0
 40
11.0
 40
12.0
 40
12.0
 40
12.0
 40
13.0
 40
13.0
 40
13.0
 40
14.0
 40
14.0
 40
14.0
 40
15.0
 40
15.0
 40
15.0
 40
16.0
 40
16.0
 40
16.0
 40
17.0
 40
17.0
 40
17.0
 40
18.0
 40
18.0
 40
18.0
 40
19.0
 40
19.0
 40
19.0
 40
20.0
 40
20.0
 40
20.0
 40
21.0
 40
21.0
 40
21.0
 40
22.0
 40
22.0
 40
22.0
 40
23.0
 40
23.0
 40
23.0
 40
24.0
 40
24.0
 40
24.0
 40
25.0
 40
25.0
 40
25.0
 40
26.0
 40
26.0
 40
26.0
 40
26.0
 10
95.25687673646128
 20
-127.723123856958
 30
0.0
 10
95.25687673646128
 20
-127.723123856958
 30
0.0
 10
95.25722951423006
 20
-117.7230380261247
 30
0.0
 10
95.25722951423006
 20
-117.7230380261247
 30
0.0
 10
94.98093396572338
 20
-117.7206391372364
 30
0.0
 10
94.75977758247667
 20
-117.9417955260701
 30
0.0
 10
94.75699063810332
 20
-118.2180910815565
 30
0.0
 10
94.75699063810332
 20
-118.2180910815565
 30
0.0
 10
94.75699063810332
 20
-119.8180088589344
 30
0.0
 10
94.75699063810332
 20
-119.8180088589344
 30
0.0
 10
94.75699063810332
 20
-119.8180088589344
 30
0.0
 10
95.0953045183611
 20
-120.2210927477225
 30
0.0
 10
95.0953045183611
 20
-120.2210927477225
 30
0.0
 10
95.0953045183611
 20
-120.2210927477225
 30
0.0
 10
94.75699063810332
 20
-120.6183205254011
 30
0.0
 10
94.75699063810332
 20
-120.6183205254011
 30
0.0
 10
94.75699063810332
 20
-120.6183205254011
 30
0.0
 10
94.75699063810332
 20
-124.2253321911658
 30
0.0
 10
94.75699063810332
 20
-124.2253321911658
 30
0.0
 10
94.4455584238264
 20
-124.4006627466777
 30
0.0
 10
94.27089815050458
 20
-124.7293458021511
 30
0.0
 10
94.26677065060989
 20
-125.0858983020619
 30
0.0
 10
94.26677065060989
 20
-125.0858983020619
 30
0.0
 10
94.26677065060989
 20
-128.0125074679969
 30
0.0
 10
94.26677065060989
 20
-128.0125074679969
 30
0.0
 10
94.26677065060989
 20
-128.0125074679969
 30
0.0
 10
88.77733690176811
 20
-133.5191569110645
 30
0.0
 10
88.77733690176811
 20
-133.5191569110645
 30
0.0
 10
88.77733690176811
 20
-133.5191569110645
 30
0.0
 10
88.77733690176811
 20
-124.726594135485
 30
0.0
 10
88.77733690176811
 20
-124.726594135485
 30
0.0
 10
88.22509858252356
 20
-124.7210555243753
 30
0.0
 10
87.7731197051656
 20
-125.1644619131534
 30
0.0
 10
87.76758331139143
 20
-125.7167002463485
 30
0.0
 10
87.76758331139143
 20
-125.7167002463485
 30
0.0
 10
87.77481303845573
 20
-132.7164463557101
 30
0.0
 10
87.77481303845573
 20
-132.7164463557101
 30
0.0
 10
87.7679360891692
 20
-133.4068324666481
 30
0.0
 10
88.04183053164355
 20
-134.0345299664912
 30
0.0
 10
88.48932913133802
 20
-134.4913771885992
 30
0.0
 10
88.94134328647284
 20
-134.9433560773756
 30
0.0
 10
89.56628910386249
 20
-135.2231088550833
 30
0.0
 10
90.25702797512916
 20
-135.2231088550833
 30
0.0
 10
90.25702797512916
 20
-135.2231088550833
 30
0.0
 10
97.25712668543065
 20
-135.2231088550833
 30
0.0
 10
97.25712668543065
 20
-135.2231088550833
 30
0.0
 10
97.80901222690643
 20
-135.2231088550833
 30
0.0
 10
98.25686360436968
 20
-134.7752221885287
 30
0.0
 10
98.25686360436968
 20
-134.222983855333
 30
0.0
 10
98.25686360436968
 20
-134.222983855333
 30
0.0
 10
89.46394827314009
 20
-134.2226310775552
 30
0.0
 10
89.46394827314009
 20
-134.2226310775552
 30
0.0
 10
89.46394827314009
 20
-134.2226310775552
 30
0.0
 10
94.95750952187655
 20
-128.7160169122655
 30
0.0
 10
94.95750952187655
 20
-128.7160169122655
 30
0.0
 10
94.95750952187655
 20
-128.7160169122655
 30
0.0
 10
97.88447139164798
 20
-128.7163344122654
 30
0.0
 10
97.88447139164798
 20
-128.7163344122654
 30
0.0
 10
98.24102388255156
 20
-128.7160169122655
 30
0.0
 10
98.57175553091236
 20
-128.5254816345353
 30
0.0
 10
98.75022331400525
 20
-128.2161308012792
 30
0.0
 10
98.75022331400525
 20
-128.2161308012792
 30
0.0
 10
102.3562118331199
 20
-128.2164483012792
 30
0.0
 10
102.3562118331199
 20
-128.2164483012792
 30
0.0
 10
102.3562118331199
 20
-128.2164483012792
 30
0.0
 10
102.7558384895913
 20
-127.9160580235766
 30
0.0
 10
102.7558384895913
 20
-127.9160580235766
 30
0.0
 10
102.7558384895913
 20
-127.9160580235766
 30
0.0
 10
103.1561354238233
 20
-128.2164483012792
 30
0.0
 10
103.1561354238233
 20
-128.2164483012792
 30
0.0
 10
103.1561354238233
 20
-128.2164483012792
 30
0.0
 10
104.7564059385525
 20
-128.2161308012792
 30
0.0
 10
104.7564059385525
 20
-128.2161308012792
 30
0.0
 10
105.0323487092904
 20
-128.2164483012792
 30
0.0
 10
105.2562920369105
 20
-127.992187468002
 30
0.0
 10
105.2562920369105
 20
-127.7162446902933
 30
0.0
 10
105.2562920369105
 20
-127.7162446902933
 30
0.0
 10
95.25687673646128
 20
-127.723123856958
 30
0.0
 10
95.25687673646128
 20
-127.723123856958
 30
0.0
  0
HATCH
  5
42
330
1F
100
AcDbEntity
  8
_U+30EC_U+30A4_U+30E4_U+30FC 1
 62
   253
420
 11711154
100
AcDbHatch
 10
0.0
 20
0.0
 30
0.0
210
0.0
220
0.0
230
1.0
  2
SOLID
 70
     1
 71
     0
 91
        1
 92
        1
 93
        1
 72
     4
 94
        3
 73
     0
 74
     1
 95
       83
 96
       79
 40
0.0
 40
0.0
 40
0.0
 40
0.0
 40
1.0
 40
1.0
 40
1.0
 40
2.0
 40
2.0
 40
2.0
 40
3.0
 40
3.0
 40
3.0
 40
4.0
 40
4.0
 40
4.0
 40
5.0
 40
5.0
 40
5.0
 40
6.0
 40
6.0
 40
6.0
 40
7.0
 40
7.0
 40
7.0
 40
8.0
 40
8.0
 40
8.0
 40
9.0
 40
9.0
 40
9.0
 40
10.0
 40
10.0
 40
10.0
 40
11.0
 40
11.0
 40
11.0
 40
12.0
 40
12.0
 40
12.0
 40
13.0
 40
13.0
 40
13.0
 40
14.0
 40
14.0
 40
14.0
 40
15.0
 40
15.0
 40
15.0
 40
16.0
 40
16.0
 40
16.0
 40
17.0
 40
17.0
 40
17.0
 40
18.0
 40
18.0
 40
18.0
 40
19.0
 40
19.0
 40
19.0
 40
20.0
 40
20.0
 40
20.0
 40
21.0
 40
21.0
 40
21.0
 40
22.0
 40
22.0
 40
22.0
 40
23.0
 40
23.0
 40
23.0
 40
24.0
 40
24.0
 40
24.0
 40
25.0
 40
25.0
 40
25.0
 40
26.0
 40
26.0
 40
26.0
 40
26.0
 10
95.25687673646128
 20
-127.723123856958
 10
95.25687673646128
 20
-127.723123856958
 10
95.25722951423006
 20
-117.7230380261247
 10
95.25722951423006
 20
-117.7230380261247
 10
94.98093396572338
 20
-117.7206391372364
 10
94.75977758247667
 20
-117.9417955260701
 10
94.75699063810332
 20
-118.2180910815565
 10
94.75699063810332
 20
-118.2180910815565
 10
94.75699063810332
 20
-119.8180088589344
 10
94.75699063810332
 20
-119.8180088589344
 10
94.75699063810332
 20
-119.8180088589344
 10
95.0953045183611
 20
-120.2210927477225
 10
95.0953045183611
 20
-120.2210927477225
 10
95.0953045183611
 20
-120.2210927477225
 10
94.75699063810332
 20
-120.6183205254011
 10
94.75699063810332
 20
-120.6183205254011
 10
94.75699063810332
 20
-120.6183205254011
 10
94.75699063810332
 20
-124.2253321911658
 10
94.75699063810332
 20
-124.2253321911658
 10
94.4455584238264
 20
-124.4006627466777
 10
94.27089815050458
 20
-124.7293458021511
 10
94.26677065060989
 20
-125.0858983020619
 10
94.26677065060989
 20
-125.0858983020619
 10
94.26677065060989
 20
-128.0125074679969
 10
94.26677065060989
 20
-128.0125074679969
 10
94.26677065060989
 20
-128.0125074679969
 10
88.77733690176811
 20
-133.5191569110645
 10
88.77733690176811
 20
-133.5191569110645
 10
88.77733690176811
 20
-133.5191569110645
 10
88.77733690176811
 20
-124.726594135485
 10
88.77733690176811
 20
-124.726594135485
 10
88.22509858252356
 20
-124.7210555243753
 10
87.7731197051656
 20
-125.1644619131534
 10
87.76758331139143
 20
-125.7167002463485
 10
87.76758331139143
 20
-125.7167002463485
 10
87.77481303845573
 20
-132.7164463557101
 10
87.77481303845573
 20
-132.7164463557101
 10
87.7679360891692
 20
-133.4068324666481
 10
88.04183053164355
 20
-134.0345299664912
 10
88.48932913133802
 20
-134.4913771885992
 10
88.94134328647284
 20
-134.9433560773756
 10
89.56628910386249
 20
-135.2231088550833
 10
90.25702797512916
 20
-135.2231088550833
 10
90.25702797512916
 20
-135.2231088550833
 10
97.25712668543065
 20
-135.2231088550833
 10
97.25712668543065
 20
-135.2231088550833
 10
97.80901222690643
 20
-135.2231088550833
 10
98.25686360436968
 20
-134.7752221885287
 10
98.25686360436968
 20
-134.222983855333
 10
98.25686360436968
 20
-134.222983855333
 10
89.46394827314009
 20
-134.2226310775552
 10
89.46394827314009
 20
-134.2226310775552
 10
89.46394827314009
 20
-134.2226310775552
 10
94.95750952187655
 20
-128.7160169122655
 10
94.95750952187655
 20
-128.7160169122655
 10
94.95750952187655
 20
-128.7160169122655
 10
97.88447139164798
 20
-128.7163344122654
 10
97.88447139164798
 20
-128.7163344122654
 10
98.24102388255156
 20
-128.7160169122655
 10
98.57175553091236
 20
-128.5254816345353
 10
98.75022331400525
 20
-128.2161308012792
 10
98.75022331400525
 20
-128.2161308012792
 10
102.3562118331199
 20
-128.2164483012792
 10
102.3562118331199
 20
-128.2164483012792
 10
102.3562118331199
 20
-128.2164483012792
 10
102.7558384895913
 20
-127.9160580235766
 10
102.7558384895913
 20
-127.9160580235766
 10
102.7558384895913
 20
-127.9160580235766
 10
103.1561354238233
 20
-128.2164483012792
 10
103.1561354238233
 20
-128.2164483012792
 10
103.1561354238233
 20
-128.2164483012792
 10
104.7564059385525
 20
-128.2161308012792
 10
104.7564059385525
 20
-128.2161308012792
 10
105.0323487092904
 20
-128.2164483012792
 10
105.2562920369105
 20
-127.992187468002
 10
105.2562920369105
 20
-127.7162446902933
 10
105.2562920369105
 20
-127.7162446902933
 10
95.25687673646128
 20
-127.723123856958
 10
95.25687673646128
 20
-127.723123856958
 97
        0
 97
        0
 75
     2
 76
     1
 98
        0
  0
POLYLINE
  5
43
330
1F
100
AcDbEntity
  8
_U+30EC_U+30A4_U+30E4_U+30FC 1
 62
   179
420
  2234388
370
     9
100
AcDb2dPolyline
 66
     1
 10
0.0
 20
0.0
 30
0.0
  0
VERTEX
  5
44
330
43
100
AcDbEntity
  8
_U+30EC_U+30A4_U+30E4_U+30FC 1
 62
   179
420
  2234388
370
     9
100
AcDbVertex
100
AcDb2dVertex
 10
87.62325970898885
 20
-134.9909105218081
 30
0.0
  0
VERTEX
  5
45
330
43
100
AcDbEntity
  8
_U+30EC_U+30A4_U+30E4_U+30FC 1
 62
   179
420
  2234388
370
     9
100
AcDbVertex
100
AcDb2dVertex
 10
88.48932913133802
 20
-134.4910244108215
 30
0.0
  0
SEQEND
  5
46
330
43
100
AcDbEntity
  8
_U+30EC_U+30A4_U+30E4_U+30FC 1
 62
   179
420
  2234388
370
     9
  0
POLYLINE
  5
47
330
1F
100
AcDbEntity
  8
_U+30EC_U+30A4_U+30E4_U+30FC 1
 62
   179
420
  2234388
370
     9
100
AcDb2dPolyline
 66
     1
 10
0.0
 20
0.0
 30
0.0
  0
VERTEX
  5
48
330
47
100
AcDbEntity
  8
_U+30EC_U+30A4_U+30E4_U+30FC 1
 62
   179
420
  2234388
370
     9
100
AcDbVertex
100
AcDb2dVertex
 10
87.98912775578039
 20
-135.3571291328275
 30
0.0
  0
VERTEX
  5
49
330
47
100
AcDbEntity
  8
_U+30EC_U+30A4_U+30E4_U+30FC 1
 62
   179
420
  2234388
370
     9
100
AcDbVertex
100
AcDb2dVertex
 10
88.48932913133802
 20
-134.4910244108215
 30
0.0
  0
SEQEND
  5
4A
330
47
100
AcDbEntity
  8
_U+30EC_U+30A4_U+30E4_U+30FC 1
 62
   179
420
  2234388
370
     9
  0
SPLINE
  5
4B
330
1F
100
AcDbEntity
  8
_U+30EC_U+30A4_U+30E4_U+30FC 1
 62
   179
420
  2234388
370
     9
100
AcDbSpline
210
0.0
220
0.0
230
1.0
 70
    11
 71
     3
 72
    17
 73
    13
 74
     0
 42
0.0000000001
 43
0.0000000001
 12
1.0
 22
0.0
 32
0.0
 13
1.0
 23
0.0
 33
0.0
 40
0.0
 40
0.0
 40
0.0
 40
0.0
 40
1.0
 40
1.0
 40
1.0
 40
2.0
 40
2.0
 40
2.0
 40
3.0
 40
3.0
 40
3.0
 40
4.0
 40
4.0
 40
4.0
 40
4.0
 10
95.35678340057912
 20
-123.7230119135137
 30
0.0
 10
95.35678340057912
 20
-123.6679080246385
 30
0.0
 10
95.31201590172122
 20
-123.6231052468721
 30
0.0
 10
95.25687673646128
 20
-123.6231052468721
 30
0.0
 10
95.20177284897821
 20
-123.6231052468721
 30
0.0
 10
95.15697007234344
 20
-123.6679080246385
 30
0.0
 10
95.15697007234344
 20
-123.7230119135137
 30
0.0
 10
95.15697007234344
 20
-123.7781510801665
 30
0.0
 10
95.20177284897821
 20
-123.8229185801553
 30
0.0
 10
95.25687673646128
 20
-123.8229185801553
 30
0.0
 10
95.31201590172122
 20
-123.8229185801553
 30
0.0
 10
95.35678340057912
 20
-123.7781510801665
 30
0.0
 10
95.35678340057912
 20
-123.7230119135137
 30
0.0
  0
SPLINE
  5
4C
330
1F
100
AcDbEntity
  8
_U+30EC_U+30A4_U+30E4_U+30FC 1
 62
   179
420
  2234388
370
     9
100
AcDbSpline
210
0.0
220
0.0
230
1.0
 70
    11
 71
     3
 72
    17
 73
    13
 74
     0
 42
0.0000000001
 43
0.0000000001
 12
1.0
 22
0.0
 32
0.0
 13
1.0
 23
0.0
 33
0.0
 40
0.0
 40
0.0
 40
0.0
 40
0.0
 40
1.0
 40
1.0
 40
1.0
 40
2.0
 40
2.0
 40
2.0
 40
3.0
 40
3.0
 40
3.0
 40
4.0
 40
4.0
 40
4.0
 40
4.0
 10
105.356868978789
 20
-123.7230119135137
 30
0.0
 10
105.356868978789
 20
-123.6679080246385
 30
0.0
 10
105.3121014799311
 20
-123.6231052468721
 30
0.0
 10
105.2569623146712
 20
-123.6231052468721
 30
0.0
 10
105.2015083070332
 20
-123.6231052468721
 30
0.0
 10
105.1567055292665
 20
-123.6679080246385
 30
0.0
 10
105.1567055292665
 20
-123.7230119135137
 30
0.0
 10
105.1567055292665
 20
-123.7781510801665
 30
0.0
 10
105.2015083070332
 20
-123.8229185801553
 30
0.0
 10
105.2569623146712
 20
-123.8229185801553
 30
0.0
 10
105.3121014799311
 20
-123.8229185801553
 30
0.0
 10
105.356868978789
 20
-123.7781510801665
 30
0.0
 10
105.356868978789
 20
-123.7230119135137
 30
0.0
  0
SPLINE
  5
4D
330
1F
100
AcDbEntity
  8
_U+30EC_U+30A4_U+30E4_U+30FC 1
 62
   179
420
  2234388
370
     9
100
AcDbSpline
210
0.0
220
0.0
230
1.0
 70
    11
 71
     3
 72
    17
 73
    13
 74
     0
 42
0.0000000001
 43
0.0000000001
 12
1.0
 22
0.0
 32
0.0
 13
1.0
 23
0.0
 33
0.0
 40
0.0
 40
0.0
 40
0.0
 40
0.0
 40
1.0
 40
1.0
 40
1.0
 40
2.0
 40
2.0
 40
2.0
 40
3.0
 40
3.0
 40
3.0
 40
4.0
 40
4.0
 40
4.0
 40
4.0
 10
94.35704648164008
 20
-121.0892435808388
 30
0.0
 10
94.35704648164008
 20
-121.0337869141862
 30
0.0
 10
94.31224370500532
 20
-120.9889841364194
 30
0.0
 10
94.25678703975348
 20
-120.9889841364194
 30
0.0
 10
94.20164787449352
 20
-120.9889841364194
 30
0.0
 10
94.15688037563564
 20
-121.0337869141862
 30
0.0
 10
94.15688037563564
 20
-121.0892435808388
 30
0.0
 10
94.15688037563564
 20
-121.1443827474916
 30
0.0
 10
94.20164787449352
 20
-121.1891502474805
 30
0.0
 10
94.25678703975348
 20
-121.1891502474805
 30
0.0
 10
94.31224370500532
 20
-121.1891502474805
 30
0.0
 10
94.35704648164008
 20
-121.1443827474916
 30
0.0
 10
94.35704648164008
 20
-121.0892435808388
 30
0.0
  0
SPLINE
  5
4E
330
1F
100
AcDbEntity
  8
_U+30EC_U+30A4_U+30E4_U+30FC 1
 62
   179
420
  2234388
370
     9
100
AcDbSpline
210
0.0
220
0.0
230
1.0
 70
    11
 71
     3
 72
    17
 73
    13
 74
     0
 42
0.0000000001
 43
0.0000000001
 12
1.0
 22
0.0
 32
0.0
 13
1.0
 23
0.0
 33
0.0
 40
0.0
 40
0.0
 40
0.0
 40
0.0
 40
1.0
 40
1.0
 40
1.0
 40
2.0
 40
2.0
 40
2.0
 40
3.0
 40
3.0
 40
3.0
 40
4.0
 40
4.0
 40
4.0
 40
4.0
 10
88.85692356640435
 20
-121.0892435808388
 30
0.0
 10
88.85692356640435
 20
-121.0337869141862
 30
0.0
 10
88.81215831113037
 20
-120.9889841364194
 30
0.0
 10
88.75669940229461
 20
-120.9889841364194
 30
0.0
 10
88.70156023703467
 20
-120.9889841364194
 30
0.0
 10
88.6567574603999
 20
-121.0337869141862
 30
0.0
 10
88.6567574603999
 20
-121.0892435808388
 30
0.0
 10
88.6567574603999
 20
-121.1443827474916
 30
0.0
 10
88.70156023703467
 20
-121.1891502474805
 30
0.0
 10
88.75669940229461
 20
-121.1891502474805
 30
0.0
 10
88.81215831113037
 20
-121.1891502474805
 30
0.0
 10
88.85692356640435
 20
-121.1443827474916
 30
0.0
 10
88.85692356640435
 20
-121.0892435808388
 30
0.0
  0
SPLINE
  5
4F
330
1F
100
AcDbEntity
  8
_U+30EC_U+30A4_U+30E4_U+30FC 1
 62
   179
420
  2234388
370
     9
100
AcDbSpline
210
0.0
220
0.0
230
1.0
 70
    11
 71
     3
 72
    17
 73
    13
 74
     0
 42
0.0000000001
 43
0.0000000001
 12
1.0
 22
0.0
 32
0.0
 13
1.0
 23
0.0
 33
0.0
 40
0.0
 40
0.0
 40
0.0
 40
0.0
 40
1.0
 40
1.0
 40
1.0
 40
2.0
 40
2.0
 40
2.0
 40
3.0
 40
3.0
 40
3.0
 40
4.0
 40
4.0
 40
4.0
 40
4.0
 10
83.85707480507223
 20
-125.22302302425
 30
0.0
 10
83.85707480507223
 20
-125.1678838575969
 30
0.0
 10
83.81227202843748
 20
-125.123116357608
 30
0.0
 10
83.75681536318562
 20
-125.123116357608
 30
0.0
 10
83.70167619792566
 20
-125.123116357608
 30
0.0
 10
83.65690869906778
 20
-125.1678838575969
 30
0.0
 10
83.65690869906778
 20
-125.22302302425
 30
0.0
 10
83.65690869906778
 20
-125.2781269131249
 30
0.0
 10
83.70167619792566
 20
-125.3229296908916
 30
0.0
 10
83.75681536318562
 20
-125.3229296908916
 30
0.0
 10
83.81227202843748
 20
-125.3229296908916
 30
0.0
 10
83.85707480507223
 20
-125.2781269131249
 30
0.0
 10
83.85707480507223
 20
-125.22302302425
 30
0.0
  0
SPLINE
  5
50
330
1F
100
AcDbEntity
  8
_U+30EC_U+30A4_U+30E4_U+30FC 1
 62
   179
420
  2234388
370
     9
100
AcDbSpline
210
0.0
220
0.0
230
1.0
 70
    11
 71
     3
 72
    17
 73
    13
 74
     0
 42
0.0000000001
 43
0.0000000001
 12
1.0
 22
0.0
 32
0.0
 13
1.0
 23
0.0
 33
0.0
 40
0.0
 40
0.0
 40
0.0
 40
0.0
 40
1.0
 40
1.0
 40
1.0
 40
2.0
 40
2.0
 40
2.0
 40
3.0
 40
3.0
 40
3.0
 40
4.0
 40
4.0
 40
4.0
 40
4.0
 10
83.85707480507223
 20
-135.2231088550833
 30
0.0
 10
83.85707480507223
 20
-135.1679696884302
 30
0.0
 10
83.81227202843748
 20
-135.1232021884417
 30
0.0
 10
83.75681536318562
 20
-135.1232021884417
 30
0.0
 10
83.70167619792566
 20
-135.1232021884417
 30
0.0
 10
83.65690869906778
 20
-135.1679696884302
 30
0.0
 10
83.65690869906778
 20
-135.2231088550833
 30
0.0
 10
83.65690869906778
 20
-135.278565521736
 30
0.0
 10
83.70167619792566
 20
-135.3233682995027
 30
0.0
 10
83.75681536318562
 20
-135.3233682995027
 30
0.0
 10
83.81227202843748
 20
-135.3233682995027
 30
0.0
 10
83.85707480507223
 20
-135.278565521736
 30
0.0
 10
83.85707480507223
 20
-135.2231088550833
 30
0.0
  0
POLYLINE
  5
51
330
1F
100
AcDbEntity
  8
_U+30EC_U+30A4_U+30E4_U+30FC 1
 62
   179
420
  2234388
370
     9
100
AcDb2dPolyline
 66
     1
 10
0.0
 20
0.0
 30
0.0
  0
VERTEX
  5
52
330
51
100
AcDbEntity
  8
_U+30EC_U+30A4_U+30E4_U+30FC 1
 62
   179
420
  2234388
370
     9
100
AcDbVertex
100
AcDb2dVertex
 10
95.25687673646128
 20
-123.7230119135137
 30
0.0
  0
VERTEX
  5
53
330
51
100
AcDbEntity
  8
_U+30EC_U+30A4_U+30E4_U+30FC 1
 62
   179
420
  2234388
370
     9
100
AcDbVertex
100
AcDb2dVertex
 10
105.2569623146712
 20
-123.7230119135137
 30
0.0
  0
SEQEND
  5
54
330
51
100
AcDbEntity
  8
_U+30EC_U+30A4_U+30E4_U+30FC 1
 62
   179
420
  2234388
370
     9
  0
POLYLINE
  5
55
330
1F
100
AcDbEntity
  8
_U+30EC_U+30A4_U+30E4_U+30FC 1
 62
   179
420
  2234388
370
     9
100
AcDb2dPolyline
 66
     1
 10
0.0
 20
0.0
 30
0.0
  0
VERTEX
  5
56
330
55
100
AcDbEntity
  8
_U+30EC_U+30A4_U+30E4_U+30FC 1
 62
   179
420
  2234388
370
     9
100
AcDbVertex
100
AcDb2dVertex
 10
105.2569623146712
 20
-125.1830533020374
 30
0.0
  0
VERTEX
  5
57
330
55
100
AcDbEntity
  8
_U+30EC_U+30A4_U+30E4_U+30FC 1
 62
   179
420
  2234388
370
     9
100
AcDbVertex
100
AcDb2dVertex
 10
105.2569623146712
 20
-122.7232749693193
 30
0.0
  0
SEQEND
  5
58
330
55
100
AcDbEntity
  8
_U+30EC_U+30A4_U+30E4_U+30FC 1
 62
   179
420
  2234388
370
     9
  0
INSERT
  5
5A
330
1F
100
AcDbEntity
  8
_U+30EC_U+30A4_U+30E4_U+30FC 1
100
AcDbBlockReference
  2
block 2
 10
0.0
 20
0.0
 30
0.0
  0
POLYLINE
  5
62
330
1F
100
AcDbEntity
  8
_U+30EC_U+30A4_U+30E4_U+30FC 1
 62
   179
420
  2234388
370
     9
100
AcDb2dPolyline
 66
     1
 10
0.0
 20
0.0
 30
0.0
  0
VERTEX
  5
63
330
62
100
AcDbEntity
  8
_U+30EC_U+30A4_U+30E4_U+30FC 1
 62
   179
420
  2234388
370
     9
100
AcDbVertex
100
AcDb2dVertex
 10
94.25678703975348
 20
-121.0892435808388
 30
0.0
  0
VERTEX
  5
64
330
62
100
AcDbEntity
  8
_U+30EC_U+30A4_U+30E4_U+30FC 1
 62
   179
420
  2234388
370
     9
100
AcDbVertex
100
AcDb2dVertex
 10
88.75669940229461
 20
-121.0892435808388
 30
0.0
  0
SEQEND
  5
65
330
62
100
AcDbEntity
  8
_U+30EC_U+30A4_U+30E4_U+30FC 1
 62
   179
420
  2234388
370
     9
  0
POLYLINE
  5
66
330
1F
100
AcDbEntity
  8
_U+30EC_U+30A4_U+30E4_U+30FC 1
 62
   179
420
  2234388
370
     9
100
AcDb2dPolyline
 66
     1
 10
0.0
 20
0.0
 30
0.0
  0
VERTEX
  5
67
330
66
100
AcDbEntity
  8
_U+30EC_U+30A4_U+30E4_U+30FC 1
 62
   179
420
  2234388
370
     9
100
AcDbVertex
100
AcDb2dVertex
 10
94.25678703975348
 20
-122.5489321915851
 30
0.0
  0
VERTEX
  5
68
330
66
100
AcDbEntity
  8
_U+30EC_U+30A4_U+30E4_U+30FC 1
 62
   179
420
  2234388
370
     9
100
AcDbVertex
100
AcDb2dVertex
 10
94.25678703975348
 20
-120.0891538588667
 30
0.0
  0
SEQEND
  5
69
330
66
100
AcDbEntity
  8
_U+30EC_U+30A4_U+30E4_U+30FC 1
 62
   179
420
  2234388
370
     9
  0
POLYLINE
  5
6A
330
1F
100
AcDbEntity
  8
_U+30EC_U+30A4_U+30E4_U+30FC 1
 62
   179
420
  2234388
370
     9
100
AcDb2dPolyline
 66
     1
 10
0.0
 20
0.0
 30
0.0
  0
VERTEX
  5
6B
330
6A
100
AcDbEntity
  8
_U+30EC_U+30A4_U+30E4_U+30FC 1
 62
   179
420
  2234388
370
     9
100
AcDbVertex
100
AcDb2dVertex
 10
88.75669940229461
 20
-122.5454749693635
 30
0.0
  0
VERTEX
  5
6C
330
6A
100
AcDbEntity
  8
_U+30EC_U+30A4_U+30E4_U+30FC 1
 62
   179
420
  2234388
370
     9
100
AcDbVertex
100
AcDb2dVertex
 10
88.75669940229461
 20
-120.0891538588667
 30
0.0
  0
SEQEND
  5
6D
330
6A
100
AcDbEntity
  8
_U+30EC_U+30A4_U+30E4_U+30FC 1
 62
   179
420
  2234388
370
     9
  0
INSERT
  5
6F
330
1F
100
AcDbEntity
  8
_U+30EC_U+30A4_U+30E4_U+30FC 1
100
AcDbBlockReference
  2
block 3
 10
0.0
 20
0.0
 30
0.0
  0
POLYLINE
  5
7E
330
1F
100
AcDbEntity
  8
_U+30EC_U+30A4_U+30E4_U+30FC 1
 62
   179
420
  2234388
370
     9
100
AcDb2dPolyline
 66
     1
 10
0.0
 20
0.0
 30
0.0
  0
VERTEX
  5
7F
330
7E
100
AcDbEntity
  8
_U+30EC_U+30A4_U+30E4_U+30FC 1
 62
   179
420
  2234388
370
     9
100
AcDbVertex
100
AcDb2dVertex
 10
83.75681536318562
 20
-135.2231088550833
 30
0.0
  0
VERTEX
  5
80
330
7E
100
AcDbEntity
  8
_U+30EC_U+30A4_U+30E4_U+30FC 1
 62
   179
420
  2234388
370
     9
100
AcDbVertex
100
AcDb2dVertex
 10
83.75681536318562
 20
-125.22302302425
 30
0.0
  0
SEQEND
  5
81
330
7E
100
AcDbEntity
  8
_U+30EC_U+30A4_U+30E4_U+30FC 1
 62
   179
420
  2234388
370
     9
  0
POLYLINE
  5
82
330
1F
100
AcDbEntity
  8
_U+30EC_U+30A4_U+30E4_U+30FC 1
 62
   179
420
  2234388
370
     9
100
AcDb2dPolyline
 66
     1
 10
0.0
 20
0.0
 30
0.0
  0
VERTEX
  5
83
330
82
100
AcDbEntity
  8
_U+30EC_U+30A4_U+30E4_U+30FC 1
 62
   179
420
  2234388
370
     9
100
AcDbVertex
100
AcDb2dVertex
 10
86.72064250979432
 20
-135.2231088550833
 30
0.0
  0
VERTEX
  5
84
330
82
100
AcDbEntity
  8
_U+30EC_U+30A4_U+30E4_U+30FC 1
 62
   179
420
  2234388
370
     9
100
AcDbVertex
100
AcDb2dVertex
 10
82.75669038870093
 20
-135.2231088550833
 30
0.0
  0
SEQEND
  5
85
330
82
100
AcDbEntity
  8
_U+30EC_U+30A4_U+30E4_U+30FC 1
 62
   179
420
  2234388
370
     9
  0
POLYLINE
  5
86
330
1F
100
AcDbEntity
  8
_U+30EC_U+30A4_U+30E4_U+30FC 1
 62
   179
420
  2234388
370
     9
100
AcDb2dPolyline
 66
     1
 10
0.0
 20
0.0
 30
0.0
  0
VERTEX
  5
87
330
86
100
AcDbEntity
  8
_U+30EC_U+30A4_U+30E4_U+30FC 1
 62
   179
420
  2234388
370
     9
100
AcDbVertex
100
AcDb2dVertex
 10
85.21685671482575
 20
-125.22302302425
 30
0.0
  0
VERTEX
  5
88
330
86
100
AcDbEntity
  8
_U+30EC_U+30A4_U+30E4_U+30FC 1
 62
   179
420
  2234388
370
     9
100
AcDbVertex
100
AcDb2dVertex
 10
82.75669038870093
 20
-125.22302302425
 30
0.0
  0
SEQEND
  5
89
330
86
100
AcDbEntity
  8
_U+30EC_U+30A4_U+30E4_U+30FC 1
 62
   179
420
  2234388
370
     9
  0
INSERT
  5
8B
330
1F
100
AcDbEntity
  8
_U+30EC_U+30A4_U+30E4_U+30FC 1
100
AcDbBlockReference
  2
block 4
 10
0.0
 20
0.0
 30
0.0
  0
POLYLINE
  5
93
330
1F
100
AcDbEntity
  8
_U+30EC_U+30A4_U+30E4_U+30FC 1
 62
   179
420
  2234388
370
     9
100
AcDb2dPolyline
 66
     1
 10
0.0
 20
0.0
 30
0.0
  0
VERTEX
  5
94
330
93
100
AcDbEntity
  8
_U+30EC_U+30A4_U+30E4_U+30FC 1
 62
   179
420
  2234388
370
     9
100
AcDbVertex
100
AcDb2dVertex
 10
88.48932913133802
 20
-134.4910244108215
 30
0.0
  0
VERTEX
  5
95
330
93
100
AcDbEntity
  8
_U+30EC_U+30A4_U+30E4_U+30FC 1
 62
   179
420
  2234388
370
     9
100
AcDbVertex
100
AcDb2dVertex
 10
83.75681536318562
 20
-139.2231855207498
 30
0.0
  0
SEQEND
  5
96
330
93
100
AcDbEntity
  8
_U+30EC_U+30A4_U+30E4_U+30FC 1
 62
   179
420
  2234388
370
     9
  0
POLYLINE
  5
97
330
1F
100
AcDbEntity
  8
_U+30EC_U+30A4_U+30E4_U+30FC 1
 62
   179
420
  2234388
370
     9
100
AcDb2dPolyline
 66
     1
 10
0.0
 20
0.0
 30
0.0
  0
VERTEX
  5
98
330
97
100
AcDbEntity
  8
_U+30EC_U+30A4_U+30E4_U+30FC 1
 62
   179
420
  2234388
370
     9
100
AcDbVertex
100
AcDb2dVertex
 10
83.75681536318562
 20
-139.2231855207498
 30
0.0
  0
VERTEX
  5
99
330
97
100
AcDbEntity
  8
_U+30EC_U+30A4_U+30E4_U+30FC 1
 62
   179
420
  2234388
370
     9
100
AcDbVertex
100
AcDb2dVertex
 10
76.48214971544446
 20
-139.2231855207498
 30
0.0
  0
SEQEND
  5
9A
330
97
100
AcDbEntity
  8
_U+30EC_U+30A4_U+30E4_U+30FC 1
 62
   179
420
  2234388
370
     9
  0
INSERT
  5
9C
330
1F
100
AcDbEntity
  8
_U+30EC_U+30A4_U+30E4_U+30FC 1
100
AcDbBlockReference
  2
block 5
 10
0.0
 20
0.0
 30
0.0
  0
POLYLINE
  5
AE
330
1F
100
AcDbEntity
  8
_U+30EC_U+30A4_U+30E4_U+30FC 1
 62
   179
420
  2234388
370
     9
100
AcDb2dPolyline
 66
     1
 10
0.0
 20
0.0
 30
0.0
  0
VERTEX
  5
AF
330
AE
100
AcDbEntity
  8
_U+30EC_U+30A4_U+30E4_U+30FC 1
 62
   179
420
  2234388
370
     9
100
AcDbVertex
100
AcDb2dVertex
 10
86.21694641153356
 20
-121.0888908030611
 30
0.0
  0
VERTEX
  5
B0
330
AE
100
AcDbEntity
  8
_U+30EC_U+30A4_U+30E4_U+30FC 1
 62
   179
420
  2234388
370
     9
100
AcDbVertex
100
AcDb2dVertex
 10
92.25688986855288
 20
-121.0888908030611
 30
0.0
  0
SEQEND
  5
B1
330
AE
100
AcDbEntity
  8
_U+30EC_U+30A4_U+30E4_U+30FC 1
 62
   179
420
  2234388
370
     9
  0
SPLINE
  5
B2
330
1F
100
AcDbEntity
  8
_U+30EC_U+30A4_U+30E4_U+30FC 1
 62
   179
420
  2234388
370
     9
100
AcDbSpline
210
0.0
220
0.0
230
1.0
 70
    11
 71
     3
 72
    17
 73
    13
 74
     0
 42
0.0000000001
 43
0.0000000001
 12
1.0
 22
0.0
 32
0.0
 13
1.0
 23
0.0
 33
0.0
 40
0.0
 40
0.0
 40
0.0
 40
0.0
 40
1.0
 40
1.0
 40
1.0
 40
2.0
 40
2.0
 40
2.0
 40
3.0
 40
3.0
 40
3.0
 40
4.0
 40
4.0
 40
4.0
 40
4.0
 10
87.85683608914678
 20
-121.0854688586176
 30
0.0
 10
87.85683608914678
 20
-121.0303296919646
 30
0.0
 10
87.81203331138039
 20
-120.985562191976
 30
0.0
 10
87.7569272055787
 20
-120.985562191976
 30
0.0
 10
87.70178804031876
 20
-120.985562191976
 30
0.0
 10
87.65702054146088
 20
-121.0303296919646
 30
0.0
 10
87.65702054146088
 20
-121.0854688586176
 30
0.0
 10
87.65702054146088
 20
-121.1405727474925
 30
0.0
 10
87.70178804031876
 20
-121.1853755252593
 30
0.0
 10
87.7569272055787
 20
-121.1853755252593
 30
0.0
 10
87.81203331138039
 20
-121.1853755252593
 30
0.0
 10
87.85683608914678
 20
-121.1405727474925
 30
0.0
 10
87.85683608914678
 20
-121.0854688586176
 30
0.0
  0
POLYLINE
  5
B3
330
1F
100
AcDbEntity
  8
_U+30EC_U+30A4_U+30E4_U+30FC 1
 62
   179
420
  2234388
370
     9
100
AcDb2dPolyline
 66
     1
 10
0.0
 20
0.0
 30
0.0
  0
VERTEX
  5
B4
330
B3
100
AcDbEntity
  8
_U+30EC_U+30A4_U+30E4_U+30FC 1
 62
   179
420
  2234388
370
     9
100
AcDbVertex
100
AcDb2dVertex
 10
87.7569272055787
 20
-122.5454749693635
 30
0.0
  0
VERTEX
  5
B5
330
B3
100
AcDbEntity
  8
_U+30EC_U+30A4_U+30E4_U+30FC 1
 62
   179
420
  2234388
370
     9
100
AcDbVertex
100
AcDb2dVertex
 10
87.7569272055787
 20
-120.0856966366454
 30
0.0
  0
SEQEND
  5
B6
330
B3
100
AcDbEntity
  8
_U+30EC_U+30A4_U+30E4_U+30FC 1
 62
   179
420
  2234388
370
     9
  0
INSERT
  5
B8
330
1F
100
AcDbEntity
  8
_U+30EC_U+30A4_U+30E4_U+30FC 1
100
AcDbBlockReference
  2
block 6
 10
0.0
 20
0.0
 30
0.0
  0
ENDSEC
  0
SECTION
  2
OBJECTS
  0
DICTIONARY
  5
C
330
0
100
AcDbDictionary
281
     1
  3
ACAD_GROUP
350
D
  3
ACAD_LAYOUT
350
1A
  3
ACAD_MATERIAL
350
3B
  3
ACAD_MLEADERSTYLE
350
BE
  3
ACAD_MLINESTYLE
350
17
  3
ACAD_PLOTSETTINGS
350
19
  3
ACAD_PLOTSTYLENAME
350
E
  3
ACAD_TABLESTYLE
350
BD
  3
ACAD_VISUALSTYLE
350
2A
  0
SUN
  5
3F
330
29
100
AcDbSun
 90
        1
290
     0
 63
     7
421
 16777215
 40
1.0
291
     1
 91
  2455826
 92
 54000000
292
     0
 70
     2
 71
   256
280
     1
  0
DICTIONARY
  5
D
102
{ACAD_REACTORS
330
C
102
}
330
C
100
AcDbDictionary
281
     1
  0
DICTIONARY
  5
1A
102
{ACAD_REACTORS
330
C
102
}
330
C
100
AcDbDictionary
281
     1
  3
Layout1
350
1E
  3
Layout2
350
26
  3
Model
350
22
  0
DICTIONARY
  5
3B
102
{ACAD_REACTORS
330
C
102
}
330
C
100
AcDbDictionary
281
     1
  3
ByBlock
350
3D
  3
ByLayer
350
3C
  3
Global
350
3E
  0
DICTIONARY
  5
BE
102
{ACAD_REACTORS
330
C
102
}
330
C
100
AcDbDictionary
281
     1
  0
DICTIONARY
  5
17
102
{ACAD_REACTORS
330
C
102
}
330
C
100
AcDbDictionary
281
     1
  3
Standard
350
18
  0
DICTIONARY
  5
19
102
{ACAD_REACTORS
330
C
102
}
330
C
100
AcDbDictionary
281
     1
  0
ACDBDICTIONARYWDFLT
  5
E
102
{ACAD_REACTORS
330
C
102
}
330
C
100
AcDbDictionary
281
     1
  3
Normal
350
F
100
AcDbDictionaryWithDefault
340
F
  0
DICTIONARY
  5
BD
102
{ACAD_REACTORS
330
C
102
}
330
C
100
AcDbDictionary
281
     1
  0
DICTIONARY
  5
2A
102
{ACAD_REACTORS
330
C
102
}
330
C
100
AcDbDictionary
281
     1
  3
2dWireframe
350
2F
  3
3D Hidden
350
31
  3
3dWireframe
350
30
  3
Basic
350
32
  3
Brighten
350
36
  3
ColorChange
350
3A
  3
Conceptual
350
34
  3
Dim
350
35
  3
Facepattern
350
39
  3
Flat
350
2B
  3
FlatWithEdges
350
2C
  3
Gouraud
350
2D
  3
GouraudWithEdges
350
2E
  3
Linepattern
350
38
  3
Realistic
350
33
  3
Thicken
350
37
  0
LAYOUT
  5
1E
102
{ACAD_REACTORS
330
1A
102
}
330
1A
100
AcDbPlotSettings
  1

  2
none_device
  4

  6

 40
0.0
 41
0.0
 42
0.0
 43
0.0
 44
0.0
 45
0.0
 46
0.0
 47
0.0
 48
0.0
 49
0.0
140
0.0
141
0.0
142
1.0
143
1.0
 70
   688
 72
     0
 73
     0
 74
     5
  7

 75
    16
 76
     0
 77
     2
 78
   300
147
1.0
148
0.0
149
0.0
100
AcDbLayout
  1
Layout1
 70
     1
 71
     1
 10
0.0
 20
0.0
 11
12.0
 21
9.0
 12
0.0
 22
0.0
 32
0.0
 14
1.000000000000000E+20
 24
1.000000000000000E+20
 34
1.000000000000000E+20
 15
-1.000000000000000E+20
 25
-1.000000000000000E+20
 35
-1.000000000000000E+20
146
0.0
 13
0.0
 23
0.0
 33
0.0
 16
1.0
 26
0.0
 36
0.0
 17
0.0
 27
1.0
 37
0.0
 76
     0
330
1B
  0
LAYOUT
  5
26
102
{ACAD_REACTORS
330
1A
102
}
330
1A
100
AcDbPlotSettings
  1

  2
none_device
  4

  6

 40
0.0
 41
0.0
 42
0.0
 43
0.0
 44
0.0
 45
0.0
 46
0.0
 47
0.0
 48
0.0
 49
0.0
140
0.0
141
0.0
142
1.0
143
1.0
 70
   688
 72
     0
 73
     0
 74
     5
  7

 75
    16
 76
     0
 77
     2
 78
   300
147
1.0
148
0.0
149
0.0
100
AcDbLayout
  1
Layout2
 70
     1
 71
     2
 10
0.0
 20
0.0
 11
0.0
 21
0.0
 12
0.0
 22
0.0
 32
0.0
 14
0.0
 24
0.0
 34
0.0
 15
0.0
 25
0.0
 35
0.0
146
0.0
 13
0.0
 23
0.0
 33
0.0
 16
1.0
 26
0.0
 36
0.0
 17
0.0
 27
1.0
 37
0.0
 76
     0
330
23
  0
LAYOUT
  5
22
102
{ACAD_REACTORS
330
1A
102
}
330
1A
100
AcDbPlotSettings
  1

  2
none_device
  4

  6

 40
0.0
 41
0.0
 42
0.0
 43
0.0
 44
0.0
 45
0.0
 46
0.0
 47
0.0
 48
0.0
 49
0.0
140
0.0
141
0.0
142
1.0
143
1.0
 70
  1712
 72
     0
 73
     0
 74
     0
  7

 75
     0
 76
     0
 77
     2
 78
   300
147
1.0
148
0.0
149
0.0
100
AcDbLayout
  1
Model
 70
     1
 71
     0
 10
0.0
 20
0.0
 11
12.0
 21
9.0
 12
0.0
 22
0.0
 32
0.0
 14
1.000000000000000E+20
 24
1.000000000000000E+20
 34
1.000000000000000E+20
 15
-1.000000000000000E+20
 25
-1.000000000000000E+20
 35
-1.000000000000000E+20
146
0.0
 13
0.0
 23
0.0
 33
0.0
 16
1.0
 26
0.0
 36
0.0
 17
0.0
 27
1.0
 37
0.0
 76
     0
330
1F
331
29
  0
MATERIAL
  5
3D
102
{ACAD_REACTORS
330
3B
102
}
330
3B
100
AcDbMaterial
  1
ByBlock
 72
     1
 94
      127
  0
MATERIAL
  5
3C
102
{ACAD_REACTORS
330
3B
102
}
330
3B
100
AcDbMaterial
  1
ByLayer
 72
     1
 94
      127
  0
MATERIAL
  5
3E
102
{ACAD_REACTORS
330
3B
102
}
330
3B
100
AcDbMaterial
  1
Global
 72
     1
 94
      127
  0
MLINESTYLE
  5
18
102
{ACAD_REACTORS
330
17
102
}
330
17
100
AcDbMlineStyle
  2
Standard
 70
     0
  3

 62
   256
 51
90.0
 52
90.0
 71
     2
 49
0.5
 62
   256
  6
BYLAYER
 49
-0.5
 62
   256
  6
BYLAYER
  0
ACDBPLACEHOLDER
  5
F
102
{ACAD_REACTORS
330
E
102
}
330
E
  0
VISUALSTYLE
  5
2F
102
{ACAD_REACTORS
330
2A
102
}
330
2A
100
AcDbVisualStyle
  2
2dWireframe
 70
     4
177
     2
291
     0
 71
     0
176
     1
 72
     2
176
     1
 73
     0
176
     1
 90
        0
176
     1
 40
-0.6
176
     1
 41
-30.0
176
     1
 62
     5
 63
     7
421
 16777215
176
     1
 74
     1
176
     1
 91
        4
176
     1
 64
     7
176
     1
 65
   257
176
     1
 75
     1
176
     1
175
     1
176
     1
 42
1.0
176
     1
 92
        0
176
     1
 66
   257
176
     1
 43
1.0
176
     1
 76
     1
176
     1
 77
     6
176
     1
 78
     2
176
     1
 67
     7
176
     1
 79
     5
176
     1
170
     0
176
     1
171
     0
176
     1
290
     0
176
     1
 93
        1
176
     1
 44
0.0
176
     1
173
     0
176
     1
  0
VISUALSTYLE
  5
31
102
{ACAD_REACTORS
330
2A
102
}
330
2A
100
AcDbVisualStyle
  2
3D Hidden
 70
     6
177
     2
291
     0
 71
     1
176
     1
 72
     2
176
     1
 73
     2
176
     1
 90
        0
176
     1
 40
-0.6
176
     1
 41
-30.0
176
     1
 62
     5
 63
     7
421
 16777215
176
     1
 74
     2
176
     1
 91
        2
176
     1
 64
     7
176
     1
 65
   257
176
     1
 75
     2
176
     1
175
     1
176
     1
 42
40.0
176
     1
 92
        0
176
     1
 66
   257
176
     1
 43
1.0
176
     1
 76
     1
176
     1
 77
     6
176
     1
 78
     2
176
     1
 67
     7
176
     1
 79
     3
176
     1
170
     0
176
     1
171
     0
176
     1
290
     0
176
     1
 93
        1
176
     1
 44
0.0
176
     1
173
     0
176
     1
  0
VISUALSTYLE
  5
30
102
{ACAD_REACTORS
330
2A
102
}
330
2A
100
AcDbVisualStyle
  2
3dWireframe
 70
     5
177
     2
291
     0
 71
     0
176
     1
 72
     2
176
     1
 73
     0
176
     1
 90
        0
176
     1
 40
-0.6
176
     1
 41
-30.0
176
     1
 62
     5
 63
     7
421
 16777215
176
     1
 74
     1
176
     1
 91
        4
176
     1
 64
     7
176
     1
 65
   257
176
     1
 75
     1
176
     1
175
     1
176
     1
 42
1.0
176
     1
 92
        0
176
     1
 66
   257
176
     1
 43
1.0
176
     1
 76
     1
176
     1
 77
     6
176
     1
 78
     2
176
     1
 67
     7
176
     1
 79
     5
176
     1
170
     0
176
     1
171
     0
176
     1
290
     0
176
     1
 93
        1
176
     1
 44
0.0
176
     1
173
     0
176
     1
  0
VISUALSTYLE
  5
32
102
{ACAD_REACTORS
330
2A
102
}
330
2A
100
AcDbVisualStyle
  2
Basic
 70
     7
177
     2
291
     1
 71
     1
176
     1
 72
     0
176
     1
 73
     1
176
     1
 90
        0
176
     1
 40
-0.6
176
     1
 41
-30.0
176
     1
 62
     5
 63
     7
421
 16777215
176
     1
 74
     0
176
     1
 91
        4
176
     1
 64
     7
176
     1
 65
   257
176
     1
 75
     1
176
     1
175
     1
176
     1
 42
1.0
176
     1
 92
        8
176
     1
 66
     7
176
     1
 43
1.0
176
     1
 76
     1
176
     1
 77
     6
176
     1
 78
     2
176
     1
 67
     7
176
     1
 79
     5
176
     1
170
     0
176
     1
171
     0
176
     1
290
     0
176
     1
 93
        1
176
     1
 44
0.0
176
     1
173
     0
176
     1
  0
VISUALSTYLE
  5
36
102
{ACAD_REACTORS
330
2A
102
}
330
2A
100
AcDbVisualStyle
  2
Brighten
 70
    12
177
     2
291
     1
 71
     2
176
     1
 72
     2
176
     1
 73
     0
176
     1
 90
        0
176
     1
 40
-0.6
176
     1
 41
-30.0
176
     1
 62
     5
 63
     7
421
 16777215
176
     1
 74
     1
176
     1
 91
        4
176
     1
 64
     7
176
     1
 65
   257
176
     1
 75
     1
176
     1
175
     1
176
     1
 42
1.0
176
     1
 92
        8
176
     1
 66
     7
176
     1
 43
1.0
176
     1
 76
     1
176
     1
 77
     6
176
     1
 78
     2
176
     1
 67
     7
176
     1
 79
     5
176
     1
170
     0
176
     1
171
     0
176
     1
290
     0
176
     1
 93
        1
176
     1
 44
50.0
176
     1
173
     0
176
     1
  0
VISUALSTYLE
  5
3A
102
{ACAD_REACTORS
330
2A
102
}
330
2A
100
AcDbVisualStyle
  2
ColorChange
 70
    16
177
     2
291
     1
 71
     2
176
     1
 72
     2
176
     1
 73
     3
176
     1
 90
        0
176
     1
 40
-0.6
176
     1
 41
-30.0
176
     1
 62
     5
 63
     8
421
  8421504
176
     1
 74
     1
176
     1
 91
        4
176
     1
 64
     7
176
     1
 65
   257
176
     1
 75
     1
176
     1
175
     1
176
     1
 42
1.0
176
     1
 92
        8
176
     1
 66
     8
424
  8421504
176
     1
 43
1.0
176
     1
 76
     1
176
     1
 77
     6
176
     1
 78
     2
176
     1
 67
     7
176
     1
 79
     5
176
     1
170
     0
176
     1
171
     0
176
     1
290
     0
176
     1
 93
        1
176
     1
 44
0.0
176
     1
173
     0
176
     1
  0
VISUALSTYLE
  5
34
102
{ACAD_REACTORS
330
2A
102
}
330
2A
100
AcDbVisualStyle
  2
Conceptual
 70
     9
177
     2
291
     0
 71
     3
176
     1
 72
     2
176
     1
 73
     0
176
     1
 90
        0
176
     1
 40
-0.6
176
     1
 41
-30.0
176
     1
 62
     5
 63
     7
421
 16777215
176
     1
 74
     2
176
     1
 91
        2
176
     1
 64
     7
176
     1
 65
   257
176
     1
 75
     1
176
     1
175
     1
176
     1
 42
40.0
176
     1
 92
        8
176
     1
 66
     7
176
     1
 43
1.0
176
     1
 76
     1
176
     1
 77
     6
176
     1
 78
     2
176
     1
 67
     7
176
     1
 79
     3
176
     1
170
     0
176
     1
171
     0
176
     1
290
     0
176
     1
 93
        1
176
     1
 44
0.0
176
     1
173
     0
176
     1
  0
VISUALSTYLE
  5
35
102
{ACAD_REACTORS
330
2A
102
}
330
2A
100
AcDbVisualStyle
  2
Dim
 70
    11
177
     2
291
     1
 71
     2
176
     1
 72
     2
176
     1
 73
     0
176
     1
 90
        0
176
     1
 40
-0.6
176
     1
 41
-30.0
176
     1
 62
     5
 63
     7
421
 16777215
176
     1
 74
     1
176
     1
 91
        4
176
     1
 64
     7
176
     1
 65
   257
176
     1
 75
     1
176
     1
175
     1
176
     1
 42
1.0
176
     1
 92
        8
176
     1
 66
     7
176
     1
 43
1.0
176
     1
 76
     1
176
     1
 77
     6
176
     1
 78
     2
176
     1
 67
     7
176
     1
 79
     5
176
     1
170
     0
176
     1
171
     0
176
     1
290
     0
176
     1
 93
        1
176
     1
 44
-50.0
176
     1
173
     0
176
     1
  0
VISUALSTYLE
  5
39
102
{ACAD_REACTORS
330
2A
102
}
330
2A
100
AcDbVisualStyle
  2
Facepattern
 70
    15
177
     2
291
     1
 71
     2
176
     1
 72
     2
176
     1
 73
     0
176
     1
 90
        0
176
     1
 40
-0.6
176
     1
 41
-30.0
176
     1
 62
     5
 63
     7
421
 16777215
176
     1
 74
     1
176
     1
 91
        4
176
     1
 64
     7
176
     1
 65
   257
176
     1
 75
     1
176
     1
175
     1
176
     1
 42
1.0
176
     1
 92
        8
176
     1
 66
     7
176
     1
 43
1.0
176
     1
 76
     1
176
     1
 77
     6
176
     1
 78
     2
176
     1
 67
     7
176
     1
 79
     5
176
     1
170
     0
176
     1
171
     0
176
     1
290
     0
176
     1
 93
        1
176
     1
 44
0.0
176
     1
173
     0
176
     1
  0
VISUALSTYLE
  5
2B
102
{ACAD_REACTORS
330
2A
102
}
330
2A
100
AcDbVisualStyle
  2
Flat
 70
     0
177
     2
291
     1
 71
     2
176
     1
 72
     1
176
     1
 73
     1
176
     1
 90
        2
176
     1
 40
-0.6
176
     1
 41
30.0
176
     1
 62
     5
 63
     7
421
 16777215
176
     1
 74
     0
176
     1
 91
        4
176
     1
 64
     7
176
     1
 65
   257
176
     1
 75
     1
176
     1
175
     1
176
     1
 42
1.0
176
     1
 92
        8
176
     1
 66
     7
176
     1
 43
1.0
176
     1
 76
     1
176
     1
 77
     6
176
     1
 78
     2
176
     1
 67
     7
176
     1
 79
     5
176
     1
170
     0
176
     1
171
     0
176
     1
290
     0
176
     1
 93
       13
176
     1
 44
0.0
176
     1
173
     0
176
     1
  0
VISUALSTYLE
  5
2C
102
{ACAD_REACTORS
330
2A
102
}
330
2A
100
AcDbVisualStyle
  2
FlatWithEdges
 70
     1
177
     2
291
     1
 71
     2
176
     1
 72
     1
176
     1
 73
     1
176
     1
 90
        2
176
     1
 40
-0.6
176
     1
 41
30.0
176
     1
 62
     5
 63
     7
421
 16777215
176
     1
 74
     1
176
     1
 91
        4
176
     1
 64
     7
176
     1
 65
   257
176
     1
 75
     1
176
     1
175
     1
176
     1
 42
1.0
176
     1
 92
        0
176
     1
 66
   257
176
     1
 43
1.0
176
     1
 76
     1
176
     1
 77
     6
176
     1
 78
     2
176
     1
 67
     7
176
     1
 79
     5
176
     1
170
     0
176
     1
171
     0
176
     1
290
     0
176
     1
 93
       13
176
     1
 44
0.0
176
     1
173
     0
176
     1
  0
VISUALSTYLE
  5
2D
102
{ACAD_REACTORS
330
2A
102
}
330
2A
100
AcDbVisualStyle
  2
Gouraud
 70
     2
177
     2
291
     1
 71
     2
176
     1
 72
     2
176
     1
 73
     1
176
     1
 90
        2
176
     1
 40
-0.6
176
     1
 41
30.0
176
     1
 62
     5
 63
     7
421
 16777215
176
     1
 74
     0
176
     1
 91
        4
176
     1
 64
     7
176
     1
 65
   257
176
     1
 75
     1
176
     1
175
     1
176
     1
 42
1.0
176
     1
 92
        0
176
     1
 66
     7
176
     1
 43
1.0
176
     1
 76
     1
176
     1
 77
     6
176
     1
 78
     2
176
     1
 67
     7
176
     1
 79
     5
176
     1
170
     0
176
     1
171
     0
176
     1
290
     0
176
     1
 93
       13
176
     1
 44
0.0
176
     1
173
     0
176
     1
  0
VISUALSTYLE
  5
2E
102
{ACAD_REACTORS
330
2A
102
}
330
2A
100
AcDbVisualStyle
  2
GouraudWithEdges
 70
     3
177
     2
291
     1
 71
     2
176
     1
 72
     2
176
     1
 73
     1
176
     1
 90
        2
176
     1
 40
-0.6
176
     1
 41
30.0
176
     1
 62
     5
 63
     7
421
 16777215
176
     1
 74
     1
176
     1
 91
        4
176
     1
 64
     7
176
     1
 65
   257
176
     1
 75
     1
176
     1
175
     1
176
     1
 42
1.0
176
     1
 92
        0
176
     1
 66
   257
176
     1
 43
1.0
176
     1
 76
     1
176
     1
 77
     6
176
     1
 78
     2
176
     1
 67
     7
176
     1
 79
     5
176
     1
170
     0
176
     1
171
     0
176
     1
290
     0
176
     1
 93
       13
176
     1
 44
0.0
176
     1
173
     0
176
     1
  0
VISUALSTYLE
  5
38
102
{ACAD_REACTORS
330
2A
102
}
330
2A
100
AcDbVisualStyle
  2
Linepattern
 70
    14
177
     2
291
     1
 71
     2
176
     1
 72
     2
176
     1
 73
     0
176
     1
 90
        0
176
     1
 40
-0.6
176
     1
 41
-30.0
176
     1
 62
     5
 63
     7
421
 16777215
176
     1
 74
     1
176
     1
 91
        4
176
     1
 64
     7
176
     1
 65
   257
176
     1
 75
     7
176
     1
175
     7
176
     1
 42
1.0
176
     1
 92
        8
176
     1
 66
     7
176
     1
 43
1.0
176
     1
 76
     1
176
     1
 77
     6
176
     1
 78
     2
176
     1
 67
     7
176
     1
 79
     5
176
     1
170
     0
176
     1
171
     0
176
     1
290
     0
176
     1
 93
        1
176
     1
 44
0.0
176
     1
173
     0
176
     1
  0
VISUALSTYLE
  5
33
102
{ACAD_REACTORS
330
2A
102
}
330
2A
100
AcDbVisualStyle
  2
Realistic
 70
     8
177
     2
291
     0
 71
     2
176
     1
 72
     2
176
     1
 73
     0
176
     1
 90
        0
176
     1
 40
-0.6
176
     1
 41
-30.0
176
     1
 62
     5
 63
     7
421
 16777215
176
     1
 74
     1
176
     1
 91
        0
176
     1
 64
     7
176
     1
 65
   257
176
     1
 75
     1
176
     1
175
     1
176
     1
 42
1.0
176
     1
 92
        8
176
     1
 66
     8
424
  7895160
176
     1
 43
1.0
176
     1
 76
     1
176
     1
 77
     6
176
     1
 78
     2
176
     1
 67
     7
176
     1
 79
     5
176
     1
170
     0
176
     1
171
     0
176
     1
290
     0
176
     1
 93
       13
176
     1
 44
0.0
176
     1
173
     0
176
     1
  0
VISUALSTYLE
  5
37
102
{ACAD_REACTORS
330
2A
102
}
330
2A
100
AcDbVisualStyle
  2
Thicken
 70
    13
177
     2
291
     1
 71
     2
176
     1
 72
     2
176
     1
 73
     0
176
     1
 90
        0
176
     1
 40
-0.6
176
     1
 41
-30.0
176
     1
 62
     5
 63
     7
421
 16777215
176
     1
 74
     1
176
     1
 91
        4
176
     1
 64
     7
176
     1
 65
   257
176
     1
 75
     1
176
     1
175
     1
176
     1
 42
1.0
176
     1
 92
       12
176
     1
 66
     7
176
     1
 43
1.0
176
     1
 76
     1
176
     1
 77
     6
176
     1
 78
     2
176
     1
 67
     7
176
     1
 79
     5
176
     1
170
     0
176
     1
171
     0
176
     1
290
     0
176
     1
 93
        1
176
     1
 44
0.0
176
     1
173
     0
176
     1
  0
ENDSEC
  0
EOF
