  0
SECTION
  2
HEADER
  9
$ACADVER
  1
AC1024
  9
$ACADMAINTVER
 70
     6
  9
$DWGCODEPAGE
  3
UNDEFINED
  9
$INSBASE
 10
0.0
 20
0.0
 30
0.0
  9
$EXTMIN
 10
1.000000000000000E+20
 20
1.000000000000000E+20
 30
1.000000000000000E+20
  9
$EXTMAX
 10
-1.000000000000000E+20
 20
-1.000000000000000E+20
 30
-1.000000000000000E+20
  9
$LIMMIN
 10
0.0
 20
0.0
  9
$LIMMAX
 10
12.0
 20
9.0
  9
$ORTHOMODE
 70
     0
  9
$REGENMODE
 70
     1
  9
$FILLMODE
 70
     1
  9
$QTEXTMODE
 70
     0
  9
$MIRRTEXT
 70
     1
  9
$LTSCALE
 40
1.0
  9
$ATTMODE
 70
     1
  9
$TEXTSIZE
 40
0.2
  9
$TRACEWID
 40
0.05
  9
$TEXTSTYLE
  7
Standard
  9
$CLAYER
  8
0
  9
$CELTYPE
  6
ByLayer
  9
$CECOLOR
 62
   256
  9
$CELTSCALE
 40
1.0
  9
$DISPSILH
 70
     0
  9
$DIMSCALE
 40
1.0
  9
$DIMASZ
 40
0.18
  9
$DIMEXO
 40
0.0625
  9
$DIMDLI
 40
0.38
  9
$DIMRND
 40
0.0
  9
$DIMDLE
 40
0.0
  9
$DIMEXE
 40
0.18
  9
$DIMTP
 40
0.0
  9
$DIMTM
 40
0.0
  9
$DIMTXT
 40
0.18
  9
$DIMCEN
 40
0.09
  9
$DIMTSZ
 40
0.0
  9
$DIMTOL
 70
     0
  9
$DIMLIM
 70
     0
  9
$DIMTIH
 70
     1
  9
$DIMTOH
 70
     1
  9
$DIMSE1
 70
     0
  9
$DIMSE2
 70
     0
  9
$DIMTAD
 70
     0
  9
$DIMZIN
 70
     0
  9
$DIMBLK
  1

  9
$DIMASO
 70
     1
  9
$DIMSHO
 70
     1
  9
$DIMPOST
  1

  9
$DIMAPOST
  1

  9
$DIMALT
 70
     0
  9
$DIMALTD
 70
     2
  9
$DIMALTF
 40
25.4
  9
$DIMLFAC
 40
1.0
  9
$DIMTOFL
 70
     0
  9
$DIMTVP
 40
0.0
  9
$DIMTIX
 70
     0
  9
$DIMSOXD
 70
     0
  9
$DIMSAH
 70
     0
  9
$DIMBLK1
  1

  9
$DIMBLK2
  1

  9
$DIMSTYLE
  2
Standard
  9
$DIMCLRD
 70
     0
  9
$DIMCLRE
 70
     0
  9
$DIMCLRT
 70
     0
  9
$DIMTFAC
 40
1.0
  9
$DIMGAP
 40
0.09
  9
$DIMJUST
 70
     0
  9
$DIMSD1
 70
     0
  9
$DIMSD2
 70
     0
  9
$DIMTOLJ
 70
     1
  9
$DIMTZIN
 70
     0
  9
$DIMALTZ
 70
     0
  9
$DIMALTTZ
 70
     0
  9
$DIMUPT
 70
     0
  9
$DIMDEC
 70
     4
  9
$DIMTDEC
 70
     4
  9
$DIMALTU
 70
     2
  9
$DIMALTTD
 70
     2
  9
$DIMTXSTY
  7
Standard
  9
$DIMAUNIT
 70
     0
  9
$DIMADEC
 70
     0
  9
$DIMALTRND
 40
0.0
  9
$DIMAZIN
 70
     0
  9
$DIMDSEP
 70
    46
  9
$DIMATFIT
 70
     3
  9
$DIMFRAC
 70
     0
  9
$DIMLDRBLK
  1

  9
$DIMLUNIT
 70
     2
  9
$DIMLWD
 70
    -2
  9
$DIMLWE
 70
    -2
  9
$DIMTMOVE
 70
     0
  9
$DIMFXL
 40
1.0
  9
$DIMFXLON
 70
     0
  9
$DIMJOGANG
 40
0.7853981633974483
  9
$DIMTFILL
 70
     0
  9
$DIMTFILLCLR
 70
     0
  9
$DIMARCSYM
 70
     0
  9
$DIMLTYPE
  6

  9
$DIMLTEX1
  6

  9
$DIMLTEX2
  6

  9
$DIMTXTDIRECTION
 70
     0
  9
$LUNITS
 70
     2
  9
$LUPREC
 70
     4
  9
$SKETCHINC
 40
0.1
  9
$FILLETRAD
 40
0.5
  9
$AUNITS
 70
     0
  9
$AUPREC
 70
     0
  9
$MENU
  1
.
  9
$ELEVATION
 40
0.0
  9
$PELEVATION
 40
0.0
  9
$THICKNESS
 40
0.0
  9
$LIMCHECK
 70
     0
  9
$CHAMFERA
 40
0.5
  9
$CHAMFERB
 40
0.5
  9
$CHAMFERC
 40
1.0
  9
$CHAMFERD
 40
0.0
  9
$SKPOLY
 70
     0
  9
$TDCREATE
 40
2457917.619386574
  9
$TDUCREATE
 40
2457917.244386574
  9
$TDUPDATE
 40
2457917.619386574
  9
$TDUUPDATE
 40
2457917.244386574
  9
$TDINDWG
 40
0.0000000116
  9
$TDUSRTIMER
 40
0.0000000116
  9
$USRTIMER
 70
     1
  9
$ANGBASE
 50
0.0
  9
$ANGDIR
 70
     0
  9
$PDMODE
 70
     0
  9
$PDSIZE
 40
0.0
  9
$PLINEWID
 40
0.0
  9
$SPLFRAME
 70
     0
  9
$SPLINETYPE
 70
     6
  9
$SPLINESEGS
 70
     8
  9
$HANDSEED
  5
E0
  9
$SURFTAB1
 70
     6
  9
$SURFTAB2
 70
     6
  9
$SURFTYPE
 70
     6
  9
$SURFU
 70
     6
  9
$SURFV
 70
     6
  9
$UCSBASE
  2

  9
$UCSNAME
  2

  9
$UCSORG
 10
0.0
 20
0.0
 30
0.0
  9
$UCSXDIR
 10
1.0
 20
0.0
 30
0.0
  9
$UCSYDIR
 10
0.0
 20
1.0
 30
0.0
  9
$UCSORTHOREF
  2

  9
$UCSORTHOVIEW
 70
     0
  9
$UCSORGTOP
 10
0.0
 20
0.0
 30
0.0
  9
$UCSORGBOTTOM
 10
0.0
 20
0.0
 30
0.0
  9
$UCSORGLEFT
 10
0.0
 20
0.0
 30
0.0
  9
$UCSORGRIGHT
 10
0.0
 20
0.0
 30
0.0
  9
$UCSORGFRONT
 10
0.0
 20
0.0
 30
0.0
  9
$UCSORGBACK
 10
0.0
 20
0.0
 30
0.0
  9
$PUCSBASE
  2

  9
$PUCSNAME
  2

  9
$PUCSORG
 10
0.0
 20
0.0
 30
0.0
  9
$PUCSXDIR
 10
1.0
 20
0.0
 30
0.0
  9
$PUCSYDIR
 10
0.0
 20
1.0
 30
0.0
  9
$PUCSORTHOREF
  2

  9
$PUCSORTHOVIEW
 70
     0
  9
$PUCSORGTOP
 10
0.0
 20
0.0
 30
0.0
  9
$PUCSORGBOTTOM
 10
0.0
 20
0.0
 30
0.0
  9
$PUCSORGLEFT
 10
0.0
 20
0.0
 30
0.0
  9
$PUCSORGRIGHT
 10
0.0
 20
0.0
 30
0.0
  9
$PUCSORGFRONT
 10
0.0
 20
0.0
 30
0.0
  9
$PUCSORGBACK
 10
0.0
 20
0.0
 30
0.0
  9
$USERI1
 70
     0
  9
$USERI2
 70
     0
  9
$USERI3
 70
     0
  9
$USERI4
 70
     0
  9
$USERI5
 70
     0
  9
$USERR1
 40
0.0
  9
$USERR2
 40
0.0
  9
$USERR3
 40
0.0
  9
$USERR4
 40
0.0
  9
$USERR5
 40
0.0
  9
$WORLDVIEW
 70
     1
  9
$SHADEDGE
 70
     3
  9
$SHADEDIF
 70
    70
  9
$TILEMODE
 70
     1
  9
$MAXACTVP
 70
    64
  9
$PINSBASE
 10
0.0
 20
0.0
 30
0.0
  9
$PLIMCHECK
 70
     0
  9
$PEXTMIN
 10
1.000000000000000E+20
 20
1.000000000000000E+20
 30
1.000000000000000E+20
  9
$PEXTMAX
 10
-1.000000000000000E+20
 20
-1.000000000000000E+20
 30
-1.000000000000000E+20
  9
$PLIMMIN
 10
0.0
 20
0.0
  9
$PLIMMAX
 10
12.0
 20
9.0
  9
$UNITMODE
 70
     0
  9
$VISRETAIN
 70
     1
  9
$PLINEGEN
 70
     0
  9
$PSLTSCALE
 70
     1
  9
$TREEDEPTH
 70
  3020
  9
$CMLSTYLE
  2
Standard
  9
$CMLJUST
 70
     0
  9
$CMLSCALE
 40
1.0
  9
$PROXYGRAPHICS
 70
     1
  9
$MEASUREMENT
 70
     0
  9
$CELWEIGHT
370
    -1
  9
$ENDCAPS
280
     0
  9
$JOINSTYLE
280
     0
  9
$LWDISPLAY
290
     1
  9
$INSUNITS
 70
     1
  9
$HYPERLINKBASE
  1

  9
$STYLESHEET
  1

  9
$XEDIT
290
     1
  9
$CEPSNTYPE
380
     0
  9
$PSTYLEMODE
290
     1
  9
$FINGERPRINTGUID
  2
{D737AECB-5F73-C8B2-7266-2D6D630DCCF2}
  9
$VERSIONGUID
  2
{FAEB1C32-E019-11D5-929B-00C0DF256EC4}
  9
$EXTNAMES
290
     1
  9
$PSVPSCALE
 40
0.0
  9
$OLESTARTUP
290
     0
  9
$SORTENTS
280
   127
  9
$INDEXCTL
280
     0
  9
$HIDETEXT
280
     1
  9
$XCLIPFRAME
280
     2
  9
$HALOGAP
280
     0
  9
$OBSCOLOR
 70
   257
  9
$OBSLTYPE
280
     0
  9
$INTERSECTIONDISPLAY
280
     0
  9
$INTERSECTIONCOLOR
 70
   257
  9
$DIMASSOC
280
     2
  9
$PROJECTNAME
  1

  9
$CAMERADISPLAY
290
     0
  9
$LENSLENGTH
 40
50.0
  9
$CAMERAHEIGHT
 40
0.0
  9
$STEPSPERSEC
 40
2.0
  9
$STEPSIZE
 40
6.0
  9
$3DDWFPREC
 40
2.0
  9
$PSOLWIDTH
 40
0.25
  9
$PSOLHEIGHT
 40
4.0
  9
$LOFTANG1
 40
1.570796326794897
  9
$LOFTANG2
 40
1.570796326794897
  9
$LOFTMAG1
 40
0.0
  9
$LOFTMAG2
 40
0.0
  9
$LOFTPARAM
 70
     7
  9
$LOFTNORMALS
280
     1
  9
$LATITUDE
 40
37.795
  9
$LONGITUDE
 40
-122.394
  9
$NORTHDIRECTION
 40
0.0
  9
$TIMEZONE
 70
 -8000
  9
$LIGHTGLYPHDISPLAY
280
     1
  9
$TILEMODELIGHTSYNCH
280
     1
  9
$CMATERIAL
347
3C
  9
$SOLIDHIST
280
     1
  9
$SHOWHIST
280
     1
  9
$DWFFRAME
280
     2
  9
$DGNFRAME
280
     2
  9
$REALWORLDSCALE
290
     1
  9
$INTERFERECOLOR
 62
   256
  9
$CSHADOW
280
     0
  9
$SHADOWPLANELOCATION
 40
0.0
  0
ENDSEC
  0
SECTION
  2
CLASSES
  0
CLASS
  1
ACDBDICTIONARYWDFLT
  2
AcDbDictionaryWithDefault
  3
ObjectDBX Classes
 90
        0
 91
        4
280
     0
281
     0
  0
CLASS
  1
VISUALSTYLE
  2
AcDbVisualStyle
  3
ObjectDBX Classes
 90
     4095
 91
        4
280
     0
281
     0
  0
CLASS
  1
MATERIAL
  2
AcDbMaterial
  3
ObjectDBX Classes
 90
     1153
 91
        4
280
     0
281
     0
  0
CLASS
  1
SUN
  2
AcDbSun
  3
SCENEOE
 90
     1024
 91
        4
280
     0
281
     0
  0
ENDSEC
  0
SECTION
  2
TABLES
  0
TABLE
  2
VPORT
  5
8
330
0
100
AcDbSymbolTable
 70
     1
  0
VPORT
  5
29
330
8
100
AcDbSymbolTableRecord
100
AcDbViewportTableRecord
  2
*Active
 70
     0
 10
0.0
 20
0.0
 11
1.0
 21
1.0
 12
0.0
 22
0.0
 13
0.0
 23
0.0
 14
0.5
 24
0.5
 15
0.5
 25
0.5
 16
0.0
 26
0.0
 36
1.0
 17
91.00082462281999
 27
-128.4993055234307
 37
0.0
 40
256.9986110468615
 41
0.7081814508812795
 42
50.0
 43
0.0
 44
0.0
 50
0.0
 51
0.0
 71
     0
 72
   100
 73
     1
 74
     3
 75
     0
 76
     0
 77
     0
 78
     0
281
     0
 65
     1
110
0.0
120
0.0
130
0.0
111
1.0
121
0.0
131
0.0
112
0.0
122
1.0
132
0.0
 79
     0
146
0.0
 60
     3
 61
     5
292
     1
282
     1
141
0.0
142
0.0
 63
   250
361
3F
  0
ENDTAB
  0
TABLE
  2
LTYPE
  5
5
330
0
100
AcDbSymbolTable
 70
     2
  0
LTYPE
  5
14
330
5
100
AcDbSymbolTableRecord
100
AcDbLinetypeTableRecord
  2
ByBlock
 70
     0
  3

 72
    65
 73
     0
 40
0.0
  0
LTYPE
  5
15
330
5
100
AcDbSymbolTableRecord
100
AcDbLinetypeTableRecord
  2
ByLayer
 70
     0
  3

 72
    65
 73
     0
 40
0.0
  0
LTYPE
  5
16
330
5
100
AcDbSymbolTableRecord
100
AcDbLinetypeTableRecord
  2
Continuous
 70
     0
  3
Solid line
 72
    65
 73
     0
 40
0.0
  0
LTYPE
  5
DC
330
5
100
AcDbSymbolTableRecord
100
AcDbLinetypeTableRecord
  2
AI-Linetype-1
 70
     0
  3
Adobe Illustrator Linetype No. 1
 72
    65
 73
     2
 40
1.411111110758333
 49
0.7055555553791667
 74
     0
 49
-0.7055555553791667
 74
     0
  0
ENDTAB
  0
TABLE
  2
LAYER
  5
2
330
0
100
AcDbSymbolTable
 70
     2
  0
LAYER
  5
10
330
2
100
AcDbSymbolTableRecord
100
AcDbLayerTableRecord
  2
0
 70
     0
 62
     7
  6
Continuous
370
    -3
390
F
347
3E
  0
LAYER
  5
40
330
2
100
AcDbSymbolTableRecord
100
AcDbLayerTableRecord
  2
_U+30EC_U+30A4_U+30E4_U+30FC 1
 70
     0
 62
     7
  6
Continuous
370
    -3
390
F
347
3E
  0
ENDTAB
  0
TABLE
  2
STYLE
  5
3
330
0
100
AcDbSymbolTable
 70
     1
  0
STYLE
  5
11
330
3
100
AcDbSymbolTableRecord
100
AcDbTextStyleTableRecord
  2
Standard
 70
     0
 40
0.0
 41
1.0
 50
0.0
 71
     0
 42
0.2
  3
txt
  4

  0
ENDTAB
  0
TABLE
  2
VIEW
  5
6
330
0
100
AcDbSymbolTable
 70
     0
  0
ENDTAB
  0
TABLE
  2
UCS
  5
7
330
0
100
AcDbSymbolTable
 70
     0
  0
ENDTAB
  0
TABLE
  2
APPID
  5
9
330
0
100
AcDbSymbolTable
 70
     1
  0
APPID
  5
12
330
9
100
AcDbSymbolTableRecord
100
AcDbRegAppTableRecord
  2
ACAD
 70
     0
  0
ENDTAB
  0
TABLE
  2
DIMSTYLE
  5
A
330
0
100
AcDbSymbolTable
 70
     1
100
AcDbDimStyleTable
  0
DIMSTYLE
105
27
330
A
100
AcDbSymbolTableRecord
100
AcDbDimStyleTableRecord
  2
Standard
 70
     0
178
     0
340
11
  0
ENDTAB
  0
TABLE
  2
BLOCK_RECORD
  5
1
330
0
100
AcDbSymbolTable
 70
     7
  0
BLOCK_RECORD
  5
1F
330
1
100
AcDbSymbolTableRecord
100
AcDbBlockTableRecord
  2
*Model_Space
340
22
 70
     0
280
     1
281
     0
  0
BLOCK_RECORD
  5
1B
330
1
100
AcDbSymbolTableRecord
100
AcDbBlockTableRecord
  2
*Paper_Space
340
1E
 70
     0
280
     1
281
     0
  0
BLOCK_RECORD
  5
23
330
1
100
AcDbSymbolTableRecord
100
AcDbBlockTableRecord
  2
*Paper_Space0
340
26
 70
     0
280
     1
281
     0
  0
BLOCK_RECORD
  5
51
330
1
100
AcDbSymbolTableRecord
100
AcDbBlockTableRecord
  2
block 2
340
0
102
{BLKREFS
331
52
102
}
 70
     0
280
     1
281
     0
  0
BLOCK_RECORD
  5
68
330
1
100
AcDbSymbolTableRecord
100
AcDbBlockTableRecord
  2
block 3
340
0
102
{BLKREFS
331
69
102
}
 70
     0
280
     1
281
     0
  0
BLOCK_RECORD
  5
7C
330
1
100
AcDbSymbolTableRecord
100
AcDbBlockTableRecord
  2
block 4
340
0
102
{BLKREFS
331
7D
102
}
 70
     0
280
     1
281
     0
  0
BLOCK_RECORD
  5
9A
330
1
100
AcDbSymbolTableRecord
100
AcDbBlockTableRecord
  2
block 5
340
0
102
{BLKREFS
331
9B
102
}
 70
     0
280
     1
281
     0
  0
BLOCK_RECORD
  5
AC
330
1
100
AcDbSymbolTableRecord
100
AcDbBlockTableRecord
  2
block 6
340
0
102
{BLKREFS
331
AD
102
}
 70
     0
280
     1
281
     0
  0
BLOCK_RECORD
  5
CA
330
1
100
AcDbSymbolTableRecord
100
AcDbBlockTableRecord
  2
block 7
340
0
102
{BLKREFS
331
CB
102
}
 70
     0
280
     1
281
     0
  0
ENDTAB
  0
ENDSEC
  0
SECTION
  2
BLOCKS
  0
BLOCK
  5
20
330
1F
100
AcDbEntity
  8
0
100
AcDbBlockBegin
  2
*Model_Space
 70
     0
 10
0.0
 20
0.0
 30
0.0
  3
*Model_Space
  1

  0
ENDBLK
  5
21
330
1F
100
AcDbEntity
  8
0
100
AcDbBlockEnd
  0
BLOCK
  5
1C
330
1B
100
AcDbEntity
 67
     1
  8
0
100
AcDbBlockBegin
  2
*Paper_Space
 70
     0
 10
0.0
 20
0.0
 30
0.0
  3
*Paper_Space
  1

  0
ENDBLK
  5
1D
330
1B
100
AcDbEntity
 67
     1
  8
0
100
AcDbBlockEnd
  0
BLOCK
  5
24
330
23
100
AcDbEntity
  8
0
100
AcDbBlockBegin
  2
*Paper_Space0
 70
     0
 10
0.0
 20
0.0
 30
0.0
  3
*Paper_Space0
  1

  0
ENDBLK
  5
25
330
23
100
AcDbEntity
  8
0
100
AcDbBlockEnd
  0
BLOCK
  5
53
330
51
100
AcDbEntity
  8
0
100
AcDbBlockBegin
  2
block 2
 70
     0
 10
0.0
 20
0.0
 30
0.0
  3
block 2
  1

  0
SPLINE
  5
55
330
51
100
AcDbEntity
  8
_U+30EC_U+30A4_U+30E4_U+30FC 1
370
     0
100
AcDbSpline
210
0.0
220
0.0
230
1.0
 70
    11
 71
     3
 72
    26
 73
    22
 74
     0
 42
0.0000000001
 43
0.0000000001
 12
1.0
 22
0.0
 32
0.0
 13
1.0
 23
0.0
 33
0.0
 40
0.0
 40
0.0
 40
0.0
 40
0.0
 40
1.0
 40
1.0
 40
1.0
 40
2.0
 40
2.0
 40
2.0
 40
3.0
 40
3.0
 40
3.0
 40
4.0
 40
4.0
 40
4.0
 40
5.0
 40
5.0
 40
5.0
 40
6.0
 40
6.0
 40
6.0
 40
7.0
 40
7.0
 40
7.0
 40
7.0
 10
88.10745576139328
 20
-116.6896904547686
 30
0.0
 10
88.10745576139328
 20
-116.6896904547686
 30
0.0
 10
87.87060544678235
 20
-116.6896904547686
 30
0.0
 10
87.87060544678235
 20
-116.6896904547686
 30
0.0
 10
87.89592689859894
 20
-116.3808376445159
 30
0.0
 10
88.0885077362244
 20
-115.8625230287601
 30
0.0
 10
88.49468449393537
 20
-115.3569552662997
 30
0.0
 10
88.49468449393537
 20
-115.3569552662997
 30
0.0
 10
87.6568372719226
 20
-115.3569552662997
 30
0.0
 10
87.6568372719226
 20
-115.3569552662997
 30
0.0
 10
87.6568372719226
 20
-115.3569552662997
 30
0.0
 10
87.6568372719226
 20
-115.1454264035053
 30
0.0
 10
87.6568372719226
 20
-115.1454264035053
 30
0.0
 10
87.6568372719226
 20
-115.1454264035053
 30
0.0
 10
88.73153480854629
 20
-115.1454264035053
 30
0.0
 10
88.73153480854629
 20
-115.1454264035053
 30
0.0
 10
88.73153480854629
 20
-115.1454264035053
 30
0.0
 10
88.73153480854629
 20
-115.3569552662997
 30
0.0
 10
88.73153480854629
 20
-115.3569552662997
 30
0.0
 10
88.40786808770706
 20
-115.6466877966092
 30
0.0
 10
88.14138995192299
 20
-116.2390719652979
 30
0.0
 10
88.10745576139328
 20
-116.6896904547686
 30
0.0
  0
HATCH
  5
56
330
51
100
AcDbEntity
  8
_U+30EC_U+30A4_U+30E4_U+30FC 1
 62
     7
420
 16777215
100
AcDbHatch
 10
0.0
 20
0.0
 30
0.0
210
0.0
220
0.0
230
1.0
  2
SOLID
 70
     1
 71
     0
 91
        1
 92
        1
 93
        1
 72
     4
 94
        3
 73
     0
 74
     1
 95
       26
 96
       22
 40
0.0
 40
0.0
 40
0.0
 40
0.0
 40
1.0
 40
1.0
 40
1.0
 40
2.0
 40
2.0
 40
2.0
 40
3.0
 40
3.0
 40
3.0
 40
4.0
 40
4.0
 40
4.0
 40
5.0
 40
5.0
 40
5.0
 40
6.0
 40
6.0
 40
6.0
 40
7.0
 40
7.0
 40
7.0
 40
7.0
 10
88.10745576139328
 20
-116.6896904547686
 10
88.10745576139328
 20
-116.6896904547686
 10
87.87060544678235
 20
-116.6896904547686
 10
87.87060544678235
 20
-116.6896904547686
 10
87.89592689859894
 20
-116.3808376445159
 10
88.0885077362244
 20
-115.8625230287601
 10
88.49468449393537
 20
-115.3569552662997
 10
88.49468449393537
 20
-115.3569552662997
 10
87.6568372719226
 20
-115.3569552662997
 10
87.6568372719226
 20
-115.3569552662997
 10
87.6568372719226
 20
-115.3569552662997
 10
87.6568372719226
 20
-115.1454264035053
 10
87.6568372719226
 20
-115.1454264035053
 10
87.6568372719226
 20
-115.1454264035053
 10
88.73153480854629
 20
-115.1454264035053
 10
88.73153480854629
 20
-115.1454264035053
 10
88.73153480854629
 20
-115.1454264035053
 10
88.73153480854629
 20
-115.3569552662997
 10
88.73153480854629
 20
-115.3569552662997
 10
88.40786808770706
 20
-115.6466877966092
 10
88.14138995192299
 20
-116.2390719652979
 10
88.10745576139328
 20
-116.6896904547686
 97
        0
 97
        0
 75
     2
 76
     1
 98
        0
  0
ENDBLK
  5
54
330
51
100
AcDbEntity
  8
0
100
AcDbBlockEnd
  0
BLOCK
  5
6A
330
68
100
AcDbEntity
  8
0
100
AcDbBlockBegin
  2
block 3
 70
     0
 10
0.0
 20
0.0
 30
0.0
  3
block 3
  1

  0
SPLINE
  5
6C
330
68
100
AcDbEntity
  8
_U+30EC_U+30A4_U+30E4_U+30FC 1
370
     0
100
AcDbSpline
210
0.0
220
0.0
230
1.0
 70
    11
 71
     3
 72
    26
 73
    22
 74
     0
 42
0.0000000001
 43
0.0000000001
 12
1.0
 22
0.0
 32
0.0
 13
1.0
 23
0.0
 33
0.0
 40
0.0
 40
0.0
 40
0.0
 40
0.0
 40
1.0
 40
1.0
 40
1.0
 40
2.0
 40
2.0
 40
2.0
 40
3.0
 40
3.0
 40
3.0
 40
4.0
 40
4.0
 40
4.0
 40
5.0
 40
5.0
 40
5.0
 40
6.0
 40
6.0
 40
6.0
 40
7.0
 40
7.0
 40
7.0
 40
7.0
 10
87.66579452018425
 20
-123.0121296892991
 30
0.0
 10
87.66579452018425
 20
-123.0121296892991
 30
0.0
 10
87.66579452018425
 20
-121.9078043315022
 30
0.0
 10
87.66579452018425
 20
-121.9078043315022
 30
0.0
 10
87.66579452018425
 20
-121.9078043315022
 30
0.0
 10
87.33575437269731
 20
-121.9078043315022
 30
0.0
 10
87.33575437269731
 20
-121.9078043315022
 30
0.0
 10
87.33575437269731
 20
-121.9078043315022
 30
0.0
 10
87.33575437269731
 20
-121.7596652256365
 30
0.0
 10
87.33575437269731
 20
-121.7596652256365
 30
0.0
 10
87.6678615774754
 20
-121.7450235698242
 30
0.0
 10
87.71437036652627
 20
-121.5820705533718
 30
0.0
 10
87.74399818769942
 20
-121.4678656380358
 30
0.0
 10
87.74399818769942
 20
-121.4678656380358
 30
0.0
 10
87.89007023627401
 20
-121.4678656380358
 30
0.0
 10
87.89007023627401
 20
-121.4678656380358
 30
0.0
 10
87.89007023627401
 20
-121.4678656380358
 30
0.0
 10
87.89007023627401
 20
-123.0121296892991
 30
0.0
 10
87.89007023627401
 20
-123.0121296892991
 30
0.0
 10
87.89007023627401
 20
-123.0121296892991
 30
0.0
 10
87.66579452018425
 20
-123.0121296892991
 30
0.0
 10
87.66579452018425
 20
-123.0121296892991
 30
0.0
  0
HATCH
  5
6D
330
68
100
AcDbEntity
  8
_U+30EC_U+30A4_U+30E4_U+30FC 1
 62
     7
420
 16777215
100
AcDbHatch
 10
0.0
 20
0.0
 30
0.0
210
0.0
220
0.0
230
1.0
  2
SOLID
 70
     1
 71
     0
 91
        1
 92
        1
 93
        1
 72
     4
 94
        3
 73
     0
 74
     1
 95
       26
 96
       22
 40
0.0
 40
0.0
 40
0.0
 40
0.0
 40
1.0
 40
1.0
 40
1.0
 40
2.0
 40
2.0
 40
2.0
 40
3.0
 40
3.0
 40
3.0
 40
4.0
 40
4.0
 40
4.0
 40
5.0
 40
5.0
 40
5.0
 40
6.0
 40
6.0
 40
6.0
 40
7.0
 40
7.0
 40
7.0
 40
7.0
 10
87.66579452018425
 20
-123.0121296892991
 10
87.66579452018425
 20
-123.0121296892991
 10
87.66579452018425
 20
-121.9078043315022
 10
87.66579452018425
 20
-121.9078043315022
 10
87.66579452018425
 20
-121.9078043315022
 10
87.33575437269731
 20
-121.9078043315022
 10
87.33575437269731
 20
-121.9078043315022
 10
87.33575437269731
 20
-121.9078043315022
 10
87.33575437269731
 20
-121.7596652256365
 10
87.33575437269731
 20
-121.7596652256365
 10
87.6678615774754
 20
-121.7450235698242
 10
87.71437036652627
 20
-121.5820705533718
 10
87.74399818769942
 20
-121.4678656380358
 10
87.74399818769942
 20
-121.4678656380358
 10
87.89007023627401
 20
-121.4678656380358
 10
87.89007023627401
 20
-121.4678656380358
 10
87.89007023627401
 20
-121.4678656380358
 10
87.89007023627401
 20
-123.0121296892991
 10
87.89007023627401
 20
-123.0121296892991
 10
87.89007023627401
 20
-123.0121296892991
 10
87.66579452018425
 20
-123.0121296892991
 10
87.66579452018425
 20
-123.0121296892991
 97
        0
 97
        0
 75
     2
 76
     1
 98
        0
  0
ENDBLK
  5
6B
330
68
100
AcDbEntity
  8
0
100
AcDbBlockEnd
  0
BLOCK
  5
7E
330
7C
100
AcDbEntity
  8
0
100
AcDbBlockBegin
  2
block 4
 70
     0
 10
0.0
 20
0.0
 30
0.0
  3
block 4
  1

  0
SPLINE
  5
80
330
7C
100
AcDbEntity
  8
_U+30EC_U+30A4_U+30E4_U+30FC 1
370
     0
100
AcDbSpline
210
0.0
220
0.0
230
1.0
 70
    11
 71
     3
 72
    29
 73
    25
 74
     0
 42
0.0000000001
 43
0.0000000001
 12
1.0
 22
0.0
 32
0.0
 13
1.0
 23
0.0
 33
0.0
 40
0.0
 40
0.0
 40
0.0
 40
0.0
 40
1.0
 40
1.0
 40
1.0
 40
2.0
 40
2.0
 40
2.0
 40
3.0
 40
3.0
 40
3.0
 40
4.0
 40
4.0
 40
4.0
 40
5.0
 40
5.0
 40
5.0
 40
6.0
 40
6.0
 40
6.0
 40
7.0
 40
7.0
 40
7.0
 40
8.0
 40
8.0
 40
8.0
 40
8.0
 10
103.1227321790804
 20
-132.6740722324565
 30
0.0
 10
103.1227321790804
 20
-132.9407226230148
 30
0.0
 10
102.985272869219
 20
-133.1946261602777
 30
0.0
 10
102.6362846965632
 20
-133.1946261602777
 30
0.0
 10
102.3803141020091
 20
-133.1946261602777
 30
0.0
 10
102.2852294666162
 20
-133.0526882262855
 30
0.0
 10
102.2239067669787
 20
-132.9469237948883
 30
0.0
 10
102.1646511246325
 20
-133.0716362514543
 30
0.0
 10
102.0502739545222
 20
-133.1477728616783
 30
0.0
 10
101.889387995361
 20
-133.1477728616783
 30
0.0
 10
101.6144693756381
 20
-133.1477728616783
 30
0.0
 10
101.4790771230677
 20
-132.9489908521794
 30
0.0
 10
101.4790771230677
 20
-132.6740722324565
 30
0.0
 10
101.4790771230677
 20
-132.3905408740204
 30
0.0
 10
101.6230821143512
 20
-132.2000270936861
 30
0.0
 10
101.889387995361
 20
-132.2000270936861
 30
0.0
 10
102.0502739545222
 20
-132.2000270936861
 30
0.0
 10
102.1646511246325
 20
-132.2785752707498
 30
0.0
 10
102.2239067669787
 20
-132.4032877273158
 30
0.0
 10
102.2745496706119
 20
-132.3144042637964
 30
0.0
 10
102.3696343060048
 20
-132.1555853619264
 30
0.0
 10
102.6321505819809
 20
-132.1555853619264
 30
0.0
 10
103.0066324612275
 20
-132.1555853619264
 30
0.0
 10
103.1227321790804
 20
-132.4349826057801
 30
0.0
 10
103.1227321790804
 20
-132.6740722324565
 30
0.0
  0
SPLINE
  5
81
330
7C
100
AcDbEntity
  8
_U+30EC_U+30A4_U+30E4_U+30FC 1
370
     0
100
AcDbSpline
210
0.0
220
0.0
230
1.0
 70
    11
 71
     3
 72
    17
 73
    13
 74
     0
 42
0.0000000001
 43
0.0000000001
 12
1.0
 22
0.0
 32
0.0
 13
1.0
 23
0.0
 33
0.0
 40
0.0
 40
0.0
 40
0.0
 40
0.0
 40
1.0
 40
1.0
 40
1.0
 40
2.0
 40
2.0
 40
2.0
 40
3.0
 40
3.0
 40
3.0
 40
4.0
 40
4.0
 40
4.0
 40
4.0
 10
101.6716579606932
 20
-132.6740722324565
 30
0.0
 10
101.6716579606932
 20
-132.8390923061999
 30
0.0
 10
101.7667425960861
 20
-132.9238416551371
 30
0.0
 10
101.9021348486564
 20
-132.9238416551371
 30
0.0
 10
102.0247802479313
 20
-132.9238416551371
 30
0.0
 10
102.1432915326239
 20
-132.8518391594954
 30
0.0
 10
102.1432915326239
 20
-132.6740722324565
 30
0.0
 10
102.1432915326239
 20
-132.4963053054176
 30
0.0
 10
102.0247802479313
 20
-132.4243028097759
 30
0.0
 10
101.9021348486564
 20
-132.4243028097759
 30
0.0
 10
101.7667425960861
 20
-132.4243028097759
 30
0.0
 10
101.6716579606932
 20
-132.5111192160042
 30
0.0
 10
101.6716579606932
 20
-132.6740722324565
 30
0.0
  0
SPLINE
  5
82
330
7C
100
AcDbEntity
  8
_U+30EC_U+30A4_U+30E4_U+30FC 1
370
     0
100
AcDbSpline
210
0.0
220
0.0
230
1.0
 70
    11
 71
     3
 72
    17
 73
    13
 74
     0
 42
0.0000000001
 43
0.0000000001
 12
1.0
 22
0.0
 32
0.0
 13
1.0
 23
0.0
 33
0.0
 40
0.0
 40
0.0
 40
0.0
 40
0.0
 40
1.0
 40
1.0
 40
1.0
 40
2.0
 40
2.0
 40
2.0
 40
3.0
 40
3.0
 40
3.0
 40
4.0
 40
4.0
 40
4.0
 40
4.0
 10
102.3317382556671
 20
-132.6740722324565
 30
0.0
 10
102.3317382556671
 20
-132.8177327141914
 30
0.0
 10
102.4185546618954
 20
-132.970350444188
 30
0.0
 10
102.6214707859766
 20
-132.970350444188
 30
0.0
 10
102.8267984768975
 20
-132.970350444188
 30
0.0
 10
102.9280842841638
 20
-132.8432264207823
 30
0.0
 10
102.9280842841638
 20
-132.6740722324565
 30
0.0
 10
102.9280842841638
 20
-132.488037076253
 30
0.0
 10
102.8054388848889
 20
-132.377794020725
 30
0.0
 10
102.62767195785
 20
-132.377794020725
 30
0.0
 10
102.4058078085999
 20
-132.377794020725
 30
0.0
 10
102.3317382556671
 20
-132.5407470371773
 30
0.0
 10
102.3317382556671
 20
-132.6740722324565
 30
0.0
  0
HATCH
  5
83
330
7C
100
AcDbEntity
  8
_U+30EC_U+30A4_U+30E4_U+30FC 1
 62
     7
420
 16777215
100
AcDbHatch
 10
0.0
 20
0.0
 30
0.0
210
0.0
220
0.0
230
1.0
  2
SOLID
 70
     1
 71
     0
 91
        3
 92
        1
 93
        1
 72
     4
 94
        3
 73
     0
 74
     1
 95
       29
 96
       25
 40
0.0
 40
0.0
 40
0.0
 40
0.0
 40
1.0
 40
1.0
 40
1.0
 40
2.0
 40
2.0
 40
2.0
 40
3.0
 40
3.0
 40
3.0
 40
4.0
 40
4.0
 40
4.0
 40
5.0
 40
5.0
 40
5.0
 40
6.0
 40
6.0
 40
6.0
 40
7.0
 40
7.0
 40
7.0
 40
8.0
 40
8.0
 40
8.0
 40
8.0
 10
103.1227321790804
 20
-132.6740722324565
 10
103.1227321790804
 20
-132.9407226230148
 10
102.985272869219
 20
-133.1946261602777
 10
102.6362846965632
 20
-133.1946261602777
 10
102.3803141020091
 20
-133.1946261602777
 10
102.2852294666162
 20
-133.0526882262855
 10
102.2239067669787
 20
-132.9469237948883
 10
102.1646511246325
 20
-133.0716362514543
 10
102.0502739545222
 20
-133.1477728616783
 10
101.889387995361
 20
-133.1477728616783
 10
101.6144693756381
 20
-133.1477728616783
 10
101.4790771230677
 20
-132.9489908521794
 10
101.4790771230677
 20
-132.6740722324565
 10
101.4790771230677
 20
-132.3905408740204
 10
101.6230821143512
 20
-132.2000270936861
 10
101.889387995361
 20
-132.2000270936861
 10
102.0502739545222
 20
-132.2000270936861
 10
102.1646511246325
 20
-132.2785752707498
 10
102.2239067669787
 20
-132.4032877273158
 10
102.2745496706119
 20
-132.3144042637964
 10
102.3696343060048
 20
-132.1555853619264
 10
102.6321505819809
 20
-132.1555853619264
 10
103.0066324612275
 20
-132.1555853619264
 10
103.1227321790804
 20
-132.4349826057801
 10
103.1227321790804
 20
-132.6740722324565
 97
        0
 97
        0
 92
        1
 93
        1
 72
     4
 94
        3
 73
     0
 74
     1
 95
       17
 96
       13
 40
0.0
 40
0.0
 40
0.0
 40
0.0
 40
1.0
 40
1.0
 40
1.0
 40
2.0
 40
2.0
 40
2.0
 40
3.0
 40
3.0
 40
3.0
 40
4.0
 40
4.0
 40
4.0
 40
4.0
 10
101.6716579606932
 20
-132.6740722324565
 10
101.6716579606932
 20
-132.8390923061999
 10
101.7667425960861
 20
-132.9238416551371
 10
101.9021348486564
 20
-132.9238416551371
 10
102.0247802479313
 20
-132.9238416551371
 10
102.1432915326239
 20
-132.8518391594954
 10
102.1432915326239
 20
-132.6740722324565
 10
102.1432915326239
 20
-132.4963053054176
 10
102.0247802479313
 20
-132.4243028097759
 10
101.9021348486564
 20
-132.4243028097759
 10
101.7667425960861
 20
-132.4243028097759
 10
101.6716579606932
 20
-132.5111192160042
 10
101.6716579606932
 20
-132.6740722324565
 97
        0
 97
        0
 92
        1
 93
        1
 72
     4
 94
        3
 73
     0
 74
     1
 95
       17
 96
       13
 40
0.0
 40
0.0
 40
0.0
 40
0.0
 40
1.0
 40
1.0
 40
1.0
 40
2.0
 40
2.0
 40
2.0
 40
3.0
 40
3.0
 40
3.0
 40
4.0
 40
4.0
 40
4.0
 40
4.0
 10
102.3317382556671
 20
-132.6740722324565
 10
102.3317382556671
 20
-132.8177327141914
 10
102.4185546618954
 20
-132.970350444188
 10
102.6214707859766
 20
-132.970350444188
 10
102.8267984768975
 20
-132.970350444188
 10
102.9280842841638
 20
-132.8432264207823
 10
102.9280842841638
 20
-132.6740722324565
 10
102.9280842841638
 20
-132.488037076253
 10
102.8054388848889
 20
-132.377794020725
 10
102.62767195785
 20
-132.377794020725
 10
102.4058078085999
 20
-132.377794020725
 10
102.3317382556671
 20
-132.5407470371773
 10
102.3317382556671
 20
-132.6740722324565
 97
        0
 97
        0
 75
     2
 76
     1
 98
        0
  0
POLYLINE
  5
84
330
7C
100
AcDbEntity
  8
_U+30EC_U+30A4_U+30E4_U+30FC 1
370
     0
100
AcDb2dPolyline
 66
     1
 10
0.0
 20
0.0
 30
0.0
  0
VERTEX
  5
85
330
84
100
AcDbEntity
  8
_U+30EC_U+30A4_U+30E4_U+30FC 1
370
     0
100
AcDbVertex
100
AcDb2dVertex
 10
103.0720892754473
 20
-131.9371663081616
 30
0.0
  0
VERTEX
  5
86
330
84
100
AcDbEntity
  8
_U+30EC_U+30A4_U+30E4_U+30FC 1
370
     0
100
AcDbVertex
100
AcDb2dVertex
 10
102.8202527954755
 20
-131.9371663081616
 30
0.0
  0
VERTEX
  5
87
330
84
100
AcDbEntity
  8
_U+30EC_U+30A4_U+30E4_U+30FC 1
370
     0
100
AcDbVertex
100
AcDb2dVertex
 10
102.8202527954755
 20
-131.6853298281898
 30
0.0
  0
VERTEX
  5
88
330
84
100
AcDbEntity
  8
_U+30EC_U+30A4_U+30E4_U+30FC 1
370
     0
100
AcDbVertex
100
AcDb2dVertex
 10
103.0720892754473
 20
-131.6853298281898
 30
0.0
  0
VERTEX
  5
89
330
84
100
AcDbEntity
  8
_U+30EC_U+30A4_U+30E4_U+30FC 1
370
     0
100
AcDbVertex
100
AcDb2dVertex
 10
103.0720892754473
 20
-131.9371663081616
 30
0.0
  0
SEQEND
  5
8A
330
84
100
AcDbEntity
  8
_U+30EC_U+30A4_U+30E4_U+30FC 1
370
     0
  0
HATCH
  5
8B
330
7C
100
AcDbEntity
  8
_U+30EC_U+30A4_U+30E4_U+30FC 1
 62
     7
420
 16777215
100
AcDbHatch
 10
0.0
 20
0.0
 30
0.0
210
0.0
220
0.0
230
1.0
  2
SOLID
 70
     1
 71
     0
 91
        1
 92
        1
 93
        4
 72
     1
 10
103.0720892754473
 20
-131.9371663081616
 11
102.8202527954755
 21
-131.9371663081616
 72
     1
 10
102.8202527954755
 20
-131.9371663081616
 11
102.8202527954755
 21
-131.6853298281898
 72
     1
 10
102.8202527954755
 20
-131.6853298281898
 11
103.0720892754473
 21
-131.6853298281898
 72
     1
 10
103.0720892754473
 20
-131.6853298281898
 11
103.0720892754473
 21
-131.9371663081616
 97
        0
 75
     2
 76
     1
 98
        0
  0
SPLINE
  5
8C
330
7C
100
AcDbEntity
  8
_U+30EC_U+30A4_U+30E4_U+30FC 1
370
     0
100
AcDbSpline
210
0.0
220
0.0
230
1.0
 70
    11
 71
     3
 72
    53
 73
    49
 74
     0
 42
0.0000000001
 43
0.0000000001
 12
1.0
 22
0.0
 32
0.0
 13
1.0
 23
0.0
 33
0.0
 40
0.0
 40
0.0
 40
0.0
 40
0.0
 40
1.0
 40
1.0
 40
1.0
 40
2.0
 40
2.0
 40
2.0
 40
3.0
 40
3.0
 40
3.0
 40
4.0
 40
4.0
 40
4.0
 40
5.0
 40
5.0
 40
5.0
 40
6.0
 40
6.0
 40
6.0
 40
7.0
 40
7.0
 40
7.0
 40
8.0
 40
8.0
 40
8.0
 40
9.0
 40
9.0
 40
9.0
 40
10.0
 40
10.0
 40
10.0
 40
11.0
 40
11.0
 40
11.0
 40
12.0
 40
12.0
 40
12.0
 40
13.0
 40
13.0
 40
13.0
 40
14.0
 40
14.0
 40
14.0
 40
15.0
 40
15.0
 40
15.0
 40
16.0
 40
16.0
 40
16.0
 40
16.0
 10
103.1227321790804
 20
-130.9680609481608
 30
0.0
 10
103.1227321790804
 20
-131.0462646156759
 30
0.0
 10
103.1058512112027
 20
-131.1478949324908
 30
0.0
 10
103.0424614542741
 20
-131.2495252493057
 30
0.0
 10
102.9325629082946
 20
-131.4228135522137
 30
0.0
 10
102.8013047703066
 20
-131.4441731442223
 30
0.0
 10
102.6934732816183
 20
-131.4631211693912
 30
0.0
 10
102.6934732816183
 20
-131.4631211693912
 30
0.0
 10
102.6934732816183
 20
-131.2409125105926
 30
0.0
 10
102.6934732816183
 20
-131.2409125105926
 30
0.0
 10
102.8922552911172
 20
-131.1861354923771
 30
0.0
 10
102.9218831122904
 20
-131.0590114689714
 30
0.0
 10
102.9218831122904
 20
-130.9659938908696
 30
0.0
 10
102.9218831122904
 20
-130.826467523717
 30
0.0
 10
102.8223198527667
 20
-130.674194303269
 30
0.0
 10
102.5897759075123
 20
-130.674194303269
 30
0.0
 10
102.3338053129582
 20
-130.674194303269
 30
0.0
 10
102.2638698746076
 20
-130.854028287599
 30
0.0
 10
102.2638698746076
 20
-130.9746066295828
 30
0.0
 10
102.2638698746076
 20
-131.006301508047
 30
0.0
 10
102.2638698746076
 20
-131.1478949324908
 30
0.0
 10
102.3930609553045
 20
-131.2367783960103
 30
0.0
 10
102.3930609553045
 20
-131.2367783960103
 30
0.0
 10
102.3741129301356
 20
-131.412478265758
 30
0.0
 10
102.3741129301356
 20
-131.412478265758
 30
0.0
 10
102.3741129301356
 20
-131.412478265758
 30
0.0
 10
101.5276529694098
 20
-131.2918999237743
 30
0.0
 10
101.5276529694098
 20
-131.2918999237743
 30
0.0
 10
101.5276529694098
 20
-131.2918999237743
 30
0.0
 10
101.5276529694098
 20
-130.5133083441078
 30
0.0
 10
101.5276529694098
 20
-130.5133083441078
 30
0.0
 10
101.5276529694098
 20
-130.5133083441078
 30
0.0
 10
101.7223008643264
 20
-130.5133083441078
 30
0.0
 10
101.7223008643264
 20
-130.5133083441078
 30
0.0
 10
101.7223008643264
 20
-130.5133083441078
 30
0.0
 10
101.7223008643264
 20
-131.1289469073219
 30
0.0
 10
101.7223008643264
 20
-131.1289469073219
 30
0.0
 10
101.7223008643264
 20
-131.1289469073219
 30
0.0
 10
102.145358589915
 20
-131.1944037215417
 30
0.0
 10
102.145358589915
 20
-131.1944037215417
 30
0.0
 10
102.1115966541596
 20
-131.1330810219042
 30
0.0
 10
102.0712890369822
 20
-131.0507432398068
 30
0.0
 10
102.0712890369822
 20
-130.9322319551142
 30
0.0
 10
102.0712890369822
 20
-130.6783284178512
 30
0.0
 10
102.2576687027342
 20
-130.4413058484661
 30
0.0
 10
102.5708278823434
 20
-130.4413058484661
 30
0.0
 10
102.8881211765349
 20
-130.4413058484661
 30
0.0
 10
103.1227321790804
 20
-130.6655815645558
 30
0.0
 10
103.1227321790804
 20
-130.9680609481608
 30
0.0
  0
HATCH
  5
8D
330
7C
100
AcDbEntity
  8
_U+30EC_U+30A4_U+30E4_U+30FC 1
 62
     7
420
 16777215
100
AcDbHatch
 10
0.0
 20
0.0
 30
0.0
210
0.0
220
0.0
230
1.0
  2
SOLID
 70
     1
 71
     0
 91
        1
 92
        1
 93
        1
 72
     4
 94
        3
 73
     0
 74
     1
 95
       53
 96
       49
 40
0.0
 40
0.0
 40
0.0
 40
0.0
 40
1.0
 40
1.0
 40
1.0
 40
2.0
 40
2.0
 40
2.0
 40
3.0
 40
3.0
 40
3.0
 40
4.0
 40
4.0
 40
4.0
 40
5.0
 40
5.0
 40
5.0
 40
6.0
 40
6.0
 40
6.0
 40
7.0
 40
7.0
 40
7.0
 40
8.0
 40
8.0
 40
8.0
 40
9.0
 40
9.0
 40
9.0
 40
10.0
 40
10.0
 40
10.0
 40
11.0
 40
11.0
 40
11.0
 40
12.0
 40
12.0
 40
12.0
 40
13.0
 40
13.0
 40
13.0
 40
14.0
 40
14.0
 40
14.0
 40
15.0
 40
15.0
 40
15.0
 40
16.0
 40
16.0
 40
16.0
 40
16.0
 10
103.1227321790804
 20
-130.9680609481608
 10
103.1227321790804
 20
-131.0462646156759
 10
103.1058512112027
 20
-131.1478949324908
 10
103.0424614542741
 20
-131.2495252493057
 10
102.9325629082946
 20
-131.4228135522137
 10
102.8013047703066
 20
-131.4441731442223
 10
102.6934732816183
 20
-131.4631211693912
 10
102.6934732816183
 20
-131.4631211693912
 10
102.6934732816183
 20
-131.2409125105926
 10
102.6934732816183
 20
-131.2409125105926
 10
102.8922552911172
 20
-131.1861354923771
 10
102.9218831122904
 20
-131.0590114689714
 10
102.9218831122904
 20
-130.9659938908696
 10
102.9218831122904
 20
-130.826467523717
 10
102.8223198527667
 20
-130.674194303269
 10
102.5897759075123
 20
-130.674194303269
 10
102.3338053129582
 20
-130.674194303269
 10
102.2638698746076
 20
-130.854028287599
 10
102.2638698746076
 20
-130.9746066295828
 10
102.2638698746076
 20
-131.006301508047
 10
102.2638698746076
 20
-131.1478949324908
 10
102.3930609553045
 20
-131.2367783960103
 10
102.3930609553045
 20
-131.2367783960103
 10
102.3741129301356
 20
-131.412478265758
 10
102.3741129301356
 20
-131.412478265758
 10
102.3741129301356
 20
-131.412478265758
 10
101.5276529694098
 20
-131.2918999237743
 10
101.5276529694098
 20
-131.2918999237743
 10
101.5276529694098
 20
-131.2918999237743
 10
101.5276529694098
 20
-130.5133083441078
 10
101.5276529694098
 20
-130.5133083441078
 10
101.5276529694098
 20
-130.5133083441078
 10
101.7223008643264
 20
-130.5133083441078
 10
101.7223008643264
 20
-130.5133083441078
 10
101.7223008643264
 20
-130.5133083441078
 10
101.7223008643264
 20
-131.1289469073219
 10
101.7223008643264
 20
-131.1289469073219
 10
101.7223008643264
 20
-131.1289469073219
 10
102.145358589915
 20
-131.1944037215417
 10
102.145358589915
 20
-131.1944037215417
 10
102.1115966541596
 20
-131.1330810219042
 10
102.0712890369822
 20
-131.0507432398068
 10
102.0712890369822
 20
-130.9322319551142
 10
102.0712890369822
 20
-130.6783284178512
 10
102.2576687027342
 20
-130.4413058484661
 10
102.5708278823434
 20
-130.4413058484661
 10
102.8881211765349
 20
-130.4413058484661
 10
103.1227321790804
 20
-130.6655815645558
 10
103.1227321790804
 20
-130.9680609481608
 97
        0
 97
        0
 75
     2
 76
     1
 98
        0
  0
ENDBLK
  5
7F
330
7C
100
AcDbEntity
  8
0
100
AcDbBlockEnd
  0
BLOCK
  5
9C
330
9A
100
AcDbEntity
  8
0
100
AcDbBlockBegin
  2
block 5
 70
     0
 10
0.0
 20
0.0
 30
0.0
  3
block 5
  1

  0
SPLINE
  5
9E
330
9A
100
AcDbEntity
  8
_U+30EC_U+30A4_U+30E4_U+30FC 1
370
     0
100
AcDbSpline
210
0.0
220
0.0
230
1.0
 70
    11
 71
     3
 72
    26
 73
    22
 74
     0
 42
0.0000000001
 43
0.0000000001
 12
1.0
 22
0.0
 32
0.0
 13
1.0
 23
0.0
 33
0.0
 40
0.0
 40
0.0
 40
0.0
 40
0.0
 40
1.0
 40
1.0
 40
1.0
 40
2.0
 40
2.0
 40
2.0
 40
3.0
 40
3.0
 40
3.0
 40
4.0
 40
4.0
 40
4.0
 40
5.0
 40
5.0
 40
5.0
 40
6.0
 40
6.0
 40
6.0
 40
7.0
 40
7.0
 40
7.0
 40
7.0
 10
103.116531007207
 20
-123.335624155364
 30
0.0
 10
103.116531007207
 20
-123.335624155364
 30
0.0
 10
103.116531007207
 20
-123.5724744699749
 30
0.0
 10
103.116531007207
 20
-123.5724744699749
 30
0.0
 10
102.8075059421801
 20
-123.5471530181584
 30
0.0
 10
102.2893635811985
 20
-123.3545721805329
 30
0.0
 10
101.7836235639638
 20
-122.9483954228219
 30
0.0
 10
101.7836235639638
 20
-122.9483954228219
 30
0.0
 10
101.7836235639638
 20
-123.7862426448347
 30
0.0
 10
101.7836235639638
 20
-123.7862426448347
 30
0.0
 10
101.7836235639638
 20
-123.7862426448347
 30
0.0
 10
101.5720947011695
 20
-123.7862426448347
 30
0.0
 10
101.5720947011695
 20
-123.7862426448347
 30
0.0
 10
101.5720947011695
 20
-123.7862426448347
 30
0.0
 10
101.5720947011695
 20
-122.711545108211
 30
0.0
 10
101.5720947011695
 20
-122.711545108211
 30
0.0
 10
101.5720947011695
 20
-122.711545108211
 30
0.0
 10
101.7836235639638
 20
-122.711545108211
 30
0.0
 10
101.7836235639638
 20
-122.711545108211
 30
0.0
 10
102.0737006038219
 20
-123.0352118290502
 30
0.0
 10
102.6659125177363
 20
-123.3016899648343
 30
0.0
 10
103.116531007207
 20
-123.335624155364
 30
0.0
  0
HATCH
  5
9F
330
9A
100
AcDbEntity
  8
_U+30EC_U+30A4_U+30E4_U+30FC 1
 62
     7
420
 16777215
100
AcDbHatch
 10
0.0
 20
0.0
 30
0.0
210
0.0
220
0.0
230
1.0
  2
SOLID
 70
     1
 71
     0
 91
        1
 92
        1
 93
        1
 72
     4
 94
        3
 73
     0
 74
     1
 95
       26
 96
       22
 40
0.0
 40
0.0
 40
0.0
 40
0.0
 40
1.0
 40
1.0
 40
1.0
 40
2.0
 40
2.0
 40
2.0
 40
3.0
 40
3.0
 40
3.0
 40
4.0
 40
4.0
 40
4.0
 40
5.0
 40
5.0
 40
5.0
 40
6.0
 40
6.0
 40
6.0
 40
7.0
 40
7.0
 40
7.0
 40
7.0
 10
103.116531007207
 20
-123.335624155364
 10
103.116531007207
 20
-123.335624155364
 10
103.116531007207
 20
-123.5724744699749
 10
103.116531007207
 20
-123.5724744699749
 10
102.8075059421801
 20
-123.5471530181584
 10
102.2893635811985
 20
-123.3545721805329
 10
101.7836235639638
 20
-122.9483954228219
 10
101.7836235639638
 20
-122.9483954228219
 10
101.7836235639638
 20
-123.7862426448347
 10
101.7836235639638
 20
-123.7862426448347
 10
101.7836235639638
 20
-123.7862426448347
 10
101.5720947011695
 20
-123.7862426448347
 10
101.5720947011695
 20
-123.7862426448347
 10
101.5720947011695
 20
-123.7862426448347
 10
101.5720947011695
 20
-122.711545108211
 10
101.5720947011695
 20
-122.711545108211
 10
101.5720947011695
 20
-122.711545108211
 10
101.7836235639638
 20
-122.711545108211
 10
101.7836235639638
 20
-122.711545108211
 10
102.0737006038219
 20
-123.0352118290502
 10
102.6659125177363
 20
-123.3016899648343
 10
103.116531007207
 20
-123.335624155364
 97
        0
 97
        0
 75
     2
 76
     1
 98
        0
  0
ENDBLK
  5
9D
330
9A
100
AcDbEntity
  8
0
100
AcDbBlockEnd
  0
BLOCK
  5
AE
330
AC
100
AcDbEntity
  8
0
100
AcDbBlockBegin
  2
block 6
 70
     0
 10
0.0
 20
0.0
 30
0.0
  3
block 6
  1

  0
SPLINE
  5
B0
330
AC
100
AcDbEntity
  8
_U+30EC_U+30A4_U+30E4_U+30FC 1
370
     0
100
AcDbSpline
210
0.0
220
0.0
230
1.0
 70
    11
 71
     3
 72
    26
 73
    22
 74
     0
 42
0.0000000001
 43
0.0000000001
 12
1.0
 22
0.0
 32
0.0
 13
1.0
 23
0.0
 33
0.0
 40
0.0
 40
0.0
 40
0.0
 40
0.0
 40
1.0
 40
1.0
 40
1.0
 40
2.0
 40
2.0
 40
2.0
 40
3.0
 40
3.0
 40
3.0
 40
4.0
 40
4.0
 40
4.0
 40
5.0
 40
5.0
 40
5.0
 40
6.0
 40
6.0
 40
6.0
 40
7.0
 40
7.0
 40
7.0
 40
7.0
 10
79.11592879966547
 20
-129.7967284831758
 30
0.0
 10
79.11592879966547
 20
-129.7967284831758
 30
0.0
 10
78.01160344186863
 20
-129.7967284831758
 30
0.0
 10
78.01160344186863
 20
-129.7967284831758
 30
0.0
 10
78.01160344186863
 20
-129.7967284831758
 30
0.0
 10
78.01160344186863
 20
-130.1267686306628
 30
0.0
 10
78.01160344186863
 20
-130.1267686306628
 30
0.0
 10
78.01160344186863
 20
-130.1267686306628
 30
0.0
 10
77.86346433600289
 20
-130.1267686306628
 30
0.0
 10
77.86346433600289
 20
-130.1267686306628
 30
0.0
 10
77.84882268019058
 20
-129.7946614258847
 30
0.0
 10
77.68586966373826
 20
-129.7481526368338
 30
0.0
 10
77.57166474840223
 20
-129.7185248156607
 30
0.0
 10
77.57166474840223
 20
-129.7185248156607
 30
0.0
 10
77.57166474840223
 20
-129.572452767086
 30
0.0
 10
77.57166474840223
 20
-129.572452767086
 30
0.0
 10
77.57166474840223
 20
-129.572452767086
 30
0.0
 10
79.11592879966547
 20
-129.572452767086
 30
0.0
 10
79.11592879966547
 20
-129.572452767086
 30
0.0
 10
79.11592879966547
 20
-129.572452767086
 30
0.0
 10
79.11592879966547
 20
-129.7967284831758
 30
0.0
 10
79.11592879966547
 20
-129.7967284831758
 30
0.0
  0
HATCH
  5
B1
330
AC
100
AcDbEntity
  8
_U+30EC_U+30A4_U+30E4_U+30FC 1
 62
     7
420
 16777215
100
AcDbHatch
 10
0.0
 20
0.0
 30
0.0
210
0.0
220
0.0
230
1.0
  2
SOLID
 70
     1
 71
     0
 91
        1
 92
        1
 93
        1
 72
     4
 94
        3
 73
     0
 74
     1
 95
       26
 96
       22
 40
0.0
 40
0.0
 40
0.0
 40
0.0
 40
1.0
 40
1.0
 40
1.0
 40
2.0
 40
2.0
 40
2.0
 40
3.0
 40
3.0
 40
3.0
 40
4.0
 40
4.0
 40
4.0
 40
5.0
 40
5.0
 40
5.0
 40
6.0
 40
6.0
 40
6.0
 40
7.0
 40
7.0
 40
7.0
 40
7.0
 10
79.11592879966547
 20
-129.7967284831758
 10
79.11592879966547
 20
-129.7967284831758
 10
78.01160344186863
 20
-129.7967284831758
 10
78.01160344186863
 20
-129.7967284831758
 10
78.01160344186863
 20
-129.7967284831758
 10
78.01160344186863
 20
-130.1267686306628
 10
78.01160344186863
 20
-130.1267686306628
 10
78.01160344186863
 20
-130.1267686306628
 10
77.86346433600289
 20
-130.1267686306628
 10
77.86346433600289
 20
-130.1267686306628
 10
77.84882268019058
 20
-129.7946614258847
 10
77.68586966373826
 20
-129.7481526368338
 10
77.57166474840223
 20
-129.7185248156607
 10
77.57166474840223
 20
-129.7185248156607
 10
77.57166474840223
 20
-129.572452767086
 10
77.57166474840223
 20
-129.572452767086
 10
77.57166474840223
 20
-129.572452767086
 10
79.11592879966547
 20
-129.572452767086
 10
79.11592879966547
 20
-129.572452767086
 10
79.11592879966547
 20
-129.572452767086
 10
79.11592879966547
 20
-129.7967284831758
 10
79.11592879966547
 20
-129.7967284831758
 97
        0
 97
        0
 75
     2
 76
     1
 98
        0
  0
SPLINE
  5
B2
330
AC
100
AcDbEntity
  8
_U+30EC_U+30A4_U+30E4_U+30FC 1
370
     0
100
AcDbSpline
210
0.0
220
0.0
230
1.0
 70
    11
 71
     3
 72
    26
 73
    22
 74
     0
 42
0.0000000001
 43
0.0000000001
 12
1.0
 22
0.0
 32
0.0
 13
1.0
 23
0.0
 33
0.0
 40
0.0
 40
0.0
 40
0.0
 40
0.0
 40
1.0
 40
1.0
 40
1.0
 40
2.0
 40
2.0
 40
2.0
 40
3.0
 40
3.0
 40
3.0
 40
4.0
 40
4.0
 40
4.0
 40
5.0
 40
5.0
 40
5.0
 40
6.0
 40
6.0
 40
6.0
 40
7.0
 40
7.0
 40
7.0
 40
7.0
 10
79.11592879966547
 20
-128.6601914825919
 30
0.0
 10
79.11592879966547
 20
-128.6601914825919
 30
0.0
 10
79.11592879966547
 20
-128.8972140519771
 30
0.0
 10
79.11592879966547
 20
-128.8972140519771
 30
0.0
 10
78.80707598941282
 20
-128.8717203453863
 30
0.0
 10
78.28876137365698
 20
-128.6791395077608
 30
0.0
 10
77.78319361119657
 20
-128.2729627500498
 30
0.0
 10
77.78319361119657
 20
-128.2729627500498
 30
0.0
 10
77.78319361119657
 20
-129.1108099720626
 30
0.0
 10
77.78319361119657
 20
-129.1108099720626
 30
0.0
 10
77.78319361119657
 20
-129.1108099720626
 30
0.0
 10
77.57166474840223
 20
-129.1108099720626
 30
0.0
 10
77.57166474840223
 20
-129.1108099720626
 30
0.0
 10
77.57166474840223
 20
-129.1108099720626
 30
0.0
 10
77.57166474840223
 20
-128.0361124354389
 30
0.0
 10
77.57166474840223
 20
-128.0361124354389
 30
0.0
 10
77.57166474840223
 20
-128.0361124354389
 30
0.0
 10
77.78319361119657
 20
-128.0361124354389
 30
0.0
 10
77.78319361119657
 20
-128.0361124354389
 30
0.0
 10
78.07292614150607
 20
-128.3597791562781
 30
0.0
 10
78.66531031019478
 20
-128.6262572920622
 30
0.0
 10
79.11592879966547
 20
-128.6601914825919
 30
0.0
  0
HATCH
  5
B3
330
AC
100
AcDbEntity
  8
_U+30EC_U+30A4_U+30E4_U+30FC 1
 62
     7
420
 16777215
100
AcDbHatch
 10
0.0
 20
0.0
 30
0.0
210
0.0
220
0.0
230
1.0
  2
SOLID
 70
     1
 71
     0
 91
        1
 92
        1
 93
        1
 72
     4
 94
        3
 73
     0
 74
     1
 95
       26
 96
       22
 40
0.0
 40
0.0
 40
0.0
 40
0.0
 40
1.0
 40
1.0
 40
1.0
 40
2.0
 40
2.0
 40
2.0
 40
3.0
 40
3.0
 40
3.0
 40
4.0
 40
4.0
 40
4.0
 40
5.0
 40
5.0
 40
5.0
 40
6.0
 40
6.0
 40
6.0
 40
7.0
 40
7.0
 40
7.0
 40
7.0
 10
79.11592879966547
 20
-128.6601914825919
 10
79.11592879966547
 20
-128.6601914825919
 10
79.11592879966547
 20
-128.8972140519771
 10
79.11592879966547
 20
-128.8972140519771
 10
78.80707598941282
 20
-128.8717203453863
 10
78.28876137365698
 20
-128.6791395077608
 10
77.78319361119657
 20
-128.2729627500498
 10
77.78319361119657
 20
-128.2729627500498
 10
77.78319361119657
 20
-129.1108099720626
 10
77.78319361119657
 20
-129.1108099720626
 10
77.78319361119657
 20
-129.1108099720626
 10
77.57166474840223
 20
-129.1108099720626
 10
77.57166474840223
 20
-129.1108099720626
 10
77.57166474840223
 20
-129.1108099720626
 10
77.57166474840223
 20
-128.0361124354389
 10
77.57166474840223
 20
-128.0361124354389
 10
77.57166474840223
 20
-128.0361124354389
 10
77.78319361119657
 20
-128.0361124354389
 10
77.78319361119657
 20
-128.0361124354389
 10
78.07292614150607
 20
-128.3597791562781
 10
78.66531031019478
 20
-128.6262572920622
 10
79.11592879966547
 20
-128.6601914825919
 97
        0
 97
        0
 75
     2
 76
     1
 98
        0
  0
POLYLINE
  5
B4
330
AC
100
AcDbEntity
  8
_U+30EC_U+30A4_U+30E4_U+30FC 1
370
     0
100
AcDb2dPolyline
 66
     1
 10
0.0
 20
0.0
 30
0.0
  0
VERTEX
  5
B5
330
B4
100
AcDbEntity
  8
_U+30EC_U+30A4_U+30E4_U+30FC 1
370
     0
100
AcDbVertex
100
AcDb2dVertex
 10
79.11592879966547
 20
-127.8344020947775
 30
0.0
  0
VERTEX
  5
B6
330
B4
100
AcDbEntity
  8
_U+30EC_U+30A4_U+30E4_U+30FC 1
370
     0
100
AcDbVertex
100
AcDb2dVertex
 10
78.86426457446797
 20
-127.8344020947775
 30
0.0
  0
VERTEX
  5
B7
330
B4
100
AcDbEntity
  8
_U+30EC_U+30A4_U+30E4_U+30FC 1
370
     0
100
AcDbVertex
100
AcDb2dVertex
 10
78.86426457446797
 20
-127.58273786958
 30
0.0
  0
VERTEX
  5
B8
330
B4
100
AcDbEntity
  8
_U+30EC_U+30A4_U+30E4_U+30FC 1
370
     0
100
AcDbVertex
100
AcDb2dVertex
 10
79.11592879966547
 20
-127.58273786958
 30
0.0
  0
VERTEX
  5
B9
330
B4
100
AcDbEntity
  8
_U+30EC_U+30A4_U+30E4_U+30FC 1
370
     0
100
AcDbVertex
100
AcDb2dVertex
 10
79.11592879966547
 20
-127.8344020947775
 30
0.0
  0
SEQEND
  5
BA
330
B4
100
AcDbEntity
  8
_U+30EC_U+30A4_U+30E4_U+30FC 1
370
     0
  0
HATCH
  5
BB
330
AC
100
AcDbEntity
  8
_U+30EC_U+30A4_U+30E4_U+30FC 1
 62
     7
420
 16777215
100
AcDbHatch
 10
0.0
 20
0.0
 30
0.0
210
0.0
220
0.0
230
1.0
  2
SOLID
 70
     1
 71
     0
 91
        1
 92
        1
 93
        4
 72
     1
 10
79.11592879966547
 20
-127.8344020947775
 11
78.86426457446797
 21
-127.8344020947775
 72
     1
 10
78.86426457446797
 20
-127.8344020947775
 11
78.86426457446797
 21
-127.58273786958
 72
     1
 10
78.86426457446797
 20
-127.58273786958
 11
79.11592879966547
 21
-127.58273786958
 72
     1
 10
79.11592879966547
 20
-127.58273786958
 11
79.11592879966547
 21
-127.8344020947775
 97
        0
 75
     2
 76
     1
 98
        0
  0
SPLINE
  5
BC
330
AC
100
AcDbEntity
  8
_U+30EC_U+30A4_U+30E4_U+30FC 1
370
     0
100
AcDbSpline
210
0.0
220
0.0
230
1.0
 70
    11
 71
     3
 72
    53
 73
    49
 74
     0
 42
0.0000000001
 43
0.0000000001
 12
1.0
 22
0.0
 32
0.0
 13
1.0
 23
0.0
 33
0.0
 40
0.0
 40
0.0
 40
0.0
 40
0.0
 40
1.0
 40
1.0
 40
1.0
 40
2.0
 40
2.0
 40
2.0
 40
3.0
 40
3.0
 40
3.0
 40
4.0
 40
4.0
 40
4.0
 40
5.0
 40
5.0
 40
5.0
 40
6.0
 40
6.0
 40
6.0
 40
7.0
 40
7.0
 40
7.0
 40
8.0
 40
8.0
 40
8.0
 40
9.0
 40
9.0
 40
9.0
 40
10.0
 40
10.0
 40
10.0
 40
11.0
 40
11.0
 40
11.0
 40
12.0
 40
12.0
 40
12.0
 40
13.0
 40
13.0
 40
13.0
 40
14.0
 40
14.0
 40
14.0
 40
15.0
 40
15.0
 40
15.0
 40
16.0
 40
16.0
 40
16.0
 40
16.0
 10
79.1667439580729
 20
-126.8651244800025
 30
0.0
 10
79.1667439580729
 20
-126.9435004022919
 30
0.0
 10
79.14986299019517
 20
-127.0449584643325
 30
0.0
 10
79.08630097849232
 20
-127.1465887811474
 30
0.0
 10
78.97623017773859
 20
-127.3200493388297
 30
0.0
 10
78.84514429452483
 20
-127.341236676064
 30
0.0
 10
78.73731280583651
 20
-127.3601847012329
 30
0.0
 10
78.73731280583651
 20
-127.3601847012329
 30
0.0
 10
78.73731280583651
 20
-127.1381482972085
 30
0.0
 10
78.73731280583651
 20
-127.1381482972085
 30
0.0
 10
78.93609481533542
 20
-127.0830267694445
 30
0.0
 10
78.96572263650857
 20
-126.9560750008131
 30
0.0
 10
78.96572263650857
 20
-126.8630574227113
 30
0.0
 10
78.96572263650857
 20
-126.7233588007844
 30
0.0
 10
78.86633163175911
 20
-126.5710855803364
 30
0.0
 10
78.63361543173049
 20
-126.5710855803364
 30
0.0
 10
78.37764483717642
 20
-126.5710855803364
 30
0.0
 10
78.30788165360012
 20
-126.7509195646664
 30
0.0
 10
78.30788165360012
 20
-126.8714979066502
 30
0.0
 10
78.30788165360012
 20
-126.9031927851145
 30
0.0
 10
78.30788165360012
 20
-127.0449584643325
 30
0.0
 10
78.43690047952272
 20
-127.133841927852
 30
0.0
 10
78.43690047952272
 20
-127.133841927852
 30
0.0
 10
78.41778019957958
 20
-127.3093695428254
 30
0.0
 10
78.41778019957958
 20
-127.3093695428254
 30
0.0
 10
78.41778019957958
 20
-127.3093695428254
 30
0.0
 10
77.57166474840223
 20
-127.1887912008417
 30
0.0
 10
77.57166474840223
 20
-127.1887912008417
 30
0.0
 10
77.57166474840223
 20
-127.1887912008417
 30
0.0
 10
77.57166474840223
 20
-126.4103718759495
 30
0.0
 10
77.57166474840223
 20
-126.4103718759495
 30
0.0
 10
77.57166474840223
 20
-126.4103718759495
 30
0.0
 10
77.76631264331884
 20
-126.4103718759495
 30
0.0
 10
77.76631264331884
 20
-126.4103718759495
 30
0.0
 10
77.76631264331884
 20
-126.4103718759495
 30
0.0
 10
77.76631264331884
 20
-127.0260104391636
 30
0.0
 10
77.76631264331884
 20
-127.0260104391636
 30
0.0
 10
77.76631264331884
 20
-127.0260104391636
 30
0.0
 10
78.18937036890752
 20
-127.0914672533834
 30
0.0
 10
78.18937036890752
 20
-127.0914672533834
 30
0.0
 10
78.15543617837781
 20
-127.0301445537459
 30
0.0
 10
78.11530081597465
 20
-126.9476345168742
 30
0.0
 10
78.11530081597465
 20
-126.8292954869559
 30
0.0
 10
78.11530081597465
 20
-126.575391949693
 30
0.0
 10
78.30150822695241
 20
-126.3383693803078
 30
0.0
 10
78.61449515178735
 20
-126.3383693803078
 30
0.0
 10
78.93196070075312
 20
-126.3383693803078
 30
0.0
 10
79.1667439580729
 20
-126.5626450963975
 30
0.0
 10
79.1667439580729
 20
-126.8651244800025
 30
0.0
  0
HATCH
  5
BD
330
AC
100
AcDbEntity
  8
_U+30EC_U+30A4_U+30E4_U+30FC 1
 62
     7
420
 16777215
100
AcDbHatch
 10
0.0
 20
0.0
 30
0.0
210
0.0
220
0.0
230
1.0
  2
SOLID
 70
     1
 71
     0
 91
        1
 92
        1
 93
        1
 72
     4
 94
        3
 73
     0
 74
     1
 95
       53
 96
       49
 40
0.0
 40
0.0
 40
0.0
 40
0.0
 40
1.0
 40
1.0
 40
1.0
 40
2.0
 40
2.0
 40
2.0
 40
3.0
 40
3.0
 40
3.0
 40
4.0
 40
4.0
 40
4.0
 40
5.0
 40
5.0
 40
5.0
 40
6.0
 40
6.0
 40
6.0
 40
7.0
 40
7.0
 40
7.0
 40
8.0
 40
8.0
 40
8.0
 40
9.0
 40
9.0
 40
9.0
 40
10.0
 40
10.0
 40
10.0
 40
11.0
 40
11.0
 40
11.0
 40
12.0
 40
12.0
 40
12.0
 40
13.0
 40
13.0
 40
13.0
 40
14.0
 40
14.0
 40
14.0
 40
15.0
 40
15.0
 40
15.0
 40
16.0
 40
16.0
 40
16.0
 40
16.0
 10
79.1667439580729
 20
-126.8651244800025
 10
79.1667439580729
 20
-126.9435004022919
 10
79.14986299019517
 20
-127.0449584643325
 10
79.08630097849232
 20
-127.1465887811474
 10
78.97623017773859
 20
-127.3200493388297
 10
78.84514429452483
 20
-127.341236676064
 10
78.73731280583651
 20
-127.3601847012329
 10
78.73731280583651
 20
-127.3601847012329
 10
78.73731280583651
 20
-127.1381482972085
 10
78.73731280583651
 20
-127.1381482972085
 10
78.93609481533542
 20
-127.0830267694445
 10
78.96572263650857
 20
-126.9560750008131
 10
78.96572263650857
 20
-126.8630574227113
 10
78.96572263650857
 20
-126.7233588007844
 10
78.86633163175911
 20
-126.5710855803364
 10
78.63361543173049
 20
-126.5710855803364
 10
78.37764483717642
 20
-126.5710855803364
 10
78.30788165360012
 20
-126.7509195646664
 10
78.30788165360012
 20
-126.8714979066502
 10
78.30788165360012
 20
-126.9031927851145
 10
78.30788165360012
 20
-127.0449584643325
 10
78.43690047952272
 20
-127.133841927852
 10
78.43690047952272
 20
-127.133841927852
 10
78.41778019957958
 20
-127.3093695428254
 10
78.41778019957958
 20
-127.3093695428254
 10
78.41778019957958
 20
-127.3093695428254
 10
77.57166474840223
 20
-127.1887912008417
 10
77.57166474840223
 20
-127.1887912008417
 10
77.57166474840223
 20
-127.1887912008417
 10
77.57166474840223
 20
-126.4103718759495
 10
77.57166474840223
 20
-126.4103718759495
 10
77.57166474840223
 20
-126.4103718759495
 10
77.76631264331884
 20
-126.4103718759495
 10
77.76631264331884
 20
-126.4103718759495
 10
77.76631264331884
 20
-126.4103718759495
 10
77.76631264331884
 20
-127.0260104391636
 10
77.76631264331884
 20
-127.0260104391636
 10
77.76631264331884
 20
-127.0260104391636
 10
78.18937036890752
 20
-127.0914672533834
 10
78.18937036890752
 20
-127.0914672533834
 10
78.15543617837781
 20
-127.0301445537459
 10
78.11530081597465
 20
-126.9476345168742
 10
78.11530081597465
 20
-126.8292954869559
 10
78.11530081597465
 20
-126.575391949693
 10
78.30150822695241
 20
-126.3383693803078
 10
78.61449515178735
 20
-126.3383693803078
 10
78.93196070075312
 20
-126.3383693803078
 10
79.1667439580729
 20
-126.5626450963975
 10
79.1667439580729
 20
-126.8651244800025
 97
        0
 97
        0
 75
     2
 76
     1
 98
        0
  0
ENDBLK
  5
AF
330
AC
100
AcDbEntity
  8
0
100
AcDbBlockEnd
  0
BLOCK
  5
CC
330
CA
100
AcDbEntity
  8
0
100
AcDbBlockBegin
  2
block 7
 70
     0
 10
0.0
 20
0.0
 30
0.0
  3
block 7
  1

  0
SPLINE
  5
CE
330
CA
100
AcDbEntity
  8
_U+30EC_U+30A4_U+30E4_U+30FC 1
370
     0
100
AcDbSpline
210
0.0
220
0.0
230
1.0
 70
    11
 71
     3
 72
    26
 73
    22
 74
     0
 42
0.0000000001
 43
0.0000000001
 12
1.0
 22
0.0
 32
0.0
 13
1.0
 23
0.0
 33
0.0
 40
0.0
 40
0.0
 40
0.0
 40
0.0
 40
1.0
 40
1.0
 40
1.0
 40
2.0
 40
2.0
 40
2.0
 40
3.0
 40
3.0
 40
3.0
 40
4.0
 40
4.0
 40
4.0
 40
5.0
 40
5.0
 40
5.0
 40
6.0
 40
6.0
 40
6.0
 40
7.0
 40
7.0
 40
7.0
 40
7.0
 10
89.49927433743422
 20
-140.3669704510194
 30
0.0
 10
89.49927433743422
 20
-140.3669704510194
 30
0.0
 10
89.49927433743422
 20
-139.2628173479968
 30
0.0
 10
89.49927433743422
 20
-139.2628173479968
 30
0.0
 10
89.49927433743422
 20
-139.2628173479968
 30
0.0
 10
89.16923418994728
 20
-139.2628173479968
 30
0.0
 10
89.16923418994728
 20
-139.2628173479968
 30
0.0
 10
89.16923418994728
 20
-139.2628173479968
 30
0.0
 10
89.16923418994728
 20
-139.114678242131
 30
0.0
 10
89.16923418994728
 20
-139.114678242131
 30
0.0
 10
89.50134139472536
 20
-139.0998643315445
 30
0.0
 10
89.54785018377623
 20
-138.9369113150922
 30
0.0
 10
89.57747800494938
 20
-138.8225341449819
 30
0.0
 10
89.57747800494938
 20
-138.8225341449819
 30
0.0
 10
89.72355005352398
 20
-138.8225341449819
 30
0.0
 10
89.72355005352398
 20
-138.8225341449819
 30
0.0
 10
89.72355005352398
 20
-138.8225341449819
 30
0.0
 10
89.72355005352398
 20
-140.3669704510194
 30
0.0
 10
89.72355005352398
 20
-140.3669704510194
 30
0.0
 10
89.72355005352398
 20
-140.3669704510194
 30
0.0
 10
89.49927433743422
 20
-140.3669704510194
 30
0.0
 10
89.49927433743422
 20
-140.3669704510194
 30
0.0
  0
HATCH
  5
CF
330
CA
100
AcDbEntity
  8
_U+30EC_U+30A4_U+30E4_U+30FC 1
 62
     7
420
 16777215
100
AcDbHatch
 10
0.0
 20
0.0
 30
0.0
210
0.0
220
0.0
230
1.0
  2
SOLID
 70
     1
 71
     0
 91
        1
 92
        1
 93
        1
 72
     4
 94
        3
 73
     0
 74
     1
 95
       26
 96
       22
 40
0.0
 40
0.0
 40
0.0
 40
0.0
 40
1.0
 40
1.0
 40
1.0
 40
2.0
 40
2.0
 40
2.0
 40
3.0
 40
3.0
 40
3.0
 40
4.0
 40
4.0
 40
4.0
 40
5.0
 40
5.0
 40
5.0
 40
6.0
 40
6.0
 40
6.0
 40
7.0
 40
7.0
 40
7.0
 40
7.0
 10
89.49927433743422
 20
-140.3669704510194
 10
89.49927433743422
 20
-140.3669704510194
 10
89.49927433743422
 20
-139.2628173479968
 10
89.49927433743422
 20
-139.2628173479968
 10
89.49927433743422
 20
-139.2628173479968
 10
89.16923418994728
 20
-139.2628173479968
 10
89.16923418994728
 20
-139.2628173479968
 10
89.16923418994728
 20
-139.2628173479968
 10
89.16923418994728
 20
-139.114678242131
 10
89.16923418994728
 20
-139.114678242131
 10
89.50134139472536
 20
-139.0998643315445
 10
89.54785018377623
 20
-138.9369113150922
 10
89.57747800494938
 20
-138.8225341449819
 10
89.57747800494938
 20
-138.8225341449819
 10
89.72355005352398
 20
-138.8225341449819
 10
89.72355005352398
 20
-138.8225341449819
 10
89.72355005352398
 20
-138.8225341449819
 10
89.72355005352398
 20
-140.3669704510194
 10
89.72355005352398
 20
-140.3669704510194
 10
89.72355005352398
 20
-140.3669704510194
 10
89.49927433743422
 20
-140.3669704510194
 10
89.49927433743422
 20
-140.3669704510194
 97
        0
 97
        0
 75
     2
 76
     1
 98
        0
  0
SPLINE
  5
D0
330
CA
100
AcDbEntity
  8
_U+30EC_U+30A4_U+30E4_U+30FC 1
370
     0
100
AcDbSpline
210
0.0
220
0.0
230
1.0
 70
    11
 71
     3
 72
    62
 73
    58
 74
     0
 42
0.0000000001
 43
0.0000000001
 12
1.0
 22
0.0
 32
0.0
 13
1.0
 23
0.0
 33
0.0
 40
0.0
 40
0.0
 40
0.0
 40
0.0
 40
1.0
 40
1.0
 40
1.0
 40
2.0
 40
2.0
 40
2.0
 40
3.0
 40
3.0
 40
3.0
 40
4.0
 40
4.0
 40
4.0
 40
5.0
 40
5.0
 40
5.0
 40
6.0
 40
6.0
 40
6.0
 40
7.0
 40
7.0
 40
7.0
 40
8.0
 40
8.0
 40
8.0
 40
9.0
 40
9.0
 40
9.0
 40
10.0
 40
10.0
 40
10.0
 40
11.0
 40
11.0
 40
11.0
 40
12.0
 40
12.0
 40
12.0
 40
13.0
 40
13.0
 40
13.0
 40
14.0
 40
14.0
 40
14.0
 40
15.0
 40
15.0
 40
15.0
 40
16.0
 40
16.0
 40
16.0
 40
17.0
 40
17.0
 40
17.0
 40
18.0
 40
18.0
 40
18.0
 40
19.0
 40
19.0
 40
19.0
 40
19.0
 10
90.71642657237298
 20
-140.4176133546526
 30
0.0
 10
90.62099742743156
 20
-140.4176133546526
 30
0.0
 10
90.40326739276377
 20
-140.3965982721925
 30
0.0
 10
90.2782104266492
 20
-140.210563115989
 30
0.0
 10
90.20448538326485
 20
-140.0982530031699
 30
0.0
 10
90.20000675913403
 20
-139.9990342531947
 30
0.0
 10
90.19587264455173
 20
-139.9142849042576
 30
0.0
 10
90.19587264455173
 20
-139.9142849042576
 30
0.0
 10
90.41601424605919
 20
-139.9142849042576
 30
0.0
 10
90.41601424605919
 20
-139.9142849042576
 30
0.0
 10
90.41808130335035
 20
-139.9883544571904
 30
0.0
 10
90.42841658980609
 20
-140.2229654597359
 30
0.0
 10
90.71194794824216
 20
-140.2229654597359
 30
0.0
 10
90.84940725810362
 20
-140.2229654597359
 30
0.0
 10
91.00202498810019
 20
-140.1533745309339
 30
0.0
 10
91.00202498810019
 20
-139.9249647002618
 30
0.0
 10
91.00202498810019
 20
-139.8085204728604
 30
0.0
 10
90.96378442821391
 20
-139.7599446265183
 30
0.0
 10
90.93208954974962
 20
-139.7282497480541
 30
0.0
 10
90.85801999681675
 20
-139.6541801951212
 30
0.0
 10
90.7415757694153
 20
-139.6414333418257
 30
0.0
 10
90.68679875119983
 20
-139.6414333418257
 30
0.0
 10
90.66750621648244
 20
-139.6414333418257
 30
0.0
 10
90.63167722343583
 20
-139.6435003991169
 30
0.0
 10
90.60411645955384
 20
-139.6476345136992
 30
0.0
 10
90.60411645955384
 20
-139.6476345136992
 30
0.0
 10
90.60411645955384
 20
-139.4529866187826
 30
0.0
 10
90.60411645955384
 20
-139.4529866187826
 30
0.0
 10
90.64235701944011
 20
-139.4595323002046
 30
0.0
 10
90.68438718436016
 20
-139.4615993574957
 30
0.0
 10
90.69093286578213
 20
-139.4615993574957
 30
0.0
 10
90.75638968000187
 20
-139.4615993574957
 30
0.0
 10
90.9551716895008
 20
-139.4402397654872
 30
0.0
 10
90.9551716895008
 20
-139.2035617056505
 30
0.0
 10
90.9551716895008
 20
-139.0257947786116
 30
0.0
 10
90.8242580610613
 20
-138.9706732508476
 30
0.0
 10
90.71401500553331
 20
-138.9706732508476
 30
0.0
 10
90.44977618181464
 20
-138.9706732508476
 30
0.0
 10
90.44116344310152
 20
-139.2035617056505
 30
0.0
 10
90.43702932851922
 20
-139.2752196917437
 30
0.0
 10
90.43702932851922
 20
-139.2752196917437
 30
0.0
 10
90.23376869488948
 20
-139.2752196917437
 30
0.0
 10
90.23376869488948
 20
-139.2752196917437
 30
0.0
 10
90.2423814336026
 20
-139.1505072351777
 30
0.0
 10
90.2699421974846
 20
-138.7739582986399
 30
0.0
 10
90.72676185882872
 20
-138.7739582986399
 30
0.0
 10
90.9510375749185
 20
-138.7739582986399
 30
0.0
 10
91.19219425888598
 20
-138.9010823220456
 30
0.0
 10
91.19219425888598
 20
-139.1970160242285
 30
0.0
 10
91.19219425888598
 20
-139.3833956899805
 30
0.0
 10
91.09710962349308
 20
-139.465733472078
 30
0.0
 10
90.99754636396936
 20
-139.5270561717155
 30
0.0
 10
91.05886906360682
 20
-139.5546169355975
 30
0.0
 10
91.24077010522801
 20
-139.6348876604038
 30
0.0
 10
91.24077010522801
 20
-139.9122178469664
 30
0.0
 10
91.24077010522801
 20
-140.2505262236179
 30
0.0
 10
90.99341224938706
 20
-140.4176133546526
 30
0.0
 10
90.71642657237298
 20
-140.4176133546526
 30
0.0
  0
HATCH
  5
D1
330
CA
100
AcDbEntity
  8
_U+30EC_U+30A4_U+30E4_U+30FC 1
 62
     7
420
 16777215
100
AcDbHatch
 10
0.0
 20
0.0
 30
0.0
210
0.0
220
0.0
230
1.0
  2
SOLID
 70
     1
 71
     0
 91
        1
 92
        1
 93
        1
 72
     4
 94
        3
 73
     0
 74
     1
 95
       62
 96
       58
 40
0.0
 40
0.0
 40
0.0
 40
0.0
 40
1.0
 40
1.0
 40
1.0
 40
2.0
 40
2.0
 40
2.0
 40
3.0
 40
3.0
 40
3.0
 40
4.0
 40
4.0
 40
4.0
 40
5.0
 40
5.0
 40
5.0
 40
6.0
 40
6.0
 40
6.0
 40
7.0
 40
7.0
 40
7.0
 40
8.0
 40
8.0
 40
8.0
 40
9.0
 40
9.0
 40
9.0
 40
10.0
 40
10.0
 40
10.0
 40
11.0
 40
11.0
 40
11.0
 40
12.0
 40
12.0
 40
12.0
 40
13.0
 40
13.0
 40
13.0
 40
14.0
 40
14.0
 40
14.0
 40
15.0
 40
15.0
 40
15.0
 40
16.0
 40
16.0
 40
16.0
 40
17.0
 40
17.0
 40
17.0
 40
18.0
 40
18.0
 40
18.0
 40
19.0
 40
19.0
 40
19.0
 40
19.0
 10
90.71642657237298
 20
-140.4176133546526
 10
90.62099742743156
 20
-140.4176133546526
 10
90.40326739276377
 20
-140.3965982721925
 10
90.2782104266492
 20
-140.210563115989
 10
90.20448538326485
 20
-140.0982530031699
 10
90.20000675913403
 20
-139.9990342531947
 10
90.19587264455173
 20
-139.9142849042576
 10
90.19587264455173
 20
-139.9142849042576
 10
90.41601424605919
 20
-139.9142849042576
 10
90.41601424605919
 20
-139.9142849042576
 10
90.41808130335035
 20
-139.9883544571904
 10
90.42841658980609
 20
-140.2229654597359
 10
90.71194794824216
 20
-140.2229654597359
 10
90.84940725810362
 20
-140.2229654597359
 10
91.00202498810019
 20
-140.1533745309339
 10
91.00202498810019
 20
-139.9249647002618
 10
91.00202498810019
 20
-139.8085204728604
 10
90.96378442821391
 20
-139.7599446265183
 10
90.93208954974962
 20
-139.7282497480541
 10
90.85801999681675
 20
-139.6541801951212
 10
90.7415757694153
 20
-139.6414333418257
 10
90.68679875119983
 20
-139.6414333418257
 10
90.66750621648244
 20
-139.6414333418257
 10
90.63167722343583
 20
-139.6435003991169
 10
90.60411645955384
 20
-139.6476345136992
 10
90.60411645955384
 20
-139.6476345136992
 10
90.60411645955384
 20
-139.4529866187826
 10
90.60411645955384
 20
-139.4529866187826
 10
90.64235701944011
 20
-139.4595323002046
 10
90.68438718436016
 20
-139.4615993574957
 10
90.69093286578213
 20
-139.4615993574957
 10
90.75638968000187
 20
-139.4615993574957
 10
90.9551716895008
 20
-139.4402397654872
 10
90.9551716895008
 20
-139.2035617056505
 10
90.9551716895008
 20
-139.0257947786116
 10
90.8242580610613
 20
-138.9706732508476
 10
90.71401500553331
 20
-138.9706732508476
 10
90.44977618181464
 20
-138.9706732508476
 10
90.44116344310152
 20
-139.2035617056505
 10
90.43702932851922
 20
-139.2752196917437
 10
90.43702932851922
 20
-139.2752196917437
 10
90.23376869488948
 20
-139.2752196917437
 10
90.23376869488948
 20
-139.2752196917437
 10
90.2423814336026
 20
-139.1505072351777
 10
90.2699421974846
 20
-138.7739582986399
 10
90.72676185882872
 20
-138.7739582986399
 10
90.9510375749185
 20
-138.7739582986399
 10
91.19219425888598
 20
-138.9010823220456
 10
91.19219425888598
 20
-139.1970160242285
 10
91.19219425888598
 20
-139.3833956899805
 10
91.09710962349308
 20
-139.465733472078
 10
90.99754636396936
 20
-139.5270561717155
 10
91.05886906360682
 20
-139.5546169355975
 10
91.24077010522801
 20
-139.6348876604038
 10
91.24077010522801
 20
-139.9122178469664
 10
91.24077010522801
 20
-140.2505262236179
 10
90.99341224938706
 20
-140.4176133546526
 10
90.71642657237298
 20
-140.4176133546526
 97
        0
 97
        0
 75
     2
 76
     1
 98
        0
  0
ENDBLK
  5
CD
330
CA
100
AcDbEntity
  8
0
100
AcDbBlockEnd
  0
ENDSEC
  0
SECTION
  2
ENTITIES
  0
SPLINE
  5
41
330
1F
100
AcDbEntity
  8
_U+30EC_U+30A4_U+30E4_U+30FC 1
 62
     7
420
 16777215
370
    25
100
AcDbSpline
210
0.0
220
0.0
230
1.0
 70
    11
 71
     3
 72
    62
 73
    58
 74
     0
 42
0.0000000001
 43
0.0000000001
 12
1.0
 22
0.0
 32
0.0
 13
1.0
 23
0.0
 33
0.0
 40
0.0
 40
0.0
 40
0.0
 40
0.0
 40
1.0
 40
1.0
 40
1.0
 40
2.0
 40
2.0
 40
2.0
 40
3.0
 40
3.0
 40
3.0
 40
4.0
 40
4.0
 40
4.0
 40
5.0
 40
5.0
 40
5.0
 40
6.0
 40
6.0
 40
6.0
 40
7.0
 40
7.0
 40
7.0
 40
8.0
 40
8.0
 40
8.0
 40
9.0
 40
9.0
 40
9.0
 40
10.0
 40
10.0
 40
10.0
 40
11.0
 40
11.0
 40
11.0
 40
12.0
 40
12.0
 40
12.0
 40
13.0
 40
13.0
 40
13.0
 40
14.0
 40
14.0
 40
14.0
 40
15.0
 40
15.0
 40
15.0
 40
16.0
 40
16.0
 40
16.0
 40
17.0
 40
17.0
 40
17.0
 40
18.0
 40
18.0
 40
18.0
 40
19.0
 40
19.0
 40
19.0
 40
19.0
 10
95.91283171972647
 20
-136.1632616326257
 30
0.0
 10
96.35450948623611
 20
-136.1632616326257
 30
0.0
 10
96.71279058820672
 20
-136.5215427436475
 30
0.0
 10
96.71279058820672
 20
-136.963220521315
 30
0.0
 10
96.71279058820672
 20
-136.963220521315
 30
0.0
 10
91.91307497702148
 20
-136.9618446879821
 30
0.0
 10
91.91307497702148
 20
-136.9618446879821
 30
0.0
 10
91.91307497702148
 20
-136.9618446879821
 30
0.0
 10
91.71325932686649
 20
-136.7613257991433
 30
0.0
 10
91.71325932686649
 20
-136.7613257991433
 30
0.0
 10
91.71325932686649
 20
-136.7613257991433
 30
0.0
 10
91.51344599863081
 20
-136.9618446879821
 30
0.0
 10
91.51344599863081
 20
-136.9618446879821
 30
0.0
 10
91.51344599863081
 20
-136.9618446879821
 30
0.0
 10
84.91558450028963
 20
-136.9625149657595
 30
0.0
 10
84.91558450028963
 20
-136.9625149657595
 30
0.0
 10
84.91558450028963
 20
-136.9625149657595
 30
0.0
 10
84.7150656165164
 20
-136.7627016324762
 30
0.0
 10
84.7150656165164
 20
-136.7627016324762
 30
0.0
 10
84.7150656165164
 20
-136.7627016324762
 30
0.0
 10
84.51525228828072
 20
-136.9625149657595
 30
0.0
 10
84.51525228828072
 20
-136.9625149657595
 30
0.0
 10
84.51525228828072
 20
-136.9625149657595
 30
0.0
 10
84.51041923284848
 20
-136.9625149657595
 30
0.0
 10
84.51041923284848
 20
-136.9625149657595
 30
0.0
 10
84.05325452228949
 20
-136.8708985768933
 30
0.0
 10
83.70908453107
 20
-136.4671091325499
 30
0.0
 10
83.70908453107
 20
-135.9827452437823
 30
0.0
 10
83.70908453107
 20
-135.9827452437823
 30
0.0
 10
83.70908453107
 20
-119.4615974701346
 30
0.0
 10
83.70908453107
 20
-119.4615974701346
 30
0.0
 10
84.26171090586021
 20
-119.4615974701346
 30
0.0
 10
84.61067867473508
 20
-119.8457371922607
 30
0.0
 10
84.70406108993502
 20
-120.3600871921323
 30
0.0
 10
84.70406108993502
 20
-120.3600871921323
 30
0.0
 10
84.70406108993502
 20
-126.4630721906065
 30
0.0
 10
84.70406108993502
 20
-126.4630721906065
 30
0.0
 10
84.70406108993502
 20
-126.4630721906065
 30
0.0
 10
90.76294657333321
 20
-126.4598266350516
 30
0.0
 10
90.76294657333321
 20
-126.4598266350516
 30
0.0
 10
91.314832114809
 20
-126.4598266350516
 30
0.0
 10
91.71258904910582
 20
-126.910958857161
 30
0.0
 10
91.71258904910582
 20
-127.4635499681342
 30
0.0
 10
91.71258904910582
 20
-127.4635499681342
 30
0.0
 10
84.71266672768871
 20
-127.4635499681342
 30
0.0
 10
84.71266672768871
 20
-127.4635499681342
 30
0.0
 10
84.71266672768871
 20
-127.4635499681342
 30
0.0
 10
84.71266672768871
 20
-135.9634482993424
 30
0.0
 10
84.71266672768871
 20
-135.9634482993424
 30
0.0
 10
84.71266672768871
 20
-135.9634482993424
 30
0.0
 10
91.71258904910582
 20
-135.9634482993424
 30
0.0
 10
91.71258904910582
 20
-135.9634482993424
 30
0.0
 10
91.71258904910582
 20
-135.9634482993424
 30
0.0
 10
92.05915792915299
 20
-136.1632616326257
 30
0.0
 10
92.05915792915299
 20
-136.1632616326257
 30
0.0
 10
92.05915792915299
 20
-136.1632616326257
 30
0.0
 10
95.91283171972647
 20
-136.1632616326257
 30
0.0
 10
95.91283171972647
 20
-136.1632616326257
 30
0.0
  0
HATCH
  5
42
330
1F
100
AcDbEntity
  8
_U+30EC_U+30A4_U+30E4_U+30FC 1
 62
   253
420
 11711154
100
AcDbHatch
 10
0.0
 20
0.0
 30
0.0
210
0.0
220
0.0
230
1.0
  2
SOLID
 70
     1
 71
     0
 91
        1
 92
        1
 93
        2
 72
     4
 94
        3
 73
     0
 74
     0
 95
       62
 96
       58
 40
0.0
 40
0.0
 40
0.0
 40
0.0
 40
0.3527777776895833
 40
0.3527777776895833
 40
0.3527777776895833
 40
0.7055555553791667
 40
0.7055555553791667
 40
0.7055555553791667
 40
1.05833333306875
 40
1.05833333306875
 40
1.05833333306875
 40
1.411111110758333
 40
1.411111110758333
 40
1.411111110758333
 40
1.763888888447917
 40
1.763888888447917
 40
1.763888888447917
 40
2.1166666661375
 40
2.1166666661375
 40
2.1166666661375
 40
2.469444443827083
 40
2.469444443827083
 40
2.469444443827083
 40
2.822222221516667
 40
2.822222221516667
 40
2.822222221516667
 40
3.17499999920625
 40
3.17499999920625
 40
3.17499999920625
 40
3.527777776895833
 40
3.527777776895833
 40
3.527777776895833
 40
3.880555554585417
 40
3.880555554585417
 40
3.880555554585417
 40
4.233333332275
 40
4.233333332275
 40
4.233333332275
 40
4.586111109964584
 40
4.586111109964584
 40
4.586111109964584
 40
4.938888887654167
 40
4.938888887654167
 40
4.938888887654167
 40
5.29166666534375
 40
5.29166666534375
 40
5.29166666534375
 40
5.644444443033334
 40
5.644444443033334
 40
5.644444443033334
 40
5.997222220722917
 40
5.997222220722917
 40
5.997222220722917
 40
6.349999998412501
 40
6.349999998412501
 40
6.349999998412501
 40
6.702777776102083
 40
6.702777776102083
 40
6.702777776102083
 40
6.702777776102083
 10
95.91283171972647
 20
-136.1632616326257
 10
96.35450948623611
 20
-136.1632616326257
 10
96.71279058820672
 20
-136.5215427436475
 10
96.71279058820672
 20
-136.963220521315
 10
96.71279058820672
 20
-136.963220521315
 10
91.91307497702148
 20
-136.9618446879821
 10
91.91307497702148
 20
-136.9618446879821
 10
91.91307497702148
 20
-136.9618446879821
 10
91.71325932686649
 20
-136.7613257991433
 10
91.71325932686649
 20
-136.7613257991433
 10
91.71325932686649
 20
-136.7613257991433
 10
91.51344599863081
 20
-136.9618446879821
 10
91.51344599863081
 20
-136.9618446879821
 10
91.51344599863081
 20
-136.9618446879821
 10
84.91558450028963
 20
-136.9625149657595
 10
84.91558450028963
 20
-136.9625149657595
 10
84.91558450028963
 20
-136.9625149657595
 10
84.7150656165164
 20
-136.7627016324762
 10
84.7150656165164
 20
-136.7627016324762
 10
84.7150656165164
 20
-136.7627016324762
 10
84.51525228828072
 20
-136.9625149657595
 10
84.51525228828072
 20
-136.9625149657595
 10
84.51525228828072
 20
-136.9625149657595
 10
84.51041923284848
 20
-136.9625149657595
 10
84.51041923284848
 20
-136.9625149657595
 10
84.05325452228949
 20
-136.8708985768933
 10
83.70908453107
 20
-136.4671091325499
 10
83.70908453107
 20
-135.9827452437823
 10
83.70908453107
 20
-135.9827452437823
 10
83.70908453107
 20
-119.4615974701346
 10
83.70908453107
 20
-119.4615974701346
 10
84.26171090586021
 20
-119.4615974701346
 10
84.61067867473508
 20
-119.8457371922607
 10
84.70406108993502
 20
-120.3600871921323
 10
84.70406108993502
 20
-120.3600871921323
 10
84.70406108993502
 20
-126.4630721906065
 10
84.70406108993502
 20
-126.4630721906065
 10
84.70406108993502
 20
-126.4630721906065
 10
90.76294657333321
 20
-126.4598266350516
 10
90.76294657333321
 20
-126.4598266350516
 10
91.314832114809
 20
-126.4598266350516
 10
91.71258904910582
 20
-126.910958857161
 10
91.71258904910582
 20
-127.4635499681342
 10
91.71258904910582
 20
-127.4635499681342
 10
84.71266672768871
 20
-127.4635499681342
 10
84.71266672768871
 20
-127.4635499681342
 10
84.71266672768871
 20
-127.4635499681342
 10
84.71266672768871
 20
-135.9634482993424
 10
84.71266672768871
 20
-135.9634482993424
 10
84.71266672768871
 20
-135.9634482993424
 10
91.71258904910582
 20
-135.9634482993424
 10
91.71258904910582
 20
-135.9634482993424
 10
91.71258904910582
 20
-135.9634482993424
 10
92.05915792915299
 20
-136.1632616326257
 10
92.05915792915299
 20
-136.1632616326257
 10
92.05915792915299
 20
-136.1632616326257
 10
95.91283171972647
 20
-136.1632616326257
 10
95.91283171972647
 20
-136.1632616326257
 97
        0
 72
     1
 10
95.91283171972647
 20
-136.1632616326257
 11
95.91283171972647
 21
-136.1632616326257
 97
        0
 75
     2
 76
     1
 98
        0
  0
SPLINE
  5
43
330
1F
100
AcDbEntity
  8
_U+30EC_U+30A4_U+30E4_U+30FC 1
 62
     7
420
 16777215
370
     9
100
AcDbSpline
210
0.0
220
0.0
230
1.0
 70
    11
 71
     3
 72
    17
 73
    13
 74
     0
 42
0.0000000001
 43
0.0000000001
 12
1.0
 22
0.0
 32
0.0
 13
1.0
 23
0.0
 33
0.0
 40
0.0
 40
0.0
 40
0.0
 40
0.0
 40
1.0
 40
1.0
 40
1.0
 40
2.0
 40
2.0
 40
2.0
 40
3.0
 40
3.0
 40
3.0
 40
4.0
 40
4.0
 40
4.0
 40
4.0
 10
91.81316599098433
 20
-117.2856994151229
 30
0.0
 10
91.81316599098433
 20
-117.2305602484701
 30
0.0
 10
91.76839849212644
 20
-117.1857927484813
 30
0.0
 10
91.71325932686649
 20
-117.1857927484813
 30
0.0
 10
91.65744988384586
 20
-117.1857927484813
 30
0.0
 10
91.61268238498798
 20
-117.2305602484701
 30
0.0
 10
91.61268238498798
 20
-117.2856994151229
 30
0.0
 10
91.61268238498798
 20
-117.3408033039981
 30
0.0
 10
91.65744988384586
 20
-117.3856060817649
 30
0.0
 10
91.71325932686649
 20
-117.3856060817649
 30
0.0
 10
91.76839849212644
 20
-117.3856060817649
 30
0.0
 10
91.81316599098433
 20
-117.3408033039981
 30
0.0
 10
91.81316599098433
 20
-117.2856994151229
 30
0.0
  0
SPLINE
  5
44
330
1F
100
AcDbEntity
  8
_U+30EC_U+30A4_U+30E4_U+30FC 1
 62
     7
420
 16777215
370
     9
100
AcDbSpline
210
0.0
220
0.0
230
1.0
 70
    11
 71
     3
 72
    17
 73
    13
 74
     0
 42
0.0000000001
 43
0.0000000001
 12
1.0
 22
0.0
 32
0.0
 13
1.0
 23
0.0
 33
0.0
 40
0.0
 40
0.0
 40
0.0
 40
0.0
 40
1.0
 40
1.0
 40
1.0
 40
2.0
 40
2.0
 40
2.0
 40
3.0
 40
3.0
 40
3.0
 40
4.0
 40
4.0
 40
4.0
 40
4.0
 10
84.81186783626899
 20
-117.2856994151229
 30
0.0
 10
84.81186783626899
 20
-117.2305602484701
 30
0.0
 10
84.76710033741111
 20
-117.1857927484813
 30
0.0
 10
84.71196117215115
 20
-117.1857927484813
 30
0.0
 10
84.65685728466808
 20
-117.1857927484813
 30
0.0
 10
84.61205450803332
 20
-117.2305602484701
 30
0.0
 10
84.61205450803332
 20
-117.2856994151229
 30
0.0
 10
84.61205450803332
 20
-117.3408033039981
 30
0.0
 10
84.65685728466808
 20
-117.3856060817649
 30
0.0
 10
84.71196117215115
 20
-117.3856060817649
 30
0.0
 10
84.76710033741111
 20
-117.3856060817649
 30
0.0
 10
84.81186783626899
 20
-117.3408033039981
 30
0.0
 10
84.81186783626899
 20
-117.2856994151229
 30
0.0
  0
POLYLINE
  5
45
330
1F
100
AcDbEntity
  8
_U+30EC_U+30A4_U+30E4_U+30FC 1
 62
     7
420
 16777215
370
     9
100
AcDb2dPolyline
 66
     1
 10
0.0
 20
0.0
 30
0.0
  0
VERTEX
  5
46
330
45
100
AcDbEntity
  8
_U+30EC_U+30A4_U+30E4_U+30FC 1
 62
     7
420
 16777215
370
     9
100
AcDbVertex
100
AcDb2dVertex
 10
84.71196117215115
 20
-118.8601113591739
 30
0.0
  0
VERTEX
  5
47
330
45
100
AcDbEntity
  8
_U+30EC_U+30A4_U+30E4_U+30FC 1
 62
     7
420
 16777215
370
     9
100
AcDbVertex
100
AcDb2dVertex
 10
84.71196117215115
 20
-116.2859271931507
 30
0.0
  0
SEQEND
  5
48
330
45
100
AcDbEntity
  8
_U+30EC_U+30A4_U+30E4_U+30FC 1
 62
     7
420
 16777215
370
     9
  0
POLYLINE
  5
49
330
1F
100
AcDbEntity
  8
_U+30EC_U+30A4_U+30E4_U+30FC 1
 62
     7
420
 16777215
370
     9
100
AcDb2dPolyline
 66
     1
 10
0.0
 20
0.0
 30
0.0
  0
VERTEX
  5
4A
330
49
100
AcDbEntity
  8
_U+30EC_U+30A4_U+30E4_U+30FC 1
 62
     7
420
 16777215
370
     9
100
AcDbVertex
100
AcDb2dVertex
 10
84.71266672768871
 20
-117.2856994151229
 30
0.0
  0
VERTEX
  5
4B
330
49
100
AcDbEntity
  8
_U+30EC_U+30A4_U+30E4_U+30FC 1
 62
     7
420
 16777215
370
     9
100
AcDbVertex
100
AcDb2dVertex
 10
91.71258904910582
 20
-117.2856994151229
 30
0.0
  0
SEQEND
  5
4C
330
49
100
AcDbEntity
  8
_U+30EC_U+30A4_U+30E4_U+30FC 1
 62
     7
420
 16777215
370
     9
  0
POLYLINE
  5
4D
330
1F
100
AcDbEntity
  8
_U+30EC_U+30A4_U+30E4_U+30FC 1
 62
     7
420
 16777215
370
     9
100
AcDb2dPolyline
 66
     1
 10
0.0
 20
0.0
 30
0.0
  0
VERTEX
  5
4E
330
4D
100
AcDbEntity
  8
_U+30EC_U+30A4_U+30E4_U+30FC 1
 62
     7
420
 16777215
370
     9
100
AcDbVertex
100
AcDb2dVertex
 10
91.71325932686649
 20
-124.9625671909814
 30
0.0
  0
VERTEX
  5
4F
330
4D
100
AcDbEntity
  8
_U+30EC_U+30A4_U+30E4_U+30FC 1
 62
     7
420
 16777215
370
     9
100
AcDbVertex
100
AcDb2dVertex
 10
91.71325932686649
 20
-116.2859271931507
 30
0.0
  0
SEQEND
  5
50
330
4D
100
AcDbEntity
  8
_U+30EC_U+30A4_U+30E4_U+30FC 1
 62
     7
420
 16777215
370
     9
  0
INSERT
  5
52
330
1F
100
AcDbEntity
  8
_U+30EC_U+30A4_U+30E4_U+30FC 1
100
AcDbBlockReference
  2
block 2
 10
0.0
 20
0.0
 30
0.0
  0
SPLINE
  5
57
330
1F
100
AcDbEntity
  8
_U+30EC_U+30A4_U+30E4_U+30FC 1
 62
     7
420
 16777215
370
     9
100
AcDbSpline
210
0.0
220
0.0
230
1.0
 70
    11
 71
     3
 72
    17
 73
    13
 74
     0
 42
0.0000000001
 43
0.0000000001
 12
1.0
 22
0.0
 32
0.0
 13
1.0
 23
0.0
 33
0.0
 40
0.0
 40
0.0
 40
0.0
 40
0.0
 40
1.0
 40
1.0
 40
1.0
 40
2.0
 40
2.0
 40
2.0
 40
3.0
 40
3.0
 40
3.0
 40
4.0
 40
4.0
 40
4.0
 40
4.0
 10
83.81280119509064
 20
-123.4613566358012
 30
0.0
 10
83.81280119509064
 20
-123.4062527469263
 30
0.0
 10
83.76799841845587
 20
-123.3614499691595
 30
0.0
 10
83.71218897543524
 20
-123.3614499691595
 30
0.0
 10
83.65708508795217
 20
-123.3614499691595
 30
0.0
 10
83.61228231131741
 20
-123.4062527469263
 30
0.0
 10
83.61228231131741
 20
-123.4613566358012
 30
0.0
 10
83.61228231131741
 20
-123.5164958024542
 30
0.0
 10
83.65708508795217
 20
-123.5612633024431
 30
0.0
 10
83.71218897543524
 20
-123.5612633024431
 30
0.0
 10
83.76799841845587
 20
-123.5612633024431
 30
0.0
 10
83.81280119509064
 20
-123.5164958024542
 30
0.0
 10
83.81280119509064
 20
-123.4613566358012
 30
0.0
  0
SPLINE
  5
58
330
1F
100
AcDbEntity
  8
_U+30EC_U+30A4_U+30E4_U+30FC 1
 62
     7
420
 16777215
370
     9
100
AcDbSpline
210
0.0
220
0.0
230
1.0
 70
    11
 71
     3
 72
    17
 73
    13
 74
     0
 42
0.0000000001
 43
0.0000000001
 12
1.0
 22
0.0
 32
0.0
 13
1.0
 23
0.0
 33
0.0
 40
0.0
 40
0.0
 40
0.0
 40
0.0
 40
1.0
 40
1.0
 40
1.0
 40
2.0
 40
2.0
 40
2.0
 40
3.0
 40
3.0
 40
3.0
 40
4.0
 40
4.0
 40
4.0
 40
4.0
 10
84.81257339180654
 20
-123.4613566358012
 30
0.0
 10
84.81257339180654
 20
-123.4062527469263
 30
0.0
 10
84.76777061517178
 20
-123.3614499691595
 30
0.0
 10
84.71266672768871
 20
-123.3614499691595
 30
0.0
 10
84.65752756242875
 20
-123.3614499691595
 30
0.0
 10
84.61276006357087
 20
-123.4062527469263
 30
0.0
 10
84.61276006357087
 20
-123.4613566358012
 30
0.0
 10
84.61276006357087
 20
-123.5164958024542
 30
0.0
 10
84.65752756242875
 20
-123.5612633024431
 30
0.0
 10
84.71266672768871
 20
-123.5612633024431
 30
0.0
 10
84.76777061517178
 20
-123.5612633024431
 30
0.0
 10
84.81257339180654
 20
-123.5164958024542
 30
0.0
 10
84.81257339180654
 20
-123.4613566358012
 30
0.0
  0
SPLINE
  5
59
330
1F
100
AcDbEntity
  8
_U+30EC_U+30A4_U+30E4_U+30FC 1
 62
     7
420
 16777215
370
     9
100
AcDbSpline
210
0.0
220
0.0
230
1.0
 70
    11
 71
     3
 72
    17
 73
    13
 74
     0
 42
0.0000000001
 43
0.0000000001
 12
1.0
 22
0.0
 32
0.0
 13
1.0
 23
0.0
 33
0.0
 40
0.0
 40
0.0
 40
0.0
 40
0.0
 40
1.0
 40
1.0
 40
1.0
 40
2.0
 40
2.0
 40
2.0
 40
3.0
 40
3.0
 40
3.0
 40
4.0
 40
4.0
 40
4.0
 40
4.0
 10
96.81269725232454
 20
-140.9629796869812
 30
0.0
 10
96.81269725232454
 20
-140.9078405203288
 30
0.0
 10
96.76789447568979
 20
-140.8630730203396
 30
0.0
 10
96.71279058820672
 20
-140.8630730203396
 30
0.0
 10
96.65765142294676
 20
-140.8630730203396
 30
0.0
 10
96.61288392408888
 20
-140.9078405203288
 30
0.0
 10
96.61288392408888
 20
-140.9629796869812
 30
0.0
 10
96.61288392408888
 20
-141.0180835758568
 30
0.0
 10
96.65765142294676
 20
-141.0628863536235
 30
0.0
 10
96.71279058820672
 20
-141.0628863536235
 30
0.0
 10
96.76789447568979
 20
-141.0628863536235
 30
0.0
 10
96.81269725232454
 20
-141.0180835758568
 30
0.0
 10
96.81269725232454
 20
-140.9629796869812
 30
0.0
  0
SPLINE
  5
5A
330
1F
100
AcDbEntity
  8
_U+30EC_U+30A4_U+30E4_U+30FC 1
 62
     7
420
 16777215
370
     9
100
AcDbSpline
210
0.0
220
0.0
230
1.0
 70
    11
 71
     3
 72
    17
 73
    13
 74
     0
 42
0.0000000001
 43
0.0000000001
 12
1.0
 22
0.0
 32
0.0
 13
1.0
 23
0.0
 33
0.0
 40
0.0
 40
0.0
 40
0.0
 40
0.0
 40
1.0
 40
1.0
 40
1.0
 40
2.0
 40
2.0
 40
2.0
 40
3.0
 40
3.0
 40
3.0
 40
4.0
 40
4.0
 40
4.0
 40
4.0
 10
83.81280119509064
 20
-140.9629796869812
 30
0.0
 10
83.81280119509064
 20
-140.9078405203288
 30
0.0
 10
83.76799841845587
 20
-140.8630730203396
 30
0.0
 10
83.71218897543524
 20
-140.8630730203396
 30
0.0
 10
83.65708508795217
 20
-140.8630730203396
 30
0.0
 10
83.61228231131741
 20
-140.9078405203288
 30
0.0
 10
83.61228231131741
 20
-140.9629796869812
 30
0.0
 10
83.61228231131741
 20
-141.0180835758568
 30
0.0
 10
83.65708508795217
 20
-141.0628863536235
 30
0.0
 10
83.71218897543524
 20
-141.0628863536235
 30
0.0
 10
83.76799841845587
 20
-141.0628863536235
 30
0.0
 10
83.81280119509064
 20
-141.0180835758568
 30
0.0
 10
83.81280119509064
 20
-140.9629796869812
 30
0.0
  0
SPLINE
  5
5B
330
1F
100
AcDbEntity
  8
_U+30EC_U+30A4_U+30E4_U+30FC 1
 62
     7
420
 16777215
370
    25
100
AcDbSpline
210
0.0
220
0.0
230
1.0
 70
    11
 71
     3
 72
    62
 73
    58
 74
     0
 42
0.0000000001
 43
0.0000000001
 12
1.0
 22
0.0
 32
0.0
 13
1.0
 23
0.0
 33
0.0
 40
0.0
 40
0.0
 40
0.0
 40
0.0
 40
1.0
 40
1.0
 40
1.0
 40
2.0
 40
2.0
 40
2.0
 40
3.0
 40
3.0
 40
3.0
 40
4.0
 40
4.0
 40
4.0
 40
5.0
 40
5.0
 40
5.0
 40
6.0
 40
6.0
 40
6.0
 40
7.0
 40
7.0
 40
7.0
 40
8.0
 40
8.0
 40
8.0
 40
9.0
 40
9.0
 40
9.0
 40
10.0
 40
10.0
 40
10.0
 40
11.0
 40
11.0
 40
11.0
 40
12.0
 40
12.0
 40
12.0
 40
13.0
 40
13.0
 40
13.0
 40
14.0
 40
14.0
 40
14.0
 40
15.0
 40
15.0
 40
15.0
 40
16.0
 40
16.0
 40
16.0
 40
17.0
 40
17.0
 40
17.0
 40
18.0
 40
18.0
 40
18.0
 40
19.0
 40
19.0
 40
19.0
 40
19.0
 10
95.91283171972647
 20
-136.1632616326257
 30
0.0
 10
96.35450948623611
 20
-136.1632616326257
 30
0.0
 10
96.71279058820672
 20
-136.5215427436475
 30
0.0
 10
96.71279058820672
 20
-136.963220521315
 30
0.0
 10
96.71279058820672
 20
-136.963220521315
 30
0.0
 10
91.91307497702148
 20
-136.9618446879821
 30
0.0
 10
91.91307497702148
 20
-136.9618446879821
 30
0.0
 10
91.91307497702148
 20
-136.9618446879821
 30
0.0
 10
91.71325932686649
 20
-136.7613257991433
 30
0.0
 10
91.71325932686649
 20
-136.7613257991433
 30
0.0
 10
91.71325932686649
 20
-136.7613257991433
 30
0.0
 10
91.51344599863081
 20
-136.9618446879821
 30
0.0
 10
91.51344599863081
 20
-136.9618446879821
 30
0.0
 10
91.51344599863081
 20
-136.9618446879821
 30
0.0
 10
84.91558450028963
 20
-136.9625149657595
 30
0.0
 10
84.91558450028963
 20
-136.9625149657595
 30
0.0
 10
84.91558450028963
 20
-136.9625149657595
 30
0.0
 10
84.7150656165164
 20
-136.7627016324762
 30
0.0
 10
84.7150656165164
 20
-136.7627016324762
 30
0.0
 10
84.7150656165164
 20
-136.7627016324762
 30
0.0
 10
84.51525228828072
 20
-136.9625149657595
 30
0.0
 10
84.51525228828072
 20
-136.9625149657595
 30
0.0
 10
84.51525228828072
 20
-136.9625149657595
 30
0.0
 10
84.51041923284848
 20
-136.9625149657595
 30
0.0
 10
84.51041923284848
 20
-136.9625149657595
 30
0.0
 10
84.05325452228949
 20
-136.8708985768933
 30
0.0
 10
83.70908453107
 20
-136.4671091325499
 30
0.0
 10
83.70908453107
 20
-135.9827452437823
 30
0.0
 10
83.70908453107
 20
-135.9827452437823
 30
0.0
 10
83.70908453107
 20
-119.4615974701346
 30
0.0
 10
83.70908453107
 20
-119.4615974701346
 30
0.0
 10
84.26171090586021
 20
-119.4615974701346
 30
0.0
 10
84.61067867473508
 20
-119.8457371922607
 30
0.0
 10
84.70406108993502
 20
-120.3600871921323
 30
0.0
 10
84.70406108993502
 20
-120.3600871921323
 30
0.0
 10
84.70406108993502
 20
-126.4630721906065
 30
0.0
 10
84.70406108993502
 20
-126.4630721906065
 30
0.0
 10
84.70406108993502
 20
-126.4630721906065
 30
0.0
 10
90.76294657333321
 20
-126.4598266350516
 30
0.0
 10
90.76294657333321
 20
-126.4598266350516
 30
0.0
 10
91.314832114809
 20
-126.4598266350516
 30
0.0
 10
91.71258904910582
 20
-126.910958857161
 30
0.0
 10
91.71258904910582
 20
-127.4635499681342
 30
0.0
 10
91.71258904910582
 20
-127.4635499681342
 30
0.0
 10
84.71266672768871
 20
-127.4635499681342
 30
0.0
 10
84.71266672768871
 20
-127.4635499681342
 30
0.0
 10
84.71266672768871
 20
-127.4635499681342
 30
0.0
 10
84.71266672768871
 20
-135.9634482993424
 30
0.0
 10
84.71266672768871
 20
-135.9634482993424
 30
0.0
 10
84.71266672768871
 20
-135.9634482993424
 30
0.0
 10
91.71258904910582
 20
-135.9634482993424
 30
0.0
 10
91.71258904910582
 20
-135.9634482993424
 30
0.0
 10
91.71258904910582
 20
-135.9634482993424
 30
0.0
 10
92.05915792915299
 20
-136.1632616326257
 30
0.0
 10
92.05915792915299
 20
-136.1632616326257
 30
0.0
 10
92.05915792915299
 20
-136.1632616326257
 30
0.0
 10
95.91283171972647
 20
-136.1632616326257
 30
0.0
 10
95.91283171972647
 20
-136.1632616326257
 30
0.0
  0
SPLINE
  5
5C
330
1F
100
AcDbEntity
  8
_U+30EC_U+30A4_U+30E4_U+30FC 1
 62
     7
420
 16777215
370
     9
100
AcDbSpline
210
0.0
220
0.0
230
1.0
 70
    11
 71
     3
 72
    17
 73
    13
 74
     0
 42
0.0000000001
 43
0.0000000001
 12
1.0
 22
0.0
 32
0.0
 13
1.0
 23
0.0
 33
0.0
 40
0.0
 40
0.0
 40
0.0
 40
0.0
 40
1.0
 40
1.0
 40
1.0
 40
2.0
 40
2.0
 40
2.0
 40
3.0
 40
3.0
 40
3.0
 40
4.0
 40
4.0
 40
4.0
 40
4.0
 10
79.81233657492876
 20
-119.4615974701346
 30
0.0
 10
79.81233657492876
 20
-119.4064935812594
 30
0.0
 10
79.76756907607088
 20
-119.361690803493
 30
0.0
 10
79.71242991081094
 20
-119.361690803493
 30
0.0
 10
79.65732602332787
 20
-119.361690803493
 30
0.0
 10
79.6125232466931
 20
-119.4064935812594
 30
0.0
 10
79.6125232466931
 20
-119.4615974701346
 30
0.0
 10
79.6125232466931
 20
-119.5167366367874
 30
0.0
 10
79.65732602332787
 20
-119.5615394145541
 30
0.0
 10
79.71242991081094
 20
-119.5615394145541
 30
0.0
 10
79.76756907607088
 20
-119.5615394145541
 30
0.0
 10
79.81233657492876
 20
-119.5167366367874
 30
0.0
 10
79.81233657492876
 20
-119.4615974701346
 30
0.0
  0
SPLINE
  5
5D
330
1F
100
AcDbEntity
  8
_U+30EC_U+30A4_U+30E4_U+30FC 1
 62
     7
420
 16777215
370
     9
100
AcDbSpline
210
0.0
220
0.0
230
1.0
 70
    11
 71
     3
 72
    17
 73
    13
 74
     0
 42
0.0000000001
 43
0.0000000001
 12
1.0
 22
0.0
 32
0.0
 13
1.0
 23
0.0
 33
0.0
 40
0.0
 40
0.0
 40
0.0
 40
0.0
 40
1.0
 40
1.0
 40
1.0
 40
2.0
 40
2.0
 40
2.0
 40
3.0
 40
3.0
 40
3.0
 40
4.0
 40
4.0
 40
4.0
 40
4.0
 10
79.81233657492876
 20
-136.963220521315
 30
0.0
 10
79.81233657492876
 20
-136.9080813546619
 30
0.0
 10
79.76756907607088
 20
-136.8633138546733
 30
0.0
 10
79.71242991081094
 20
-136.8633138546733
 30
0.0
 10
79.65732602332787
 20
-136.8633138546733
 30
0.0
 10
79.6125232466931
 20
-136.9080813546619
 30
0.0
 10
79.6125232466931
 20
-136.963220521315
 30
0.0
 10
79.6125232466931
 20
-137.0190299657454
 30
0.0
 10
79.65732602332787
 20
-137.063797465734
 30
0.0
 10
79.71242991081094
 20
-137.063797465734
 30
0.0
 10
79.76756907607088
 20
-137.063797465734
 30
0.0
 10
79.81233657492876
 20
-137.0190299657454
 30
0.0
 10
79.81233657492876
 20
-136.963220521315
 30
0.0
  0
SPLINE
  5
5E
330
1F
100
AcDbEntity
  8
_U+30EC_U+30A4_U+30E4_U+30FC 1
 62
     7
420
 16777215
370
     9
100
AcDbSpline
210
0.0
220
0.0
230
1.0
 70
    11
 71
     3
 72
    17
 73
    13
 74
     0
 42
0.0000000001
 43
0.0000000001
 12
1.0
 22
0.0
 32
0.0
 13
1.0
 23
0.0
 33
0.0
 40
0.0
 40
0.0
 40
0.0
 40
0.0
 40
1.0
 40
1.0
 40
1.0
 40
2.0
 40
2.0
 40
2.0
 40
3.0
 40
3.0
 40
3.0
 40
4.0
 40
4.0
 40
4.0
 40
4.0
 10
103.8124431848573
 20
-119.4615974701346
 30
0.0
 10
103.8124431848573
 20
-119.4064935812594
 30
0.0
 10
103.7676404082225
 20
-119.361690803493
 30
0.0
 10
103.7125365207394
 20
-119.361690803493
 30
0.0
 10
103.6573999740858
 20
-119.361690803493
 30
0.0
 10
103.6126298566216
 20
-119.4064935812594
 30
0.0
 10
103.6126298566216
 20
-119.4615974701346
 30
0.0
 10
103.6126298566216
 20
-119.5167366367874
 30
0.0
 10
103.6573999740858
 20
-119.5615394145541
 30
0.0
 10
103.7125365207394
 20
-119.5615394145541
 30
0.0
 10
103.7676404082225
 20
-119.5615394145541
 30
0.0
 10
103.8124431848573
 20
-119.5167366367874
 30
0.0
 10
103.8124431848573
 20
-119.4615974701346
 30
0.0
  0
SPLINE
  5
5F
330
1F
100
AcDbEntity
  8
_U+30EC_U+30A4_U+30E4_U+30FC 1
 62
     7
420
 16777215
370
     9
100
AcDbSpline
210
0.0
220
0.0
230
1.0
 70
    11
 71
     3
 72
    17
 73
    13
 74
     0
 42
0.0000000001
 43
0.0000000001
 12
1.0
 22
0.0
 32
0.0
 13
1.0
 23
0.0
 33
0.0
 40
0.0
 40
0.0
 40
0.0
 40
0.0
 40
1.0
 40
1.0
 40
1.0
 40
2.0
 40
2.0
 40
2.0
 40
3.0
 40
3.0
 40
3.0
 40
4.0
 40
4.0
 40
4.0
 40
4.0
 10
103.8124431848573
 20
-135.9634482993424
 30
0.0
 10
103.8124431848573
 20
-135.9083444104675
 30
0.0
 10
103.7676404082225
 20
-135.8635416327008
 30
0.0
 10
103.7125365207394
 20
-135.8635416327008
 30
0.0
 10
103.6573999740858
 20
-135.8635416327008
 30
0.0
 10
103.6126298566216
 20
-135.9083444104675
 30
0.0
 10
103.6126298566216
 20
-135.9634482993424
 30
0.0
 10
103.6126298566216
 20
-136.0185874659955
 30
0.0
 10
103.6573999740858
 20
-136.0633549659841
 30
0.0
 10
103.7125365207394
 20
-136.0633549659841
 30
0.0
 10
103.7676404082225
 20
-136.0633549659841
 30
0.0
 10
103.8124431848573
 20
-136.0185874659955
 30
0.0
 10
103.8124431848573
 20
-135.9634482993424
 30
0.0
  0
POLYLINE
  5
60
330
1F
100
AcDbEntity
  8
_U+30EC_U+30A4_U+30E4_U+30FC 1
 62
     7
420
 16777215
370
     9
100
AcDb2dPolyline
 66
     1
 10
0.0
 20
0.0
 30
0.0
  0
VERTEX
  5
61
330
60
100
AcDbEntity
  8
_U+30EC_U+30A4_U+30E4_U+30FC 1
 62
     7
420
 16777215
370
     9
100
AcDbVertex
100
AcDb2dVertex
 10
84.71266672768871
 20
-123.4613566358012
 30
0.0
  0
VERTEX
  5
62
330
60
100
AcDbEntity
  8
_U+30EC_U+30A4_U+30E4_U+30FC 1
 62
     7
420
 16777215
370
     9
100
AcDbVertex
100
AcDb2dVertex
 10
88.48297913150003
 20
-123.4613566358012
 30
0.0
  0
SEQEND
  5
63
330
60
100
AcDbEntity
  8
_U+30EC_U+30A4_U+30E4_U+30FC 1
 62
     7
420
 16777215
370
     9
  0
POLYLINE
  5
64
330
1F
100
AcDbEntity
  8
_U+30EC_U+30A4_U+30E4_U+30FC 1
 62
     7
420
 16777215
370
     9
100
AcDb2dPolyline
 66
     1
 10
0.0
 20
0.0
 30
0.0
  0
VERTEX
  5
65
330
64
100
AcDbEntity
  8
_U+30EC_U+30A4_U+30E4_U+30FC 1
 62
     7
420
 16777215
370
     9
100
AcDbVertex
100
AcDb2dVertex
 10
82.71241677871933
 20
-123.4613566358012
 30
0.0
  0
VERTEX
  5
66
330
64
100
AcDbEntity
  8
_U+30EC_U+30A4_U+30E4_U+30FC 1
 62
     7
420
 16777215
370
     9
100
AcDbVertex
100
AcDb2dVertex
 10
84.71266672768871
 20
-123.4613566358012
 30
0.0
  0
SEQEND
  5
67
330
64
100
AcDbEntity
  8
_U+30EC_U+30A4_U+30E4_U+30FC 1
 62
     7
420
 16777215
370
     9
  0
INSERT
  5
69
330
1F
100
AcDbEntity
  8
_U+30EC_U+30A4_U+30E4_U+30FC 1
100
AcDbBlockReference
  2
block 3
 10
0.0
 20
0.0
 30
0.0
  0
POLYLINE
  5
6E
330
1F
100
AcDbEntity
  8
_U+30EC_U+30A4_U+30E4_U+30FC 1
 62
     7
420
 16777215
370
     9
100
AcDb2dPolyline
 66
     1
 10
0.0
 20
0.0
 30
0.0
  0
VERTEX
  5
6F
330
6E
100
AcDbEntity
  8
_U+30EC_U+30A4_U+30E4_U+30FC 1
 62
     7
420
 16777215
370
     9
100
AcDbVertex
100
AcDb2dVertex
 10
94.25230676209
 20
-135.9634482993424
 30
0.0
  0
VERTEX
  5
70
330
6E
100
AcDbEntity
  8
_U+30EC_U+30A4_U+30E4_U+30FC 1
 62
     7
420
 16777215
370
     9
100
AcDbVertex
100
AcDb2dVertex
 10
104.7123087174553
 20
-135.9634482993424
 30
0.0
  0
SEQEND
  5
71
330
6E
100
AcDbEntity
  8
_U+30EC_U+30A4_U+30E4_U+30FC 1
 62
     7
420
 16777215
370
     9
  0
SPLINE
  5
72
330
1F
100
AcDbEntity
  8
_U+30EC_U+30A4_U+30E4_U+30FC 1
 62
     7
420
 16777215
370
     9
100
AcDbSpline
210
0.0
220
0.0
230
1.0
 70
    11
 71
     3
 72
    17
 73
    13
 74
     0
 42
0.0000000001
 43
0.0000000001
 12
1.0
 22
0.0
 32
0.0
 13
1.0
 23
0.0
 33
0.0
 40
0.0
 40
0.0
 40
0.0
 40
0.0
 40
1.0
 40
1.0
 40
1.0
 40
2.0
 40
2.0
 40
2.0
 40
3.0
 40
3.0
 40
3.0
 40
4.0
 40
4.0
 40
4.0
 40
4.0
 10
103.8124431848573
 20
-127.4600927459129
 30
0.0
 10
103.8124431848573
 20
-127.4042833014822
 30
0.0
 10
103.7676404082225
 20
-127.3594805237158
 30
0.0
 10
103.7125365207394
 20
-127.3594805237158
 30
0.0
 10
103.6573999740858
 20
-127.3594805237158
 30
0.0
 10
103.6126298566216
 20
-127.4042833014822
 30
0.0
 10
103.6126298566216
 20
-127.4600927459129
 30
0.0
 10
103.6126298566216
 20
-127.5151966347879
 30
0.0
 10
103.6573999740858
 20
-127.5599994125546
 30
0.0
 10
103.7125365207394
 20
-127.5599994125546
 30
0.0
 10
103.7676404082225
 20
-127.5599994125546
 30
0.0
 10
103.8124431848573
 20
-127.5151966347879
 30
0.0
 10
103.8124431848573
 20
-127.4600927459129
 30
0.0
  0
POLYLINE
  5
73
330
1F
100
AcDbEntity
  8
_U+30EC_U+30A4_U+30E4_U+30FC 1
 62
     7
420
 16777215
370
     9
100
AcDb2dPolyline
 66
     1
 10
0.0
 20
0.0
 30
0.0
  0
VERTEX
  5
74
330
73
100
AcDbEntity
  8
_U+30EC_U+30A4_U+30E4_U+30FC 1
 62
     7
420
 16777215
370
     9
100
AcDbVertex
100
AcDb2dVertex
 10
97.25229362999839
 20
-127.4600927459129
 30
0.0
  0
VERTEX
  5
75
330
73
100
AcDbEntity
  8
_U+30EC_U+30A4_U+30E4_U+30FC 1
 62
     7
420
 16777215
370
     9
100
AcDbVertex
100
AcDb2dVertex
 10
104.7123087174553
 20
-127.4600927459129
 30
0.0
  0
SEQEND
  5
76
330
73
100
AcDbEntity
  8
_U+30EC_U+30A4_U+30E4_U+30FC 1
 62
     7
420
 16777215
370
     9
  0
SPLINE
  5
77
330
1F
100
AcDbEntity
  8
_U+30EC_U+30A4_U+30E4_U+30FC 1
 62
     7
420
 16777215
370
     9
100
AcDbSpline
210
0.0
220
0.0
230
1.0
 70
    11
 71
     3
 72
    17
 73
    13
 74
     0
 42
0.0000000001
 43
0.0000000001
 12
1.0
 22
0.0
 32
0.0
 13
1.0
 23
0.0
 33
0.0
 40
0.0
 40
0.0
 40
0.0
 40
0.0
 40
1.0
 40
1.0
 40
1.0
 40
2.0
 40
2.0
 40
2.0
 40
3.0
 40
3.0
 40
3.0
 40
4.0
 40
4.0
 40
4.0
 40
4.0
 10
103.8124431848573
 20
-126.459650246163
 30
0.0
 10
103.8124431848573
 20
-126.40451107951
 30
0.0
 10
103.7676404082225
 20
-126.3597435795211
 30
0.0
 10
103.7125365207394
 20
-126.3597435795211
 30
0.0
 10
103.6573999740858
 20
-126.3597435795211
 30
0.0
 10
103.6126298566216
 20
-126.40451107951
 30
0.0
 10
103.6126298566216
 20
-126.459650246163
 30
0.0
 10
103.6126298566216
 20
-126.5147541350379
 30
0.0
 10
103.6573999740858
 20
-126.5595569128047
 30
0.0
 10
103.7125365207394
 20
-126.5595569128047
 30
0.0
 10
103.7676404082225
 20
-126.5595569128047
 30
0.0
 10
103.8124431848573
 20
-126.5147541350379
 30
0.0
 10
103.8124431848573
 20
-126.459650246163
 30
0.0
  0
POLYLINE
  5
78
330
1F
100
AcDbEntity
  8
_U+30EC_U+30A4_U+30E4_U+30FC 1
 62
     7
420
 16777215
370
     9
100
AcDb2dPolyline
 66
     1
 10
0.0
 20
0.0
 30
0.0
  0
VERTEX
  5
79
330
78
100
AcDbEntity
  8
_U+30EC_U+30A4_U+30E4_U+30FC 1
 62
     7
420
 16777215
370
     9
100
AcDbVertex
100
AcDb2dVertex
 10
97.25229362999839
 20
-126.4634249683842
 30
0.0
  0
VERTEX
  5
7A
330
78
100
AcDbEntity
  8
_U+30EC_U+30A4_U+30E4_U+30FC 1
 62
     7
420
 16777215
370
     9
100
AcDbVertex
100
AcDb2dVertex
 10
104.7123087174553
 20
-126.4634249683842
 30
0.0
  0
SEQEND
  5
7B
330
78
100
AcDbEntity
  8
_U+30EC_U+30A4_U+30E4_U+30FC 1
 62
     7
420
 16777215
370
     9
  0
INSERT
  5
7D
330
1F
100
AcDbEntity
  8
_U+30EC_U+30A4_U+30E4_U+30FC 1
100
AcDbBlockReference
  2
block 4
 10
0.0
 20
0.0
 30
0.0
  0
POLYLINE
  5
8E
330
1F
100
AcDbEntity
  8
_U+30EC_U+30A4_U+30E4_U+30FC 1
 62
     7
420
 16777215
370
     9
100
AcDb2dPolyline
 66
     1
 10
0.0
 20
0.0
 30
0.0
  0
VERTEX
  5
8F
330
8E
100
AcDbEntity
  8
_U+30EC_U+30A4_U+30E4_U+30FC 1
 62
     7
420
 16777215
370
     9
100
AcDbVertex
100
AcDb2dVertex
 10
103.7125365207394
 20
-127.4600927459129
 30
0.0
  0
VERTEX
  5
90
330
8E
100
AcDbEntity
  8
_U+30EC_U+30A4_U+30E4_U+30FC 1
 62
     7
420
 16777215
370
     9
100
AcDbVertex
100
AcDb2dVertex
 10
103.7125365207394
 20
-126.4601441350515
 30
0.0
  0
SEQEND
  5
91
330
8E
100
AcDbEntity
  8
_U+30EC_U+30A4_U+30E4_U+30FC 1
 62
     7
420
 16777215
370
     9
  0
POLYLINE
  5
92
330
1F
100
AcDbEntity
  8
_U+30EC_U+30A4_U+30E4_U+30FC 1
 62
     7
420
 16777215
370
     9
100
AcDb2dPolyline
 66
     1
 10
0.0
 20
0.0
 30
0.0
  0
VERTEX
  5
93
330
92
100
AcDbEntity
  8
_U+30EC_U+30A4_U+30E4_U+30FC 1
 62
     7
420
 16777215
370
     9
100
AcDbVertex
100
AcDb2dVertex
 10
103.7125365207394
 20
-126.4601441350515
 30
0.0
  0
VERTEX
  5
94
330
92
100
AcDbEntity
  8
_U+30EC_U+30A4_U+30E4_U+30FC 1
 62
     7
420
 16777215
370
     9
100
AcDbVertex
100
AcDb2dVertex
 10
103.7125365207394
 20
-119.4602216368017
 30
0.0
  0
SEQEND
  5
95
330
92
100
AcDbEntity
  8
_U+30EC_U+30A4_U+30E4_U+30FC 1
 62
     7
420
 16777215
370
     9
  0
POLYLINE
  5
96
330
1F
100
AcDbEntity
  8
_U+30EC_U+30A4_U+30E4_U+30FC 1
 62
     7
420
 16777215
370
     9
100
AcDb2dPolyline
 66
     1
 10
0.0
 20
0.0
 30
0.0
  0
VERTEX
  5
97
330
96
100
AcDbEntity
  8
_U+30EC_U+30A4_U+30E4_U+30FC 1
 62
     7
420
 16777215
370
     9
100
AcDbVertex
100
AcDb2dVertex
 10
86.25261224395697
 20
-119.4615974701346
 30
0.0
  0
VERTEX
  5
98
330
96
100
AcDbEntity
  8
_U+30EC_U+30A4_U+30E4_U+30FC 1
 62
     7
420
 16777215
370
     9
100
AcDbVertex
100
AcDb2dVertex
 10
104.7123087174553
 20
-119.4615974701346
 30
0.0
  0
SEQEND
  5
99
330
96
100
AcDbEntity
  8
_U+30EC_U+30A4_U+30E4_U+30FC 1
 62
     7
420
 16777215
370
     9
  0
INSERT
  5
9B
330
1F
100
AcDbEntity
  8
_U+30EC_U+30A4_U+30E4_U+30FC 1
100
AcDbBlockReference
  2
block 5
 10
0.0
 20
0.0
 30
0.0
  0
POLYLINE
  5
A0
330
1F
100
AcDbEntity
  8
_U+30EC_U+30A4_U+30E4_U+30FC 1
 62
     7
420
 16777215
370
     9
100
AcDb2dPolyline
 66
     1
 10
0.0
 20
0.0
 30
0.0
  0
VERTEX
  5
A1
330
A0
100
AcDbEntity
  8
_U+30EC_U+30A4_U+30E4_U+30FC 1
 62
     7
420
 16777215
370
     9
100
AcDbVertex
100
AcDb2dVertex
 10
79.71242991081094
 20
-136.9625149657595
 30
0.0
  0
VERTEX
  5
A2
330
A0
100
AcDbEntity
  8
_U+30EC_U+30A4_U+30E4_U+30FC 1
 62
     7
420
 16777215
370
     9
100
AcDbVertex
100
AcDb2dVertex
 10
79.71242991081094
 20
-119.4626558034676
 30
0.0
  0
SEQEND
  5
A3
330
A0
100
AcDbEntity
  8
_U+30EC_U+30A4_U+30E4_U+30FC 1
 62
     7
420
 16777215
370
     9
  0
POLYLINE
  5
A4
330
1F
100
AcDbEntity
  8
_U+30EC_U+30A4_U+30E4_U+30FC 1
 62
     7
420
 16777215
370
     9
100
AcDb2dPolyline
 66
     1
 10
0.0
 20
0.0
 30
0.0
  0
VERTEX
  5
A5
330
A4
100
AcDbEntity
  8
_U+30EC_U+30A4_U+30E4_U+30FC 1
 62
     7
420
 16777215
370
     9
100
AcDbVertex
100
AcDb2dVertex
 10
82.17224345916698
 20
-136.963220521315
 30
0.0
  0
VERTEX
  5
A6
330
A4
100
AcDbEntity
  8
_U+30EC_U+30A4_U+30E4_U+30FC 1
 62
     7
420
 16777215
370
     9
100
AcDbVertex
100
AcDb2dVertex
 10
78.7126929918719
 20
-136.963220521315
 30
0.0
  0
SEQEND
  5
A7
330
A4
100
AcDbEntity
  8
_U+30EC_U+30A4_U+30E4_U+30FC 1
 62
     7
420
 16777215
370
     9
  0
POLYLINE
  5
A8
330
1F
100
AcDbEntity
  8
_U+30EC_U+30A4_U+30E4_U+30FC 1
 62
     7
420
 16777215
370
     9
100
AcDb2dPolyline
 66
     1
 10
0.0
 20
0.0
 30
0.0
  0
VERTEX
  5
A9
330
A8
100
AcDbEntity
  8
_U+30EC_U+30A4_U+30E4_U+30FC 1
 62
     7
420
 16777215
370
     9
100
AcDbVertex
100
AcDb2dVertex
 10
82.17224345916698
 20
-119.4615974701346
 30
0.0
  0
VERTEX
  5
AA
330
A8
100
AcDbEntity
  8
_U+30EC_U+30A4_U+30E4_U+30FC 1
 62
     7
420
 16777215
370
     9
100
AcDbVertex
100
AcDb2dVertex
 10
78.7126929918719
 20
-119.4615974701346
 30
0.0
  0
SEQEND
  5
AB
330
A8
100
AcDbEntity
  8
_U+30EC_U+30A4_U+30E4_U+30FC 1
 62
     7
420
 16777215
370
     9
  0
INSERT
  5
AD
330
1F
100
AcDbEntity
  8
_U+30EC_U+30A4_U+30E4_U+30FC 1
100
AcDbBlockReference
  2
block 6
 10
0.0
 20
0.0
 30
0.0
  0
POLYLINE
  5
BE
330
1F
100
AcDbEntity
  8
_U+30EC_U+30A4_U+30E4_U+30FC 1
 62
     7
420
 16777215
370
     9
100
AcDb2dPolyline
 66
     1
 10
0.0
 20
0.0
 30
0.0
  0
VERTEX
  5
BF
330
BE
100
AcDbEntity
  8
_U+30EC_U+30A4_U+30E4_U+30FC 1
 62
     7
420
 16777215
370
     9
100
AcDbVertex
100
AcDb2dVertex
 10
83.71218897543524
 20
-140.9629796869812
 30
0.0
  0
VERTEX
  5
C0
330
BE
100
AcDbEntity
  8
_U+30EC_U+30A4_U+30E4_U+30FC 1
 62
     7
420
 16777215
370
     9
100
AcDbVertex
100
AcDb2dVertex
 10
96.71208503266915
 20
-140.9629796869812
 30
0.0
  0
SEQEND
  5
C1
330
BE
100
AcDbEntity
  8
_U+30EC_U+30A4_U+30E4_U+30FC 1
 62
     7
420
 16777215
370
     9
  0
POLYLINE
  5
C2
330
1F
100
AcDbEntity
  8
_U+30EC_U+30A4_U+30E4_U+30FC 1
 62
     7
420
 16777215
370
     9
100
AcDb2dPolyline
 66
     1
 10
0.0
 20
0.0
 30
0.0
  0
VERTEX
  5
C3
330
C2
100
AcDbEntity
  8
_U+30EC_U+30A4_U+30E4_U+30FC 1
 62
     7
420
 16777215
370
     9
100
AcDbVertex
100
AcDb2dVertex
 10
83.71218897543524
 20
-138.5024957987076
 30
0.0
  0
VERTEX
  5
C4
330
C2
100
AcDbEntity
  8
_U+30EC_U+30A4_U+30E4_U+30FC 1
 62
     7
420
 16777215
370
     9
100
AcDbVertex
100
AcDb2dVertex
 10
83.71218897543524
 20
-141.9627519089537
 30
0.0
  0
SEQEND
  5
C5
330
C2
100
AcDbEntity
  8
_U+30EC_U+30A4_U+30E4_U+30FC 1
 62
     7
420
 16777215
370
     9
  0
POLYLINE
  5
C6
330
1F
100
AcDbEntity
  8
_U+30EC_U+30A4_U+30E4_U+30FC 1
 62
     7
420
 16777215
370
     9
100
AcDb2dPolyline
 66
     1
 10
0.0
 20
0.0
 30
0.0
  0
VERTEX
  5
C7
330
C6
100
AcDbEntity
  8
_U+30EC_U+30A4_U+30E4_U+30FC 1
 62
     7
420
 16777215
370
     9
100
AcDbVertex
100
AcDb2dVertex
 10
96.71279058820672
 20
-139.5029382984575
 30
0.0
  0
VERTEX
  5
C8
330
C6
100
AcDbEntity
  8
_U+30EC_U+30A4_U+30E4_U+30FC 1
 62
     7
420
 16777215
370
     9
100
AcDbVertex
100
AcDb2dVertex
 10
96.71279058820672
 20
-141.9627519089537
 30
0.0
  0
SEQEND
  5
C9
330
C6
100
AcDbEntity
  8
_U+30EC_U+30A4_U+30E4_U+30FC 1
 62
     7
420
 16777215
370
     9
  0
INSERT
  5
CB
330
1F
100
AcDbEntity
  8
_U+30EC_U+30A4_U+30E4_U+30FC 1
100
AcDbBlockReference
  2
block 7
 10
0.0
 20
0.0
 30
0.0
  0
POLYLINE
  5
D2
330
1F
100
AcDbEntity
  8
_U+30EC_U+30A4_U+30E4_U+30FC 1
 62
     7
420
 16777215
370
     9
100
AcDb2dPolyline
 66
     1
 10
0.0
 20
0.0
 30
0.0
  0
VERTEX
  5
D3
330
D2
100
AcDbEntity
  8
_U+30EC_U+30A4_U+30E4_U+30FC 1
 62
     7
420
 16777215
370
     9
100
AcDbVertex
100
AcDb2dVertex
 10
103.7125365207394
 20
-135.9634482993424
 30
0.0
  0
VERTEX
  5
D4
330
D2
100
AcDbEntity
  8
_U+30EC_U+30A4_U+30E4_U+30FC 1
 62
     7
420
 16777215
370
     9
100
AcDbVertex
100
AcDb2dVertex
 10
103.7125365207394
 20
-127.4631971903565
 30
0.0
  0
SEQEND
  5
D5
330
D2
100
AcDbEntity
  8
_U+30EC_U+30A4_U+30E4_U+30FC 1
 62
     7
420
 16777215
370
     9
  0
POLYLINE
  5
D6
330
1F
100
AcDbEntity
  8
_U+30EC_U+30A4_U+30E4_U+30FC 1
  6
AI-Linetype-1
 62
   251
420
  5855577
370
    25
100
AcDb2dPolyline
 66
     1
 10
0.0
 20
0.0
 30
0.0
  0
VERTEX
  5
D7
330
D6
100
AcDbEntity
  8
_U+30EC_U+30A4_U+30E4_U+30FC 1
  6
AI-Linetype-1
 62
   251
420
  5855577
370
    25
100
AcDbVertex
100
AcDb2dVertex
 10
83.64053981059651
 20
-118.9190252480482
 30
0.0
  0
VERTEX
  5
D8
330
D6
100
AcDbEntity
  8
_U+30EC_U+30A4_U+30E4_U+30FC 1
  6
AI-Linetype-1
 62
   251
420
  5855577
370
    25
100
AcDbVertex
100
AcDb2dVertex
 10
85.43406198706217
 20
-118.9190252480482
 30
0.0
  0
VERTEX
  5
D9
330
D6
100
AcDbEntity
  8
_U+30EC_U+30A4_U+30E4_U+30FC 1
  6
AI-Linetype-1
 62
   251
420
  5855577
370
    25
100
AcDbVertex
100
AcDb2dVertex
 10
85.43406198706217
 20
-125.7981919129951
 30
0.0
  0
VERTEX
  5
DA
330
D6
100
AcDbEntity
  8
_U+30EC_U+30A4_U+30E4_U+30FC 1
  6
AI-Linetype-1
 62
   251
420
  5855577
370
    25
100
AcDbVertex
100
AcDb2dVertex
 10
92.31340486711106
 20
-125.7981919129951
 30
0.0
  0
VERTEX
  5
DB
330
D6
100
AcDbEntity
  8
_U+30EC_U+30A4_U+30E4_U+30FC 1
  6
AI-Linetype-1
 62
   251
420
  5855577
370
    25
100
AcDbVertex
100
AcDb2dVertex
 10
92.31340486711106
 20
-127.5501921903345
 30
0.0
  0
SEQEND
  5
DD
330
D6
100
AcDbEntity
  8
_U+30EC_U+30A4_U+30E4_U+30FC 1
  6
AI-Linetype-1
 62
   251
420
  5855577
370
    25
  0
ENDSEC
  0
SECTION
  2
OBJECTS
  0
DICTIONARY
  5
C
330
0
100
AcDbDictionary
281
     1
  3
ACAD_GROUP
350
D
  3
ACAD_LAYOUT
350
1A
  3
ACAD_MATERIAL
350
3B
  3
ACAD_MLEADERSTYLE
350
DF
  3
ACAD_MLINESTYLE
350
17
  3
ACAD_PLOTSETTINGS
350
19
  3
ACAD_PLOTSTYLENAME
350
E
  3
ACAD_TABLESTYLE
350
DE
  3
ACAD_VISUALSTYLE
350
2A
  0
SUN
  5
3F
330
29
100
AcDbSun
 90
        1
290
     0
 63
     7
421
 16777215
 40
1.0
291
     1
 91
  2455826
 92
 54000000
292
     0
 70
     2
 71
   256
280
     1
  0
DICTIONARY
  5
D
102
{ACAD_REACTORS
330
C
102
}
330
C
100
AcDbDictionary
281
     1
  0
DICTIONARY
  5
1A
102
{ACAD_REACTORS
330
C
102
}
330
C
100
AcDbDictionary
281
     1
  3
Layout1
350
1E
  3
Layout2
350
26
  3
Model
350
22
  0
DICTIONARY
  5
3B
102
{ACAD_REACTORS
330
C
102
}
330
C
100
AcDbDictionary
281
     1
  3
ByBlock
350
3D
  3
ByLayer
350
3C
  3
Global
350
3E
  0
DICTIONARY
  5
DF
102
{ACAD_REACTORS
330
C
102
}
330
C
100
AcDbDictionary
281
     1
  0
DICTIONARY
  5
17
102
{ACAD_REACTORS
330
C
102
}
330
C
100
AcDbDictionary
281
     1
  3
Standard
350
18
  0
DICTIONARY
  5
19
102
{ACAD_REACTORS
330
C
102
}
330
C
100
AcDbDictionary
281
     1
  0
ACDBDICTIONARYWDFLT
  5
E
102
{ACAD_REACTORS
330
C
102
}
330
C
100
AcDbDictionary
281
     1
  3
Normal
350
F
100
AcDbDictionaryWithDefault
340
F
  0
DICTIONARY
  5
DE
102
{ACAD_REACTORS
330
C
102
}
330
C
100
AcDbDictionary
281
     1
  0
DICTIONARY
  5
2A
102
{ACAD_REACTORS
330
C
102
}
330
C
100
AcDbDictionary
281
     1
  3
2dWireframe
350
2F
  3
3D Hidden
350
31
  3
3dWireframe
350
30
  3
Basic
350
32
  3
Brighten
350
36
  3
ColorChange
350
3A
  3
Conceptual
350
34
  3
Dim
350
35
  3
Facepattern
350
39
  3
Flat
350
2B
  3
FlatWithEdges
350
2C
  3
Gouraud
350
2D
  3
GouraudWithEdges
350
2E
  3
Linepattern
350
38
  3
Realistic
350
33
  3
Thicken
350
37
  0
LAYOUT
  5
1E
102
{ACAD_REACTORS
330
1A
102
}
330
1A
100
AcDbPlotSettings
  1

  2
none_device
  4

  6

 40
0.0
 41
0.0
 42
0.0
 43
0.0
 44
0.0
 45
0.0
 46
0.0
 47
0.0
 48
0.0
 49
0.0
140
0.0
141
0.0
142
1.0
143
1.0
 70
   688
 72
     0
 73
     0
 74
     5
  7

 75
    16
 76
     0
 77
     2
 78
   300
147
1.0
148
0.0
149
0.0
100
AcDbLayout
  1
Layout1
 70
     1
 71
     1
 10
0.0
 20
0.0
 11
12.0
 21
9.0
 12
0.0
 22
0.0
 32
0.0
 14
1.000000000000000E+20
 24
1.000000000000000E+20
 34
1.000000000000000E+20
 15
-1.000000000000000E+20
 25
-1.000000000000000E+20
 35
-1.000000000000000E+20
146
0.0
 13
0.0
 23
0.0
 33
0.0
 16
1.0
 26
0.0
 36
0.0
 17
0.0
 27
1.0
 37
0.0
 76
     0
330
1B
  0
LAYOUT
  5
26
102
{ACAD_REACTORS
330
1A
102
}
330
1A
100
AcDbPlotSettings
  1

  2
none_device
  4

  6

 40
0.0
 41
0.0
 42
0.0
 43
0.0
 44
0.0
 45
0.0
 46
0.0
 47
0.0
 48
0.0
 49
0.0
140
0.0
141
0.0
142
1.0
143
1.0
 70
   688
 72
     0
 73
     0
 74
     5
  7

 75
    16
 76
     0
 77
     2
 78
   300
147
1.0
148
0.0
149
0.0
100
AcDbLayout
  1
Layout2
 70
     1
 71
     2
 10
0.0
 20
0.0
 11
0.0
 21
0.0
 12
0.0
 22
0.0
 32
0.0
 14
0.0
 24
0.0
 34
0.0
 15
0.0
 25
0.0
 35
0.0
146
0.0
 13
0.0
 23
0.0
 33
0.0
 16
1.0
 26
0.0
 36
0.0
 17
0.0
 27
1.0
 37
0.0
 76
     0
330
23
  0
LAYOUT
  5
22
102
{ACAD_REACTORS
330
1A
102
}
330
1A
100
AcDbPlotSettings
  1

  2
none_device
  4

  6

 40
0.0
 41
0.0
 42
0.0
 43
0.0
 44
0.0
 45
0.0
 46
0.0
 47
0.0
 48
0.0
 49
0.0
140
0.0
141
0.0
142
1.0
143
1.0
 70
  1712
 72
     0
 73
     0
 74
     0
  7

 75
     0
 76
     0
 77
     2
 78
   300
147
1.0
148
0.0
149
0.0
100
AcDbLayout
  1
Model
 70
     1
 71
     0
 10
0.0
 20
0.0
 11
12.0
 21
9.0
 12
0.0
 22
0.0
 32
0.0
 14
1.000000000000000E+20
 24
1.000000000000000E+20
 34
1.000000000000000E+20
 15
-1.000000000000000E+20
 25
-1.000000000000000E+20
 35
-1.000000000000000E+20
146
0.0
 13
0.0
 23
0.0
 33
0.0
 16
1.0
 26
0.0
 36
0.0
 17
0.0
 27
1.0
 37
0.0
 76
     0
330
1F
331
29
  0
MATERIAL
  5
3D
102
{ACAD_REACTORS
330
3B
102
}
330
3B
100
AcDbMaterial
  1
ByBlock
 72
     1
 94
      127
  0
MATERIAL
  5
3C
102
{ACAD_REACTORS
330
3B
102
}
330
3B
100
AcDbMaterial
  1
ByLayer
 72
     1
 94
      127
  0
MATERIAL
  5
3E
102
{ACAD_REACTORS
330
3B
102
}
330
3B
100
AcDbMaterial
  1
Global
 72
     1
 94
      127
  0
MLINESTYLE
  5
18
102
{ACAD_REACTORS
330
17
102
}
330
17
100
AcDbMlineStyle
  2
Standard
 70
     0
  3

 62
   256
 51
90.0
 52
90.0
 71
     2
 49
0.5
 62
   256
  6
BYLAYER
 49
-0.5
 62
   256
  6
BYLAYER
  0
ACDBPLACEHOLDER
  5
F
102
{ACAD_REACTORS
330
E
102
}
330
E
  0
VISUALSTYLE
  5
2F
102
{ACAD_REACTORS
330
2A
102
}
330
2A
100
AcDbVisualStyle
  2
2dWireframe
 70
     4
177
     2
291
     0
 71
     0
176
     1
 72
     2
176
     1
 73
     0
176
     1
 90
        0
176
     1
 40
-0.6
176
     1
 41
-30.0
176
     1
 62
     5
 63
     7
421
 16777215
176
     1
 74
     1
176
     1
 91
        4
176
     1
 64
     7
176
     1
 65
   257
176
     1
 75
     1
176
     1
175
     1
176
     1
 42
1.0
176
     1
 92
        0
176
     1
 66
   257
176
     1
 43
1.0
176
     1
 76
     1
176
     1
 77
     6
176
     1
 78
     2
176
     1
 67
     7
176
     1
 79
     5
176
     1
170
     0
176
     1
171
     0
176
     1
290
     0
176
     1
 93
        1
176
     1
 44
0.0
176
     1
173
     0
176
     1
  0
VISUALSTYLE
  5
31
102
{ACAD_REACTORS
330
2A
102
}
330
2A
100
AcDbVisualStyle
  2
3D Hidden
 70
     6
177
     2
291
     0
 71
     1
176
     1
 72
     2
176
     1
 73
     2
176
     1
 90
        0
176
     1
 40
-0.6
176
     1
 41
-30.0
176
     1
 62
     5
 63
     7
421
 16777215
176
     1
 74
     2
176
     1
 91
        2
176
     1
 64
     7
176
     1
 65
   257
176
     1
 75
     2
176
     1
175
     1
176
     1
 42
40.0
176
     1
 92
        0
176
     1
 66
   257
176
     1
 43
1.0
176
     1
 76
     1
176
     1
 77
     6
176
     1
 78
     2
176
     1
 67
     7
176
     1
 79
     3
176
     1
170
     0
176
     1
171
     0
176
     1
290
     0
176
     1
 93
        1
176
     1
 44
0.0
176
     1
173
     0
176
     1
  0
VISUALSTYLE
  5
30
102
{ACAD_REACTORS
330
2A
102
}
330
2A
100
AcDbVisualStyle
  2
3dWireframe
 70
     5
177
     2
291
     0
 71
     0
176
     1
 72
     2
176
     1
 73
     0
176
     1
 90
        0
176
     1
 40
-0.6
176
     1
 41
-30.0
176
     1
 62
     5
 63
     7
421
 16777215
176
     1
 74
     1
176
     1
 91
        4
176
     1
 64
     7
176
     1
 65
   257
176
     1
 75
     1
176
     1
175
     1
176
     1
 42
1.0
176
     1
 92
        0
176
     1
 66
   257
176
     1
 43
1.0
176
     1
 76
     1
176
     1
 77
     6
176
     1
 78
     2
176
     1
 67
     7
176
     1
 79
     5
176
     1
170
     0
176
     1
171
     0
176
     1
290
     0
176
     1
 93
        1
176
     1
 44
0.0
176
     1
173
     0
176
     1
  0
VISUALSTYLE
  5
32
102
{ACAD_REACTORS
330
2A
102
}
330
2A
100
AcDbVisualStyle
  2
Basic
 70
     7
177
     2
291
     1
 71
     1
176
     1
 72
     0
176
     1
 73
     1
176
     1
 90
        0
176
     1
 40
-0.6
176
     1
 41
-30.0
176
     1
 62
     5
 63
     7
421
 16777215
176
     1
 74
     0
176
     1
 91
        4
176
     1
 64
     7
176
     1
 65
   257
176
     1
 75
     1
176
     1
175
     1
176
     1
 42
1.0
176
     1
 92
        8
176
     1
 66
     7
176
     1
 43
1.0
176
     1
 76
     1
176
     1
 77
     6
176
     1
 78
     2
176
     1
 67
     7
176
     1
 79
     5
176
     1
170
     0
176
     1
171
     0
176
     1
290
     0
176
     1
 93
        1
176
     1
 44
0.0
176
     1
173
     0
176
     1
  0
VISUALSTYLE
  5
36
102
{ACAD_REACTORS
330
2A
102
}
330
2A
100
AcDbVisualStyle
  2
Brighten
 70
    12
177
     2
291
     1
 71
     2
176
     1
 72
     2
176
     1
 73
     0
176
     1
 90
        0
176
     1
 40
-0.6
176
     1
 41
-30.0
176
     1
 62
     5
 63
     7
421
 16777215
176
     1
 74
     1
176
     1
 91
        4
176
     1
 64
     7
176
     1
 65
   257
176
     1
 75
     1
176
     1
175
     1
176
     1
 42
1.0
176
     1
 92
        8
176
     1
 66
     7
176
     1
 43
1.0
176
     1
 76
     1
176
     1
 77
     6
176
     1
 78
     2
176
     1
 67
     7
176
     1
 79
     5
176
     1
170
     0
176
     1
171
     0
176
     1
290
     0
176
     1
 93
        1
176
     1
 44
50.0
176
     1
173
     0
176
     1
  0
VISUALSTYLE
  5
3A
102
{ACAD_REACTORS
330
2A
102
}
330
2A
100
AcDbVisualStyle
  2
ColorChange
 70
    16
177
     2
291
     1
 71
     2
176
     1
 72
     2
176
     1
 73
     3
176
     1
 90
        0
176
     1
 40
-0.6
176
     1
 41
-30.0
176
     1
 62
     5
 63
     8
421
  8421504
176
     1
 74
     1
176
     1
 91
        4
176
     1
 64
     7
176
     1
 65
   257
176
     1
 75
     1
176
     1
175
     1
176
     1
 42
1.0
176
     1
 92
        8
176
     1
 66
     8
424
  8421504
176
     1
 43
1.0
176
     1
 76
     1
176
     1
 77
     6
176
     1
 78
     2
176
     1
 67
     7
176
     1
 79
     5
176
     1
170
     0
176
     1
171
     0
176
     1
290
     0
176
     1
 93
        1
176
     1
 44
0.0
176
     1
173
     0
176
     1
  0
VISUALSTYLE
  5
34
102
{ACAD_REACTORS
330
2A
102
}
330
2A
100
AcDbVisualStyle
  2
Conceptual
 70
     9
177
     2
291
     0
 71
     3
176
     1
 72
     2
176
     1
 73
     0
176
     1
 90
        0
176
     1
 40
-0.6
176
     1
 41
-30.0
176
     1
 62
     5
 63
     7
421
 16777215
176
     1
 74
     2
176
     1
 91
        2
176
     1
 64
     7
176
     1
 65
   257
176
     1
 75
     1
176
     1
175
     1
176
     1
 42
40.0
176
     1
 92
        8
176
     1
 66
     7
176
     1
 43
1.0
176
     1
 76
     1
176
     1
 77
     6
176
     1
 78
     2
176
     1
 67
     7
176
     1
 79
     3
176
     1
170
     0
176
     1
171
     0
176
     1
290
     0
176
     1
 93
        1
176
     1
 44
0.0
176
     1
173
     0
176
     1
  0
VISUALSTYLE
  5
35
102
{ACAD_REACTORS
330
2A
102
}
330
2A
100
AcDbVisualStyle
  2
Dim
 70
    11
177
     2
291
     1
 71
     2
176
     1
 72
     2
176
     1
 73
     0
176
     1
 90
        0
176
     1
 40
-0.6
176
     1
 41
-30.0
176
     1
 62
     5
 63
     7
421
 16777215
176
     1
 74
     1
176
     1
 91
        4
176
     1
 64
     7
176
     1
 65
   257
176
     1
 75
     1
176
     1
175
     1
176
     1
 42
1.0
176
     1
 92
        8
176
     1
 66
     7
176
     1
 43
1.0
176
     1
 76
     1
176
     1
 77
     6
176
     1
 78
     2
176
     1
 67
     7
176
     1
 79
     5
176
     1
170
     0
176
     1
171
     0
176
     1
290
     0
176
     1
 93
        1
176
     1
 44
-50.0
176
     1
173
     0
176
     1
  0
VISUALSTYLE
  5
39
102
{ACAD_REACTORS
330
2A
102
}
330
2A
100
AcDbVisualStyle
  2
Facepattern
 70
    15
177
     2
291
     1
 71
     2
176
     1
 72
     2
176
     1
 73
     0
176
     1
 90
        0
176
     1
 40
-0.6
176
     1
 41
-30.0
176
     1
 62
     5
 63
     7
421
 16777215
176
     1
 74
     1
176
     1
 91
        4
176
     1
 64
     7
176
     1
 65
   257
176
     1
 75
     1
176
     1
175
     1
176
     1
 42
1.0
176
     1
 92
        8
176
     1
 66
     7
176
     1
 43
1.0
176
     1
 76
     1
176
     1
 77
     6
176
     1
 78
     2
176
     1
 67
     7
176
     1
 79
     5
176
     1
170
     0
176
     1
171
     0
176
     1
290
     0
176
     1
 93
        1
176
     1
 44
0.0
176
     1
173
     0
176
     1
  0
VISUALSTYLE
  5
2B
102
{ACAD_REACTORS
330
2A
102
}
330
2A
100
AcDbVisualStyle
  2
Flat
 70
     0
177
     2
291
     1
 71
     2
176
     1
 72
     1
176
     1
 73
     1
176
     1
 90
        2
176
     1
 40
-0.6
176
     1
 41
30.0
176
     1
 62
     5
 63
     7
421
 16777215
176
     1
 74
     0
176
     1
 91
        4
176
     1
 64
     7
176
     1
 65
   257
176
     1
 75
     1
176
     1
175
     1
176
     1
 42
1.0
176
     1
 92
        8
176
     1
 66
     7
176
     1
 43
1.0
176
     1
 76
     1
176
     1
 77
     6
176
     1
 78
     2
176
     1
 67
     7
176
     1
 79
     5
176
     1
170
     0
176
     1
171
     0
176
     1
290
     0
176
     1
 93
       13
176
     1
 44
0.0
176
     1
173
     0
176
     1
  0
VISUALSTYLE
  5
2C
102
{ACAD_REACTORS
330
2A
102
}
330
2A
100
AcDbVisualStyle
  2
FlatWithEdges
 70
     1
177
     2
291
     1
 71
     2
176
     1
 72
     1
176
     1
 73
     1
176
     1
 90
        2
176
     1
 40
-0.6
176
     1
 41
30.0
176
     1
 62
     5
 63
     7
421
 16777215
176
     1
 74
     1
176
     1
 91
        4
176
     1
 64
     7
176
     1
 65
   257
176
     1
 75
     1
176
     1
175
     1
176
     1
 42
1.0
176
     1
 92
        0
176
     1
 66
   257
176
     1
 43
1.0
176
     1
 76
     1
176
     1
 77
     6
176
     1
 78
     2
176
     1
 67
     7
176
     1
 79
     5
176
     1
170
     0
176
     1
171
     0
176
     1
290
     0
176
     1
 93
       13
176
     1
 44
0.0
176
     1
173
     0
176
     1
  0
VISUALSTYLE
  5
2D
102
{ACAD_REACTORS
330
2A
102
}
330
2A
100
AcDbVisualStyle
  2
Gouraud
 70
     2
177
     2
291
     1
 71
     2
176
     1
 72
     2
176
     1
 73
     1
176
     1
 90
        2
176
     1
 40
-0.6
176
     1
 41
30.0
176
     1
 62
     5
 63
     7
421
 16777215
176
     1
 74
     0
176
     1
 91
        4
176
     1
 64
     7
176
     1
 65
   257
176
     1
 75
     1
176
     1
175
     1
176
     1
 42
1.0
176
     1
 92
        0
176
     1
 66
     7
176
     1
 43
1.0
176
     1
 76
     1
176
     1
 77
     6
176
     1
 78
     2
176
     1
 67
     7
176
     1
 79
     5
176
     1
170
     0
176
     1
171
     0
176
     1
290
     0
176
     1
 93
       13
176
     1
 44
0.0
176
     1
173
     0
176
     1
  0
VISUALSTYLE
  5
2E
102
{ACAD_REACTORS
330
2A
102
}
330
2A
100
AcDbVisualStyle
  2
GouraudWithEdges
 70
     3
177
     2
291
     1
 71
     2
176
     1
 72
     2
176
     1
 73
     1
176
     1
 90
        2
176
     1
 40
-0.6
176
     1
 41
30.0
176
     1
 62
     5
 63
     7
421
 16777215
176
     1
 74
     1
176
     1
 91
        4
176
     1
 64
     7
176
     1
 65
   257
176
     1
 75
     1
176
     1
175
     1
176
     1
 42
1.0
176
     1
 92
        0
176
     1
 66
   257
176
     1
 43
1.0
176
     1
 76
     1
176
     1
 77
     6
176
     1
 78
     2
176
     1
 67
     7
176
     1
 79
     5
176
     1
170
     0
176
     1
171
     0
176
     1
290
     0
176
     1
 93
       13
176
     1
 44
0.0
176
     1
173
     0
176
     1
  0
VISUALSTYLE
  5
38
102
{ACAD_REACTORS
330
2A
102
}
330
2A
100
AcDbVisualStyle
  2
Linepattern
 70
    14
177
     2
291
     1
 71
     2
176
     1
 72
     2
176
     1
 73
     0
176
     1
 90
        0
176
     1
 40
-0.6
176
     1
 41
-30.0
176
     1
 62
     5
 63
     7
421
 16777215
176
     1
 74
     1
176
     1
 91
        4
176
     1
 64
     7
176
     1
 65
   257
176
     1
 75
     7
176
     1
175
     7
176
     1
 42
1.0
176
     1
 92
        8
176
     1
 66
     7
176
     1
 43
1.0
176
     1
 76
     1
176
     1
 77
     6
176
     1
 78
     2
176
     1
 67
     7
176
     1
 79
     5
176
     1
170
     0
176
     1
171
     0
176
     1
290
     0
176
     1
 93
        1
176
     1
 44
0.0
176
     1
173
     0
176
     1
  0
VISUALSTYLE
  5
33
102
{ACAD_REACTORS
330
2A
102
}
330
2A
100
AcDbVisualStyle
  2
Realistic
 70
     8
177
     2
291
     0
 71
     2
176
     1
 72
     2
176
     1
 73
     0
176
     1
 90
        0
176
     1
 40
-0.6
176
     1
 41
-30.0
176
     1
 62
     5
 63
     7
421
 16777215
176
     1
 74
     1
176
     1
 91
        0
176
     1
 64
     7
176
     1
 65
   257
176
     1
 75
     1
176
     1
175
     1
176
     1
 42
1.0
176
     1
 92
        8
176
     1
 66
     8
424
  7895160
176
     1
 43
1.0
176
     1
 76
     1
176
     1
 77
     6
176
     1
 78
     2
176
     1
 67
     7
176
     1
 79
     5
176
     1
170
     0
176
     1
171
     0
176
     1
290
     0
176
     1
 93
       13
176
     1
 44
0.0
176
     1
173
     0
176
     1
  0
VISUALSTYLE
  5
37
102
{ACAD_REACTORS
330
2A
102
}
330
2A
100
AcDbVisualStyle
  2
Thicken
 70
    13
177
     2
291
     1
 71
     2
176
     1
 72
     2
176
     1
 73
     0
176
     1
 90
        0
176
     1
 40
-0.6
176
     1
 41
-30.0
176
     1
 62
     5
 63
     7
421
 16777215
176
     1
 74
     1
176
     1
 91
        4
176
     1
 64
     7
176
     1
 65
   257
176
     1
 75
     1
176
     1
175
     1
176
     1
 42
1.0
176
     1
 92
       12
176
     1
 66
     7
176
     1
 43
1.0
176
     1
 76
     1
176
     1
 77
     6
176
     1
 78
     2
176
     1
 67
     7
176
     1
 79
     5
176
     1
170
     0
176
     1
171
     0
176
     1
290
     0
176
     1
 93
        1
176
     1
 44
0.0
176
     1
173
     0
176
     1
  0
ENDSEC
  0
EOF
