  0
SECTION
  2
HEADER
  9
$ACADVER
  1
AC1024
  9
$ACADMAINTVER
 70
     6
  9
$DWGCODEPAGE
  3
UNDEFINED
  9
$INSBASE
 10
0.0
 20
0.0
 30
0.0
  9
$EXTMIN
 10
1.000000000000000E+20
 20
1.000000000000000E+20
 30
1.000000000000000E+20
  9
$EXTMAX
 10
-1.000000000000000E+20
 20
-1.000000000000000E+20
 30
-1.000000000000000E+20
  9
$LIMMIN
 10
0.0
 20
0.0
  9
$LIMMAX
 10
12.0
 20
9.0
  9
$ORTHOMODE
 70
     0
  9
$REGENMODE
 70
     1
  9
$FILLMODE
 70
     1
  9
$QTEXTMODE
 70
     0
  9
$MIRRTEXT
 70
     1
  9
$LTSCALE
 40
1.0
  9
$ATTMODE
 70
     1
  9
$TEXTSIZE
 40
0.2
  9
$TRACEWID
 40
0.05
  9
$TEXTSTYLE
  7
Standard
  9
$CLAYER
  8
0
  9
$CELTYPE
  6
ByLayer
  9
$CECOLOR
 62
   256
  9
$CELTSCALE
 40
1.0
  9
$DISPSILH
 70
     0
  9
$DIMSCALE
 40
1.0
  9
$DIMASZ
 40
0.18
  9
$DIMEXO
 40
0.0625
  9
$DIMDLI
 40
0.38
  9
$DIMRND
 40
0.0
  9
$DIMDLE
 40
0.0
  9
$DIMEXE
 40
0.18
  9
$DIMTP
 40
0.0
  9
$DIMTM
 40
0.0
  9
$DIMTXT
 40
0.18
  9
$DIMCEN
 40
0.09
  9
$DIMTSZ
 40
0.0
  9
$DIMTOL
 70
     0
  9
$DIMLIM
 70
     0
  9
$DIMTIH
 70
     1
  9
$DIMTOH
 70
     1
  9
$DIMSE1
 70
     0
  9
$DIMSE2
 70
     0
  9
$DIMTAD
 70
     0
  9
$DIMZIN
 70
     0
  9
$DIMBLK
  1

  9
$DIMASO
 70
     1
  9
$DIMSHO
 70
     1
  9
$DIMPOST
  1

  9
$DIMAPOST
  1

  9
$DIMALT
 70
     0
  9
$DIMALTD
 70
     2
  9
$DIMALTF
 40
25.4
  9
$DIMLFAC
 40
1.0
  9
$DIMTOFL
 70
     0
  9
$DIMTVP
 40
0.0
  9
$DIMTIX
 70
     0
  9
$DIMSOXD
 70
     0
  9
$DIMSAH
 70
     0
  9
$DIMBLK1
  1

  9
$DIMBLK2
  1

  9
$DIMSTYLE
  2
Standard
  9
$DIMCLRD
 70
     0
  9
$DIMCLRE
 70
     0
  9
$DIMCLRT
 70
     0
  9
$DIMTFAC
 40
1.0
  9
$DIMGAP
 40
0.09
  9
$DIMJUST
 70
     0
  9
$DIMSD1
 70
     0
  9
$DIMSD2
 70
     0
  9
$DIMTOLJ
 70
     1
  9
$DIMTZIN
 70
     0
  9
$DIMALTZ
 70
     0
  9
$DIMALTTZ
 70
     0
  9
$DIMUPT
 70
     0
  9
$DIMDEC
 70
     4
  9
$DIMTDEC
 70
     4
  9
$DIMALTU
 70
     2
  9
$DIMALTTD
 70
     2
  9
$DIMTXSTY
  7
Standard
  9
$DIMAUNIT
 70
     0
  9
$DIMADEC
 70
     0
  9
$DIMALTRND
 40
0.0
  9
$DIMAZIN
 70
     0
  9
$DIMDSEP
 70
    46
  9
$DIMATFIT
 70
     3
  9
$DIMFRAC
 70
     0
  9
$DIMLDRBLK
  1

  9
$DIMLUNIT
 70
     2
  9
$DIMLWD
 70
    -2
  9
$DIMLWE
 70
    -2
  9
$DIMTMOVE
 70
     0
  9
$DIMFXL
 40
1.0
  9
$DIMFXLON
 70
     0
  9
$DIMJOGANG
 40
0.7853981633974483
  9
$DIMTFILL
 70
     0
  9
$DIMTFILLCLR
 70
     0
  9
$DIMARCSYM
 70
     0
  9
$DIMLTYPE
  6

  9
$DIMLTEX1
  6

  9
$DIMLTEX2
  6

  9
$DIMTXTDIRECTION
 70
     0
  9
$LUNITS
 70
     2
  9
$LUPREC
 70
     4
  9
$SKETCHINC
 40
0.1
  9
$FILLETRAD
 40
0.5
  9
$AUNITS
 70
     0
  9
$AUPREC
 70
     0
  9
$MENU
  1
.
  9
$ELEVATION
 40
0.0
  9
$PELEVATION
 40
0.0
  9
$THICKNESS
 40
0.0
  9
$LIMCHECK
 70
     0
  9
$CHAMFERA
 40
0.5
  9
$CHAMFERB
 40
0.5
  9
$CHAMFERC
 40
1.0
  9
$CHAMFERD
 40
0.0
  9
$SKPOLY
 70
     0
  9
$TDCREATE
 40
2457917.619374989
  9
$TDUCREATE
 40
2457917.244375
  9
$TDUPDATE
 40
2457917.619374989
  9
$TDUUPDATE
 40
2457917.244375
  9
$TDINDWG
 40
0.0000000116
  9
$TDUSRTIMER
 40
0.0000000116
  9
$USRTIMER
 70
     1
  9
$ANGBASE
 50
0.0
  9
$ANGDIR
 70
     0
  9
$PDMODE
 70
     0
  9
$PDSIZE
 40
0.0
  9
$PLINEWID
 40
0.0
  9
$SPLFRAME
 70
     0
  9
$SPLINETYPE
 70
     6
  9
$SPLINESEGS
 70
     8
  9
$HANDSEED
  5
D8
  9
$SURFTAB1
 70
     6
  9
$SURFTAB2
 70
     6
  9
$SURFTYPE
 70
     6
  9
$SURFU
 70
     6
  9
$SURFV
 70
     6
  9
$UCSBASE
  2

  9
$UCSNAME
  2

  9
$UCSORG
 10
0.0
 20
0.0
 30
0.0
  9
$UCSXDIR
 10
1.0
 20
0.0
 30
0.0
  9
$UCSYDIR
 10
0.0
 20
1.0
 30
0.0
  9
$UCSORTHOREF
  2

  9
$UCSORTHOVIEW
 70
     0
  9
$UCSORGTOP
 10
0.0
 20
0.0
 30
0.0
  9
$UCSORGBOTTOM
 10
0.0
 20
0.0
 30
0.0
  9
$UCSORGLEFT
 10
0.0
 20
0.0
 30
0.0
  9
$UCSORGRIGHT
 10
0.0
 20
0.0
 30
0.0
  9
$UCSORGFRONT
 10
0.0
 20
0.0
 30
0.0
  9
$UCSORGBACK
 10
0.0
 20
0.0
 30
0.0
  9
$PUCSBASE
  2

  9
$PUCSNAME
  2

  9
$PUCSORG
 10
0.0
 20
0.0
 30
0.0
  9
$PUCSXDIR
 10
1.0
 20
0.0
 30
0.0
  9
$PUCSYDIR
 10
0.0
 20
1.0
 30
0.0
  9
$PUCSORTHOREF
  2

  9
$PUCSORTHOVIEW
 70
     0
  9
$PUCSORGTOP
 10
0.0
 20
0.0
 30
0.0
  9
$PUCSORGBOTTOM
 10
0.0
 20
0.0
 30
0.0
  9
$PUCSORGLEFT
 10
0.0
 20
0.0
 30
0.0
  9
$PUCSORGRIGHT
 10
0.0
 20
0.0
 30
0.0
  9
$PUCSORGFRONT
 10
0.0
 20
0.0
 30
0.0
  9
$PUCSORGBACK
 10
0.0
 20
0.0
 30
0.0
  9
$USERI1
 70
     0
  9
$USERI2
 70
     0
  9
$USERI3
 70
     0
  9
$USERI4
 70
     0
  9
$USERI5
 70
     0
  9
$USERR1
 40
0.0
  9
$USERR2
 40
0.0
  9
$USERR3
 40
0.0
  9
$USERR4
 40
0.0
  9
$USERR5
 40
0.0
  9
$WORLDVIEW
 70
     1
  9
$SHADEDGE
 70
     3
  9
$SHADEDIF
 70
    70
  9
$TILEMODE
 70
     1
  9
$MAXACTVP
 70
    64
  9
$PINSBASE
 10
0.0
 20
0.0
 30
0.0
  9
$PLIMCHECK
 70
     0
  9
$PEXTMIN
 10
1.000000000000000E+20
 20
1.000000000000000E+20
 30
1.000000000000000E+20
  9
$PEXTMAX
 10
-1.000000000000000E+20
 20
-1.000000000000000E+20
 30
-1.000000000000000E+20
  9
$PLIMMIN
 10
0.0
 20
0.0
  9
$PLIMMAX
 10
12.0
 20
9.0
  9
$UNITMODE
 70
     0
  9
$VISRETAIN
 70
     1
  9
$PLINEGEN
 70
     0
  9
$PSLTSCALE
 70
     1
  9
$TREEDEPTH
 70
  3020
  9
$CMLSTYLE
  2
Standard
  9
$CMLJUST
 70
     0
  9
$CMLSCALE
 40
1.0
  9
$PROXYGRAPHICS
 70
     1
  9
$MEASUREMENT
 70
     0
  9
$CELWEIGHT
370
    -1
  9
$ENDCAPS
280
     0
  9
$JOINSTYLE
280
     0
  9
$LWDISPLAY
290
     1
  9
$INSUNITS
 70
     1
  9
$HYPERLINKBASE
  1

  9
$STYLESHEET
  1

  9
$XEDIT
290
     1
  9
$CEPSNTYPE
380
     0
  9
$PSTYLEMODE
290
     1
  9
$FINGERPRINTGUID
  2
{D799A2A3-8457-BE2C-D6B3-55C034B4EE0E}
  9
$VERSIONGUID
  2
{FAEB1C32-E019-11D5-929B-00C0DF256EC4}
  9
$EXTNAMES
290
     1
  9
$PSVPSCALE
 40
0.0
  9
$OLESTARTUP
290
     0
  9
$SORTENTS
280
   127
  9
$INDEXCTL
280
     0
  9
$HIDETEXT
280
     1
  9
$XCLIPFRAME
280
     2
  9
$HALOGAP
280
     0
  9
$OBSCOLOR
 70
   257
  9
$OBSLTYPE
280
     0
  9
$INTERSECTIONDISPLAY
280
     0
  9
$INTERSECTIONCOLOR
 70
   257
  9
$DIMASSOC
280
     2
  9
$PROJECTNAME
  1

  9
$CAMERADISPLAY
290
     0
  9
$LENSLENGTH
 40
50.0
  9
$CAMERAHEIGHT
 40
0.0
  9
$STEPSPERSEC
 40
2.0
  9
$STEPSIZE
 40
6.0
  9
$3DDWFPREC
 40
2.0
  9
$PSOLWIDTH
 40
0.25
  9
$PSOLHEIGHT
 40
4.0
  9
$LOFTANG1
 40
1.570796326794897
  9
$LOFTANG2
 40
1.570796326794897
  9
$LOFTMAG1
 40
0.0
  9
$LOFTMAG2
 40
0.0
  9
$LOFTPARAM
 70
     7
  9
$LOFTNORMALS
280
     1
  9
$LATITUDE
 40
37.795
  9
$LONGITUDE
 40
-122.394
  9
$NORTHDIRECTION
 40
0.0
  9
$TIMEZONE
 70
 -8000
  9
$LIGHTGLYPHDISPLAY
280
     1
  9
$TILEMODELIGHTSYNCH
280
     1
  9
$CMATERIAL
347
3C
  9
$SOLIDHIST
280
     1
  9
$SHOWHIST
280
     1
  9
$DWFFRAME
280
     2
  9
$DGNFRAME
280
     2
  9
$REALWORLDSCALE
290
     1
  9
$INTERFERECOLOR
 62
   256
  9
$CSHADOW
280
     0
  9
$SHADOWPLANELOCATION
 40
0.0
  0
ENDSEC
  0
SECTION
  2
CLASSES
  0
CLASS
  1
ACDBDICTIONARYWDFLT
  2
AcDbDictionaryWithDefault
  3
ObjectDBX Classes
 90
        0
 91
        4
280
     0
281
     0
  0
CLASS
  1
VISUALSTYLE
  2
AcDbVisualStyle
  3
ObjectDBX Classes
 90
     4095
 91
        4
280
     0
281
     0
  0
CLASS
  1
MATERIAL
  2
AcDbMaterial
  3
ObjectDBX Classes
 90
     1153
 91
        4
280
     0
281
     0
  0
CLASS
  1
SUN
  2
AcDbSun
  3
SCENEOE
 90
     1024
 91
        4
280
     0
281
     0
  0
ENDSEC
  0
SECTION
  2
TABLES
  0
TABLE
  2
VPORT
  5
8
330
0
100
AcDbSymbolTable
 70
     1
  0
VPORT
  5
29
330
8
100
AcDbSymbolTableRecord
100
AcDbViewportTableRecord
  2
*Active
 70
     0
 10
0.0
 20
0.0
 11
1.0
 21
1.0
 12
0.0
 22
0.0
 13
0.0
 23
0.0
 14
0.5
 24
0.5
 15
0.5
 25
0.5
 16
0.0
 26
0.0
 36
1.0
 17
91.00082462281999
 27
-128.4993055234307
 37
0.0
 40
256.9986110468615
 41
0.7081814508812795
 42
50.0
 43
0.0
 44
0.0
 50
0.0
 51
0.0
 71
     0
 72
   100
 73
     1
 74
     3
 75
     0
 76
     0
 77
     0
 78
     0
281
     0
 65
     1
110
0.0
120
0.0
130
0.0
111
1.0
121
0.0
131
0.0
112
0.0
122
1.0
132
0.0
 79
     0
146
0.0
 60
     3
 61
     5
292
     1
282
     1
141
0.0
142
0.0
 63
   250
361
3F
  0
ENDTAB
  0
TABLE
  2
LTYPE
  5
5
330
0
100
AcDbSymbolTable
 70
     1
  0
LTYPE
  5
14
330
5
100
AcDbSymbolTableRecord
100
AcDbLinetypeTableRecord
  2
ByBlock
 70
     0
  3

 72
    65
 73
     0
 40
0.0
  0
LTYPE
  5
15
330
5
100
AcDbSymbolTableRecord
100
AcDbLinetypeTableRecord
  2
ByLayer
 70
     0
  3

 72
    65
 73
     0
 40
0.0
  0
LTYPE
  5
16
330
5
100
AcDbSymbolTableRecord
100
AcDbLinetypeTableRecord
  2
Continuous
 70
     0
  3
Solid line
 72
    65
 73
     0
 40
0.0
  0
ENDTAB
  0
TABLE
  2
LAYER
  5
2
330
0
100
AcDbSymbolTable
 70
     2
  0
LAYER
  5
10
330
2
100
AcDbSymbolTableRecord
100
AcDbLayerTableRecord
  2
0
 70
     0
 62
     7
  6
Continuous
370
    -3
390
F
347
3E
  0
LAYER
  5
40
330
2
100
AcDbSymbolTableRecord
100
AcDbLayerTableRecord
  2
_U+30EC_U+30A4_U+30E4_U+30FC 1
 70
     0
 62
     7
  6
Continuous
370
    -3
390
F
347
3E
  0
ENDTAB
  0
TABLE
  2
STYLE
  5
3
330
0
100
AcDbSymbolTable
 70
     1
  0
STYLE
  5
11
330
3
100
AcDbSymbolTableRecord
100
AcDbTextStyleTableRecord
  2
Standard
 70
     0
 40
0.0
 41
1.0
 50
0.0
 71
     0
 42
0.2
  3
txt
  4

  0
ENDTAB
  0
TABLE
  2
VIEW
  5
6
330
0
100
AcDbSymbolTable
 70
     0
  0
ENDTAB
  0
TABLE
  2
UCS
  5
7
330
0
100
AcDbSymbolTable
 70
     0
  0
ENDTAB
  0
TABLE
  2
APPID
  5
9
330
0
100
AcDbSymbolTable
 70
     1
  0
APPID
  5
12
330
9
100
AcDbSymbolTableRecord
100
AcDbRegAppTableRecord
  2
ACAD
 70
     0
  0
ENDTAB
  0
TABLE
  2
DIMSTYLE
  5
A
330
0
100
AcDbSymbolTable
 70
     1
100
AcDbDimStyleTable
  0
DIMSTYLE
105
27
330
A
100
AcDbSymbolTableRecord
100
AcDbDimStyleTableRecord
  2
Standard
 70
     0
178
     0
340
11
  0
ENDTAB
  0
TABLE
  2
BLOCK_RECORD
  5
1
330
0
100
AcDbSymbolTable
 70
     7
  0
BLOCK_RECORD
  5
1F
330
1
100
AcDbSymbolTableRecord
100
AcDbBlockTableRecord
  2
*Model_Space
340
22
 70
     0
280
     1
281
     0
  0
BLOCK_RECORD
  5
1B
330
1
100
AcDbSymbolTableRecord
100
AcDbBlockTableRecord
  2
*Paper_Space
340
1E
 70
     0
280
     1
281
     0
  0
BLOCK_RECORD
  5
23
330
1
100
AcDbSymbolTableRecord
100
AcDbBlockTableRecord
  2
*Paper_Space0
340
26
 70
     0
280
     1
281
     0
  0
BLOCK_RECORD
  5
51
330
1
100
AcDbSymbolTableRecord
100
AcDbBlockTableRecord
  2
block 2
340
0
102
{BLKREFS
331
52
102
}
 70
     0
280
     1
281
     0
  0
BLOCK_RECORD
  5
68
330
1
100
AcDbSymbolTableRecord
100
AcDbBlockTableRecord
  2
block 3
340
0
102
{BLKREFS
331
69
102
}
 70
     0
280
     1
281
     0
  0
BLOCK_RECORD
  5
7C
330
1
100
AcDbSymbolTableRecord
100
AcDbBlockTableRecord
  2
block 4
340
0
102
{BLKREFS
331
7D
102
}
 70
     0
280
     1
281
     0
  0
BLOCK_RECORD
  5
9A
330
1
100
AcDbSymbolTableRecord
100
AcDbBlockTableRecord
  2
block 5
340
0
102
{BLKREFS
331
9B
102
}
 70
     0
280
     1
281
     0
  0
BLOCK_RECORD
  5
AC
330
1
100
AcDbSymbolTableRecord
100
AcDbBlockTableRecord
  2
block 6
340
0
102
{BLKREFS
331
AD
102
}
 70
     0
280
     1
281
     0
  0
BLOCK_RECORD
  5
CA
330
1
100
AcDbSymbolTableRecord
100
AcDbBlockTableRecord
  2
block 7
340
0
102
{BLKREFS
331
CB
102
}
 70
     0
280
     1
281
     0
  0
ENDTAB
  0
ENDSEC
  0
SECTION
  2
BLOCKS
  0
BLOCK
  5
20
330
1F
100
AcDbEntity
  8
0
100
AcDbBlockBegin
  2
*Model_Space
 70
     0
 10
0.0
 20
0.0
 30
0.0
  3
*Model_Space
  1

  0
ENDBLK
  5
21
330
1F
100
AcDbEntity
  8
0
100
AcDbBlockEnd
  0
BLOCK
  5
1C
330
1B
100
AcDbEntity
 67
     1
  8
0
100
AcDbBlockBegin
  2
*Paper_Space
 70
     0
 10
0.0
 20
0.0
 30
0.0
  3
*Paper_Space
  1

  0
ENDBLK
  5
1D
330
1B
100
AcDbEntity
 67
     1
  8
0
100
AcDbBlockEnd
  0
BLOCK
  5
24
330
23
100
AcDbEntity
  8
0
100
AcDbBlockBegin
  2
*Paper_Space0
 70
     0
 10
0.0
 20
0.0
 30
0.0
  3
*Paper_Space0
  1

  0
ENDBLK
  5
25
330
23
100
AcDbEntity
  8
0
100
AcDbBlockEnd
  0
BLOCK
  5
53
330
51
100
AcDbEntity
  8
0
100
AcDbBlockBegin
  2
block 2
 70
     0
 10
0.0
 20
0.0
 30
0.0
  3
block 2
  1

  0
SPLINE
  5
55
330
51
100
AcDbEntity
  8
_U+30EC_U+30A4_U+30E4_U+30FC 1
370
     0
100
AcDbSpline
210
0.0
220
0.0
230
1.0
 70
    11
 71
     3
 72
    26
 73
    22
 74
     0
 42
0.0000000001
 43
0.0000000001
 12
1.0
 22
0.0
 32
0.0
 13
1.0
 23
0.0
 33
0.0
 40
0.0
 40
0.0
 40
0.0
 40
0.0
 40
1.0
 40
1.0
 40
1.0
 40
2.0
 40
2.0
 40
2.0
 40
3.0
 40
3.0
 40
3.0
 40
4.0
 40
4.0
 40
4.0
 40
5.0
 40
5.0
 40
5.0
 40
6.0
 40
6.0
 40
6.0
 40
7.0
 40
7.0
 40
7.0
 40
7.0
 10
88.24991045970836
 20
-116.9046644130481
 30
0.0
 10
88.24991045970836
 20
-116.9046644130481
 30
0.0
 10
88.01306014509743
 20
-116.9046644130481
 30
0.0
 10
88.01306014509743
 20
-116.9046644130481
 30
0.0
 10
88.03838159691402
 20
-116.5958116027955
 30
0.0
 10
88.23096243453949
 20
-116.0774969870397
 30
0.0
 10
88.63713919225044
 20
-115.5719292245793
 30
0.0
 10
88.63713919225044
 20
-115.5719292245793
 30
0.0
 10
87.79929197023768
 20
-115.5719292245793
 30
0.0
 10
87.79929197023768
 20
-115.5719292245793
 30
0.0
 10
87.79929197023768
 20
-115.5719292245793
 30
0.0
 10
87.79929197023768
 20
-115.3604003617849
 30
0.0
 10
87.79929197023768
 20
-115.3604003617849
 30
0.0
 10
87.79929197023768
 20
-115.3604003617849
 30
0.0
 10
88.87398950686136
 20
-115.3604003617849
 30
0.0
 10
88.87398950686136
 20
-115.3604003617849
 30
0.0
 10
88.87398950686136
 20
-115.3604003617849
 30
0.0
 10
88.87398950686136
 20
-115.5719292245793
 30
0.0
 10
88.87398950686136
 20
-115.5719292245793
 30
0.0
 10
88.55032278602215
 20
-115.8616617548888
 30
0.0
 10
88.28384465023807
 20
-116.4540459235775
 30
0.0
 10
88.24991045970836
 20
-116.9046644130481
 30
0.0
  0
HATCH
  5
56
330
51
100
AcDbEntity
  8
_U+30EC_U+30A4_U+30E4_U+30FC 1
 62
     7
420
 16777215
100
AcDbHatch
 10
0.0
 20
0.0
 30
0.0
210
0.0
220
0.0
230
1.0
  2
SOLID
 70
     1
 71
     0
 91
        1
 92
        1
 93
        1
 72
     4
 94
        3
 73
     0
 74
     1
 95
       26
 96
       22
 40
0.0
 40
0.0
 40
0.0
 40
0.0
 40
1.0
 40
1.0
 40
1.0
 40
2.0
 40
2.0
 40
2.0
 40
3.0
 40
3.0
 40
3.0
 40
4.0
 40
4.0
 40
4.0
 40
5.0
 40
5.0
 40
5.0
 40
6.0
 40
6.0
 40
6.0
 40
7.0
 40
7.0
 40
7.0
 40
7.0
 10
88.24991045970836
 20
-116.9046644130481
 10
88.24991045970836
 20
-116.9046644130481
 10
88.01306014509743
 20
-116.9046644130481
 10
88.01306014509743
 20
-116.9046644130481
 10
88.03838159691402
 20
-116.5958116027955
 10
88.23096243453949
 20
-116.0774969870397
 10
88.63713919225044
 20
-115.5719292245793
 10
88.63713919225044
 20
-115.5719292245793
 10
87.79929197023768
 20
-115.5719292245793
 10
87.79929197023768
 20
-115.5719292245793
 10
87.79929197023768
 20
-115.5719292245793
 10
87.79929197023768
 20
-115.3604003617849
 10
87.79929197023768
 20
-115.3604003617849
 10
87.79929197023768
 20
-115.3604003617849
 10
88.87398950686136
 20
-115.3604003617849
 10
88.87398950686136
 20
-115.3604003617849
 10
88.87398950686136
 20
-115.3604003617849
 10
88.87398950686136
 20
-115.5719292245793
 10
88.87398950686136
 20
-115.5719292245793
 10
88.55032278602215
 20
-115.8616617548888
 10
88.28384465023807
 20
-116.4540459235775
 10
88.24991045970836
 20
-116.9046644130481
 97
        0
 97
        0
 75
     2
 76
     1
 98
        0
  0
ENDBLK
  5
54
330
51
100
AcDbEntity
  8
0
100
AcDbBlockEnd
  0
BLOCK
  5
6A
330
68
100
AcDbEntity
  8
0
100
AcDbBlockBegin
  2
block 3
 70
     0
 10
0.0
 20
0.0
 30
0.0
  3
block 3
  1

  0
SPLINE
  5
6C
330
68
100
AcDbEntity
  8
_U+30EC_U+30A4_U+30E4_U+30FC 1
370
     0
100
AcDbSpline
210
0.0
220
0.0
230
1.0
 70
    11
 71
     3
 72
    26
 73
    22
 74
     0
 42
0.0000000001
 43
0.0000000001
 12
1.0
 22
0.0
 32
0.0
 13
1.0
 23
0.0
 33
0.0
 40
0.0
 40
0.0
 40
0.0
 40
0.0
 40
1.0
 40
1.0
 40
1.0
 40
2.0
 40
2.0
 40
2.0
 40
3.0
 40
3.0
 40
3.0
 40
4.0
 40
4.0
 40
4.0
 40
5.0
 40
5.0
 40
5.0
 40
6.0
 40
6.0
 40
6.0
 40
7.0
 40
7.0
 40
7.0
 40
7.0
 10
87.80824921849933
 20
-123.2271036475786
 30
0.0
 10
87.80824921849933
 20
-123.2271036475786
 30
0.0
 10
87.80824921849933
 20
-122.1227782897818
 30
0.0
 10
87.80824921849933
 20
-122.1227782897818
 30
0.0
 10
87.80824921849933
 20
-122.1227782897818
 30
0.0
 10
87.4782090710124
 20
-122.1227782897818
 30
0.0
 10
87.4782090710124
 20
-122.1227782897818
 30
0.0
 10
87.4782090710124
 20
-122.1227782897818
 30
0.0
 10
87.4782090710124
 20
-121.9746391839161
 30
0.0
 10
87.4782090710124
 20
-121.9746391839161
 30
0.0
 10
87.81031627579048
 20
-121.9599975281038
 30
0.0
 10
87.85682506484136
 20
-121.7970445116514
 30
0.0
 10
87.8864528860145
 20
-121.6828395963154
 30
0.0
 10
87.8864528860145
 20
-121.6828395963154
 30
0.0
 10
88.03252493458909
 20
-121.6828395963154
 30
0.0
 10
88.03252493458909
 20
-121.6828395963154
 30
0.0
 10
88.03252493458909
 20
-121.6828395963154
 30
0.0
 10
88.03252493458909
 20
-123.2271036475786
 30
0.0
 10
88.03252493458909
 20
-123.2271036475786
 30
0.0
 10
88.03252493458909
 20
-123.2271036475786
 30
0.0
 10
87.80824921849933
 20
-123.2271036475786
 30
0.0
 10
87.80824921849933
 20
-123.2271036475786
 30
0.0
  0
HATCH
  5
6D
330
68
100
AcDbEntity
  8
_U+30EC_U+30A4_U+30E4_U+30FC 1
 62
     7
420
 16777215
100
AcDbHatch
 10
0.0
 20
0.0
 30
0.0
210
0.0
220
0.0
230
1.0
  2
SOLID
 70
     1
 71
     0
 91
        1
 92
        1
 93
        1
 72
     4
 94
        3
 73
     0
 74
     1
 95
       26
 96
       22
 40
0.0
 40
0.0
 40
0.0
 40
0.0
 40
1.0
 40
1.0
 40
1.0
 40
2.0
 40
2.0
 40
2.0
 40
3.0
 40
3.0
 40
3.0
 40
4.0
 40
4.0
 40
4.0
 40
5.0
 40
5.0
 40
5.0
 40
6.0
 40
6.0
 40
6.0
 40
7.0
 40
7.0
 40
7.0
 40
7.0
 10
87.80824921849933
 20
-123.2271036475786
 10
87.80824921849933
 20
-123.2271036475786
 10
87.80824921849933
 20
-122.1227782897818
 10
87.80824921849933
 20
-122.1227782897818
 10
87.80824921849933
 20
-122.1227782897818
 10
87.4782090710124
 20
-122.1227782897818
 10
87.4782090710124
 20
-122.1227782897818
 10
87.4782090710124
 20
-122.1227782897818
 10
87.4782090710124
 20
-121.9746391839161
 10
87.4782090710124
 20
-121.9746391839161
 10
87.81031627579048
 20
-121.9599975281038
 10
87.85682506484136
 20
-121.7970445116514
 10
87.8864528860145
 20
-121.6828395963154
 10
87.8864528860145
 20
-121.6828395963154
 10
88.03252493458909
 20
-121.6828395963154
 10
88.03252493458909
 20
-121.6828395963154
 10
88.03252493458909
 20
-121.6828395963154
 10
88.03252493458909
 20
-123.2271036475786
 10
88.03252493458909
 20
-123.2271036475786
 10
88.03252493458909
 20
-123.2271036475786
 10
87.80824921849933
 20
-123.2271036475786
 10
87.80824921849933
 20
-123.2271036475786
 97
        0
 97
        0
 75
     2
 76
     1
 98
        0
  0
ENDBLK
  5
6B
330
68
100
AcDbEntity
  8
0
100
AcDbBlockEnd
  0
BLOCK
  5
7E
330
7C
100
AcDbEntity
  8
0
100
AcDbBlockBegin
  2
block 4
 70
     0
 10
0.0
 20
0.0
 30
0.0
  3
block 4
  1

  0
SPLINE
  5
80
330
7C
100
AcDbEntity
  8
_U+30EC_U+30A4_U+30E4_U+30FC 1
370
     0
100
AcDbSpline
210
0.0
220
0.0
230
1.0
 70
    11
 71
     3
 72
    29
 73
    25
 74
     0
 42
0.0000000001
 43
0.0000000001
 12
1.0
 22
0.0
 32
0.0
 13
1.0
 23
0.0
 33
0.0
 40
0.0
 40
0.0
 40
0.0
 40
0.0
 40
1.0
 40
1.0
 40
1.0
 40
2.0
 40
2.0
 40
2.0
 40
3.0
 40
3.0
 40
3.0
 40
4.0
 40
4.0
 40
4.0
 40
5.0
 40
5.0
 40
5.0
 40
6.0
 40
6.0
 40
6.0
 40
7.0
 40
7.0
 40
7.0
 40
8.0
 40
8.0
 40
8.0
 40
8.0
 10
103.2653591321698
 20
-132.8890461907361
 30
0.0
 10
103.2653591321698
 20
-133.1556965812944
 30
0.0
 10
103.1278998223083
 20
-133.4096001185573
 30
0.0
 10
102.7789116496525
 20
-133.4096001185573
 30
0.0
 10
102.5229410550984
 20
-133.4096001185573
 30
0.0
 10
102.4278564197055
 20
-133.267662184565
 30
0.0
 10
102.3665337200681
 20
-133.1618977531679
 30
0.0
 10
102.3072780777218
 20
-133.2866102097339
 30
0.0
 10
102.1929009076115
 20
-133.3627468199579
 30
0.0
 10
102.0320149484503
 20
-133.3627468199579
 30
0.0
 10
101.7570963287274
 20
-133.3627468199579
 30
0.0
 10
101.6217040761571
 20
-133.163964810459
 30
0.0
 10
101.6217040761571
 20
-132.8890461907361
 30
0.0
 10
101.6217040761571
 20
-132.6055148323
 30
0.0
 10
101.7657090674405
 20
-132.4150010519657
 30
0.0
 10
102.0320149484503
 20
-132.4150010519657
 30
0.0
 10
102.1929009076115
 20
-132.4150010519657
 30
0.0
 10
102.3072780777218
 20
-132.4935492290294
 30
0.0
 10
102.3665337200681
 20
-132.6182616855954
 30
0.0
 10
102.4171766237013
 20
-132.529378222076
 30
0.0
 10
102.5122612590942
 20
-132.370559320206
 30
0.0
 10
102.7747775350702
 20
-132.370559320206
 30
0.0
 10
103.1492594143169
 20
-132.370559320206
 30
0.0
 10
103.2653591321698
 20
-132.6499565640597
 30
0.0
 10
103.2653591321698
 20
-132.8890461907361
 30
0.0
  0
SPLINE
  5
81
330
7C
100
AcDbEntity
  8
_U+30EC_U+30A4_U+30E4_U+30FC 1
370
     0
100
AcDbSpline
210
0.0
220
0.0
230
1.0
 70
    11
 71
     3
 72
    17
 73
    13
 74
     0
 42
0.0000000001
 43
0.0000000001
 12
1.0
 22
0.0
 32
0.0
 13
1.0
 23
0.0
 33
0.0
 40
0.0
 40
0.0
 40
0.0
 40
0.0
 40
1.0
 40
1.0
 40
1.0
 40
2.0
 40
2.0
 40
2.0
 40
3.0
 40
3.0
 40
3.0
 40
4.0
 40
4.0
 40
4.0
 40
4.0
 10
101.8142849137825
 20
-132.8890461907361
 30
0.0
 10
101.8142849137825
 20
-133.0540662644796
 30
0.0
 10
101.9093695491754
 20
-133.1388156134167
 30
0.0
 10
102.0447618017458
 20
-133.1388156134167
 30
0.0
 10
102.1674072010207
 20
-133.1388156134167
 30
0.0
 10
102.2859184857133
 20
-133.066813117775
 30
0.0
 10
102.2859184857133
 20
-132.8890461907361
 30
0.0
 10
102.2859184857133
 20
-132.7112792636972
 30
0.0
 10
102.1674072010207
 20
-132.6392767680555
 30
0.0
 10
102.0447618017458
 20
-132.6392767680555
 30
0.0
 10
101.9093695491754
 20
-132.6392767680555
 30
0.0
 10
101.8142849137825
 20
-132.7260931742838
 30
0.0
 10
101.8142849137825
 20
-132.8890461907361
 30
0.0
  0
SPLINE
  5
82
330
7C
100
AcDbEntity
  8
_U+30EC_U+30A4_U+30E4_U+30FC 1
370
     0
100
AcDbSpline
210
0.0
220
0.0
230
1.0
 70
    11
 71
     3
 72
    17
 73
    13
 74
     0
 42
0.0000000001
 43
0.0000000001
 12
1.0
 22
0.0
 32
0.0
 13
1.0
 23
0.0
 33
0.0
 40
0.0
 40
0.0
 40
0.0
 40
0.0
 40
1.0
 40
1.0
 40
1.0
 40
2.0
 40
2.0
 40
2.0
 40
3.0
 40
3.0
 40
3.0
 40
4.0
 40
4.0
 40
4.0
 40
4.0
 10
102.4743652087564
 20
-132.8890461907361
 30
0.0
 10
102.4743652087564
 20
-133.032706672471
 30
0.0
 10
102.5611816149847
 20
-133.1853244024676
 30
0.0
 10
102.7640977390659
 20
-133.1853244024676
 30
0.0
 10
102.9694254299868
 20
-133.1853244024676
 30
0.0
 10
103.0707112372532
 20
-133.0582003790618
 30
0.0
 10
103.0707112372532
 20
-132.8890461907361
 30
0.0
 10
103.0707112372532
 20
-132.7030110345326
 30
0.0
 10
102.9480658379783
 20
-132.5927679790046
 30
0.0
 10
102.7702989109394
 20
-132.5927679790046
 30
0.0
 10
102.5484347616893
 20
-132.5927679790046
 30
0.0
 10
102.4743652087564
 20
-132.7557209954569
 30
0.0
 10
102.4743652087564
 20
-132.8890461907361
 30
0.0
  0
HATCH
  5
83
330
7C
100
AcDbEntity
  8
_U+30EC_U+30A4_U+30E4_U+30FC 1
 62
     7
420
 16777215
100
AcDbHatch
 10
0.0
 20
0.0
 30
0.0
210
0.0
220
0.0
230
1.0
  2
SOLID
 70
     1
 71
     0
 91
        3
 92
        1
 93
        1
 72
     4
 94
        3
 73
     0
 74
     1
 95
       29
 96
       25
 40
0.0
 40
0.0
 40
0.0
 40
0.0
 40
1.0
 40
1.0
 40
1.0
 40
2.0
 40
2.0
 40
2.0
 40
3.0
 40
3.0
 40
3.0
 40
4.0
 40
4.0
 40
4.0
 40
5.0
 40
5.0
 40
5.0
 40
6.0
 40
6.0
 40
6.0
 40
7.0
 40
7.0
 40
7.0
 40
8.0
 40
8.0
 40
8.0
 40
8.0
 10
103.2653591321698
 20
-132.8890461907361
 10
103.2653591321698
 20
-133.1556965812944
 10
103.1278998223083
 20
-133.4096001185573
 10
102.7789116496525
 20
-133.4096001185573
 10
102.5229410550984
 20
-133.4096001185573
 10
102.4278564197055
 20
-133.267662184565
 10
102.3665337200681
 20
-133.1618977531679
 10
102.3072780777218
 20
-133.2866102097339
 10
102.1929009076115
 20
-133.3627468199579
 10
102.0320149484503
 20
-133.3627468199579
 10
101.7570963287274
 20
-133.3627468199579
 10
101.6217040761571
 20
-133.163964810459
 10
101.6217040761571
 20
-132.8890461907361
 10
101.6217040761571
 20
-132.6055148323
 10
101.7657090674405
 20
-132.4150010519657
 10
102.0320149484503
 20
-132.4150010519657
 10
102.1929009076115
 20
-132.4150010519657
 10
102.3072780777218
 20
-132.4935492290294
 10
102.3665337200681
 20
-132.6182616855954
 10
102.4171766237013
 20
-132.529378222076
 10
102.5122612590942
 20
-132.370559320206
 10
102.7747775350702
 20
-132.370559320206
 10
103.1492594143169
 20
-132.370559320206
 10
103.2653591321698
 20
-132.6499565640597
 10
103.2653591321698
 20
-132.8890461907361
 97
        0
 97
        0
 92
        1
 93
        1
 72
     4
 94
        3
 73
     0
 74
     1
 95
       17
 96
       13
 40
0.0
 40
0.0
 40
0.0
 40
0.0
 40
1.0
 40
1.0
 40
1.0
 40
2.0
 40
2.0
 40
2.0
 40
3.0
 40
3.0
 40
3.0
 40
4.0
 40
4.0
 40
4.0
 40
4.0
 10
101.8142849137825
 20
-132.8890461907361
 10
101.8142849137825
 20
-133.0540662644796
 10
101.9093695491754
 20
-133.1388156134167
 10
102.0447618017458
 20
-133.1388156134167
 10
102.1674072010207
 20
-133.1388156134167
 10
102.2859184857133
 20
-133.066813117775
 10
102.2859184857133
 20
-132.8890461907361
 10
102.2859184857133
 20
-132.7112792636972
 10
102.1674072010207
 20
-132.6392767680555
 10
102.0447618017458
 20
-132.6392767680555
 10
101.9093695491754
 20
-132.6392767680555
 10
101.8142849137825
 20
-132.7260931742838
 10
101.8142849137825
 20
-132.8890461907361
 97
        0
 97
        0
 92
        1
 93
        1
 72
     4
 94
        3
 73
     0
 74
     1
 95
       17
 96
       13
 40
0.0
 40
0.0
 40
0.0
 40
0.0
 40
1.0
 40
1.0
 40
1.0
 40
2.0
 40
2.0
 40
2.0
 40
3.0
 40
3.0
 40
3.0
 40
4.0
 40
4.0
 40
4.0
 40
4.0
 10
102.4743652087564
 20
-132.8890461907361
 10
102.4743652087564
 20
-133.032706672471
 10
102.5611816149847
 20
-133.1853244024676
 10
102.7640977390659
 20
-133.1853244024676
 10
102.9694254299868
 20
-133.1853244024676
 10
103.0707112372532
 20
-133.0582003790618
 10
103.0707112372532
 20
-132.8890461907361
 10
103.0707112372532
 20
-132.7030110345326
 10
102.9480658379783
 20
-132.5927679790046
 10
102.7702989109394
 20
-132.5927679790046
 10
102.5484347616893
 20
-132.5927679790046
 10
102.4743652087564
 20
-132.7557209954569
 10
102.4743652087564
 20
-132.8890461907361
 97
        0
 97
        0
 75
     2
 76
     1
 98
        0
  0
POLYLINE
  5
84
330
7C
100
AcDbEntity
  8
_U+30EC_U+30A4_U+30E4_U+30FC 1
370
     0
100
AcDb2dPolyline
 66
     1
 10
0.0
 20
0.0
 30
0.0
  0
VERTEX
  5
85
330
84
100
AcDbEntity
  8
_U+30EC_U+30A4_U+30E4_U+30FC 1
370
     0
100
AcDbVertex
100
AcDb2dVertex
 10
103.2147162285366
 20
-132.1521402664411
 30
0.0
  0
VERTEX
  5
86
330
84
100
AcDbEntity
  8
_U+30EC_U+30A4_U+30E4_U+30FC 1
370
     0
100
AcDbVertex
100
AcDb2dVertex
 10
102.9628797485648
 20
-132.1521402664411
 30
0.0
  0
VERTEX
  5
87
330
84
100
AcDbEntity
  8
_U+30EC_U+30A4_U+30E4_U+30FC 1
370
     0
100
AcDbVertex
100
AcDb2dVertex
 10
102.9628797485648
 20
-131.9003037864694
 30
0.0
  0
VERTEX
  5
88
330
84
100
AcDbEntity
  8
_U+30EC_U+30A4_U+30E4_U+30FC 1
370
     0
100
AcDbVertex
100
AcDb2dVertex
 10
103.2147162285366
 20
-131.9003037864694
 30
0.0
  0
VERTEX
  5
89
330
84
100
AcDbEntity
  8
_U+30EC_U+30A4_U+30E4_U+30FC 1
370
     0
100
AcDbVertex
100
AcDb2dVertex
 10
103.2147162285366
 20
-132.1521402664411
 30
0.0
  0
SEQEND
  5
8A
330
84
100
AcDbEntity
  8
_U+30EC_U+30A4_U+30E4_U+30FC 1
370
     0
  0
HATCH
  5
8B
330
7C
100
AcDbEntity
  8
_U+30EC_U+30A4_U+30E4_U+30FC 1
 62
     7
420
 16777215
100
AcDbHatch
 10
0.0
 20
0.0
 30
0.0
210
0.0
220
0.0
230
1.0
  2
SOLID
 70
     1
 71
     0
 91
        1
 92
        1
 93
        4
 72
     1
 10
103.2147162285366
 20
-132.1521402664411
 11
102.9628797485648
 21
-132.1521402664411
 72
     1
 10
102.9628797485648
 20
-132.1521402664411
 11
102.9628797485648
 21
-131.9003037864694
 72
     1
 10
102.9628797485648
 20
-131.9003037864694
 11
103.2147162285366
 21
-131.9003037864694
 72
     1
 10
103.2147162285366
 20
-131.9003037864694
 11
103.2147162285366
 21
-132.1521402664411
 97
        0
 75
     2
 76
     1
 98
        0
  0
SPLINE
  5
8C
330
7C
100
AcDbEntity
  8
_U+30EC_U+30A4_U+30E4_U+30FC 1
370
     0
100
AcDbSpline
210
0.0
220
0.0
230
1.0
 70
    11
 71
     3
 72
    53
 73
    49
 74
     0
 42
0.0000000001
 43
0.0000000001
 12
1.0
 22
0.0
 32
0.0
 13
1.0
 23
0.0
 33
0.0
 40
0.0
 40
0.0
 40
0.0
 40
0.0
 40
1.0
 40
1.0
 40
1.0
 40
2.0
 40
2.0
 40
2.0
 40
3.0
 40
3.0
 40
3.0
 40
4.0
 40
4.0
 40
4.0
 40
5.0
 40
5.0
 40
5.0
 40
6.0
 40
6.0
 40
6.0
 40
7.0
 40
7.0
 40
7.0
 40
8.0
 40
8.0
 40
8.0
 40
9.0
 40
9.0
 40
9.0
 40
10.0
 40
10.0
 40
10.0
 40
11.0
 40
11.0
 40
11.0
 40
12.0
 40
12.0
 40
12.0
 40
13.0
 40
13.0
 40
13.0
 40
14.0
 40
14.0
 40
14.0
 40
15.0
 40
15.0
 40
15.0
 40
16.0
 40
16.0
 40
16.0
 40
16.0
 10
103.2653591321698
 20
-131.1830349064404
 30
0.0
 10
103.2653591321698
 20
-131.2612385739555
 30
0.0
 10
103.2484781642921
 20
-131.3628688907704
 30
0.0
 10
103.1850884073635
 20
-131.4644992075853
 30
0.0
 10
103.075189861384
 20
-131.6377875104933
 30
0.0
 10
102.943931723396
 20
-131.6591471025019
 30
0.0
 10
102.8361002347076
 20
-131.6780951276708
 30
0.0
 10
102.8361002347076
 20
-131.6780951276708
 30
0.0
 10
102.8361002347076
 20
-131.4558864688721
 30
0.0
 10
102.8361002347076
 20
-131.4558864688721
 30
0.0
 10
103.0348822442066
 20
-131.4011094506567
 30
0.0
 10
103.0645100653797
 20
-131.2739854272509
 30
0.0
 10
103.0645100653797
 20
-131.1809678491492
 30
0.0
 10
103.0645100653797
 20
-131.0414414819966
 30
0.0
 10
102.964946805856
 20
-130.8891682615485
 30
0.0
 10
102.7324028606016
 20
-130.8891682615485
 30
0.0
 10
102.4764322660476
 20
-130.8891682615485
 30
0.0
 10
102.406496827697
 20
-131.0690022458786
 30
0.0
 10
102.406496827697
 20
-131.1895805878623
 30
0.0
 10
102.406496827697
 20
-131.2212754663266
 30
0.0
 10
102.406496827697
 20
-131.3628688907704
 30
0.0
 10
102.5356879083939
 20
-131.4517523542899
 30
0.0
 10
102.5356879083939
 20
-131.4517523542899
 30
0.0
 10
102.516739883225
 20
-131.6274522240376
 30
0.0
 10
102.516739883225
 20
-131.6274522240376
 30
0.0
 10
102.516739883225
 20
-131.6274522240376
 30
0.0
 10
101.6702799224991
 20
-131.5068738820538
 30
0.0
 10
101.6702799224991
 20
-131.5068738820538
 30
0.0
 10
101.6702799224991
 20
-131.5068738820538
 30
0.0
 10
101.6702799224991
 20
-130.7282823023874
 30
0.0
 10
101.6702799224991
 20
-130.7282823023874
 30
0.0
 10
101.6702799224991
 20
-130.7282823023874
 30
0.0
 10
101.8649278174157
 20
-130.7282823023874
 30
0.0
 10
101.8649278174157
 20
-130.7282823023874
 30
0.0
 10
101.8649278174157
 20
-130.7282823023874
 30
0.0
 10
101.8649278174157
 20
-131.3439208656015
 30
0.0
 10
101.8649278174157
 20
-131.3439208656015
 30
0.0
 10
101.8649278174157
 20
-131.3439208656015
 30
0.0
 10
102.2879855430044
 20
-131.4093776798213
 30
0.0
 10
102.2879855430044
 20
-131.4093776798213
 30
0.0
 10
102.2542236072489
 20
-131.3480549801838
 30
0.0
 10
102.2139159900715
 20
-131.2657171980863
 30
0.0
 10
102.2139159900715
 20
-131.1472059133937
 30
0.0
 10
102.2139159900715
 20
-130.8933023761308
 30
0.0
 10
102.4002956558235
 20
-130.6562798067457
 30
0.0
 10
102.7134548354328
 20
-130.6562798067457
 30
0.0
 10
103.0307481296243
 20
-130.6562798067457
 30
0.0
 10
103.2653591321698
 20
-130.8805555228354
 30
0.0
 10
103.2653591321698
 20
-131.1830349064404
 30
0.0
  0
HATCH
  5
8D
330
7C
100
AcDbEntity
  8
_U+30EC_U+30A4_U+30E4_U+30FC 1
 62
     7
420
 16777215
100
AcDbHatch
 10
0.0
 20
0.0
 30
0.0
210
0.0
220
0.0
230
1.0
  2
SOLID
 70
     1
 71
     0
 91
        1
 92
        1
 93
        1
 72
     4
 94
        3
 73
     0
 74
     1
 95
       53
 96
       49
 40
0.0
 40
0.0
 40
0.0
 40
0.0
 40
1.0
 40
1.0
 40
1.0
 40
2.0
 40
2.0
 40
2.0
 40
3.0
 40
3.0
 40
3.0
 40
4.0
 40
4.0
 40
4.0
 40
5.0
 40
5.0
 40
5.0
 40
6.0
 40
6.0
 40
6.0
 40
7.0
 40
7.0
 40
7.0
 40
8.0
 40
8.0
 40
8.0
 40
9.0
 40
9.0
 40
9.0
 40
10.0
 40
10.0
 40
10.0
 40
11.0
 40
11.0
 40
11.0
 40
12.0
 40
12.0
 40
12.0
 40
13.0
 40
13.0
 40
13.0
 40
14.0
 40
14.0
 40
14.0
 40
15.0
 40
15.0
 40
15.0
 40
16.0
 40
16.0
 40
16.0
 40
16.0
 10
103.2653591321698
 20
-131.1830349064404
 10
103.2653591321698
 20
-131.2612385739555
 10
103.2484781642921
 20
-131.3628688907704
 10
103.1850884073635
 20
-131.4644992075853
 10
103.075189861384
 20
-131.6377875104933
 10
102.943931723396
 20
-131.6591471025019
 10
102.8361002347076
 20
-131.6780951276708
 10
102.8361002347076
 20
-131.6780951276708
 10
102.8361002347076
 20
-131.4558864688721
 10
102.8361002347076
 20
-131.4558864688721
 10
103.0348822442066
 20
-131.4011094506567
 10
103.0645100653797
 20
-131.2739854272509
 10
103.0645100653797
 20
-131.1809678491492
 10
103.0645100653797
 20
-131.0414414819966
 10
102.964946805856
 20
-130.8891682615485
 10
102.7324028606016
 20
-130.8891682615485
 10
102.4764322660476
 20
-130.8891682615485
 10
102.406496827697
 20
-131.0690022458786
 10
102.406496827697
 20
-131.1895805878623
 10
102.406496827697
 20
-131.2212754663266
 10
102.406496827697
 20
-131.3628688907704
 10
102.5356879083939
 20
-131.4517523542899
 10
102.5356879083939
 20
-131.4517523542899
 10
102.516739883225
 20
-131.6274522240376
 10
102.516739883225
 20
-131.6274522240376
 10
102.516739883225
 20
-131.6274522240376
 10
101.6702799224991
 20
-131.5068738820538
 10
101.6702799224991
 20
-131.5068738820538
 10
101.6702799224991
 20
-131.5068738820538
 10
101.6702799224991
 20
-130.7282823023874
 10
101.6702799224991
 20
-130.7282823023874
 10
101.6702799224991
 20
-130.7282823023874
 10
101.8649278174157
 20
-130.7282823023874
 10
101.8649278174157
 20
-130.7282823023874
 10
101.8649278174157
 20
-130.7282823023874
 10
101.8649278174157
 20
-131.3439208656015
 10
101.8649278174157
 20
-131.3439208656015
 10
101.8649278174157
 20
-131.3439208656015
 10
102.2879855430044
 20
-131.4093776798213
 10
102.2879855430044
 20
-131.4093776798213
 10
102.2542236072489
 20
-131.3480549801838
 10
102.2139159900715
 20
-131.2657171980863
 10
102.2139159900715
 20
-131.1472059133937
 10
102.2139159900715
 20
-130.8933023761308
 10
102.4002956558235
 20
-130.6562798067457
 10
102.7134548354328
 20
-130.6562798067457
 10
103.0307481296243
 20
-130.6562798067457
 10
103.2653591321698
 20
-130.8805555228354
 10
103.2653591321698
 20
-131.1830349064404
 97
        0
 97
        0
 75
     2
 76
     1
 98
        0
  0
ENDBLK
  5
7F
330
7C
100
AcDbEntity
  8
0
100
AcDbBlockEnd
  0
BLOCK
  5
9C
330
9A
100
AcDbEntity
  8
0
100
AcDbBlockBegin
  2
block 5
 70
     0
 10
0.0
 20
0.0
 30
0.0
  3
block 5
  1

  0
SPLINE
  5
9E
330
9A
100
AcDbEntity
  8
_U+30EC_U+30A4_U+30E4_U+30FC 1
370
     0
100
AcDbSpline
210
0.0
220
0.0
230
1.0
 70
    11
 71
     3
 72
    26
 73
    22
 74
     0
 42
0.0000000001
 43
0.0000000001
 12
1.0
 22
0.0
 32
0.0
 13
1.0
 23
0.0
 33
0.0
 40
0.0
 40
0.0
 40
0.0
 40
0.0
 40
1.0
 40
1.0
 40
1.0
 40
2.0
 40
2.0
 40
2.0
 40
3.0
 40
3.0
 40
3.0
 40
4.0
 40
4.0
 40
4.0
 40
5.0
 40
5.0
 40
5.0
 40
6.0
 40
6.0
 40
6.0
 40
7.0
 40
7.0
 40
7.0
 40
7.0
 10
103.2591579602963
 20
-123.5505981136436
 30
0.0
 10
103.2591579602963
 20
-123.5505981136436
 30
0.0
 10
103.2591579602963
 20
-123.7874484282545
 30
0.0
 10
103.2591579602963
 20
-123.7874484282545
 30
0.0
 10
102.9501328952694
 20
-123.7621269764379
 30
0.0
 10
102.4319905342878
 20
-123.5695461388125
 30
0.0
 10
101.9262505170532
 20
-123.1633693811015
 30
0.0
 10
101.9262505170532
 20
-123.1633693811015
 30
0.0
 10
101.9262505170532
 20
-124.0012166031143
 30
0.0
 10
101.9262505170532
 20
-124.0012166031143
 30
0.0
 10
101.9262505170532
 20
-124.0012166031143
 30
0.0
 10
101.7147216542588
 20
-124.0012166031143
 30
0.0
 10
101.7147216542588
 20
-124.0012166031143
 30
0.0
 10
101.7147216542588
 20
-124.0012166031143
 30
0.0
 10
101.7147216542588
 20
-122.9265190664906
 30
0.0
 10
101.7147216542588
 20
-122.9265190664906
 30
0.0
 10
101.7147216542588
 20
-122.9265190664906
 30
0.0
 10
101.9262505170532
 20
-122.9265190664906
 30
0.0
 10
101.9262505170532
 20
-122.9265190664906
 30
0.0
 10
102.2163275569112
 20
-123.2501857873298
 30
0.0
 10
102.8085394708257
 20
-123.5166639231139
 30
0.0
 10
103.2591579602963
 20
-123.5505981136436
 30
0.0
  0
HATCH
  5
9F
330
9A
100
AcDbEntity
  8
_U+30EC_U+30A4_U+30E4_U+30FC 1
 62
     7
420
 16777215
100
AcDbHatch
 10
0.0
 20
0.0
 30
0.0
210
0.0
220
0.0
230
1.0
  2
SOLID
 70
     1
 71
     0
 91
        1
 92
        1
 93
        1
 72
     4
 94
        3
 73
     0
 74
     1
 95
       26
 96
       22
 40
0.0
 40
0.0
 40
0.0
 40
0.0
 40
1.0
 40
1.0
 40
1.0
 40
2.0
 40
2.0
 40
2.0
 40
3.0
 40
3.0
 40
3.0
 40
4.0
 40
4.0
 40
4.0
 40
5.0
 40
5.0
 40
5.0
 40
6.0
 40
6.0
 40
6.0
 40
7.0
 40
7.0
 40
7.0
 40
7.0
 10
103.2591579602963
 20
-123.5505981136436
 10
103.2591579602963
 20
-123.5505981136436
 10
103.2591579602963
 20
-123.7874484282545
 10
103.2591579602963
 20
-123.7874484282545
 10
102.9501328952694
 20
-123.7621269764379
 10
102.4319905342878
 20
-123.5695461388125
 10
101.9262505170532
 20
-123.1633693811015
 10
101.9262505170532
 20
-123.1633693811015
 10
101.9262505170532
 20
-124.0012166031143
 10
101.9262505170532
 20
-124.0012166031143
 10
101.9262505170532
 20
-124.0012166031143
 10
101.7147216542588
 20
-124.0012166031143
 10
101.7147216542588
 20
-124.0012166031143
 10
101.7147216542588
 20
-124.0012166031143
 10
101.7147216542588
 20
-122.9265190664906
 10
101.7147216542588
 20
-122.9265190664906
 10
101.7147216542588
 20
-122.9265190664906
 10
101.9262505170532
 20
-122.9265190664906
 10
101.9262505170532
 20
-122.9265190664906
 10
102.2163275569112
 20
-123.2501857873298
 10
102.8085394708257
 20
-123.5166639231139
 10
103.2591579602963
 20
-123.5505981136436
 97
        0
 97
        0
 75
     2
 76
     1
 98
        0
  0
ENDBLK
  5
9D
330
9A
100
AcDbEntity
  8
0
100
AcDbBlockEnd
  0
BLOCK
  5
AE
330
AC
100
AcDbEntity
  8
0
100
AcDbBlockBegin
  2
block 6
 70
     0
 10
0.0
 20
0.0
 30
0.0
  3
block 6
  1

  0
SPLINE
  5
B0
330
AC
100
AcDbEntity
  8
_U+30EC_U+30A4_U+30E4_U+30FC 1
370
     0
100
AcDbSpline
210
0.0
220
0.0
230
1.0
 70
    11
 71
     3
 72
    26
 73
    22
 74
     0
 42
0.0000000001
 43
0.0000000001
 12
1.0
 22
0.0
 32
0.0
 13
1.0
 23
0.0
 33
0.0
 40
0.0
 40
0.0
 40
0.0
 40
0.0
 40
1.0
 40
1.0
 40
1.0
 40
2.0
 40
2.0
 40
2.0
 40
3.0
 40
3.0
 40
3.0
 40
4.0
 40
4.0
 40
4.0
 40
5.0
 40
5.0
 40
5.0
 40
6.0
 40
6.0
 40
6.0
 40
7.0
 40
7.0
 40
7.0
 40
7.0
 10
79.25838349798055
 20
-130.0117024414554
 30
0.0
 10
79.25838349798055
 20
-130.0117024414554
 30
0.0
 10
78.15405814018371
 20
-130.0117024414554
 30
0.0
 10
78.15405814018371
 20
-130.0117024414554
 30
0.0
 10
78.15405814018371
 20
-130.0117024414554
 30
0.0
 10
78.15405814018371
 20
-130.3417425889423
 30
0.0
 10
78.15405814018371
 20
-130.3417425889423
 30
0.0
 10
78.15405814018371
 20
-130.3417425889423
 30
0.0
 10
78.00591903431797
 20
-130.3417425889423
 30
0.0
 10
78.00591903431797
 20
-130.3417425889423
 30
0.0
 10
77.99127737850566
 20
-130.0096353841643
 30
0.0
 10
77.82832436205334
 20
-129.9631265951134
 30
0.0
 10
77.7141194467173
 20
-129.9334987739402
 30
0.0
 10
77.7141194467173
 20
-129.9334987739402
 30
0.0
 10
77.7141194467173
 20
-129.7874267253657
 30
0.0
 10
77.7141194467173
 20
-129.7874267253657
 30
0.0
 10
77.7141194467173
 20
-129.7874267253657
 30
0.0
 10
79.25838349798055
 20
-129.7874267253657
 30
0.0
 10
79.25838349798055
 20
-129.7874267253657
 30
0.0
 10
79.25838349798055
 20
-129.7874267253657
 30
0.0
 10
79.25838349798055
 20
-130.0117024414554
 30
0.0
 10
79.25838349798055
 20
-130.0117024414554
 30
0.0
  0
HATCH
  5
B1
330
AC
100
AcDbEntity
  8
_U+30EC_U+30A4_U+30E4_U+30FC 1
 62
     7
420
 16777215
100
AcDbHatch
 10
0.0
 20
0.0
 30
0.0
210
0.0
220
0.0
230
1.0
  2
SOLID
 70
     1
 71
     0
 91
        1
 92
        1
 93
        1
 72
     4
 94
        3
 73
     0
 74
     1
 95
       26
 96
       22
 40
0.0
 40
0.0
 40
0.0
 40
0.0
 40
1.0
 40
1.0
 40
1.0
 40
2.0
 40
2.0
 40
2.0
 40
3.0
 40
3.0
 40
3.0
 40
4.0
 40
4.0
 40
4.0
 40
5.0
 40
5.0
 40
5.0
 40
6.0
 40
6.0
 40
6.0
 40
7.0
 40
7.0
 40
7.0
 40
7.0
 10
79.25838349798055
 20
-130.0117024414554
 10
79.25838349798055
 20
-130.0117024414554
 10
78.15405814018371
 20
-130.0117024414554
 10
78.15405814018371
 20
-130.0117024414554
 10
78.15405814018371
 20
-130.0117024414554
 10
78.15405814018371
 20
-130.3417425889423
 10
78.15405814018371
 20
-130.3417425889423
 10
78.15405814018371
 20
-130.3417425889423
 10
78.00591903431797
 20
-130.3417425889423
 10
78.00591903431797
 20
-130.3417425889423
 10
77.99127737850566
 20
-130.0096353841643
 10
77.82832436205334
 20
-129.9631265951134
 10
77.7141194467173
 20
-129.9334987739402
 10
77.7141194467173
 20
-129.9334987739402
 10
77.7141194467173
 20
-129.7874267253657
 10
77.7141194467173
 20
-129.7874267253657
 10
77.7141194467173
 20
-129.7874267253657
 10
79.25838349798055
 20
-129.7874267253657
 10
79.25838349798055
 20
-129.7874267253657
 10
79.25838349798055
 20
-129.7874267253657
 10
79.25838349798055
 20
-130.0117024414554
 10
79.25838349798055
 20
-130.0117024414554
 97
        0
 97
        0
 75
     2
 76
     1
 98
        0
  0
SPLINE
  5
B2
330
AC
100
AcDbEntity
  8
_U+30EC_U+30A4_U+30E4_U+30FC 1
370
     0
100
AcDbSpline
210
0.0
220
0.0
230
1.0
 70
    11
 71
     3
 72
    26
 73
    22
 74
     0
 42
0.0000000001
 43
0.0000000001
 12
1.0
 22
0.0
 32
0.0
 13
1.0
 23
0.0
 33
0.0
 40
0.0
 40
0.0
 40
0.0
 40
0.0
 40
1.0
 40
1.0
 40
1.0
 40
2.0
 40
2.0
 40
2.0
 40
3.0
 40
3.0
 40
3.0
 40
4.0
 40
4.0
 40
4.0
 40
5.0
 40
5.0
 40
5.0
 40
6.0
 40
6.0
 40
6.0
 40
7.0
 40
7.0
 40
7.0
 40
7.0
 10
79.25838349798055
 20
-128.8751654408715
 30
0.0
 10
79.25838349798055
 20
-128.8751654408715
 30
0.0
 10
79.25838349798055
 20
-129.1118435007081
 30
0.0
 10
79.25838349798055
 20
-129.1118435007081
 30
0.0
 10
78.9495306877279
 20
-129.0866943036658
 30
0.0
 10
78.43121607197206
 20
-128.8941134660404
 30
0.0
 10
77.92564830951164
 20
-128.4879367083294
 30
0.0
 10
77.92564830951164
 20
-128.4879367083294
 30
0.0
 10
77.92564830951164
 20
-129.3257839303422
 30
0.0
 10
77.92564830951164
 20
-129.3257839303422
 30
0.0
 10
77.92564830951164
 20
-129.3257839303422
 30
0.0
 10
77.7141194467173
 20
-129.3257839303422
 30
0.0
 10
77.7141194467173
 20
-129.3257839303422
 30
0.0
 10
77.7141194467173
 20
-129.3257839303422
 30
0.0
 10
77.7141194467173
 20
-128.2510863937185
 30
0.0
 10
77.7141194467173
 20
-128.2510863937185
 30
0.0
 10
77.7141194467173
 20
-128.2510863937185
 30
0.0
 10
77.92564830951164
 20
-128.2510863937185
 30
0.0
 10
77.92564830951164
 20
-128.2510863937185
 30
0.0
 10
78.21538083982117
 20
-128.5747531145577
 30
0.0
 10
78.80776500850986
 20
-128.8410589955675
 30
0.0
 10
79.25838349798055
 20
-128.8751654408715
 30
0.0
  0
HATCH
  5
B3
330
AC
100
AcDbEntity
  8
_U+30EC_U+30A4_U+30E4_U+30FC 1
 62
     7
420
 16777215
100
AcDbHatch
 10
0.0
 20
0.0
 30
0.0
210
0.0
220
0.0
230
1.0
  2
SOLID
 70
     1
 71
     0
 91
        1
 92
        1
 93
        1
 72
     4
 94
        3
 73
     0
 74
     1
 95
       26
 96
       22
 40
0.0
 40
0.0
 40
0.0
 40
0.0
 40
1.0
 40
1.0
 40
1.0
 40
2.0
 40
2.0
 40
2.0
 40
3.0
 40
3.0
 40
3.0
 40
4.0
 40
4.0
 40
4.0
 40
5.0
 40
5.0
 40
5.0
 40
6.0
 40
6.0
 40
6.0
 40
7.0
 40
7.0
 40
7.0
 40
7.0
 10
79.25838349798055
 20
-128.8751654408715
 10
79.25838349798055
 20
-128.8751654408715
 10
79.25838349798055
 20
-129.1118435007081
 10
79.25838349798055
 20
-129.1118435007081
 10
78.9495306877279
 20
-129.0866943036658
 10
78.43121607197206
 20
-128.8941134660404
 10
77.92564830951164
 20
-128.4879367083294
 10
77.92564830951164
 20
-128.4879367083294
 10
77.92564830951164
 20
-129.3257839303422
 10
77.92564830951164
 20
-129.3257839303422
 10
77.92564830951164
 20
-129.3257839303422
 10
77.7141194467173
 20
-129.3257839303422
 10
77.7141194467173
 20
-129.3257839303422
 10
77.7141194467173
 20
-129.3257839303422
 10
77.7141194467173
 20
-128.2510863937185
 10
77.7141194467173
 20
-128.2510863937185
 10
77.7141194467173
 20
-128.2510863937185
 10
77.92564830951164
 20
-128.2510863937185
 10
77.92564830951164
 20
-128.2510863937185
 10
78.21538083982117
 20
-128.5747531145577
 10
78.80776500850986
 20
-128.8410589955675
 10
79.25838349798055
 20
-128.8751654408715
 97
        0
 97
        0
 75
     2
 76
     1
 98
        0
  0
POLYLINE
  5
B4
330
AC
100
AcDbEntity
  8
_U+30EC_U+30A4_U+30E4_U+30FC 1
370
     0
100
AcDb2dPolyline
 66
     1
 10
0.0
 20
0.0
 30
0.0
  0
VERTEX
  5
B5
330
B4
100
AcDbEntity
  8
_U+30EC_U+30A4_U+30E4_U+30FC 1
370
     0
100
AcDbVertex
100
AcDb2dVertex
 10
79.25838349798055
 20
-128.0493760530571
 30
0.0
  0
VERTEX
  5
B6
330
B4
100
AcDbEntity
  8
_U+30EC_U+30A4_U+30E4_U+30FC 1
370
     0
100
AcDbVertex
100
AcDb2dVertex
 10
79.00671927278304
 20
-128.0493760530571
 30
0.0
  0
VERTEX
  5
B7
330
B4
100
AcDbEntity
  8
_U+30EC_U+30A4_U+30E4_U+30FC 1
370
     0
100
AcDbVertex
100
AcDb2dVertex
 10
79.00671927278304
 20
-127.7977118278596
 30
0.0
  0
VERTEX
  5
B8
330
B4
100
AcDbEntity
  8
_U+30EC_U+30A4_U+30E4_U+30FC 1
370
     0
100
AcDbVertex
100
AcDb2dVertex
 10
79.25838349798055
 20
-127.7977118278596
 30
0.0
  0
VERTEX
  5
B9
330
B4
100
AcDbEntity
  8
_U+30EC_U+30A4_U+30E4_U+30FC 1
370
     0
100
AcDbVertex
100
AcDb2dVertex
 10
79.25838349798055
 20
-128.0493760530571
 30
0.0
  0
SEQEND
  5
BA
330
B4
100
AcDbEntity
  8
_U+30EC_U+30A4_U+30E4_U+30FC 1
370
     0
  0
HATCH
  5
BB
330
AC
100
AcDbEntity
  8
_U+30EC_U+30A4_U+30E4_U+30FC 1
 62
     7
420
 16777215
100
AcDbHatch
 10
0.0
 20
0.0
 30
0.0
210
0.0
220
0.0
230
1.0
  2
SOLID
 70
     1
 71
     0
 91
        1
 92
        1
 93
        4
 72
     1
 10
79.25838349798055
 20
-128.0493760530571
 11
79.00671927278304
 21
-128.0493760530571
 72
     1
 10
79.00671927278304
 20
-128.0493760530571
 11
79.00671927278304
 21
-127.7977118278596
 72
     1
 10
79.00671927278304
 20
-127.7977118278596
 11
79.25838349798055
 21
-127.7977118278596
 72
     1
 10
79.25838349798055
 20
-127.7977118278596
 11
79.25838349798055
 21
-128.0493760530571
 97
        0
 75
     2
 76
     1
 98
        0
  0
SPLINE
  5
BC
330
AC
100
AcDbEntity
  8
_U+30EC_U+30A4_U+30E4_U+30FC 1
370
     0
100
AcDbSpline
210
0.0
220
0.0
230
1.0
 70
    11
 71
     3
 72
    53
 73
    49
 74
     0
 42
0.0000000001
 43
0.0000000001
 12
1.0
 22
0.0
 32
0.0
 13
1.0
 23
0.0
 33
0.0
 40
0.0
 40
0.0
 40
0.0
 40
0.0
 40
1.0
 40
1.0
 40
1.0
 40
2.0
 40
2.0
 40
2.0
 40
3.0
 40
3.0
 40
3.0
 40
4.0
 40
4.0
 40
4.0
 40
5.0
 40
5.0
 40
5.0
 40
6.0
 40
6.0
 40
6.0
 40
7.0
 40
7.0
 40
7.0
 40
8.0
 40
8.0
 40
8.0
 40
9.0
 40
9.0
 40
9.0
 40
10.0
 40
10.0
 40
10.0
 40
11.0
 40
11.0
 40
11.0
 40
12.0
 40
12.0
 40
12.0
 40
13.0
 40
13.0
 40
13.0
 40
14.0
 40
14.0
 40
14.0
 40
15.0
 40
15.0
 40
15.0
 40
16.0
 40
16.0
 40
16.0
 40
16.0
 10
79.30919865638798
 20
-127.0800984382821
 30
0.0
 10
79.30919865638798
 20
-127.1584743605715
 30
0.0
 10
79.29231768851025
 20
-127.2599324226121
 30
0.0
 10
79.2287556768074
 20
-127.361562739427
 30
0.0
 10
79.11868487605366
 20
-127.5350232971093
 30
0.0
 10
78.9875989928399
 20
-127.5562106343436
 30
0.0
 10
78.87976750415159
 20
-127.5751586595125
 30
0.0
 10
78.87976750415159
 20
-127.5751586595125
 30
0.0
 10
78.87976750415159
 20
-127.3531222554881
 30
0.0
 10
78.87976750415159
 20
-127.3531222554881
 30
0.0
 10
79.0785495136505
 20
-127.2980007277241
 30
0.0
 10
79.10817733482365
 20
-127.1710489590927
 30
0.0
 10
79.10817733482365
 20
-127.0780313809909
 30
0.0
 10
79.10817733482365
 20
-126.938332759064
 30
0.0
 10
79.0087863300742
 20
-126.786059538616
 30
0.0
 10
78.77607013004557
 20
-126.786059538616
 30
0.0
 10
78.52009953549151
 20
-126.786059538616
 30
0.0
 10
78.4503363519152
 20
-126.965893522946
 30
0.0
 10
78.4503363519152
 20
-127.0864718649298
 30
0.0
 10
78.4503363519152
 20
-127.1181667433941
 30
0.0
 10
78.4503363519152
 20
-127.2599324226121
 30
0.0
 10
78.5793551778378
 20
-127.3488158861315
 30
0.0
 10
78.5793551778378
 20
-127.3488158861315
 30
0.0
 10
78.56023489789467
 20
-127.524343501105
 30
0.0
 10
78.56023489789467
 20
-127.524343501105
 30
0.0
 10
78.56023489789467
 20
-127.524343501105
 30
0.0
 10
77.7141194467173
 20
-127.4037651591213
 30
0.0
 10
77.7141194467173
 20
-127.4037651591213
 30
0.0
 10
77.7141194467173
 20
-127.4037651591213
 30
0.0
 10
77.7141194467173
 20
-126.6253458342291
 30
0.0
 10
77.7141194467173
 20
-126.6253458342291
 30
0.0
 10
77.7141194467173
 20
-126.6253458342291
 30
0.0
 10
77.90876734163392
 20
-126.6253458342291
 30
0.0
 10
77.90876734163392
 20
-126.6253458342291
 30
0.0
 10
77.90876734163392
 20
-126.6253458342291
 30
0.0
 10
77.90876734163392
 20
-127.2409843974432
 30
0.0
 10
77.90876734163392
 20
-127.2409843974432
 30
0.0
 10
77.90876734163392
 20
-127.2409843974432
 30
0.0
 10
78.33182506722261
 20
-127.306441211663
 30
0.0
 10
78.33182506722261
 20
-127.306441211663
 30
0.0
 10
78.29789087669289
 20
-127.2451185120255
 30
0.0
 10
78.25775551428973
 20
-127.1626084751538
 30
0.0
 10
78.25775551428973
 20
-127.0442694452355
 30
0.0
 10
78.25775551428973
 20
-126.7903659079726
 30
0.0
 10
78.44396292526748
 20
-126.5533433385874
 30
0.0
 10
78.75694985010243
 20
-126.5533433385874
 30
0.0
 10
79.0744153990682
 20
-126.5533433385874
 30
0.0
 10
79.30919865638798
 20
-126.7776190546771
 30
0.0
 10
79.30919865638798
 20
-127.0800984382821
 30
0.0
  0
HATCH
  5
BD
330
AC
100
AcDbEntity
  8
_U+30EC_U+30A4_U+30E4_U+30FC 1
 62
     7
420
 16777215
100
AcDbHatch
 10
0.0
 20
0.0
 30
0.0
210
0.0
220
0.0
230
1.0
  2
SOLID
 70
     1
 71
     0
 91
        1
 92
        1
 93
        1
 72
     4
 94
        3
 73
     0
 74
     1
 95
       53
 96
       49
 40
0.0
 40
0.0
 40
0.0
 40
0.0
 40
1.0
 40
1.0
 40
1.0
 40
2.0
 40
2.0
 40
2.0
 40
3.0
 40
3.0
 40
3.0
 40
4.0
 40
4.0
 40
4.0
 40
5.0
 40
5.0
 40
5.0
 40
6.0
 40
6.0
 40
6.0
 40
7.0
 40
7.0
 40
7.0
 40
8.0
 40
8.0
 40
8.0
 40
9.0
 40
9.0
 40
9.0
 40
10.0
 40
10.0
 40
10.0
 40
11.0
 40
11.0
 40
11.0
 40
12.0
 40
12.0
 40
12.0
 40
13.0
 40
13.0
 40
13.0
 40
14.0
 40
14.0
 40
14.0
 40
15.0
 40
15.0
 40
15.0
 40
16.0
 40
16.0
 40
16.0
 40
16.0
 10
79.30919865638798
 20
-127.0800984382821
 10
79.30919865638798
 20
-127.1584743605715
 10
79.29231768851025
 20
-127.2599324226121
 10
79.2287556768074
 20
-127.361562739427
 10
79.11868487605366
 20
-127.5350232971093
 10
78.9875989928399
 20
-127.5562106343436
 10
78.87976750415159
 20
-127.5751586595125
 10
78.87976750415159
 20
-127.5751586595125
 10
78.87976750415159
 20
-127.3531222554881
 10
78.87976750415159
 20
-127.3531222554881
 10
79.0785495136505
 20
-127.2980007277241
 10
79.10817733482365
 20
-127.1710489590927
 10
79.10817733482365
 20
-127.0780313809909
 10
79.10817733482365
 20
-126.938332759064
 10
79.0087863300742
 20
-126.786059538616
 10
78.77607013004557
 20
-126.786059538616
 10
78.52009953549151
 20
-126.786059538616
 10
78.4503363519152
 20
-126.965893522946
 10
78.4503363519152
 20
-127.0864718649298
 10
78.4503363519152
 20
-127.1181667433941
 10
78.4503363519152
 20
-127.2599324226121
 10
78.5793551778378
 20
-127.3488158861315
 10
78.5793551778378
 20
-127.3488158861315
 10
78.56023489789467
 20
-127.524343501105
 10
78.56023489789467
 20
-127.524343501105
 10
78.56023489789467
 20
-127.524343501105
 10
77.7141194467173
 20
-127.4037651591213
 10
77.7141194467173
 20
-127.4037651591213
 10
77.7141194467173
 20
-127.4037651591213
 10
77.7141194467173
 20
-126.6253458342291
 10
77.7141194467173
 20
-126.6253458342291
 10
77.7141194467173
 20
-126.6253458342291
 10
77.90876734163392
 20
-126.6253458342291
 10
77.90876734163392
 20
-126.6253458342291
 10
77.90876734163392
 20
-126.6253458342291
 10
77.90876734163392
 20
-127.2409843974432
 10
77.90876734163392
 20
-127.2409843974432
 10
77.90876734163392
 20
-127.2409843974432
 10
78.33182506722261
 20
-127.306441211663
 10
78.33182506722261
 20
-127.306441211663
 10
78.29789087669289
 20
-127.2451185120255
 10
78.25775551428973
 20
-127.1626084751538
 10
78.25775551428973
 20
-127.0442694452355
 10
78.25775551428973
 20
-126.7903659079726
 10
78.44396292526748
 20
-126.5533433385874
 10
78.75694985010243
 20
-126.5533433385874
 10
79.0744153990682
 20
-126.5533433385874
 10
79.30919865638798
 20
-126.7776190546771
 10
79.30919865638798
 20
-127.0800984382821
 97
        0
 97
        0
 75
     2
 76
     1
 98
        0
  0
ENDBLK
  5
AF
330
AC
100
AcDbEntity
  8
0
100
AcDbBlockEnd
  0
BLOCK
  5
CC
330
CA
100
AcDbEntity
  8
0
100
AcDbBlockBegin
  2
block 7
 70
     0
 10
0.0
 20
0.0
 30
0.0
  3
block 7
  1

  0
SPLINE
  5
CE
330
CA
100
AcDbEntity
  8
_U+30EC_U+30A4_U+30E4_U+30FC 1
370
     0
100
AcDbSpline
210
0.0
220
0.0
230
1.0
 70
    11
 71
     3
 72
    26
 73
    22
 74
     0
 42
0.0000000001
 43
0.0000000001
 12
1.0
 22
0.0
 32
0.0
 13
1.0
 23
0.0
 33
0.0
 40
0.0
 40
0.0
 40
0.0
 40
0.0
 40
1.0
 40
1.0
 40
1.0
 40
2.0
 40
2.0
 40
2.0
 40
3.0
 40
3.0
 40
3.0
 40
4.0
 40
4.0
 40
4.0
 40
5.0
 40
5.0
 40
5.0
 40
6.0
 40
6.0
 40
6.0
 40
7.0
 40
7.0
 40
7.0
 40
7.0
 10
89.6417290357493
 20
-140.581944409299
 30
0.0
 10
89.6417290357493
 20
-140.581944409299
 30
0.0
 10
89.6417290357493
 20
-139.4777913062764
 30
0.0
 10
89.6417290357493
 20
-139.4777913062764
 30
0.0
 10
89.6417290357493
 20
-139.4777913062764
 30
0.0
 10
89.31168888826235
 20
-139.4777913062764
 30
0.0
 10
89.31168888826235
 20
-139.4777913062764
 30
0.0
 10
89.31168888826235
 20
-139.4777913062764
 30
0.0
 10
89.31168888826235
 20
-139.3296522004106
 30
0.0
 10
89.31168888826235
 20
-139.3296522004106
 30
0.0
 10
89.64379609304045
 20
-139.3148382898241
 30
0.0
 10
89.69030488209131
 20
-139.1518852733718
 30
0.0
 10
89.71993270326446
 20
-139.0375081032615
 30
0.0
 10
89.71993270326446
 20
-139.0375081032615
 30
0.0
 10
89.86600475183906
 20
-139.0375081032615
 30
0.0
 10
89.86600475183906
 20
-139.0375081032615
 30
0.0
 10
89.86600475183906
 20
-139.0375081032615
 30
0.0
 10
89.86600475183906
 20
-140.581944409299
 30
0.0
 10
89.86600475183906
 20
-140.581944409299
 30
0.0
 10
89.86600475183906
 20
-140.581944409299
 30
0.0
 10
89.6417290357493
 20
-140.581944409299
 30
0.0
 10
89.6417290357493
 20
-140.581944409299
 30
0.0
  0
HATCH
  5
CF
330
CA
100
AcDbEntity
  8
_U+30EC_U+30A4_U+30E4_U+30FC 1
 62
     7
420
 16777215
100
AcDbHatch
 10
0.0
 20
0.0
 30
0.0
210
0.0
220
0.0
230
1.0
  2
SOLID
 70
     1
 71
     0
 91
        1
 92
        1
 93
        1
 72
     4
 94
        3
 73
     0
 74
     1
 95
       26
 96
       22
 40
0.0
 40
0.0
 40
0.0
 40
0.0
 40
1.0
 40
1.0
 40
1.0
 40
2.0
 40
2.0
 40
2.0
 40
3.0
 40
3.0
 40
3.0
 40
4.0
 40
4.0
 40
4.0
 40
5.0
 40
5.0
 40
5.0
 40
6.0
 40
6.0
 40
6.0
 40
7.0
 40
7.0
 40
7.0
 40
7.0
 10
89.6417290357493
 20
-140.581944409299
 10
89.6417290357493
 20
-140.581944409299
 10
89.6417290357493
 20
-139.4777913062764
 10
89.6417290357493
 20
-139.4777913062764
 10
89.6417290357493
 20
-139.4777913062764
 10
89.31168888826235
 20
-139.4777913062764
 10
89.31168888826235
 20
-139.4777913062764
 10
89.31168888826235
 20
-139.4777913062764
 10
89.31168888826235
 20
-139.3296522004106
 10
89.31168888826235
 20
-139.3296522004106
 10
89.64379609304045
 20
-139.3148382898241
 10
89.69030488209131
 20
-139.1518852733718
 10
89.71993270326446
 20
-139.0375081032615
 10
89.71993270326446
 20
-139.0375081032615
 10
89.86600475183906
 20
-139.0375081032615
 10
89.86600475183906
 20
-139.0375081032615
 10
89.86600475183906
 20
-139.0375081032615
 10
89.86600475183906
 20
-140.581944409299
 10
89.86600475183906
 20
-140.581944409299
 10
89.86600475183906
 20
-140.581944409299
 10
89.6417290357493
 20
-140.581944409299
 10
89.6417290357493
 20
-140.581944409299
 97
        0
 97
        0
 75
     2
 76
     1
 98
        0
  0
SPLINE
  5
D0
330
CA
100
AcDbEntity
  8
_U+30EC_U+30A4_U+30E4_U+30FC 1
370
     0
100
AcDbSpline
210
0.0
220
0.0
230
1.0
 70
    11
 71
     3
 72
    62
 73
    58
 74
     0
 42
0.0000000001
 43
0.0000000001
 12
1.0
 22
0.0
 32
0.0
 13
1.0
 23
0.0
 33
0.0
 40
0.0
 40
0.0
 40
0.0
 40
0.0
 40
1.0
 40
1.0
 40
1.0
 40
2.0
 40
2.0
 40
2.0
 40
3.0
 40
3.0
 40
3.0
 40
4.0
 40
4.0
 40
4.0
 40
5.0
 40
5.0
 40
5.0
 40
6.0
 40
6.0
 40
6.0
 40
7.0
 40
7.0
 40
7.0
 40
8.0
 40
8.0
 40
8.0
 40
9.0
 40
9.0
 40
9.0
 40
10.0
 40
10.0
 40
10.0
 40
11.0
 40
11.0
 40
11.0
 40
12.0
 40
12.0
 40
12.0
 40
13.0
 40
13.0
 40
13.0
 40
14.0
 40
14.0
 40
14.0
 40
15.0
 40
15.0
 40
15.0
 40
16.0
 40
16.0
 40
16.0
 40
17.0
 40
17.0
 40
17.0
 40
18.0
 40
18.0
 40
18.0
 40
19.0
 40
19.0
 40
19.0
 40
19.0
 10
90.85888127068806
 20
-140.6325873129321
 30
0.0
 10
90.76345212574664
 20
-140.6325873129321
 30
0.0
 10
90.54572209107886
 20
-140.6115722304721
 30
0.0
 10
90.42066512496429
 20
-140.4255370742686
 30
0.0
 10
90.34694008157993
 20
-140.3132269614495
 30
0.0
 10
90.3424614574491
 20
-140.2140082114743
 30
0.0
 10
90.3383273428668
 20
-140.1292588625371
 30
0.0
 10
90.3383273428668
 20
-140.1292588625371
 30
0.0
 10
90.55846894437427
 20
-140.1292588625371
 30
0.0
 10
90.55846894437427
 20
-140.1292588625371
 30
0.0
 10
90.56053600166543
 20
-140.20332841547
 30
0.0
 10
90.57087128812117
 20
-140.4379394180155
 30
0.0
 10
90.85440264655723
 20
-140.4379394180155
 30
0.0
 10
90.9918619564187
 20
-140.4379394180155
 30
0.0
 10
91.14447968641527
 20
-140.3683484892135
 30
0.0
 10
91.14447968641527
 20
-140.1399386585414
 30
0.0
 10
91.14447968641527
 20
-140.02349443114
 30
0.0
 10
91.106239126529
 20
-139.9749185847979
 30
0.0
 10
91.0745442480647
 20
-139.9432237063336
 30
0.0
 10
91.00047469513183
 20
-139.8691541534008
 30
0.0
 10
90.88403046773038
 20
-139.8564073001054
 30
0.0
 10
90.82925344951491
 20
-139.8564073001054
 30
0.0
 10
90.80996091479751
 20
-139.8564073001054
 30
0.0
 10
90.77413192175092
 20
-139.8584743573965
 30
0.0
 10
90.74657115786891
 20
-139.8626084719788
 30
0.0
 10
90.74657115786891
 20
-139.8626084719788
 30
0.0
 10
90.74657115786891
 20
-139.6679605770622
 30
0.0
 10
90.74657115786891
 20
-139.6679605770622
 30
0.0
 10
90.78481171775519
 20
-139.6745062584841
 30
0.0
 10
90.82684188267524
 20
-139.6765733157753
 30
0.0
 10
90.83338756409721
 20
-139.6765733157753
 30
0.0
 10
90.89884437831697
 20
-139.6765733157753
 30
0.0
 10
91.09762638781588
 20
-139.6552137237668
 30
0.0
 10
91.09762638781588
 20
-139.4185356639301
 30
0.0
 10
91.09762638781588
 20
-139.2407687368912
 30
0.0
 10
90.96671275937638
 20
-139.1856472091272
 30
0.0
 10
90.85646970384839
 20
-139.1856472091272
 30
0.0
 10
90.59223088012972
 20
-139.1856472091272
 30
0.0
 10
90.5836181414166
 20
-139.4185356639301
 30
0.0
 10
90.5794840268343
 20
-139.4901936500233
 30
0.0
 10
90.5794840268343
 20
-139.4901936500233
 30
0.0
 10
90.37622339320455
 20
-139.4901936500233
 30
0.0
 10
90.37622339320455
 20
-139.4901936500233
 30
0.0
 10
90.38483613191768
 20
-139.3654811934572
 30
0.0
 10
90.41239689579969
 20
-138.9889322569194
 30
0.0
 10
90.86921655714382
 20
-138.9889322569194
 30
0.0
 10
91.09349227323358
 20
-138.9889322569194
 30
0.0
 10
91.33464895720107
 20
-139.1160562803252
 30
0.0
 10
91.33464895720107
 20
-139.4119899825081
 30
0.0
 10
91.33464895720107
 20
-139.5983696482601
 30
0.0
 10
91.23956432180817
 20
-139.6807074303576
 30
0.0
 10
91.14000106228445
 20
-139.742030129995
 30
0.0
 10
91.2013237619219
 20
-139.7695908938771
 30
0.0
 10
91.38322480354309
 20
-139.8498616186834
 30
0.0
 10
91.38322480354309
 20
-140.127191805246
 30
0.0
 10
91.38322480354309
 20
-140.4655001818975
 30
0.0
 10
91.13586694770216
 20
-140.6325873129321
 30
0.0
 10
90.85888127068806
 20
-140.6325873129321
 30
0.0
  0
HATCH
  5
D1
330
CA
100
AcDbEntity
  8
_U+30EC_U+30A4_U+30E4_U+30FC 1
 62
     7
420
 16777215
100
AcDbHatch
 10
0.0
 20
0.0
 30
0.0
210
0.0
220
0.0
230
1.0
  2
SOLID
 70
     1
 71
     0
 91
        1
 92
        1
 93
        1
 72
     4
 94
        3
 73
     0
 74
     1
 95
       62
 96
       58
 40
0.0
 40
0.0
 40
0.0
 40
0.0
 40
1.0
 40
1.0
 40
1.0
 40
2.0
 40
2.0
 40
2.0
 40
3.0
 40
3.0
 40
3.0
 40
4.0
 40
4.0
 40
4.0
 40
5.0
 40
5.0
 40
5.0
 40
6.0
 40
6.0
 40
6.0
 40
7.0
 40
7.0
 40
7.0
 40
8.0
 40
8.0
 40
8.0
 40
9.0
 40
9.0
 40
9.0
 40
10.0
 40
10.0
 40
10.0
 40
11.0
 40
11.0
 40
11.0
 40
12.0
 40
12.0
 40
12.0
 40
13.0
 40
13.0
 40
13.0
 40
14.0
 40
14.0
 40
14.0
 40
15.0
 40
15.0
 40
15.0
 40
16.0
 40
16.0
 40
16.0
 40
17.0
 40
17.0
 40
17.0
 40
18.0
 40
18.0
 40
18.0
 40
19.0
 40
19.0
 40
19.0
 40
19.0
 10
90.85888127068806
 20
-140.6325873129321
 10
90.76345212574664
 20
-140.6325873129321
 10
90.54572209107886
 20
-140.6115722304721
 10
90.42066512496429
 20
-140.4255370742686
 10
90.34694008157993
 20
-140.3132269614495
 10
90.3424614574491
 20
-140.2140082114743
 10
90.3383273428668
 20
-140.1292588625371
 10
90.3383273428668
 20
-140.1292588625371
 10
90.55846894437427
 20
-140.1292588625371
 10
90.55846894437427
 20
-140.1292588625371
 10
90.56053600166543
 20
-140.20332841547
 10
90.57087128812117
 20
-140.4379394180155
 10
90.85440264655723
 20
-140.4379394180155
 10
90.9918619564187
 20
-140.4379394180155
 10
91.14447968641527
 20
-140.3683484892135
 10
91.14447968641527
 20
-140.1399386585414
 10
91.14447968641527
 20
-140.02349443114
 10
91.106239126529
 20
-139.9749185847979
 10
91.0745442480647
 20
-139.9432237063336
 10
91.00047469513183
 20
-139.8691541534008
 10
90.88403046773038
 20
-139.8564073001054
 10
90.82925344951491
 20
-139.8564073001054
 10
90.80996091479751
 20
-139.8564073001054
 10
90.77413192175092
 20
-139.8584743573965
 10
90.74657115786891
 20
-139.8626084719788
 10
90.74657115786891
 20
-139.8626084719788
 10
90.74657115786891
 20
-139.6679605770622
 10
90.74657115786891
 20
-139.6679605770622
 10
90.78481171775519
 20
-139.6745062584841
 10
90.82684188267524
 20
-139.6765733157753
 10
90.83338756409721
 20
-139.6765733157753
 10
90.89884437831697
 20
-139.6765733157753
 10
91.09762638781588
 20
-139.6552137237668
 10
91.09762638781588
 20
-139.4185356639301
 10
91.09762638781588
 20
-139.2407687368912
 10
90.96671275937638
 20
-139.1856472091272
 10
90.85646970384839
 20
-139.1856472091272
 10
90.59223088012972
 20
-139.1856472091272
 10
90.5836181414166
 20
-139.4185356639301
 10
90.5794840268343
 20
-139.4901936500233
 10
90.5794840268343
 20
-139.4901936500233
 10
90.37622339320455
 20
-139.4901936500233
 10
90.37622339320455
 20
-139.4901936500233
 10
90.38483613191768
 20
-139.3654811934572
 10
90.41239689579969
 20
-138.9889322569194
 10
90.86921655714382
 20
-138.9889322569194
 10
91.09349227323358
 20
-138.9889322569194
 10
91.33464895720107
 20
-139.1160562803252
 10
91.33464895720107
 20
-139.4119899825081
 10
91.33464895720107
 20
-139.5983696482601
 10
91.23956432180817
 20
-139.6807074303576
 10
91.14000106228445
 20
-139.742030129995
 10
91.2013237619219
 20
-139.7695908938771
 10
91.38322480354309
 20
-139.8498616186834
 10
91.38322480354309
 20
-140.127191805246
 10
91.38322480354309
 20
-140.4655001818975
 10
91.13586694770216
 20
-140.6325873129321
 10
90.85888127068806
 20
-140.6325873129321
 97
        0
 97
        0
 75
     2
 76
     1
 98
        0
  0
ENDBLK
  5
CD
330
CA
100
AcDbEntity
  8
0
100
AcDbBlockEnd
  0
ENDSEC
  0
SECTION
  2
ENTITIES
  0
SPLINE
  5
41
330
1F
100
AcDbEntity
  8
_U+30EC_U+30A4_U+30E4_U+30FC 1
 62
     7
420
 16777215
370
    25
100
AcDbSpline
210
0.0
220
0.0
230
1.0
 70
    11
 71
     3
 72
    62
 73
    58
 74
     0
 42
0.0000000001
 43
0.0000000001
 12
1.0
 22
0.0
 32
0.0
 13
1.0
 23
0.0
 33
0.0
 40
0.0
 40
0.0
 40
0.0
 40
0.0
 40
1.0
 40
1.0
 40
1.0
 40
2.0
 40
2.0
 40
2.0
 40
3.0
 40
3.0
 40
3.0
 40
4.0
 40
4.0
 40
4.0
 40
5.0
 40
5.0
 40
5.0
 40
6.0
 40
6.0
 40
6.0
 40
7.0
 40
7.0
 40
7.0
 40
8.0
 40
8.0
 40
8.0
 40
9.0
 40
9.0
 40
9.0
 40
10.0
 40
10.0
 40
10.0
 40
11.0
 40
11.0
 40
11.0
 40
12.0
 40
12.0
 40
12.0
 40
13.0
 40
13.0
 40
13.0
 40
14.0
 40
14.0
 40
14.0
 40
15.0
 40
15.0
 40
15.0
 40
16.0
 40
16.0
 40
16.0
 40
17.0
 40
17.0
 40
17.0
 40
18.0
 40
18.0
 40
18.0
 40
19.0
 40
19.0
 40
19.0
 40
19.0
 10
96.05545977164329
 20
-136.3778916325724
 30
0.0
 10
96.49713753815293
 20
-136.3778916325724
 30
0.0
 10
96.85541864012352
 20
-136.7361727435935
 30
0.0
 10
96.85541864012352
 20
-137.177850521261
 30
0.0
 10
96.85541864012352
 20
-137.177850521261
 30
0.0
 10
92.05570070701897
 20
-137.1764746879281
 30
0.0
 10
92.05570070701897
 20
-137.1764746879281
 30
0.0
 10
92.05570070701897
 20
-137.1764746879281
 30
0.0
 10
91.85588737878331
 20
-136.9763085768671
 30
0.0
 10
91.85588737878331
 20
-136.9763085768671
 30
0.0
 10
91.85588737878331
 20
-136.9763085768671
 30
0.0
 10
91.65607405054763
 20
-137.1764746879281
 30
0.0
 10
91.65607405054763
 20
-137.1764746879281
 30
0.0
 10
91.65607405054763
 20
-137.1764746879281
 30
0.0
 10
85.05785977443766
 20
-137.1774977434833
 30
0.0
 10
85.05785977443766
 20
-137.1774977434833
 30
0.0
 10
85.05785977443766
 20
-137.1774977434833
 30
0.0
 10
84.85769366843321
 20
-136.9773316324222
 30
0.0
 10
84.85769366843321
 20
-136.9773316324222
 30
0.0
 10
84.85769366843321
 20
-136.9773316324222
 30
0.0
 10
84.65788034019754
 20
-137.1774977434833
 30
0.0
 10
84.65788034019754
 20
-137.1774977434833
 30
0.0
 10
84.65788034019754
 20
-137.1774977434833
 30
0.0
 10
84.6528708958809
 20
-137.1774977434833
 30
0.0
 10
84.6528708958809
 20
-137.1774977434833
 30
0.0
 10
84.1957083122844
 20
-137.08552857684
 30
0.0
 10
83.85139720125949
 20
-136.6817391324959
 30
0.0
 10
83.85139720125949
 20
-136.1973752437283
 30
0.0
 10
83.85139720125949
 20
-136.1973752437283
 30
0.0
 10
83.8515714718793
 20
-119.6764038589699
 30
0.0
 10
83.8515714718793
 20
-119.6764038589699
 30
0.0
 10
84.40416256889264
 20
-119.6764038589699
 30
0.0
 10
84.7531303377675
 20
-120.060543581096
 30
0.0
 10
84.84668700204735
 20
-120.5748935809672
 30
0.0
 10
84.84668700204735
 20
-120.5748935809672
 30
0.0
 10
84.84668700204735
 20
-126.6778785794417
 30
0.0
 10
84.84668700204735
 20
-126.6778785794417
 30
0.0
 10
84.84668700204735
 20
-126.6778785794417
 30
0.0
 10
90.90539823636563
 20
-126.674597746109
 30
0.0
 10
90.90539823636563
 20
-126.674597746109
 30
0.0
 10
91.45728608824672
 20
-126.674597746109
 30
0.0
 10
91.85486664370302
 20
-127.1257299682185
 30
0.0
 10
91.85486664370302
 20
-127.6783563569692
 30
0.0
 10
91.85486664370302
 20
-127.6783563569692
 30
0.0
 10
84.85511839072113
 20
-127.6783563569692
 30
0.0
 10
84.85511839072113
 20
-127.6783563569692
 30
0.0
 10
84.85511839072113
 20
-127.6783563569692
 30
0.0
 10
84.85511839072113
 20
-136.1780782992891
 30
0.0
 10
84.85511839072113
 20
-136.1780782992891
 30
0.0
 10
84.85511839072113
 20
-136.1780782992891
 30
0.0
 10
91.85521942148078
 20
-136.1780782992891
 30
0.0
 10
91.85521942148078
 20
-136.1780782992891
 30
0.0
 10
91.85521942148078
 20
-136.1780782992891
 30
0.0
 10
92.20143320330102
 20
-136.3778916325724
 30
0.0
 10
92.20143320330102
 20
-136.3778916325724
 30
0.0
 10
92.20143320330102
 20
-136.3778916325724
 30
0.0
 10
96.05545977164329
 20
-136.3778916325724
 30
0.0
 10
96.05545977164329
 20
-136.3778916325724
 30
0.0
  0
HATCH
  5
42
330
1F
100
AcDbEntity
  8
_U+30EC_U+30A4_U+30E4_U+30FC 1
 62
   253
420
 11711154
100
AcDbHatch
 10
0.0
 20
0.0
 30
0.0
210
0.0
220
0.0
230
1.0
  2
SOLID
 70
     1
 71
     0
 91
        1
 92
        1
 93
        2
 72
     4
 94
        3
 73
     0
 74
     0
 95
       62
 96
       58
 40
0.0
 40
0.0
 40
0.0
 40
0.0
 40
0.3527777776895833
 40
0.3527777776895833
 40
0.3527777776895833
 40
0.7055555553791667
 40
0.7055555553791667
 40
0.7055555553791667
 40
1.05833333306875
 40
1.05833333306875
 40
1.05833333306875
 40
1.411111110758333
 40
1.411111110758333
 40
1.411111110758333
 40
1.763888888447917
 40
1.763888888447917
 40
1.763888888447917
 40
2.1166666661375
 40
2.1166666661375
 40
2.1166666661375
 40
2.469444443827083
 40
2.469444443827083
 40
2.469444443827083
 40
2.822222221516667
 40
2.822222221516667
 40
2.822222221516667
 40
3.17499999920625
 40
3.17499999920625
 40
3.17499999920625
 40
3.527777776895833
 40
3.527777776895833
 40
3.527777776895833
 40
3.880555554585417
 40
3.880555554585417
 40
3.880555554585417
 40
4.233333332275
 40
4.233333332275
 40
4.233333332275
 40
4.586111109964584
 40
4.586111109964584
 40
4.586111109964584
 40
4.938888887654167
 40
4.938888887654167
 40
4.938888887654167
 40
5.29166666534375
 40
5.29166666534375
 40
5.29166666534375
 40
5.644444443033334
 40
5.644444443033334
 40
5.644444443033334
 40
5.997222220722917
 40
5.997222220722917
 40
5.997222220722917
 40
6.349999998412501
 40
6.349999998412501
 40
6.349999998412501
 40
6.702777776102083
 40
6.702777776102083
 40
6.702777776102083
 40
6.702777776102083
 10
96.05545977164329
 20
-136.3778916325724
 10
96.49713753815293
 20
-136.3778916325724
 10
96.85541864012352
 20
-136.7361727435935
 10
96.85541864012352
 20
-137.177850521261
 10
96.85541864012352
 20
-137.177850521261
 10
92.05570070701897
 20
-137.1764746879281
 10
92.05570070701897
 20
-137.1764746879281
 10
92.05570070701897
 20
-137.1764746879281
 10
91.85588737878331
 20
-136.9763085768671
 10
91.85588737878331
 20
-136.9763085768671
 10
91.85588737878331
 20
-136.9763085768671
 10
91.65607405054763
 20
-137.1764746879281
 10
91.65607405054763
 20
-137.1764746879281
 10
91.65607405054763
 20
-137.1764746879281
 10
85.05785977443766
 20
-137.1774977434833
 10
85.05785977443766
 20
-137.1774977434833
 10
85.05785977443766
 20
-137.1774977434833
 10
84.85769366843321
 20
-136.9773316324222
 10
84.85769366843321
 20
-136.9773316324222
 10
84.85769366843321
 20
-136.9773316324222
 10
84.65788034019754
 20
-137.1774977434833
 10
84.65788034019754
 20
-137.1774977434833
 10
84.65788034019754
 20
-137.1774977434833
 10
84.6528708958809
 20
-137.1774977434833
 10
84.6528708958809
 20
-137.1774977434833
 10
84.1957083122844
 20
-137.08552857684
 10
83.85139720125949
 20
-136.6817391324959
 10
83.85139720125949
 20
-136.1973752437283
 10
83.85139720125949
 20
-136.1973752437283
 10
83.8515714718793
 20
-119.6764038589699
 10
83.8515714718793
 20
-119.6764038589699
 10
84.40416256889264
 20
-119.6764038589699
 10
84.7531303377675
 20
-120.060543581096
 10
84.84668700204735
 20
-120.5748935809672
 10
84.84668700204735
 20
-120.5748935809672
 10
84.84668700204735
 20
-126.6778785794417
 10
84.84668700204735
 20
-126.6778785794417
 10
84.84668700204735
 20
-126.6778785794417
 10
90.90539823636563
 20
-126.674597746109
 10
90.90539823636563
 20
-126.674597746109
 10
91.45728608824672
 20
-126.674597746109
 10
91.85486664370302
 20
-127.1257299682185
 10
91.85486664370302
 20
-127.6783563569692
 10
91.85486664370302
 20
-127.6783563569692
 10
84.85511839072113
 20
-127.6783563569692
 10
84.85511839072113
 20
-127.6783563569692
 10
84.85511839072113
 20
-127.6783563569692
 10
84.85511839072113
 20
-136.1780782992891
 10
84.85511839072113
 20
-136.1780782992891
 10
84.85511839072113
 20
-136.1780782992891
 10
91.85521942148078
 20
-136.1780782992891
 10
91.85521942148078
 20
-136.1780782992891
 10
91.85521942148078
 20
-136.1780782992891
 10
92.20143320330102
 20
-136.3778916325724
 10
92.20143320330102
 20
-136.3778916325724
 10
92.20143320330102
 20
-136.3778916325724
 10
96.05545977164329
 20
-136.3778916325724
 10
96.05545977164329
 20
-136.3778916325724
 97
        0
 72
     1
 10
96.05545977164329
 20
-136.3778916325724
 11
96.05545977164329
 21
-136.3778916325724
 97
        0
 75
     2
 76
     1
 98
        0
  0
SPLINE
  5
43
330
1F
100
AcDbEntity
  8
_U+30EC_U+30A4_U+30E4_U+30FC 1
 62
     7
420
 16777215
370
     9
100
AcDbSpline
210
0.0
220
0.0
230
1.0
 70
    11
 71
     3
 72
    17
 73
    13
 74
     0
 42
0.0000000001
 43
0.0000000001
 12
1.0
 22
0.0
 32
0.0
 13
1.0
 23
0.0
 33
0.0
 40
0.0
 40
0.0
 40
0.0
 40
0.0
 40
1.0
 40
1.0
 40
1.0
 40
2.0
 40
2.0
 40
2.0
 40
3.0
 40
3.0
 40
3.0
 40
4.0
 40
4.0
 40
4.0
 40
4.0
 10
91.95579404290113
 20
-117.5005058039581
 30
0.0
 10
91.95579404290113
 20
-117.4453666373054
 30
0.0
 10
91.91102654404325
 20
-117.4005991373165
 30
0.0
 10
91.85588737878331
 20
-117.4005991373165
 30
0.0
 10
91.80007793576267
 20
-117.4005991373165
 30
0.0
 10
91.7553104369048
 20
-117.4453666373054
 30
0.0
 10
91.7553104369048
 20
-117.5005058039581
 30
0.0
 10
91.7553104369048
 20
-117.5556096928334
 30
0.0
 10
91.80007793576267
 20
-117.6004124705998
 30
0.0
 10
91.85588737878331
 20
-117.6004124705998
 30
0.0
 10
91.91102654404325
 20
-117.6004124705998
 30
0.0
 10
91.95579404290113
 20
-117.5556096928334
 30
0.0
 10
91.95579404290113
 20
-117.5005058039581
 30
0.0
  0
SPLINE
  5
44
330
1F
100
AcDbEntity
  8
_U+30EC_U+30A4_U+30E4_U+30FC 1
 62
     7
420
 16777215
370
     9
100
AcDbSpline
210
0.0
220
0.0
230
1.0
 70
    11
 71
     3
 72
    17
 73
    13
 74
     0
 42
0.0000000001
 43
0.0000000001
 12
1.0
 22
0.0
 32
0.0
 13
1.0
 23
0.0
 33
0.0
 40
0.0
 40
0.0
 40
0.0
 40
0.0
 40
1.0
 40
1.0
 40
1.0
 40
2.0
 40
2.0
 40
2.0
 40
3.0
 40
3.0
 40
3.0
 40
4.0
 40
4.0
 40
4.0
 40
4.0
 10
84.9543194993014
 20
-117.5005058039581
 30
0.0
 10
84.9543194993014
 20
-117.4453666373054
 30
0.0
 10
84.90955200044353
 20
-117.4005991373165
 30
0.0
 10
84.85441283518358
 20
-117.4005991373165
 30
0.0
 10
84.79931108991136
 20
-117.4005991373165
 30
0.0
 10
84.75450831214464
 20
-117.4453666373054
 30
0.0
 10
84.75450831214464
 20
-117.5005058039581
 30
0.0
 10
84.75450831214464
 20
-117.5556096928334
 30
0.0
 10
84.79931108991136
 20
-117.6004124705998
 30
0.0
 10
84.85441283518358
 20
-117.6004124705998
 30
0.0
 10
84.90955200044353
 20
-117.6004124705998
 30
0.0
 10
84.9543194993014
 20
-117.5556096928334
 30
0.0
 10
84.9543194993014
 20
-117.5005058039581
 30
0.0
  0
POLYLINE
  5
45
330
1F
100
AcDbEntity
  8
_U+30EC_U+30A4_U+30E4_U+30FC 1
 62
     7
420
 16777215
370
     9
100
AcDb2dPolyline
 66
     1
 10
0.0
 20
0.0
 30
0.0
  0
VERTEX
  5
46
330
45
100
AcDbEntity
  8
_U+30EC_U+30A4_U+30E4_U+30FC 1
 62
     7
420
 16777215
370
     9
100
AcDbVertex
100
AcDb2dVertex
 10
84.85441283518358
 20
-119.0749177480091
 30
0.0
  0
VERTEX
  5
47
330
45
100
AcDbEntity
  8
_U+30EC_U+30A4_U+30E4_U+30FC 1
 62
     7
420
 16777215
370
     9
100
AcDbVertex
100
AcDb2dVertex
 10
84.85441283518358
 20
-116.5007335819859
 30
0.0
  0
SEQEND
  5
48
330
45
100
AcDbEntity
  8
_U+30EC_U+30A4_U+30E4_U+30FC 1
 62
     7
420
 16777215
370
     9
  0
POLYLINE
  5
49
330
1F
100
AcDbEntity
  8
_U+30EC_U+30A4_U+30E4_U+30FC 1
 62
     7
420
 16777215
370
     9
100
AcDb2dPolyline
 66
     1
 10
0.0
 20
0.0
 30
0.0
  0
VERTEX
  5
4A
330
49
100
AcDbEntity
  8
_U+30EC_U+30A4_U+30E4_U+30FC 1
 62
     7
420
 16777215
370
     9
100
AcDbVertex
100
AcDb2dVertex
 10
84.85511839072113
 20
-117.5005058039581
 30
0.0
  0
VERTEX
  5
4B
330
49
100
AcDbEntity
  8
_U+30EC_U+30A4_U+30E4_U+30FC 1
 62
     7
420
 16777215
370
     9
100
AcDbVertex
100
AcDb2dVertex
 10
91.85521942148078
 20
-117.5005058039581
 30
0.0
  0
SEQEND
  5
4C
330
49
100
AcDbEntity
  8
_U+30EC_U+30A4_U+30E4_U+30FC 1
 62
     7
420
 16777215
370
     9
  0
POLYLINE
  5
4D
330
1F
100
AcDbEntity
  8
_U+30EC_U+30A4_U+30E4_U+30FC 1
 62
     7
420
 16777215
370
     9
100
AcDb2dPolyline
 66
     1
 10
0.0
 20
0.0
 30
0.0
  0
VERTEX
  5
4E
330
4D
100
AcDbEntity
  8
_U+30EC_U+30A4_U+30E4_U+30FC 1
 62
     7
420
 16777215
370
     9
100
AcDbVertex
100
AcDb2dVertex
 10
91.85588737878331
 20
-125.1773735798167
 30
0.0
  0
VERTEX
  5
4F
330
4D
100
AcDbEntity
  8
_U+30EC_U+30A4_U+30E4_U+30FC 1
 62
     7
420
 16777215
370
     9
100
AcDbVertex
100
AcDb2dVertex
 10
91.85588737878331
 20
-116.5007335819859
 30
0.0
  0
SEQEND
  5
50
330
4D
100
AcDbEntity
  8
_U+30EC_U+30A4_U+30E4_U+30FC 1
 62
     7
420
 16777215
370
     9
  0
INSERT
  5
52
330
1F
100
AcDbEntity
  8
_U+30EC_U+30A4_U+30E4_U+30FC 1
100
AcDbBlockReference
  2
block 2
 10
0.0
 20
0.0
 30
0.0
  0
SPLINE
  5
57
330
1F
100
AcDbEntity
  8
_U+30EC_U+30A4_U+30E4_U+30FC 1
 62
     7
420
 16777215
370
     9
100
AcDbSpline
210
0.0
220
0.0
230
1.0
 70
    11
 71
     3
 72
    17
 73
    13
 74
     0
 42
0.0000000001
 43
0.0000000001
 12
1.0
 22
0.0
 32
0.0
 13
1.0
 23
0.0
 33
0.0
 40
0.0
 40
0.0
 40
0.0
 40
0.0
 40
1.0
 40
1.0
 40
1.0
 40
2.0
 40
2.0
 40
2.0
 40
3.0
 40
3.0
 40
3.0
 40
4.0
 40
4.0
 40
4.0
 40
4.0
 10
83.95525285812306
 20
-123.6761630246364
 30
0.0
 10
83.95525285812306
 20
-123.6210591357615
 30
0.0
 10
83.91045008148829
 20
-123.5762563579948
 30
0.0
 10
83.85464063846767
 20
-123.5762563579948
 30
0.0
 10
83.79953886793913
 20
-123.5762563579948
 30
0.0
 10
83.75473609017241
 20
-123.6210591357615
 30
0.0
 10
83.75473609017241
 20
-123.6761630246364
 30
0.0
 10
83.75473609017241
 20
-123.7313021912895
 30
0.0
 10
83.79953886793913
 20
-123.7760696912784
 30
0.0
 10
83.85464063846767
 20
-123.7760696912784
 30
0.0
 10
83.91045008148829
 20
-123.7760696912784
 30
0.0
 10
83.95525285812306
 20
-123.7313021912895
 30
0.0
 10
83.95525285812306
 20
-123.6761630246364
 30
0.0
  0
SPLINE
  5
58
330
1F
100
AcDbEntity
  8
_U+30EC_U+30A4_U+30E4_U+30FC 1
 62
     7
420
 16777215
370
     9
100
AcDbSpline
210
0.0
220
0.0
230
1.0
 70
    11
 71
     3
 72
    17
 73
    13
 74
     0
 42
0.0000000001
 43
0.0000000001
 12
1.0
 22
0.0
 32
0.0
 13
1.0
 23
0.0
 33
0.0
 40
0.0
 40
0.0
 40
0.0
 40
0.0
 40
1.0
 40
1.0
 40
1.0
 40
2.0
 40
2.0
 40
2.0
 40
3.0
 40
3.0
 40
3.0
 40
4.0
 40
4.0
 40
4.0
 40
4.0
 10
84.95502505483897
 20
-123.6761630246364
 30
0.0
 10
84.95502505483897
 20
-123.6210591357615
 30
0.0
 10
84.9102222782042
 20
-123.5762563579948
 30
0.0
 10
84.85511839072113
 20
-123.5762563579948
 30
0.0
 10
84.79997922546119
 20
-123.5762563579948
 30
0.0
 10
84.75521386770016
 20
-123.6210591357615
 30
0.0
 10
84.75521386770016
 20
-123.6761630246364
 30
0.0
 10
84.75521386770016
 20
-123.7313021912895
 30
0.0
 10
84.79997922546119
 20
-123.7760696912784
 30
0.0
 10
84.85511839072113
 20
-123.7760696912784
 30
0.0
 10
84.9102222782042
 20
-123.7760696912784
 30
0.0
 10
84.95502505483897
 20
-123.7313021912895
 30
0.0
 10
84.95502505483897
 20
-123.6761630246364
 30
0.0
  0
SPLINE
  5
59
330
1F
100
AcDbEntity
  8
_U+30EC_U+30A4_U+30E4_U+30FC 1
 62
     7
420
 16777215
370
     9
100
AcDbSpline
210
0.0
220
0.0
230
1.0
 70
    11
 71
     3
 72
    17
 73
    13
 74
     0
 42
0.0000000001
 43
0.0000000001
 12
1.0
 22
0.0
 32
0.0
 13
1.0
 23
0.0
 33
0.0
 40
0.0
 40
0.0
 40
0.0
 40
0.0
 40
1.0
 40
1.0
 40
1.0
 40
2.0
 40
2.0
 40
2.0
 40
3.0
 40
3.0
 40
3.0
 40
4.0
 40
4.0
 40
4.0
 40
4.0
 10
96.95532775353921
 20
-141.1779624647057
 30
0.0
 10
96.95532775353921
 20
-141.1228232980526
 30
0.0
 10
96.91052497577249
 20
-141.078055798064
 30
0.0
 10
96.85541864012352
 20
-141.078055798064
 30
0.0
 10
96.80027947486357
 20
-141.078055798064
 30
0.0
 10
96.75551197600569
 20
-141.1228232980526
 30
0.0
 10
96.75551197600569
 20
-141.1779624647057
 30
0.0
 10
96.75551197600569
 20
-141.2330663535806
 30
0.0
 10
96.80027947486357
 20
-141.2778691313473
 30
0.0
 10
96.85541864012352
 20
-141.2778691313473
 30
0.0
 10
96.91052497577249
 20
-141.2778691313473
 30
0.0
 10
96.95532775353921
 20
-141.2330663535806
 30
0.0
 10
96.95532775353921
 20
-141.1779624647057
 30
0.0
  0
SPLINE
  5
5A
330
1F
100
AcDbEntity
  8
_U+30EC_U+30A4_U+30E4_U+30FC 1
 62
     7
420
 16777215
370
     9
100
AcDbSpline
210
0.0
220
0.0
230
1.0
 70
    11
 71
     3
 72
    17
 73
    13
 74
     0
 42
0.0000000001
 43
0.0000000001
 12
1.0
 22
0.0
 32
0.0
 13
1.0
 23
0.0
 33
0.0
 40
0.0
 40
0.0
 40
0.0
 40
0.0
 40
1.0
 40
1.0
 40
1.0
 40
2.0
 40
2.0
 40
2.0
 40
3.0
 40
3.0
 40
3.0
 40
4.0
 40
4.0
 40
4.0
 40
4.0
 10
83.95525285812306
 20
-141.1779624647057
 30
0.0
 10
83.95525285812306
 20
-141.1228232980526
 30
0.0
 10
83.91045008148829
 20
-141.078055798064
 30
0.0
 10
83.85464063846767
 20
-141.078055798064
 30
0.0
 10
83.79953886793913
 20
-141.078055798064
 30
0.0
 10
83.75473609017241
 20
-141.1228232980526
 30
0.0
 10
83.75473609017241
 20
-141.1779624647057
 30
0.0
 10
83.75473609017241
 20
-141.2330663535806
 30
0.0
 10
83.79953886793913
 20
-141.2778691313473
 30
0.0
 10
83.85464063846767
 20
-141.2778691313473
 30
0.0
 10
83.91045008148829
 20
-141.2778691313473
 30
0.0
 10
83.95525285812306
 20
-141.2330663535806
 30
0.0
 10
83.95525285812306
 20
-141.1779624647057
 30
0.0
  0
SPLINE
  5
5B
330
1F
100
AcDbEntity
  8
_U+30EC_U+30A4_U+30E4_U+30FC 1
 62
     7
420
 16777215
370
    25
100
AcDbSpline
210
0.0
220
0.0
230
1.0
 70
    11
 71
     3
 72
    62
 73
    58
 74
     0
 42
0.0000000001
 43
0.0000000001
 12
1.0
 22
0.0
 32
0.0
 13
1.0
 23
0.0
 33
0.0
 40
0.0
 40
0.0
 40
0.0
 40
0.0
 40
1.0
 40
1.0
 40
1.0
 40
2.0
 40
2.0
 40
2.0
 40
3.0
 40
3.0
 40
3.0
 40
4.0
 40
4.0
 40
4.0
 40
5.0
 40
5.0
 40
5.0
 40
6.0
 40
6.0
 40
6.0
 40
7.0
 40
7.0
 40
7.0
 40
8.0
 40
8.0
 40
8.0
 40
9.0
 40
9.0
 40
9.0
 40
10.0
 40
10.0
 40
10.0
 40
11.0
 40
11.0
 40
11.0
 40
12.0
 40
12.0
 40
12.0
 40
13.0
 40
13.0
 40
13.0
 40
14.0
 40
14.0
 40
14.0
 40
15.0
 40
15.0
 40
15.0
 40
16.0
 40
16.0
 40
16.0
 40
17.0
 40
17.0
 40
17.0
 40
18.0
 40
18.0
 40
18.0
 40
19.0
 40
19.0
 40
19.0
 40
19.0
 10
96.05545977164329
 20
-136.3778916325724
 30
0.0
 10
96.49713753815293
 20
-136.3778916325724
 30
0.0
 10
96.85541864012352
 20
-136.7361727435935
 30
0.0
 10
96.85541864012352
 20
-137.177850521261
 30
0.0
 10
96.85541864012352
 20
-137.177850521261
 30
0.0
 10
92.05570070701897
 20
-137.1764746879281
 30
0.0
 10
92.05570070701897
 20
-137.1764746879281
 30
0.0
 10
92.05570070701897
 20
-137.1764746879281
 30
0.0
 10
91.85588737878331
 20
-136.9763085768671
 30
0.0
 10
91.85588737878331
 20
-136.9763085768671
 30
0.0
 10
91.85588737878331
 20
-136.9763085768671
 30
0.0
 10
91.65607405054763
 20
-137.1764746879281
 30
0.0
 10
91.65607405054763
 20
-137.1764746879281
 30
0.0
 10
91.65607405054763
 20
-137.1764746879281
 30
0.0
 10
85.05785977443766
 20
-137.1774977434833
 30
0.0
 10
85.05785977443766
 20
-137.1774977434833
 30
0.0
 10
85.05785977443766
 20
-137.1774977434833
 30
0.0
 10
84.85769366843321
 20
-136.9773316324222
 30
0.0
 10
84.85769366843321
 20
-136.9773316324222
 30
0.0
 10
84.85769366843321
 20
-136.9773316324222
 30
0.0
 10
84.65788034019754
 20
-137.1774977434833
 30
0.0
 10
84.65788034019754
 20
-137.1774977434833
 30
0.0
 10
84.65788034019754
 20
-137.1774977434833
 30
0.0
 10
84.6528708958809
 20
-137.1774977434833
 30
0.0
 10
84.6528708958809
 20
-137.1774977434833
 30
0.0
 10
84.1957083122844
 20
-137.08552857684
 30
0.0
 10
83.85139720125949
 20
-136.6817391324959
 30
0.0
 10
83.85139720125949
 20
-136.1973752437283
 30
0.0
 10
83.85139720125949
 20
-136.1973752437283
 30
0.0
 10
83.8515714718793
 20
-119.6764038589699
 30
0.0
 10
83.8515714718793
 20
-119.6764038589699
 30
0.0
 10
84.40416256889264
 20
-119.6764038589699
 30
0.0
 10
84.7531303377675
 20
-120.060543581096
 30
0.0
 10
84.84668700204735
 20
-120.5748935809672
 30
0.0
 10
84.84668700204735
 20
-120.5748935809672
 30
0.0
 10
84.84668700204735
 20
-126.6778785794417
 30
0.0
 10
84.84668700204735
 20
-126.6778785794417
 30
0.0
 10
84.84668700204735
 20
-126.6778785794417
 30
0.0
 10
90.90539823636563
 20
-126.674597746109
 30
0.0
 10
90.90539823636563
 20
-126.674597746109
 30
0.0
 10
91.45728608824672
 20
-126.674597746109
 30
0.0
 10
91.85486664370302
 20
-127.1257299682185
 30
0.0
 10
91.85486664370302
 20
-127.6783563569692
 30
0.0
 10
91.85486664370302
 20
-127.6783563569692
 30
0.0
 10
84.85511839072113
 20
-127.6783563569692
 30
0.0
 10
84.85511839072113
 20
-127.6783563569692
 30
0.0
 10
84.85511839072113
 20
-127.6783563569692
 30
0.0
 10
84.85511839072113
 20
-136.1780782992891
 30
0.0
 10
84.85511839072113
 20
-136.1780782992891
 30
0.0
 10
84.85511839072113
 20
-136.1780782992891
 30
0.0
 10
91.85521942148078
 20
-136.1780782992891
 30
0.0
 10
91.85521942148078
 20
-136.1780782992891
 30
0.0
 10
91.85521942148078
 20
-136.1780782992891
 30
0.0
 10
92.20143320330102
 20
-136.3778916325724
 30
0.0
 10
92.20143320330102
 20
-136.3778916325724
 30
0.0
 10
92.20143320330102
 20
-136.3778916325724
 30
0.0
 10
96.05545977164329
 20
-136.3778916325724
 30
0.0
 10
96.05545977164329
 20
-136.3778916325724
 30
0.0
  0
SPLINE
  5
5C
330
1F
100
AcDbEntity
  8
_U+30EC_U+30A4_U+30E4_U+30FC 1
 62
     7
420
 16777215
370
     9
100
AcDbSpline
210
0.0
220
0.0
230
1.0
 70
    11
 71
     3
 72
    17
 73
    13
 74
     0
 42
0.0000000001
 43
0.0000000001
 12
1.0
 22
0.0
 32
0.0
 13
1.0
 23
0.0
 33
0.0
 40
0.0
 40
0.0
 40
0.0
 40
0.0
 40
1.0
 40
1.0
 40
1.0
 40
2.0
 40
2.0
 40
2.0
 40
3.0
 40
3.0
 40
3.0
 40
4.0
 40
4.0
 40
4.0
 40
4.0
 10
79.95482351573807
 20
-119.6764038589699
 30
0.0
 10
79.95482351573807
 20
-119.6212999700946
 30
0.0
 10
79.9100207391033
 20
-119.5764971923282
 30
0.0
 10
79.85491685162023
 20
-119.5764971923282
 30
0.0
 10
79.79977768636029
 20
-119.5764971923282
 30
0.0
 10
79.75497490972552
 20
-119.6212999700946
 30
0.0
 10
79.75497490972552
 20
-119.6764038589699
 30
0.0
 10
79.75497490972552
 20
-119.7315430256226
 30
0.0
 10
79.79977768636029
 20
-119.7763105256115
 30
0.0
 10
79.85491685162023
 20
-119.7763105256115
 30
0.0
 10
79.9100207391033
 20
-119.7763105256115
 30
0.0
 10
79.95482351573807
 20
-119.7315430256226
 30
0.0
 10
79.95482351573807
 20
-119.6764038589699
 30
0.0
  0
SPLINE
  5
5D
330
1F
100
AcDbEntity
  8
_U+30EC_U+30A4_U+30E4_U+30FC 1
 62
     7
420
 16777215
370
     9
100
AcDbSpline
210
0.0
220
0.0
230
1.0
 70
    11
 71
     3
 72
    17
 73
    13
 74
     0
 42
0.0000000001
 43
0.0000000001
 12
1.0
 22
0.0
 32
0.0
 13
1.0
 23
0.0
 33
0.0
 40
0.0
 40
0.0
 40
0.0
 40
0.0
 40
1.0
 40
1.0
 40
1.0
 40
2.0
 40
2.0
 40
2.0
 40
3.0
 40
3.0
 40
3.0
 40
4.0
 40
4.0
 40
4.0
 40
4.0
 10
79.95482351573807
 20
-137.177850521261
 30
0.0
 10
79.95482351573807
 20
-137.1227113546079
 30
0.0
 10
79.9100207391033
 20
-137.0779438546194
 30
0.0
 10
79.85491685162023
 20
-137.0779438546194
 30
0.0
 10
79.79977768636029
 20
-137.0779438546194
 30
0.0
 10
79.75497490972552
 20
-137.1227113546079
 30
0.0
 10
79.75497490972552
 20
-137.177850521261
 30
0.0
 10
79.75497490972552
 20
-137.2336599656915
 30
0.0
 10
79.79977768636029
 20
-137.2784274656807
 30
0.0
 10
79.85491685162023
 20
-137.2784274656807
 30
0.0
 10
79.9100207391033
 20
-137.2784274656807
 30
0.0
 10
79.95482351573807
 20
-137.2336599656915
 30
0.0
 10
79.95482351573807
 20
-137.177850521261
 30
0.0
  0
SPLINE
  5
5E
330
1F
100
AcDbEntity
  8
_U+30EC_U+30A4_U+30E4_U+30FC 1
 62
     7
420
 16777215
370
     9
100
AcDbSpline
210
0.0
220
0.0
230
1.0
 70
    11
 71
     3
 72
    17
 73
    13
 74
     0
 42
0.0000000001
 43
0.0000000001
 12
1.0
 22
0.0
 32
0.0
 13
1.0
 23
0.0
 33
0.0
 40
0.0
 40
0.0
 40
0.0
 40
0.0
 40
1.0
 40
1.0
 40
1.0
 40
2.0
 40
2.0
 40
2.0
 40
3.0
 40
3.0
 40
3.0
 40
4.0
 40
4.0
 40
4.0
 40
4.0
 10
103.9550712367741
 20
-119.6764038589699
 30
0.0
 10
103.9550712367741
 20
-119.6212999700946
 30
0.0
 10
103.9102684601393
 20
-119.5764971923282
 30
0.0
 10
103.8551645726562
 20
-119.5764971923282
 30
0.0
 10
103.8000254073963
 20
-119.5764971923282
 30
0.0
 10
103.7552579085384
 20
-119.6212999700946
 30
0.0
 10
103.7552579085384
 20
-119.6764038589699
 30
0.0
 10
103.7552579085384
 20
-119.7315430256226
 30
0.0
 10
103.8000254073963
 20
-119.7763105256115
 30
0.0
 10
103.8551645726562
 20
-119.7763105256115
 30
0.0
 10
103.9102684601393
 20
-119.7763105256115
 30
0.0
 10
103.9550712367741
 20
-119.7315430256226
 30
0.0
 10
103.9550712367741
 20
-119.6764038589699
 30
0.0
  0
SPLINE
  5
5F
330
1F
100
AcDbEntity
  8
_U+30EC_U+30A4_U+30E4_U+30FC 1
 62
     7
420
 16777215
370
     9
100
AcDbSpline
210
0.0
220
0.0
230
1.0
 70
    11
 71
     3
 72
    17
 73
    13
 74
     0
 42
0.0000000001
 43
0.0000000001
 12
1.0
 22
0.0
 32
0.0
 13
1.0
 23
0.0
 33
0.0
 40
0.0
 40
0.0
 40
0.0
 40
0.0
 40
1.0
 40
1.0
 40
1.0
 40
2.0
 40
2.0
 40
2.0
 40
3.0
 40
3.0
 40
3.0
 40
4.0
 40
4.0
 40
4.0
 40
4.0
 10
103.9550712367741
 20
-136.1780782992891
 30
0.0
 10
103.9550712367741
 20
-136.1229744104135
 30
0.0
 10
103.9102684601393
 20
-136.0781716326468
 30
0.0
 10
103.8551645726562
 20
-136.0781716326468
 30
0.0
 10
103.8000254073963
 20
-136.0781716326468
 30
0.0
 10
103.7552579085384
 20
-136.1229744104135
 30
0.0
 10
103.7552579085384
 20
-136.1780782992891
 30
0.0
 10
103.7552579085384
 20
-136.2332174659416
 30
0.0
 10
103.8000254073963
 20
-136.2779849659308
 30
0.0
 10
103.8551645726562
 20
-136.2779849659308
 30
0.0
 10
103.9102684601393
 20
-136.2779849659308
 30
0.0
 10
103.9550712367741
 20
-136.2332174659416
 30
0.0
 10
103.9550712367741
 20
-136.1780782992891
 30
0.0
  0
POLYLINE
  5
60
330
1F
100
AcDbEntity
  8
_U+30EC_U+30A4_U+30E4_U+30FC 1
 62
     7
420
 16777215
370
     9
100
AcDb2dPolyline
 66
     1
 10
0.0
 20
0.0
 30
0.0
  0
VERTEX
  5
61
330
60
100
AcDbEntity
  8
_U+30EC_U+30A4_U+30E4_U+30FC 1
 62
     7
420
 16777215
370
     9
100
AcDbVertex
100
AcDb2dVertex
 10
84.85511839072113
 20
-123.6761630246364
 30
0.0
  0
VERTEX
  5
62
330
60
100
AcDbEntity
  8
_U+30EC_U+30A4_U+30E4_U+30FC 1
 62
     7
420
 16777215
370
     9
100
AcDbVertex
100
AcDb2dVertex
 10
88.62543079453245
 20
-123.6761630246364
 30
0.0
  0
SEQEND
  5
63
330
60
100
AcDbEntity
  8
_U+30EC_U+30A4_U+30E4_U+30FC 1
 62
     7
420
 16777215
370
     9
  0
POLYLINE
  5
64
330
1F
100
AcDbEntity
  8
_U+30EC_U+30A4_U+30E4_U+30FC 1
 62
     7
420
 16777215
370
     9
100
AcDb2dPolyline
 66
     1
 10
0.0
 20
0.0
 30
0.0
  0
VERTEX
  5
65
330
64
100
AcDbEntity
  8
_U+30EC_U+30A4_U+30E4_U+30FC 1
 62
     7
420
 16777215
370
     9
100
AcDbVertex
100
AcDb2dVertex
 10
82.85490371952864
 20
-123.6761630246364
 30
0.0
  0
VERTEX
  5
66
330
64
100
AcDbEntity
  8
_U+30EC_U+30A4_U+30E4_U+30FC 1
 62
     7
420
 16777215
370
     9
100
AcDbVertex
100
AcDb2dVertex
 10
84.85511839072113
 20
-123.6761630246364
 30
0.0
  0
SEQEND
  5
67
330
64
100
AcDbEntity
  8
_U+30EC_U+30A4_U+30E4_U+30FC 1
 62
     7
420
 16777215
370
     9
  0
INSERT
  5
69
330
1F
100
AcDbEntity
  8
_U+30EC_U+30A4_U+30E4_U+30FC 1
100
AcDbBlockReference
  2
block 3
 10
0.0
 20
0.0
 30
0.0
  0
POLYLINE
  5
6E
330
1F
100
AcDbEntity
  8
_U+30EC_U+30A4_U+30E4_U+30FC 1
 62
     7
420
 16777215
370
     9
100
AcDb2dPolyline
 66
     1
 10
0.0
 20
0.0
 30
0.0
  0
VERTEX
  5
6F
330
6E
100
AcDbEntity
  8
_U+30EC_U+30A4_U+30E4_U+30FC 1
 62
     7
420
 16777215
370
     9
100
AcDbVertex
100
AcDb2dVertex
 10
94.3949348140068
 20
-136.1780782992891
 30
0.0
  0
VERTEX
  5
70
330
6E
100
AcDbEntity
  8
_U+30EC_U+30A4_U+30E4_U+30FC 1
 62
     7
420
 16777215
370
     9
100
AcDbVertex
100
AcDb2dVertex
 10
104.8549367693721
 20
-136.1780782992891
 30
0.0
  0
SEQEND
  5
71
330
6E
100
AcDbEntity
  8
_U+30EC_U+30A4_U+30E4_U+30FC 1
 62
     7
420
 16777215
370
     9
  0
SPLINE
  5
72
330
1F
100
AcDbEntity
  8
_U+30EC_U+30A4_U+30E4_U+30FC 1
 62
     7
420
 16777215
370
     9
100
AcDbSpline
210
0.0
220
0.0
230
1.0
 70
    11
 71
     3
 72
    17
 73
    13
 74
     0
 42
0.0000000001
 43
0.0000000001
 12
1.0
 22
0.0
 32
0.0
 13
1.0
 23
0.0
 33
0.0
 40
0.0
 40
0.0
 40
0.0
 40
0.0
 40
1.0
 40
1.0
 40
1.0
 40
2.0
 40
2.0
 40
2.0
 40
3.0
 40
3.0
 40
3.0
 40
4.0
 40
4.0
 40
4.0
 40
4.0
 10
103.9550712367741
 20
-127.6748991347479
 30
0.0
 10
103.9550712367741
 20
-127.6190896903174
 30
0.0
 10
103.9102684601393
 20
-127.574286912551
 30
0.0
 10
103.8551645726562
 20
-127.574286912551
 30
0.0
 10
103.8000254073963
 20
-127.574286912551
 30
0.0
 10
103.7552579085384
 20
-127.6190896903174
 30
0.0
 10
103.7552579085384
 20
-127.6748991347479
 30
0.0
 10
103.7552579085384
 20
-127.7300030236231
 30
0.0
 10
103.8000254073963
 20
-127.7748058013895
 30
0.0
 10
103.8551645726562
 20
-127.7748058013895
 30
0.0
 10
103.9102684601393
 20
-127.7748058013895
 30
0.0
 10
103.9550712367741
 20
-127.7300030236231
 30
0.0
 10
103.9550712367741
 20
-127.6748991347479
 30
0.0
  0
POLYLINE
  5
73
330
1F
100
AcDbEntity
  8
_U+30EC_U+30A4_U+30E4_U+30FC 1
 62
     7
420
 16777215
370
     9
100
AcDb2dPolyline
 66
     1
 10
0.0
 20
0.0
 30
0.0
  0
VERTEX
  5
74
330
73
100
AcDbEntity
  8
_U+30EC_U+30A4_U+30E4_U+30FC 1
 62
     7
420
 16777215
370
     9
100
AcDbVertex
100
AcDb2dVertex
 10
97.38356223776057
 20
-127.6748991347479
 30
0.0
  0
VERTEX
  5
75
330
73
100
AcDbEntity
  8
_U+30EC_U+30A4_U+30E4_U+30FC 1
 62
     7
420
 16777215
370
     9
100
AcDbVertex
100
AcDb2dVertex
 10
104.8549367693721
 20
-127.6748991347479
 30
0.0
  0
SEQEND
  5
76
330
73
100
AcDbEntity
  8
_U+30EC_U+30A4_U+30E4_U+30FC 1
 62
     7
420
 16777215
370
     9
  0
SPLINE
  5
77
330
1F
100
AcDbEntity
  8
_U+30EC_U+30A4_U+30E4_U+30FC 1
 62
     7
420
 16777215
370
     9
100
AcDbSpline
210
0.0
220
0.0
230
1.0
 70
    11
 71
     3
 72
    17
 73
    13
 74
     0
 42
0.0000000001
 43
0.0000000001
 12
1.0
 22
0.0
 32
0.0
 13
1.0
 23
0.0
 33
0.0
 40
0.0
 40
0.0
 40
0.0
 40
0.0
 40
1.0
 40
1.0
 40
1.0
 40
2.0
 40
2.0
 40
2.0
 40
3.0
 40
3.0
 40
3.0
 40
4.0
 40
4.0
 40
4.0
 40
4.0
 10
103.9550712367741
 20
-126.6744213572204
 30
0.0
 10
103.9550712367741
 20
-126.6193174683452
 30
0.0
 10
103.9102684601393
 20
-126.5745146905785
 30
0.0
 10
103.8551645726562
 20
-126.5745146905785
 30
0.0
 10
103.8000254073963
 20
-126.5745146905785
 30
0.0
 10
103.7552579085384
 20
-126.6193174683452
 30
0.0
 10
103.7552579085384
 20
-126.6744213572204
 30
0.0
 10
103.7552579085384
 20
-126.7295605238732
 30
0.0
 10
103.8000254073963
 20
-126.7743633016396
 30
0.0
 10
103.8551645726562
 20
-126.7743633016396
 30
0.0
 10
103.9102684601393
 20
-126.7743633016396
 30
0.0
 10
103.9550712367741
 20
-126.7295605238732
 30
0.0
 10
103.9550712367741
 20
-126.6744213572204
 30
0.0
  0
POLYLINE
  5
78
330
1F
100
AcDbEntity
  8
_U+30EC_U+30A4_U+30E4_U+30FC 1
 62
     7
420
 16777215
370
     9
100
AcDb2dPolyline
 66
     1
 10
0.0
 20
0.0
 30
0.0
  0
VERTEX
  5
79
330
78
100
AcDbEntity
  8
_U+30EC_U+30A4_U+30E4_U+30FC 1
 62
     7
420
 16777215
370
     9
100
AcDbVertex
100
AcDb2dVertex
 10
97.38356223776057
 20
-126.6782313572195
 30
0.0
  0
VERTEX
  5
7A
330
78
100
AcDbEntity
  8
_U+30EC_U+30A4_U+30E4_U+30FC 1
 62
     7
420
 16777215
370
     9
100
AcDbVertex
100
AcDb2dVertex
 10
104.8549367693721
 20
-126.6782313572195
 30
0.0
  0
SEQEND
  5
7B
330
78
100
AcDbEntity
  8
_U+30EC_U+30A4_U+30E4_U+30FC 1
 62
     7
420
 16777215
370
     9
  0
INSERT
  5
7D
330
1F
100
AcDbEntity
  8
_U+30EC_U+30A4_U+30E4_U+30FC 1
100
AcDbBlockReference
  2
block 4
 10
0.0
 20
0.0
 30
0.0
  0
POLYLINE
  5
8E
330
1F
100
AcDbEntity
  8
_U+30EC_U+30A4_U+30E4_U+30FC 1
 62
     7
420
 16777215
370
     9
100
AcDb2dPolyline
 66
     1
 10
0.0
 20
0.0
 30
0.0
  0
VERTEX
  5
8F
330
8E
100
AcDbEntity
  8
_U+30EC_U+30A4_U+30E4_U+30FC 1
 62
     7
420
 16777215
370
     9
100
AcDbVertex
100
AcDb2dVertex
 10
103.8551645726562
 20
-127.6748991347479
 30
0.0
  0
VERTEX
  5
90
330
8E
100
AcDbEntity
  8
_U+30EC_U+30A4_U+30E4_U+30FC 1
 62
     7
420
 16777215
370
     9
100
AcDbVertex
100
AcDb2dVertex
 10
103.8551645726562
 20
-126.6749505238868
 30
0.0
  0
SEQEND
  5
91
330
8E
100
AcDbEntity
  8
_U+30EC_U+30A4_U+30E4_U+30FC 1
 62
     7
420
 16777215
370
     9
  0
POLYLINE
  5
92
330
1F
100
AcDbEntity
  8
_U+30EC_U+30A4_U+30E4_U+30FC 1
 62
     7
420
 16777215
370
     9
100
AcDb2dPolyline
 66
     1
 10
0.0
 20
0.0
 30
0.0
  0
VERTEX
  5
93
330
92
100
AcDbEntity
  8
_U+30EC_U+30A4_U+30E4_U+30FC 1
 62
     7
420
 16777215
370
     9
100
AcDbVertex
100
AcDb2dVertex
 10
103.8551645726562
 20
-126.6749505238868
 30
0.0
  0
VERTEX
  5
94
330
92
100
AcDbEntity
  8
_U+30EC_U+30A4_U+30E4_U+30FC 1
 62
     7
420
 16777215
370
     9
100
AcDbVertex
100
AcDb2dVertex
 10
103.8551645726562
 20
-119.675028025637
 30
0.0
  0
SEQEND
  5
95
330
92
100
AcDbEntity
  8
_U+30EC_U+30A4_U+30E4_U+30FC 1
 62
     7
420
 16777215
370
     9
  0
POLYLINE
  5
96
330
1F
100
AcDbEntity
  8
_U+30EC_U+30A4_U+30E4_U+30FC 1
 62
     7
420
 16777215
370
     9
100
AcDb2dPolyline
 66
     1
 10
0.0
 20
0.0
 30
0.0
  0
VERTEX
  5
97
330
96
100
AcDbEntity
  8
_U+30EC_U+30A4_U+30E4_U+30FC 1
 62
     7
420
 16777215
370
     9
100
AcDbVertex
100
AcDb2dVertex
 10
86.3950639069894
 20
-119.6764038589699
 30
0.0
  0
VERTEX
  5
98
330
96
100
AcDbEntity
  8
_U+30EC_U+30A4_U+30E4_U+30FC 1
 62
     7
420
 16777215
370
     9
100
AcDbVertex
100
AcDb2dVertex
 10
104.8549367693721
 20
-119.6764038589699
 30
0.0
  0
SEQEND
  5
99
330
96
100
AcDbEntity
  8
_U+30EC_U+30A4_U+30E4_U+30FC 1
 62
     7
420
 16777215
370
     9
  0
INSERT
  5
9B
330
1F
100
AcDbEntity
  8
_U+30EC_U+30A4_U+30E4_U+30FC 1
100
AcDbBlockReference
  2
block 5
 10
0.0
 20
0.0
 30
0.0
  0
POLYLINE
  5
A0
330
1F
100
AcDbEntity
  8
_U+30EC_U+30A4_U+30E4_U+30FC 1
 62
     7
420
 16777215
370
     9
100
AcDb2dPolyline
 66
     1
 10
0.0
 20
0.0
 30
0.0
  0
VERTEX
  5
A1
330
A0
100
AcDbEntity
  8
_U+30EC_U+30A4_U+30E4_U+30FC 1
 62
     7
420
 16777215
370
     9
100
AcDbVertex
100
AcDb2dVertex
 10
79.85491685162023
 20
-137.1774977434833
 30
0.0
  0
VERTEX
  5
A2
330
A0
100
AcDbEntity
  8
_U+30EC_U+30A4_U+30E4_U+30FC 1
 62
     7
420
 16777215
370
     9
100
AcDbVertex
100
AcDb2dVertex
 10
79.85491685162023
 20
-119.6774621923028
 30
0.0
  0
SEQEND
  5
A3
330
A0
100
AcDbEntity
  8
_U+30EC_U+30A4_U+30E4_U+30FC 1
 62
     7
420
 16777215
370
     9
  0
POLYLINE
  5
A4
330
1F
100
AcDbEntity
  8
_U+30EC_U+30A4_U+30E4_U+30FC 1
 62
     7
420
 16777215
370
     9
100
AcDb2dPolyline
 66
     1
 10
0.0
 20
0.0
 30
0.0
  0
VERTEX
  5
A5
330
A4
100
AcDbEntity
  8
_U+30EC_U+30A4_U+30E4_U+30FC 1
 62
     7
420
 16777215
370
     9
100
AcDbVertex
100
AcDb2dVertex
 10
82.31469720164343
 20
-137.177850521261
 30
0.0
  0
VERTEX
  5
A6
330
A4
100
AcDbEntity
  8
_U+30EC_U+30A4_U+30E4_U+30FC 1
 62
     7
420
 16777215
370
     9
100
AcDbVertex
100
AcDb2dVertex
 10
78.85514465490432
 20
-137.177850521261
 30
0.0
  0
SEQEND
  5
A7
330
A4
100
AcDbEntity
  8
_U+30EC_U+30A4_U+30E4_U+30FC 1
 62
     7
420
 16777215
370
     9
  0
POLYLINE
  5
A8
330
1F
100
AcDbEntity
  8
_U+30EC_U+30A4_U+30E4_U+30FC 1
 62
     7
420
 16777215
370
     9
100
AcDb2dPolyline
 66
     1
 10
0.0
 20
0.0
 30
0.0
  0
VERTEX
  5
A9
330
A8
100
AcDbEntity
  8
_U+30EC_U+30A4_U+30E4_U+30FC 1
 62
     7
420
 16777215
370
     9
100
AcDbVertex
100
AcDb2dVertex
 10
82.31469720164343
 20
-119.6764038589699
 30
0.0
  0
VERTEX
  5
AA
330
A8
100
AcDbEntity
  8
_U+30EC_U+30A4_U+30E4_U+30FC 1
 62
     7
420
 16777215
370
     9
100
AcDbVertex
100
AcDb2dVertex
 10
78.85514465490432
 20
-119.6764038589699
 30
0.0
  0
SEQEND
  5
AB
330
A8
100
AcDbEntity
  8
_U+30EC_U+30A4_U+30E4_U+30FC 1
 62
     7
420
 16777215
370
     9
  0
INSERT
  5
AD
330
1F
100
AcDbEntity
  8
_U+30EC_U+30A4_U+30E4_U+30FC 1
100
AcDbBlockReference
  2
block 6
 10
0.0
 20
0.0
 30
0.0
  0
POLYLINE
  5
BE
330
1F
100
AcDbEntity
  8
_U+30EC_U+30A4_U+30E4_U+30FC 1
 62
     7
420
 16777215
370
     9
100
AcDb2dPolyline
 66
     1
 10
0.0
 20
0.0
 30
0.0
  0
VERTEX
  5
BF
330
BE
100
AcDbEntity
  8
_U+30EC_U+30A4_U+30E4_U+30FC 1
 62
     7
420
 16777215
370
     9
100
AcDbVertex
100
AcDb2dVertex
 10
83.85464063846767
 20
-141.1779624647057
 30
0.0
  0
VERTEX
  5
C0
330
BE
100
AcDbEntity
  8
_U+30EC_U+30A4_U+30E4_U+30FC 1
 62
     7
420
 16777215
370
     9
100
AcDbVertex
100
AcDb2dVertex
 10
96.85471308458597
 20
-141.1779624647057
 30
0.0
  0
SEQEND
  5
C1
330
BE
100
AcDbEntity
  8
_U+30EC_U+30A4_U+30E4_U+30FC 1
 62
     7
420
 16777215
370
     9
  0
POLYLINE
  5
C2
330
1F
100
AcDbEntity
  8
_U+30EC_U+30A4_U+30E4_U+30FC 1
 62
     7
420
 16777215
370
     9
100
AcDb2dPolyline
 66
     1
 10
0.0
 20
0.0
 30
0.0
  0
VERTEX
  5
C3
330
C2
100
AcDbEntity
  8
_U+30EC_U+30A4_U+30E4_U+30FC 1
 62
     7
420
 16777215
370
     9
100
AcDbVertex
100
AcDb2dVertex
 10
83.85464063846767
 20
-138.7174432986539
 30
0.0
  0
VERTEX
  5
C4
330
C2
100
AcDbEntity
  8
_U+30EC_U+30A4_U+30E4_U+30FC 1
 62
     7
420
 16777215
370
     9
100
AcDbVertex
100
AcDb2dVertex
 10
83.85464063846767
 20
-142.1776994089
 30
0.0
  0
SEQEND
  5
C5
330
C2
100
AcDbEntity
  8
_U+30EC_U+30A4_U+30E4_U+30FC 1
 62
     7
420
 16777215
370
     9
  0
POLYLINE
  5
C6
330
1F
100
AcDbEntity
  8
_U+30EC_U+30A4_U+30E4_U+30FC 1
 62
     7
420
 16777215
370
     9
100
AcDb2dPolyline
 66
     1
 10
0.0
 20
0.0
 30
0.0
  0
VERTEX
  5
C7
330
C6
100
AcDbEntity
  8
_U+30EC_U+30A4_U+30E4_U+30FC 1
 62
     7
420
 16777215
370
     9
100
AcDbVertex
100
AcDb2dVertex
 10
96.85541864012352
 20
-139.7179210761819
 30
0.0
  0
VERTEX
  5
C8
330
C6
100
AcDbEntity
  8
_U+30EC_U+30A4_U+30E4_U+30FC 1
 62
     7
420
 16777215
370
     9
100
AcDbVertex
100
AcDb2dVertex
 10
96.85541864012352
 20
-142.1776994089
 30
0.0
  0
SEQEND
  5
C9
330
C6
100
AcDbEntity
  8
_U+30EC_U+30A4_U+30E4_U+30FC 1
 62
     7
420
 16777215
370
     9
  0
INSERT
  5
CB
330
1F
100
AcDbEntity
  8
_U+30EC_U+30A4_U+30E4_U+30FC 1
100
AcDbBlockReference
  2
block 7
 10
0.0
 20
0.0
 30
0.0
  0
POLYLINE
  5
D2
330
1F
100
AcDbEntity
  8
_U+30EC_U+30A4_U+30E4_U+30FC 1
 62
     7
420
 16777215
370
     9
100
AcDb2dPolyline
 66
     1
 10
0.0
 20
0.0
 30
0.0
  0
VERTEX
  5
D3
330
D2
100
AcDbEntity
  8
_U+30EC_U+30A4_U+30E4_U+30FC 1
 62
     7
420
 16777215
370
     9
100
AcDbVertex
100
AcDb2dVertex
 10
103.8551645726562
 20
-136.1780782992891
 30
0.0
  0
VERTEX
  5
D4
330
D2
100
AcDbEntity
  8
_U+30EC_U+30A4_U+30E4_U+30FC 1
 62
     7
420
 16777215
370
     9
100
AcDbVertex
100
AcDb2dVertex
 10
103.8551645726562
 20
-127.6780035791917
 30
0.0
  0
SEQEND
  5
D5
330
D2
100
AcDbEntity
  8
_U+30EC_U+30A4_U+30E4_U+30FC 1
 62
     7
420
 16777215
370
     9
  0
ENDSEC
  0
SECTION
  2
OBJECTS
  0
DICTIONARY
  5
C
330
0
100
AcDbDictionary
281
     1
  3
ACAD_GROUP
350
D
  3
ACAD_LAYOUT
350
1A
  3
ACAD_MATERIAL
350
3B
  3
ACAD_MLEADERSTYLE
350
D7
  3
ACAD_MLINESTYLE
350
17
  3
ACAD_PLOTSETTINGS
350
19
  3
ACAD_PLOTSTYLENAME
350
E
  3
ACAD_TABLESTYLE
350
D6
  3
ACAD_VISUALSTYLE
350
2A
  0
SUN
  5
3F
330
29
100
AcDbSun
 90
        1
290
     0
 63
     7
421
 16777215
 40
1.0
291
     1
 91
  2455826
 92
 54000000
292
     0
 70
     2
 71
   256
280
     1
  0
DICTIONARY
  5
D
102
{ACAD_REACTORS
330
C
102
}
330
C
100
AcDbDictionary
281
     1
  0
DICTIONARY
  5
1A
102
{ACAD_REACTORS
330
C
102
}
330
C
100
AcDbDictionary
281
     1
  3
Layout1
350
1E
  3
Layout2
350
26
  3
Model
350
22
  0
DICTIONARY
  5
3B
102
{ACAD_REACTORS
330
C
102
}
330
C
100
AcDbDictionary
281
     1
  3
ByBlock
350
3D
  3
ByLayer
350
3C
  3
Global
350
3E
  0
DICTIONARY
  5
D7
102
{ACAD_REACTORS
330
C
102
}
330
C
100
AcDbDictionary
281
     1
  0
DICTIONARY
  5
17
102
{ACAD_REACTORS
330
C
102
}
330
C
100
AcDbDictionary
281
     1
  3
Standard
350
18
  0
DICTIONARY
  5
19
102
{ACAD_REACTORS
330
C
102
}
330
C
100
AcDbDictionary
281
     1
  0
ACDBDICTIONARYWDFLT
  5
E
102
{ACAD_REACTORS
330
C
102
}
330
C
100
AcDbDictionary
281
     1
  3
Normal
350
F
100
AcDbDictionaryWithDefault
340
F
  0
DICTIONARY
  5
D6
102
{ACAD_REACTORS
330
C
102
}
330
C
100
AcDbDictionary
281
     1
  0
DICTIONARY
  5
2A
102
{ACAD_REACTORS
330
C
102
}
330
C
100
AcDbDictionary
281
     1
  3
2dWireframe
350
2F
  3
3D Hidden
350
31
  3
3dWireframe
350
30
  3
Basic
350
32
  3
Brighten
350
36
  3
ColorChange
350
3A
  3
Conceptual
350
34
  3
Dim
350
35
  3
Facepattern
350
39
  3
Flat
350
2B
  3
FlatWithEdges
350
2C
  3
Gouraud
350
2D
  3
GouraudWithEdges
350
2E
  3
Linepattern
350
38
  3
Realistic
350
33
  3
Thicken
350
37
  0
LAYOUT
  5
1E
102
{ACAD_REACTORS
330
1A
102
}
330
1A
100
AcDbPlotSettings
  1

  2
none_device
  4

  6

 40
0.0
 41
0.0
 42
0.0
 43
0.0
 44
0.0
 45
0.0
 46
0.0
 47
0.0
 48
0.0
 49
0.0
140
0.0
141
0.0
142
1.0
143
1.0
 70
   688
 72
     0
 73
     0
 74
     5
  7

 75
    16
 76
     0
 77
     2
 78
   300
147
1.0
148
0.0
149
0.0
100
AcDbLayout
  1
Layout1
 70
     1
 71
     1
 10
0.0
 20
0.0
 11
12.0
 21
9.0
 12
0.0
 22
0.0
 32
0.0
 14
1.000000000000000E+20
 24
1.000000000000000E+20
 34
1.000000000000000E+20
 15
-1.000000000000000E+20
 25
-1.000000000000000E+20
 35
-1.000000000000000E+20
146
0.0
 13
0.0
 23
0.0
 33
0.0
 16
1.0
 26
0.0
 36
0.0
 17
0.0
 27
1.0
 37
0.0
 76
     0
330
1B
  0
LAYOUT
  5
26
102
{ACAD_REACTORS
330
1A
102
}
330
1A
100
AcDbPlotSettings
  1

  2
none_device
  4

  6

 40
0.0
 41
0.0
 42
0.0
 43
0.0
 44
0.0
 45
0.0
 46
0.0
 47
0.0
 48
0.0
 49
0.0
140
0.0
141
0.0
142
1.0
143
1.0
 70
   688
 72
     0
 73
     0
 74
     5
  7

 75
    16
 76
     0
 77
     2
 78
   300
147
1.0
148
0.0
149
0.0
100
AcDbLayout
  1
Layout2
 70
     1
 71
     2
 10
0.0
 20
0.0
 11
0.0
 21
0.0
 12
0.0
 22
0.0
 32
0.0
 14
0.0
 24
0.0
 34
0.0
 15
0.0
 25
0.0
 35
0.0
146
0.0
 13
0.0
 23
0.0
 33
0.0
 16
1.0
 26
0.0
 36
0.0
 17
0.0
 27
1.0
 37
0.0
 76
     0
330
23
  0
LAYOUT
  5
22
102
{ACAD_REACTORS
330
1A
102
}
330
1A
100
AcDbPlotSettings
  1

  2
none_device
  4

  6

 40
0.0
 41
0.0
 42
0.0
 43
0.0
 44
0.0
 45
0.0
 46
0.0
 47
0.0
 48
0.0
 49
0.0
140
0.0
141
0.0
142
1.0
143
1.0
 70
  1712
 72
     0
 73
     0
 74
     0
  7

 75
     0
 76
     0
 77
     2
 78
   300
147
1.0
148
0.0
149
0.0
100
AcDbLayout
  1
Model
 70
     1
 71
     0
 10
0.0
 20
0.0
 11
12.0
 21
9.0
 12
0.0
 22
0.0
 32
0.0
 14
1.000000000000000E+20
 24
1.000000000000000E+20
 34
1.000000000000000E+20
 15
-1.000000000000000E+20
 25
-1.000000000000000E+20
 35
-1.000000000000000E+20
146
0.0
 13
0.0
 23
0.0
 33
0.0
 16
1.0
 26
0.0
 36
0.0
 17
0.0
 27
1.0
 37
0.0
 76
     0
330
1F
331
29
  0
MATERIAL
  5
3D
102
{ACAD_REACTORS
330
3B
102
}
330
3B
100
AcDbMaterial
  1
ByBlock
 72
     1
 94
      127
  0
MATERIAL
  5
3C
102
{ACAD_REACTORS
330
3B
102
}
330
3B
100
AcDbMaterial
  1
ByLayer
 72
     1
 94
      127
  0
MATERIAL
  5
3E
102
{ACAD_REACTORS
330
3B
102
}
330
3B
100
AcDbMaterial
  1
Global
 72
     1
 94
      127
  0
MLINESTYLE
  5
18
102
{ACAD_REACTORS
330
17
102
}
330
17
100
AcDbMlineStyle
  2
Standard
 70
     0
  3

 62
   256
 51
90.0
 52
90.0
 71
     2
 49
0.5
 62
   256
  6
BYLAYER
 49
-0.5
 62
   256
  6
BYLAYER
  0
ACDBPLACEHOLDER
  5
F
102
{ACAD_REACTORS
330
E
102
}
330
E
  0
VISUALSTYLE
  5
2F
102
{ACAD_REACTORS
330
2A
102
}
330
2A
100
AcDbVisualStyle
  2
2dWireframe
 70
     4
177
     2
291
     0
 71
     0
176
     1
 72
     2
176
     1
 73
     0
176
     1
 90
        0
176
     1
 40
-0.6
176
     1
 41
-30.0
176
     1
 62
     5
 63
     7
421
 16777215
176
     1
 74
     1
176
     1
 91
        4
176
     1
 64
     7
176
     1
 65
   257
176
     1
 75
     1
176
     1
175
     1
176
     1
 42
1.0
176
     1
 92
        0
176
     1
 66
   257
176
     1
 43
1.0
176
     1
 76
     1
176
     1
 77
     6
176
     1
 78
     2
176
     1
 67
     7
176
     1
 79
     5
176
     1
170
     0
176
     1
171
     0
176
     1
290
     0
176
     1
 93
        1
176
     1
 44
0.0
176
     1
173
     0
176
     1
  0
VISUALSTYLE
  5
31
102
{ACAD_REACTORS
330
2A
102
}
330
2A
100
AcDbVisualStyle
  2
3D Hidden
 70
     6
177
     2
291
     0
 71
     1
176
     1
 72
     2
176
     1
 73
     2
176
     1
 90
        0
176
     1
 40
-0.6
176
     1
 41
-30.0
176
     1
 62
     5
 63
     7
421
 16777215
176
     1
 74
     2
176
     1
 91
        2
176
     1
 64
     7
176
     1
 65
   257
176
     1
 75
     2
176
     1
175
     1
176
     1
 42
40.0
176
     1
 92
        0
176
     1
 66
   257
176
     1
 43
1.0
176
     1
 76
     1
176
     1
 77
     6
176
     1
 78
     2
176
     1
 67
     7
176
     1
 79
     3
176
     1
170
     0
176
     1
171
     0
176
     1
290
     0
176
     1
 93
        1
176
     1
 44
0.0
176
     1
173
     0
176
     1
  0
VISUALSTYLE
  5
30
102
{ACAD_REACTORS
330
2A
102
}
330
2A
100
AcDbVisualStyle
  2
3dWireframe
 70
     5
177
     2
291
     0
 71
     0
176
     1
 72
     2
176
     1
 73
     0
176
     1
 90
        0
176
     1
 40
-0.6
176
     1
 41
-30.0
176
     1
 62
     5
 63
     7
421
 16777215
176
     1
 74
     1
176
     1
 91
        4
176
     1
 64
     7
176
     1
 65
   257
176
     1
 75
     1
176
     1
175
     1
176
     1
 42
1.0
176
     1
 92
        0
176
     1
 66
   257
176
     1
 43
1.0
176
     1
 76
     1
176
     1
 77
     6
176
     1
 78
     2
176
     1
 67
     7
176
     1
 79
     5
176
     1
170
     0
176
     1
171
     0
176
     1
290
     0
176
     1
 93
        1
176
     1
 44
0.0
176
     1
173
     0
176
     1
  0
VISUALSTYLE
  5
32
102
{ACAD_REACTORS
330
2A
102
}
330
2A
100
AcDbVisualStyle
  2
Basic
 70
     7
177
     2
291
     1
 71
     1
176
     1
 72
     0
176
     1
 73
     1
176
     1
 90
        0
176
     1
 40
-0.6
176
     1
 41
-30.0
176
     1
 62
     5
 63
     7
421
 16777215
176
     1
 74
     0
176
     1
 91
        4
176
     1
 64
     7
176
     1
 65
   257
176
     1
 75
     1
176
     1
175
     1
176
     1
 42
1.0
176
     1
 92
        8
176
     1
 66
     7
176
     1
 43
1.0
176
     1
 76
     1
176
     1
 77
     6
176
     1
 78
     2
176
     1
 67
     7
176
     1
 79
     5
176
     1
170
     0
176
     1
171
     0
176
     1
290
     0
176
     1
 93
        1
176
     1
 44
0.0
176
     1
173
     0
176
     1
  0
VISUALSTYLE
  5
36
102
{ACAD_REACTORS
330
2A
102
}
330
2A
100
AcDbVisualStyle
  2
Brighten
 70
    12
177
     2
291
     1
 71
     2
176
     1
 72
     2
176
     1
 73
     0
176
     1
 90
        0
176
     1
 40
-0.6
176
     1
 41
-30.0
176
     1
 62
     5
 63
     7
421
 16777215
176
     1
 74
     1
176
     1
 91
        4
176
     1
 64
     7
176
     1
 65
   257
176
     1
 75
     1
176
     1
175
     1
176
     1
 42
1.0
176
     1
 92
        8
176
     1
 66
     7
176
     1
 43
1.0
176
     1
 76
     1
176
     1
 77
     6
176
     1
 78
     2
176
     1
 67
     7
176
     1
 79
     5
176
     1
170
     0
176
     1
171
     0
176
     1
290
     0
176
     1
 93
        1
176
     1
 44
50.0
176
     1
173
     0
176
     1
  0
VISUALSTYLE
  5
3A
102
{ACAD_REACTORS
330
2A
102
}
330
2A
100
AcDbVisualStyle
  2
ColorChange
 70
    16
177
     2
291
     1
 71
     2
176
     1
 72
     2
176
     1
 73
     3
176
     1
 90
        0
176
     1
 40
-0.6
176
     1
 41
-30.0
176
     1
 62
     5
 63
     8
421
  8421504
176
     1
 74
     1
176
     1
 91
        4
176
     1
 64
     7
176
     1
 65
   257
176
     1
 75
     1
176
     1
175
     1
176
     1
 42
1.0
176
     1
 92
        8
176
     1
 66
     8
424
  8421504
176
     1
 43
1.0
176
     1
 76
     1
176
     1
 77
     6
176
     1
 78
     2
176
     1
 67
     7
176
     1
 79
     5
176
     1
170
     0
176
     1
171
     0
176
     1
290
     0
176
     1
 93
        1
176
     1
 44
0.0
176
     1
173
     0
176
     1
  0
VISUALSTYLE
  5
34
102
{ACAD_REACTORS
330
2A
102
}
330
2A
100
AcDbVisualStyle
  2
Conceptual
 70
     9
177
     2
291
     0
 71
     3
176
     1
 72
     2
176
     1
 73
     0
176
     1
 90
        0
176
     1
 40
-0.6
176
     1
 41
-30.0
176
     1
 62
     5
 63
     7
421
 16777215
176
     1
 74
     2
176
     1
 91
        2
176
     1
 64
     7
176
     1
 65
   257
176
     1
 75
     1
176
     1
175
     1
176
     1
 42
40.0
176
     1
 92
        8
176
     1
 66
     7
176
     1
 43
1.0
176
     1
 76
     1
176
     1
 77
     6
176
     1
 78
     2
176
     1
 67
     7
176
     1
 79
     3
176
     1
170
     0
176
     1
171
     0
176
     1
290
     0
176
     1
 93
        1
176
     1
 44
0.0
176
     1
173
     0
176
     1
  0
VISUALSTYLE
  5
35
102
{ACAD_REACTORS
330
2A
102
}
330
2A
100
AcDbVisualStyle
  2
Dim
 70
    11
177
     2
291
     1
 71
     2
176
     1
 72
     2
176
     1
 73
     0
176
     1
 90
        0
176
     1
 40
-0.6
176
     1
 41
-30.0
176
     1
 62
     5
 63
     7
421
 16777215
176
     1
 74
     1
176
     1
 91
        4
176
     1
 64
     7
176
     1
 65
   257
176
     1
 75
     1
176
     1
175
     1
176
     1
 42
1.0
176
     1
 92
        8
176
     1
 66
     7
176
     1
 43
1.0
176
     1
 76
     1
176
     1
 77
     6
176
     1
 78
     2
176
     1
 67
     7
176
     1
 79
     5
176
     1
170
     0
176
     1
171
     0
176
     1
290
     0
176
     1
 93
        1
176
     1
 44
-50.0
176
     1
173
     0
176
     1
  0
VISUALSTYLE
  5
39
102
{ACAD_REACTORS
330
2A
102
}
330
2A
100
AcDbVisualStyle
  2
Facepattern
 70
    15
177
     2
291
     1
 71
     2
176
     1
 72
     2
176
     1
 73
     0
176
     1
 90
        0
176
     1
 40
-0.6
176
     1
 41
-30.0
176
     1
 62
     5
 63
     7
421
 16777215
176
     1
 74
     1
176
     1
 91
        4
176
     1
 64
     7
176
     1
 65
   257
176
     1
 75
     1
176
     1
175
     1
176
     1
 42
1.0
176
     1
 92
        8
176
     1
 66
     7
176
     1
 43
1.0
176
     1
 76
     1
176
     1
 77
     6
176
     1
 78
     2
176
     1
 67
     7
176
     1
 79
     5
176
     1
170
     0
176
     1
171
     0
176
     1
290
     0
176
     1
 93
        1
176
     1
 44
0.0
176
     1
173
     0
176
     1
  0
VISUALSTYLE
  5
2B
102
{ACAD_REACTORS
330
2A
102
}
330
2A
100
AcDbVisualStyle
  2
Flat
 70
     0
177
     2
291
     1
 71
     2
176
     1
 72
     1
176
     1
 73
     1
176
     1
 90
        2
176
     1
 40
-0.6
176
     1
 41
30.0
176
     1
 62
     5
 63
     7
421
 16777215
176
     1
 74
     0
176
     1
 91
        4
176
     1
 64
     7
176
     1
 65
   257
176
     1
 75
     1
176
     1
175
     1
176
     1
 42
1.0
176
     1
 92
        8
176
     1
 66
     7
176
     1
 43
1.0
176
     1
 76
     1
176
     1
 77
     6
176
     1
 78
     2
176
     1
 67
     7
176
     1
 79
     5
176
     1
170
     0
176
     1
171
     0
176
     1
290
     0
176
     1
 93
       13
176
     1
 44
0.0
176
     1
173
     0
176
     1
  0
VISUALSTYLE
  5
2C
102
{ACAD_REACTORS
330
2A
102
}
330
2A
100
AcDbVisualStyle
  2
FlatWithEdges
 70
     1
177
     2
291
     1
 71
     2
176
     1
 72
     1
176
     1
 73
     1
176
     1
 90
        2
176
     1
 40
-0.6
176
     1
 41
30.0
176
     1
 62
     5
 63
     7
421
 16777215
176
     1
 74
     1
176
     1
 91
        4
176
     1
 64
     7
176
     1
 65
   257
176
     1
 75
     1
176
     1
175
     1
176
     1
 42
1.0
176
     1
 92
        0
176
     1
 66
   257
176
     1
 43
1.0
176
     1
 76
     1
176
     1
 77
     6
176
     1
 78
     2
176
     1
 67
     7
176
     1
 79
     5
176
     1
170
     0
176
     1
171
     0
176
     1
290
     0
176
     1
 93
       13
176
     1
 44
0.0
176
     1
173
     0
176
     1
  0
VISUALSTYLE
  5
2D
102
{ACAD_REACTORS
330
2A
102
}
330
2A
100
AcDbVisualStyle
  2
Gouraud
 70
     2
177
     2
291
     1
 71
     2
176
     1
 72
     2
176
     1
 73
     1
176
     1
 90
        2
176
     1
 40
-0.6
176
     1
 41
30.0
176
     1
 62
     5
 63
     7
421
 16777215
176
     1
 74
     0
176
     1
 91
        4
176
     1
 64
     7
176
     1
 65
   257
176
     1
 75
     1
176
     1
175
     1
176
     1
 42
1.0
176
     1
 92
        0
176
     1
 66
     7
176
     1
 43
1.0
176
     1
 76
     1
176
     1
 77
     6
176
     1
 78
     2
176
     1
 67
     7
176
     1
 79
     5
176
     1
170
     0
176
     1
171
     0
176
     1
290
     0
176
     1
 93
       13
176
     1
 44
0.0
176
     1
173
     0
176
     1
  0
VISUALSTYLE
  5
2E
102
{ACAD_REACTORS
330
2A
102
}
330
2A
100
AcDbVisualStyle
  2
GouraudWithEdges
 70
     3
177
     2
291
     1
 71
     2
176
     1
 72
     2
176
     1
 73
     1
176
     1
 90
        2
176
     1
 40
-0.6
176
     1
 41
30.0
176
     1
 62
     5
 63
     7
421
 16777215
176
     1
 74
     1
176
     1
 91
        4
176
     1
 64
     7
176
     1
 65
   257
176
     1
 75
     1
176
     1
175
     1
176
     1
 42
1.0
176
     1
 92
        0
176
     1
 66
   257
176
     1
 43
1.0
176
     1
 76
     1
176
     1
 77
     6
176
     1
 78
     2
176
     1
 67
     7
176
     1
 79
     5
176
     1
170
     0
176
     1
171
     0
176
     1
290
     0
176
     1
 93
       13
176
     1
 44
0.0
176
     1
173
     0
176
     1
  0
VISUALSTYLE
  5
38
102
{ACAD_REACTORS
330
2A
102
}
330
2A
100
AcDbVisualStyle
  2
Linepattern
 70
    14
177
     2
291
     1
 71
     2
176
     1
 72
     2
176
     1
 73
     0
176
     1
 90
        0
176
     1
 40
-0.6
176
     1
 41
-30.0
176
     1
 62
     5
 63
     7
421
 16777215
176
     1
 74
     1
176
     1
 91
        4
176
     1
 64
     7
176
     1
 65
   257
176
     1
 75
     7
176
     1
175
     7
176
     1
 42
1.0
176
     1
 92
        8
176
     1
 66
     7
176
     1
 43
1.0
176
     1
 76
     1
176
     1
 77
     6
176
     1
 78
     2
176
     1
 67
     7
176
     1
 79
     5
176
     1
170
     0
176
     1
171
     0
176
     1
290
     0
176
     1
 93
        1
176
     1
 44
0.0
176
     1
173
     0
176
     1
  0
VISUALSTYLE
  5
33
102
{ACAD_REACTORS
330
2A
102
}
330
2A
100
AcDbVisualStyle
  2
Realistic
 70
     8
177
     2
291
     0
 71
     2
176
     1
 72
     2
176
     1
 73
     0
176
     1
 90
        0
176
     1
 40
-0.6
176
     1
 41
-30.0
176
     1
 62
     5
 63
     7
421
 16777215
176
     1
 74
     1
176
     1
 91
        0
176
     1
 64
     7
176
     1
 65
   257
176
     1
 75
     1
176
     1
175
     1
176
     1
 42
1.0
176
     1
 92
        8
176
     1
 66
     8
424
  7895160
176
     1
 43
1.0
176
     1
 76
     1
176
     1
 77
     6
176
     1
 78
     2
176
     1
 67
     7
176
     1
 79
     5
176
     1
170
     0
176
     1
171
     0
176
     1
290
     0
176
     1
 93
       13
176
     1
 44
0.0
176
     1
173
     0
176
     1
  0
VISUALSTYLE
  5
37
102
{ACAD_REACTORS
330
2A
102
}
330
2A
100
AcDbVisualStyle
  2
Thicken
 70
    13
177
     2
291
     1
 71
     2
176
     1
 72
     2
176
     1
 73
     0
176
     1
 90
        0
176
     1
 40
-0.6
176
     1
 41
-30.0
176
     1
 62
     5
 63
     7
421
 16777215
176
     1
 74
     1
176
     1
 91
        4
176
     1
 64
     7
176
     1
 65
   257
176
     1
 75
     1
176
     1
175
     1
176
     1
 42
1.0
176
     1
 92
       12
176
     1
 66
     7
176
     1
 43
1.0
176
     1
 76
     1
176
     1
 77
     6
176
     1
 78
     2
176
     1
 67
     7
176
     1
 79
     5
176
     1
170
     0
176
     1
171
     0
176
     1
290
     0
176
     1
 93
        1
176
     1
 44
0.0
176
     1
173
     0
176
     1
  0
ENDSEC
  0
EOF
