  0
SECTION
  2
HEADER
  9
$ACADVER
  1
AC1024
  9
$ACADMAINTVER
 70
     6
  9
$DWGCODEPAGE
  3
UNDEFINED
  9
$INSBASE
 10
0.0
 20
0.0
 30
0.0
  9
$EXTMIN
 10
1.000000000000000E+20
 20
1.000000000000000E+20
 30
1.000000000000000E+20
  9
$EXTMAX
 10
-1.000000000000000E+20
 20
-1.000000000000000E+20
 30
-1.000000000000000E+20
  9
$LIMMIN
 10
0.0
 20
0.0
  9
$LIMMAX
 10
12.0
 20
9.0
  9
$ORTHOMODE
 70
     0
  9
$REGENMODE
 70
     1
  9
$FILLMODE
 70
     1
  9
$QTEXTMODE
 70
     0
  9
$MIRRTEXT
 70
     1
  9
$LTSCALE
 40
1.0
  9
$ATTMODE
 70
     1
  9
$TEXTSIZE
 40
0.2
  9
$TRACEWID
 40
0.05
  9
$TEXTSTYLE
  7
Standard
  9
$CLAYER
  8
0
  9
$CELTYPE
  6
ByLayer
  9
$CECOLOR
 62
   256
  9
$CELTSCALE
 40
1.0
  9
$DISPSILH
 70
     0
  9
$DIMSCALE
 40
1.0
  9
$DIMASZ
 40
0.18
  9
$DIMEXO
 40
0.0625
  9
$DIMDLI
 40
0.38
  9
$DIMRND
 40
0.0
  9
$DIMDLE
 40
0.0
  9
$DIMEXE
 40
0.18
  9
$DIMTP
 40
0.0
  9
$DIMTM
 40
0.0
  9
$DIMTXT
 40
0.18
  9
$DIMCEN
 40
0.09
  9
$DIMTSZ
 40
0.0
  9
$DIMTOL
 70
     0
  9
$DIMLIM
 70
     0
  9
$DIMTIH
 70
     1
  9
$DIMTOH
 70
     1
  9
$DIMSE1
 70
     0
  9
$DIMSE2
 70
     0
  9
$DIMTAD
 70
     0
  9
$DIMZIN
 70
     0
  9
$DIMBLK
  1

  9
$DIMASO
 70
     1
  9
$DIMSHO
 70
     1
  9
$DIMPOST
  1

  9
$DIMAPOST
  1

  9
$DIMALT
 70
     0
  9
$DIMALTD
 70
     2
  9
$DIMALTF
 40
25.4
  9
$DIMLFAC
 40
1.0
  9
$DIMTOFL
 70
     0
  9
$DIMTVP
 40
0.0
  9
$DIMTIX
 70
     0
  9
$DIMSOXD
 70
     0
  9
$DIMSAH
 70
     0
  9
$DIMBLK1
  1

  9
$DIMBLK2
  1

  9
$DIMSTYLE
  2
Standard
  9
$DIMCLRD
 70
     0
  9
$DIMCLRE
 70
     0
  9
$DIMCLRT
 70
     0
  9
$DIMTFAC
 40
1.0
  9
$DIMGAP
 40
0.09
  9
$DIMJUST
 70
     0
  9
$DIMSD1
 70
     0
  9
$DIMSD2
 70
     0
  9
$DIMTOLJ
 70
     1
  9
$DIMTZIN
 70
     0
  9
$DIMALTZ
 70
     0
  9
$DIMALTTZ
 70
     0
  9
$DIMUPT
 70
     0
  9
$DIMDEC
 70
     4
  9
$DIMTDEC
 70
     4
  9
$DIMALTU
 70
     2
  9
$DIMALTTD
 70
     2
  9
$DIMTXSTY
  7
Standard
  9
$DIMAUNIT
 70
     0
  9
$DIMADEC
 70
     0
  9
$DIMALTRND
 40
0.0
  9
$DIMAZIN
 70
     0
  9
$DIMDSEP
 70
    46
  9
$DIMATFIT
 70
     3
  9
$DIMFRAC
 70
     0
  9
$DIMLDRBLK
  1

  9
$DIMLUNIT
 70
     2
  9
$DIMLWD
 70
    -2
  9
$DIMLWE
 70
    -2
  9
$DIMTMOVE
 70
     0
  9
$DIMFXL
 40
1.0
  9
$DIMFXLON
 70
     0
  9
$DIMJOGANG
 40
0.7853981633974483
  9
$DIMTFILL
 70
     0
  9
$DIMTFILLCLR
 70
     0
  9
$DIMARCSYM
 70
     0
  9
$DIMLTYPE
  6

  9
$DIMLTEX1
  6

  9
$DIMLTEX2
  6

  9
$DIMTXTDIRECTION
 70
     0
  9
$LUNITS
 70
     2
  9
$LUPREC
 70
     4
  9
$SKETCHINC
 40
0.1
  9
$FILLETRAD
 40
0.5
  9
$AUNITS
 70
     0
  9
$AUPREC
 70
     0
  9
$MENU
  1
.
  9
$ELEVATION
 40
0.0
  9
$PELEVATION
 40
0.0
  9
$THICKNESS
 40
0.0
  9
$LIMCHECK
 70
     0
  9
$CHAMFERA
 40
0.5
  9
$CHAMFERB
 40
0.5
  9
$CHAMFERC
 40
1.0
  9
$CHAMFERD
 40
0.0
  9
$SKPOLY
 70
     0
  9
$TDCREATE
 40
2457917.61931713
  9
$TDUCREATE
 40
2457917.24431713
  9
$TDUPDATE
 40
2457917.61931713
  9
$TDUUPDATE
 40
2457917.24431713
  9
$TDINDWG
 40
0.0000000116
  9
$TDUSRTIMER
 40
0.0000000116
  9
$USRTIMER
 70
     1
  9
$ANGBASE
 50
0.0
  9
$ANGDIR
 70
     0
  9
$PDMODE
 70
     0
  9
$PDSIZE
 40
0.0
  9
$PLINEWID
 40
0.0
  9
$SPLFRAME
 70
     0
  9
$SPLINETYPE
 70
     6
  9
$SPLINESEGS
 70
     8
  9
$HANDSEED
  5
A9
  9
$SURFTAB1
 70
     6
  9
$SURFTAB2
 70
     6
  9
$SURFTYPE
 70
     6
  9
$SURFU
 70
     6
  9
$SURFV
 70
     6
  9
$UCSBASE
  2

  9
$UCSNAME
  2

  9
$UCSORG
 10
0.0
 20
0.0
 30
0.0
  9
$UCSXDIR
 10
1.0
 20
0.0
 30
0.0
  9
$UCSYDIR
 10
0.0
 20
1.0
 30
0.0
  9
$UCSORTHOREF
  2

  9
$UCSORTHOVIEW
 70
     0
  9
$UCSORGTOP
 10
0.0
 20
0.0
 30
0.0
  9
$UCSORGBOTTOM
 10
0.0
 20
0.0
 30
0.0
  9
$UCSORGLEFT
 10
0.0
 20
0.0
 30
0.0
  9
$UCSORGRIGHT
 10
0.0
 20
0.0
 30
0.0
  9
$UCSORGFRONT
 10
0.0
 20
0.0
 30
0.0
  9
$UCSORGBACK
 10
0.0
 20
0.0
 30
0.0
  9
$PUCSBASE
  2

  9
$PUCSNAME
  2

  9
$PUCSORG
 10
0.0
 20
0.0
 30
0.0
  9
$PUCSXDIR
 10
1.0
 20
0.0
 30
0.0
  9
$PUCSYDIR
 10
0.0
 20
1.0
 30
0.0
  9
$PUCSORTHOREF
  2

  9
$PUCSORTHOVIEW
 70
     0
  9
$PUCSORGTOP
 10
0.0
 20
0.0
 30
0.0
  9
$PUCSORGBOTTOM
 10
0.0
 20
0.0
 30
0.0
  9
$PUCSORGLEFT
 10
0.0
 20
0.0
 30
0.0
  9
$PUCSORGRIGHT
 10
0.0
 20
0.0
 30
0.0
  9
$PUCSORGFRONT
 10
0.0
 20
0.0
 30
0.0
  9
$PUCSORGBACK
 10
0.0
 20
0.0
 30
0.0
  9
$USERI1
 70
     0
  9
$USERI2
 70
     0
  9
$USERI3
 70
     0
  9
$USERI4
 70
     0
  9
$USERI5
 70
     0
  9
$USERR1
 40
0.0
  9
$USERR2
 40
0.0
  9
$USERR3
 40
0.0
  9
$USERR4
 40
0.0
  9
$USERR5
 40
0.0
  9
$WORLDVIEW
 70
     1
  9
$SHADEDGE
 70
     3
  9
$SHADEDIF
 70
    70
  9
$TILEMODE
 70
     1
  9
$MAXACTVP
 70
    64
  9
$PINSBASE
 10
0.0
 20
0.0
 30
0.0
  9
$PLIMCHECK
 70
     0
  9
$PEXTMIN
 10
1.000000000000000E+20
 20
1.000000000000000E+20
 30
1.000000000000000E+20
  9
$PEXTMAX
 10
-1.000000000000000E+20
 20
-1.000000000000000E+20
 30
-1.000000000000000E+20
  9
$PLIMMIN
 10
0.0
 20
0.0
  9
$PLIMMAX
 10
12.0
 20
9.0
  9
$UNITMODE
 70
     0
  9
$VISRETAIN
 70
     1
  9
$PLINEGEN
 70
     0
  9
$PSLTSCALE
 70
     1
  9
$TREEDEPTH
 70
  3020
  9
$CMLSTYLE
  2
Standard
  9
$CMLJUST
 70
     0
  9
$CMLSCALE
 40
1.0
  9
$PROXYGRAPHICS
 70
     1
  9
$MEASUREMENT
 70
     0
  9
$CELWEIGHT
370
    -1
  9
$ENDCAPS
280
     0
  9
$JOINSTYLE
280
     0
  9
$LWDISPLAY
290
     1
  9
$INSUNITS
 70
     1
  9
$HYPERLINKBASE
  1

  9
$STYLESHEET
  1

  9
$XEDIT
290
     1
  9
$CEPSNTYPE
380
     0
  9
$PSTYLEMODE
290
     1
  9
$FINGERPRINTGUID
  2
{18003180-2047-0457-946E-5D51862E7D49}
  9
$VERSIONGUID
  2
{FAEB1C32-E019-11D5-929B-00C0DF256EC4}
  9
$EXTNAMES
290
     1
  9
$PSVPSCALE
 40
0.0
  9
$OLESTARTUP
290
     0
  9
$SORTENTS
280
   127
  9
$INDEXCTL
280
     0
  9
$HIDETEXT
280
     1
  9
$XCLIPFRAME
280
     2
  9
$HALOGAP
280
     0
  9
$OBSCOLOR
 70
   257
  9
$OBSLTYPE
280
     0
  9
$INTERSECTIONDISPLAY
280
     0
  9
$INTERSECTIONCOLOR
 70
   257
  9
$DIMASSOC
280
     2
  9
$PROJECTNAME
  1

  9
$CAMERADISPLAY
290
     0
  9
$LENSLENGTH
 40
50.0
  9
$CAMERAHEIGHT
 40
0.0
  9
$STEPSPERSEC
 40
2.0
  9
$STEPSIZE
 40
6.0
  9
$3DDWFPREC
 40
2.0
  9
$PSOLWIDTH
 40
0.25
  9
$PSOLHEIGHT
 40
4.0
  9
$LOFTANG1
 40
1.570796326794897
  9
$LOFTANG2
 40
1.570796326794897
  9
$LOFTMAG1
 40
0.0
  9
$LOFTMAG2
 40
0.0
  9
$LOFTPARAM
 70
     7
  9
$LOFTNORMALS
280
     1
  9
$LATITUDE
 40
37.795
  9
$LONGITUDE
 40
-122.394
  9
$NORTHDIRECTION
 40
0.0
  9
$TIMEZONE
 70
 -8000
  9
$LIGHTGLYPHDISPLAY
280
     1
  9
$TILEMODELIGHTSYNCH
280
     1
  9
$CMATERIAL
347
3C
  9
$SOLIDHIST
280
     1
  9
$SHOWHIST
280
     1
  9
$DWFFRAME
280
     2
  9
$DGNFRAME
280
     2
  9
$REALWORLDSCALE
290
     1
  9
$INTERFERECOLOR
 62
   256
  9
$CSHADOW
280
     0
  9
$SHADOWPLANELOCATION
 40
0.0
  0
ENDSEC
  0
SECTION
  2
CLASSES
  0
CLASS
  1
ACDBDICTIONARYWDFLT
  2
AcDbDictionaryWithDefault
  3
ObjectDBX Classes
 90
        0
 91
        4
280
     0
281
     0
  0
CLASS
  1
VISUALSTYLE
  2
AcDbVisualStyle
  3
ObjectDBX Classes
 90
     4095
 91
        4
280
     0
281
     0
  0
CLASS
  1
MATERIAL
  2
AcDbMaterial
  3
ObjectDBX Classes
 90
     1153
 91
        4
280
     0
281
     0
  0
CLASS
  1
SUN
  2
AcDbSun
  3
SCENEOE
 90
     1024
 91
        4
280
     0
281
     0
  0
ENDSEC
  0
SECTION
  2
TABLES
  0
TABLE
  2
VPORT
  5
8
330
0
100
AcDbSymbolTable
 70
     1
  0
VPORT
  5
29
330
8
100
AcDbSymbolTableRecord
100
AcDbViewportTableRecord
  2
*Active
 70
     0
 10
0.0
 20
0.0
 11
1.0
 21
1.0
 12
0.0
 22
0.0
 13
0.0
 23
0.0
 14
0.5
 24
0.5
 15
0.5
 25
0.5
 16
0.0
 26
0.0
 36
1.0
 17
91.00082462281999
 27
-128.4993055234307
 37
0.0
 40
256.9986110468615
 41
0.7081814508812795
 42
50.0
 43
0.0
 44
0.0
 50
0.0
 51
0.0
 71
     0
 72
   100
 73
     1
 74
     3
 75
     0
 76
     0
 77
     0
 78
     0
281
     0
 65
     1
110
0.0
120
0.0
130
0.0
111
1.0
121
0.0
131
0.0
112
0.0
122
1.0
132
0.0
 79
     0
146
0.0
 60
     3
 61
     5
292
     1
282
     1
141
0.0
142
0.0
 63
   250
361
3F
  0
ENDTAB
  0
TABLE
  2
LTYPE
  5
5
330
0
100
AcDbSymbolTable
 70
     1
  0
LTYPE
  5
14
330
5
100
AcDbSymbolTableRecord
100
AcDbLinetypeTableRecord
  2
ByBlock
 70
     0
  3

 72
    65
 73
     0
 40
0.0
  0
LTYPE
  5
15
330
5
100
AcDbSymbolTableRecord
100
AcDbLinetypeTableRecord
  2
ByLayer
 70
     0
  3

 72
    65
 73
     0
 40
0.0
  0
LTYPE
  5
16
330
5
100
AcDbSymbolTableRecord
100
AcDbLinetypeTableRecord
  2
Continuous
 70
     0
  3
Solid line
 72
    65
 73
     0
 40
0.0
  0
ENDTAB
  0
TABLE
  2
LAYER
  5
2
330
0
100
AcDbSymbolTable
 70
     2
  0
LAYER
  5
10
330
2
100
AcDbSymbolTableRecord
100
AcDbLayerTableRecord
  2
0
 70
     0
 62
     7
  6
Continuous
370
    -3
390
F
347
3E
  0
LAYER
  5
40
330
2
100
AcDbSymbolTableRecord
100
AcDbLayerTableRecord
  2
_U+30EC_U+30A4_U+30E4_U+30FC 1
 70
     0
 62
     7
  6
Continuous
370
    -3
390
F
347
3E
  0
ENDTAB
  0
TABLE
  2
STYLE
  5
3
330
0
100
AcDbSymbolTable
 70
     1
  0
STYLE
  5
11
330
3
100
AcDbSymbolTableRecord
100
AcDbTextStyleTableRecord
  2
Standard
 70
     0
 40
0.0
 41
1.0
 50
0.0
 71
     0
 42
0.2
  3
txt
  4

  0
ENDTAB
  0
TABLE
  2
VIEW
  5
6
330
0
100
AcDbSymbolTable
 70
     0
  0
ENDTAB
  0
TABLE
  2
UCS
  5
7
330
0
100
AcDbSymbolTable
 70
     0
  0
ENDTAB
  0
TABLE
  2
APPID
  5
9
330
0
100
AcDbSymbolTable
 70
     1
  0
APPID
  5
12
330
9
100
AcDbSymbolTableRecord
100
AcDbRegAppTableRecord
  2
ACAD
 70
     0
  0
ENDTAB
  0
TABLE
  2
DIMSTYLE
  5
A
330
0
100
AcDbSymbolTable
 70
     1
100
AcDbDimStyleTable
  0
DIMSTYLE
105
27
330
A
100
AcDbSymbolTableRecord
100
AcDbDimStyleTableRecord
  2
Standard
 70
     0
178
     0
340
11
  0
ENDTAB
  0
TABLE
  2
BLOCK_RECORD
  5
1
330
0
100
AcDbSymbolTable
 70
     6
  0
BLOCK_RECORD
  5
1F
330
1
100
AcDbSymbolTableRecord
100
AcDbBlockTableRecord
  2
*Model_Space
340
22
 70
     0
280
     1
281
     0
  0
BLOCK_RECORD
  5
1B
330
1
100
AcDbSymbolTableRecord
100
AcDbBlockTableRecord
  2
*Paper_Space
340
1E
 70
     0
280
     1
281
     0
  0
BLOCK_RECORD
  5
23
330
1
100
AcDbSymbolTableRecord
100
AcDbBlockTableRecord
  2
*Paper_Space0
340
26
 70
     0
280
     1
281
     0
  0
BLOCK_RECORD
  5
57
330
1
100
AcDbSymbolTableRecord
100
AcDbBlockTableRecord
  2
block 2
340
0
102
{BLKREFS
331
58
102
}
 70
     0
280
     1
281
     0
  0
BLOCK_RECORD
  5
6B
330
1
100
AcDbSymbolTableRecord
100
AcDbBlockTableRecord
  2
block 3
340
0
102
{BLKREFS
331
6C
102
}
 70
     0
280
     1
281
     0
  0
BLOCK_RECORD
  5
80
330
1
100
AcDbSymbolTableRecord
100
AcDbBlockTableRecord
  2
block 4
340
0
102
{BLKREFS
331
81
102
}
 70
     0
280
     1
281
     0
  0
BLOCK_RECORD
  5
8D
330
1
100
AcDbSymbolTableRecord
100
AcDbBlockTableRecord
  2
block 5
340
0
102
{BLKREFS
331
8E
102
}
 70
     0
280
     1
281
     0
  0
BLOCK_RECORD
  5
A1
330
1
100
AcDbSymbolTableRecord
100
AcDbBlockTableRecord
  2
block 6
340
0
102
{BLKREFS
331
A2
102
}
 70
     0
280
     1
281
     0
  0
ENDTAB
  0
ENDSEC
  0
SECTION
  2
BLOCKS
  0
BLOCK
  5
20
330
1F
100
AcDbEntity
  8
0
100
AcDbBlockBegin
  2
*Model_Space
 70
     0
 10
0.0
 20
0.0
 30
0.0
  3
*Model_Space
  1

  0
ENDBLK
  5
21
330
1F
100
AcDbEntity
  8
0
100
AcDbBlockEnd
  0
BLOCK
  5
1C
330
1B
100
AcDbEntity
 67
     1
  8
0
100
AcDbBlockBegin
  2
*Paper_Space
 70
     0
 10
0.0
 20
0.0
 30
0.0
  3
*Paper_Space
  1

  0
ENDBLK
  5
1D
330
1B
100
AcDbEntity
 67
     1
  8
0
100
AcDbBlockEnd
  0
BLOCK
  5
24
330
23
100
AcDbEntity
  8
0
100
AcDbBlockBegin
  2
*Paper_Space0
 70
     0
 10
0.0
 20
0.0
 30
0.0
  3
*Paper_Space0
  1

  0
ENDBLK
  5
25
330
23
100
AcDbEntity
  8
0
100
AcDbBlockEnd
  0
BLOCK
  5
59
330
57
100
AcDbEntity
  8
0
100
AcDbBlockBegin
  2
block 2
 70
     0
 10
0.0
 20
0.0
 30
0.0
  3
block 2
  1

  0
SPLINE
  5
5B
330
57
100
AcDbEntity
  8
_U+30EC_U+30A4_U+30E4_U+30FC 1
370
     0
100
AcDbSpline
210
0.0
220
0.0
230
1.0
 70
    11
 71
     3
 72
    26
 73
    22
 74
     0
 42
0.0000000001
 43
0.0000000001
 12
1.0
 22
0.0
 32
0.0
 13
1.0
 23
0.0
 33
0.0
 40
0.0
 40
0.0
 40
0.0
 40
0.0
 40
1.0
 40
1.0
 40
1.0
 40
2.0
 40
2.0
 40
2.0
 40
3.0
 40
3.0
 40
3.0
 40
4.0
 40
4.0
 40
4.0
 40
5.0
 40
5.0
 40
5.0
 40
6.0
 40
6.0
 40
6.0
 40
7.0
 40
7.0
 40
7.0
 40
7.0
 10
99.92086043508924
 20
-123.4019422434551
 30
0.0
 10
99.92086043508924
 20
-123.4019422434551
 30
0.0
 10
99.92086043508924
 20
-122.2977891404325
 30
0.0
 10
99.92086043508924
 20
-122.2977891404325
 30
0.0
 10
99.92086043508924
 20
-122.2977891404325
 30
0.0
 10
99.56842716694817
 20
-122.2977891404325
 30
0.0
 10
99.56842716694817
 20
-122.2977891404325
 30
0.0
 10
99.56842716694817
 20
-122.2977891404325
 30
0.0
 10
99.56842716694817
 20
-122.1496500345668
 30
0.0
 10
99.56842716694817
 20
-122.1496500345668
 30
0.0
 10
99.92327200192891
 20
-122.1348361239802
 30
0.0
 10
99.9728813769165
 20
-121.9718831075279
 30
0.0
 10
100.0045762553808
 20
-121.8575059374176
 30
0.0
 10
100.0045762553808
 20
-121.8575059374176
 30
0.0
 10
100.1606390808626
 20
-121.8575059374176
 30
0.0
 10
100.1606390808626
 20
-121.8575059374176
 30
0.0
 10
100.1606390808626
 20
-121.8575059374176
 30
0.0
 10
100.1606390808626
 20
-123.4019422434551
 30
0.0
 10
100.1606390808626
 20
-123.4019422434551
 30
0.0
 10
100.1606390808626
 20
-123.4019422434551
 30
0.0
 10
99.92086043508924
 20
-123.4019422434551
 30
0.0
 10
99.92086043508924
 20
-123.4019422434551
 30
0.0
  0
HATCH
  5
5C
330
57
100
AcDbEntity
  8
_U+30EC_U+30A4_U+30E4_U+30FC 1
 62
   179
420
  2234388
100
AcDbHatch
 10
0.0
 20
0.0
 30
0.0
210
0.0
220
0.0
230
1.0
  2
SOLID
 70
     1
 71
     0
 91
        1
 92
        1
 93
        1
 72
     4
 94
        3
 73
     0
 74
     1
 95
       26
 96
       22
 40
0.0
 40
0.0
 40
0.0
 40
0.0
 40
1.0
 40
1.0
 40
1.0
 40
2.0
 40
2.0
 40
2.0
 40
3.0
 40
3.0
 40
3.0
 40
4.0
 40
4.0
 40
4.0
 40
5.0
 40
5.0
 40
5.0
 40
6.0
 40
6.0
 40
6.0
 40
7.0
 40
7.0
 40
7.0
 40
7.0
 10
99.92086043508924
 20
-123.4019422434551
 10
99.92086043508924
 20
-123.4019422434551
 10
99.92086043508924
 20
-122.2977891404325
 10
99.92086043508924
 20
-122.2977891404325
 10
99.92086043508924
 20
-122.2977891404325
 10
99.56842716694817
 20
-122.2977891404325
 10
99.56842716694817
 20
-122.2977891404325
 10
99.56842716694817
 20
-122.2977891404325
 10
99.56842716694817
 20
-122.1496500345668
 10
99.56842716694817
 20
-122.1496500345668
 10
99.92327200192891
 20
-122.1348361239802
 10
99.9728813769165
 20
-121.9718831075279
 10
100.0045762553808
 20
-121.8575059374176
 10
100.0045762553808
 20
-121.8575059374176
 10
100.1606390808626
 20
-121.8575059374176
 10
100.1606390808626
 20
-121.8575059374176
 10
100.1606390808626
 20
-121.8575059374176
 10
100.1606390808626
 20
-123.4019422434551
 10
100.1606390808626
 20
-123.4019422434551
 10
100.1606390808626
 20
-123.4019422434551
 10
99.92086043508924
 20
-123.4019422434551
 10
99.92086043508924
 20
-123.4019422434551
 97
        0
 97
        0
 75
     2
 76
     1
 98
        0
  0
SPLINE
  5
5D
330
57
100
AcDbEntity
  8
_U+30EC_U+30A4_U+30E4_U+30FC 1
370
     0
100
AcDbSpline
210
0.0
220
0.0
230
1.0
 70
    11
 71
     3
 72
    53
 73
    49
 74
     0
 42
0.0000000001
 43
0.0000000001
 12
1.0
 22
0.0
 32
0.0
 13
1.0
 23
0.0
 33
0.0
 40
0.0
 40
0.0
 40
0.0
 40
0.0
 40
1.0
 40
1.0
 40
1.0
 40
2.0
 40
2.0
 40
2.0
 40
3.0
 40
3.0
 40
3.0
 40
4.0
 40
4.0
 40
4.0
 40
5.0
 40
5.0
 40
5.0
 40
6.0
 40
6.0
 40
6.0
 40
7.0
 40
7.0
 40
7.0
 40
8.0
 40
8.0
 40
8.0
 40
9.0
 40
9.0
 40
9.0
 40
10.0
 40
10.0
 40
10.0
 40
11.0
 40
11.0
 40
11.0
 40
12.0
 40
12.0
 40
12.0
 40
13.0
 40
13.0
 40
13.0
 40
14.0
 40
14.0
 40
14.0
 40
15.0
 40
15.0
 40
15.0
 40
16.0
 40
16.0
 40
16.0
 40
16.0
 10
101.2103596752182
 20
-123.4525851470882
 30
0.0
 10
101.1269883644752
 20
-123.4525851470882
 30
0.0
 10
101.0181233471413
 20
-123.4357041792105
 30
0.0
 10
100.9099473489045
 20
-123.3723144222819
 30
0.0
 10
100.7242567022495
 20
-123.2624158763025
 30
0.0
 10
100.7018635815954
 20
-123.1311577383144
 30
0.0
 10
100.6815375182324
 20
-123.0233262496261
 30
0.0
 10
100.6815375182324
 20
-123.0233262496261
 30
0.0
 10
100.9189045971661
 20
-123.0233262496261
 30
0.0
 10
100.9189045971661
 20
-123.0233262496261
 30
0.0
 10
100.9774712204154
 20
-123.222108259125
 30
0.0
 10
101.1132079825342
 20
-123.2517360802982
 30
0.0
 10
101.2127712420579
 20
-123.2517360802982
 30
0.0
 10
101.3619438765692
 20
-123.2517360802982
 30
0.0
 10
101.524552383473
 20
-123.1521728207745
 30
0.0
 10
101.524552383473
 20
-122.9196288755201
 30
0.0
 10
101.524552383473
 20
-122.663658280966
 30
0.0
 10
101.3326605649446
 20
-122.5937228426155
 30
0.0
 10
101.2038139937963
 20
-122.5937228426155
 30
0.0
 10
101.1697075484923
 20
-122.5937228426155
 30
0.0
 10
101.0181233471413
 20
-122.5937228426155
 30
0.0
 10
100.9233832212969
 20
-122.7229139233123
 30
0.0
 10
100.9233832212969
 20
-122.7229139233123
 30
0.0
 10
100.7356255173508
 20
-122.7039658981435
 30
0.0
 10
100.7356255173508
 20
-122.7039658981435
 30
0.0
 10
100.7356255173508
 20
-122.7039658981435
 30
0.0
 10
100.8644720884992
 20
-121.8575059374176
 30
0.0
 10
100.8644720884992
 20
-121.8575059374176
 30
0.0
 10
100.8644720884992
 20
-121.8575059374176
 30
0.0
 10
101.696462648187
 20
-121.8575059374176
 30
0.0
 10
101.696462648187
 20
-121.8575059374176
 30
0.0
 10
101.696462648187
 20
-121.8575059374176
 30
0.0
 10
101.696462648187
 20
-122.0521538323342
 30
0.0
 10
101.696462648187
 20
-122.0521538323342
 30
0.0
 10
101.696462648187
 20
-122.0521538323342
 30
0.0
 10
101.0387939200528
 20
-122.0521538323342
 30
0.0
 10
101.0387939200528
 20
-122.0521538323342
 30
0.0
 10
101.0387939200528
 20
-122.0521538323342
 30
0.0
 10
100.9685139721537
 20
-122.4752115579229
 30
0.0
 10
100.9685139721537
 20
-122.4752115579229
 30
0.0
 10
101.0339707863735
 20
-122.4414496221674
 30
0.0
 10
101.1221652307959
 20
-122.40114200499
 30
0.0
 10
101.248944744653
 20
-122.40114200499
 30
0.0
 10
101.5200737593422
 20
-122.40114200499
 30
0.0
 10
101.7732882775081
 20
-122.587521670742
 30
0.0
 10
101.7732882775081
 20
-122.9006808503512
 30
0.0
 10
101.7732882775081
 20
-123.2179741445427
 30
0.0
 10
101.5338541412832
 20
-123.4525851470882
 30
0.0
 10
101.2103596752182
 20
-123.4525851470882
 30
0.0
  0
HATCH
  5
5E
330
57
100
AcDbEntity
  8
_U+30EC_U+30A4_U+30E4_U+30FC 1
 62
   179
420
  2234388
100
AcDbHatch
 10
0.0
 20
0.0
 30
0.0
210
0.0
220
0.0
230
1.0
  2
SOLID
 70
     1
 71
     0
 91
        1
 92
        1
 93
        1
 72
     4
 94
        3
 73
     0
 74
     1
 95
       53
 96
       49
 40
0.0
 40
0.0
 40
0.0
 40
0.0
 40
1.0
 40
1.0
 40
1.0
 40
2.0
 40
2.0
 40
2.0
 40
3.0
 40
3.0
 40
3.0
 40
4.0
 40
4.0
 40
4.0
 40
5.0
 40
5.0
 40
5.0
 40
6.0
 40
6.0
 40
6.0
 40
7.0
 40
7.0
 40
7.0
 40
8.0
 40
8.0
 40
8.0
 40
9.0
 40
9.0
 40
9.0
 40
10.0
 40
10.0
 40
10.0
 40
11.0
 40
11.0
 40
11.0
 40
12.0
 40
12.0
 40
12.0
 40
13.0
 40
13.0
 40
13.0
 40
14.0
 40
14.0
 40
14.0
 40
15.0
 40
15.0
 40
15.0
 40
16.0
 40
16.0
 40
16.0
 40
16.0
 10
101.2103596752182
 20
-123.4525851470882
 10
101.1269883644752
 20
-123.4525851470882
 10
101.0181233471413
 20
-123.4357041792105
 10
100.9099473489045
 20
-123.3723144222819
 10
100.7242567022495
 20
-123.2624158763025
 10
100.7018635815954
 20
-123.1311577383144
 10
100.6815375182324
 20
-123.0233262496261
 10
100.6815375182324
 20
-123.0233262496261
 10
100.9189045971661
 20
-123.0233262496261
 10
100.9189045971661
 20
-123.0233262496261
 10
100.9774712204154
 20
-123.222108259125
 10
101.1132079825342
 20
-123.2517360802982
 10
101.2127712420579
 20
-123.2517360802982
 10
101.3619438765692
 20
-123.2517360802982
 10
101.524552383473
 20
-123.1521728207745
 10
101.524552383473
 20
-122.9196288755201
 10
101.524552383473
 20
-122.663658280966
 10
101.3326605649446
 20
-122.5937228426155
 10
101.2038139937963
 20
-122.5937228426155
 10
101.1697075484923
 20
-122.5937228426155
 10
101.0181233471413
 20
-122.5937228426155
 10
100.9233832212969
 20
-122.7229139233123
 10
100.9233832212969
 20
-122.7229139233123
 10
100.7356255173508
 20
-122.7039658981435
 10
100.7356255173508
 20
-122.7039658981435
 10
100.7356255173508
 20
-122.7039658981435
 10
100.8644720884992
 20
-121.8575059374176
 10
100.8644720884992
 20
-121.8575059374176
 10
100.8644720884992
 20
-121.8575059374176
 10
101.696462648187
 20
-121.8575059374176
 10
101.696462648187
 20
-121.8575059374176
 10
101.696462648187
 20
-121.8575059374176
 10
101.696462648187
 20
-122.0521538323342
 10
101.696462648187
 20
-122.0521538323342
 10
101.696462648187
 20
-122.0521538323342
 10
101.0387939200528
 20
-122.0521538323342
 10
101.0387939200528
 20
-122.0521538323342
 10
101.0387939200528
 20
-122.0521538323342
 10
100.9685139721537
 20
-122.4752115579229
 10
100.9685139721537
 20
-122.4752115579229
 10
101.0339707863735
 20
-122.4414496221674
 10
101.1221652307959
 20
-122.40114200499
 10
101.248944744653
 20
-122.40114200499
 10
101.5200737593422
 20
-122.40114200499
 10
101.7732882775081
 20
-122.587521670742
 10
101.7732882775081
 20
-122.9006808503512
 10
101.7732882775081
 20
-123.2179741445427
 10
101.5338541412832
 20
-123.4525851470882
 10
101.2103596752182
 20
-123.4525851470882
 97
        0
 97
        0
 75
     2
 76
     1
 98
        0
  0
ENDBLK
  5
5A
330
57
100
AcDbEntity
  8
0
100
AcDbBlockEnd
  0
BLOCK
  5
6D
330
6B
100
AcDbEntity
  8
0
100
AcDbBlockBegin
  2
block 3
 70
     0
 10
0.0
 20
0.0
 30
0.0
  3
block 3
  1

  0
SPLINE
  5
6F
330
6B
100
AcDbEntity
  8
_U+30EC_U+30A4_U+30E4_U+30FC 1
370
     0
100
AcDbSpline
210
0.0
220
0.0
230
1.0
 70
    11
 71
     3
 72
    26
 73
    22
 74
     0
 42
0.0000000001
 43
0.0000000001
 12
1.0
 22
0.0
 32
0.0
 13
1.0
 23
0.0
 33
0.0
 40
0.0
 40
0.0
 40
0.0
 40
0.0
 40
1.0
 40
1.0
 40
1.0
 40
2.0
 40
2.0
 40
2.0
 40
3.0
 40
3.0
 40
3.0
 40
4.0
 40
4.0
 40
4.0
 40
5.0
 40
5.0
 40
5.0
 40
6.0
 40
6.0
 40
6.0
 40
7.0
 40
7.0
 40
7.0
 40
7.0
 10
76.50058456203806
 20
-133.5928791983726
 30
0.0
 10
76.50058456203806
 20
-133.5928791983726
 30
0.0
 10
75.39625920424122
 20
-133.5928791983726
 30
0.0
 10
75.39625920424122
 20
-133.5928791983726
 30
0.0
 10
75.39625920424122
 20
-133.5928791983726
 30
0.0
 10
75.39625920424122
 20
-133.9453124665137
 30
0.0
 10
75.39625920424122
 20
-133.9453124665137
 30
0.0
 10
75.39625920424122
 20
-133.9453124665137
 30
0.0
 10
75.24812009837548
 20
-133.9453124665137
 30
0.0
 10
75.24812009837548
 20
-133.9453124665137
 30
0.0
 10
75.23347844256317
 20
-133.5904676315329
 30
0.0
 10
75.07052542611085
 20
-133.5408582565453
 30
0.0
 10
74.95632051077482
 20
-133.509163378081
 30
0.0
 10
74.95632051077482
 20
-133.509163378081
 30
0.0
 10
74.95632051077482
 20
-133.3531005525992
 30
0.0
 10
74.95632051077482
 20
-133.3531005525992
 30
0.0
 10
74.95632051077482
 20
-133.3531005525992
 30
0.0
 10
76.50058456203806
 20
-133.3531005525992
 30
0.0
 10
76.50058456203806
 20
-133.3531005525992
 30
0.0
 10
76.50058456203806
 20
-133.3531005525992
 30
0.0
 10
76.50058456203806
 20
-133.5928791983726
 30
0.0
 10
76.50058456203806
 20
-133.5928791983726
 30
0.0
  0
HATCH
  5
70
330
6B
100
AcDbEntity
  8
_U+30EC_U+30A4_U+30E4_U+30FC 1
 62
   179
420
  2234388
100
AcDbHatch
 10
0.0
 20
0.0
 30
0.0
210
0.0
220
0.0
230
1.0
  2
SOLID
 70
     1
 71
     0
 91
        1
 92
        1
 93
        1
 72
     4
 94
        3
 73
     0
 74
     1
 95
       26
 96
       22
 40
0.0
 40
0.0
 40
0.0
 40
0.0
 40
1.0
 40
1.0
 40
1.0
 40
2.0
 40
2.0
 40
2.0
 40
3.0
 40
3.0
 40
3.0
 40
4.0
 40
4.0
 40
4.0
 40
5.0
 40
5.0
 40
5.0
 40
6.0
 40
6.0
 40
6.0
 40
7.0
 40
7.0
 40
7.0
 40
7.0
 10
76.50058456203806
 20
-133.5928791983726
 10
76.50058456203806
 20
-133.5928791983726
 10
75.39625920424122
 20
-133.5928791983726
 10
75.39625920424122
 20
-133.5928791983726
 10
75.39625920424122
 20
-133.5928791983726
 10
75.39625920424122
 20
-133.9453124665137
 10
75.39625920424122
 20
-133.9453124665137
 10
75.39625920424122
 20
-133.9453124665137
 10
75.24812009837548
 20
-133.9453124665137
 10
75.24812009837548
 20
-133.9453124665137
 10
75.23347844256317
 20
-133.5904676315329
 10
75.07052542611085
 20
-133.5408582565453
 10
74.95632051077482
 20
-133.509163378081
 10
74.95632051077482
 20
-133.509163378081
 10
74.95632051077482
 20
-133.3531005525992
 10
74.95632051077482
 20
-133.3531005525992
 10
74.95632051077482
 20
-133.3531005525992
 10
76.50058456203806
 20
-133.3531005525992
 10
76.50058456203806
 20
-133.3531005525992
 10
76.50058456203806
 20
-133.3531005525992
 10
76.50058456203806
 20
-133.5928791983726
 10
76.50058456203806
 20
-133.5928791983726
 97
        0
 97
        0
 75
     2
 76
     1
 98
        0
  0
SPLINE
  5
71
330
6B
100
AcDbEntity
  8
_U+30EC_U+30A4_U+30E4_U+30FC 1
370
     0
100
AcDbSpline
210
0.0
220
0.0
230
1.0
 70
    11
 71
     3
 72
    32
 73
    28
 74
     0
 42
0.0000000001
 43
0.0000000001
 12
1.0
 22
0.0
 32
0.0
 13
1.0
 23
0.0
 33
0.0
 40
0.0
 40
0.0
 40
0.0
 40
0.0
 40
1.0
 40
1.0
 40
1.0
 40
2.0
 40
2.0
 40
2.0
 40
3.0
 40
3.0
 40
3.0
 40
4.0
 40
4.0
 40
4.0
 40
5.0
 40
5.0
 40
5.0
 40
6.0
 40
6.0
 40
6.0
 40
7.0
 40
7.0
 40
7.0
 40
8.0
 40
8.0
 40
8.0
 40
9.0
 40
9.0
 40
9.0
 40
9.0
 10
76.55139972044549
 20
-132.2785752707498
 30
0.0
 10
76.55139972044549
 20
-132.8301350579383
 30
0.0
 10
75.99708385686878
 20
-132.8390923061999
 30
0.0
 10
75.7834879367833
 20
-132.8390923061999
 30
0.0
 10
75.55283879404583
 20
-132.8390923061999
 30
0.0
 10
74.90550535236737
 20
-132.818766242837
 30
0.0
 10
74.90550535236737
 20
-132.2375786344753
 30
0.0
 10
74.90550535236737
 20
-132.0522324973689
 30
0.0
 10
74.97526853594368
 20
-131.7900607309414
 30
0.0
 10
75.30737574072177
 20
-131.7494086042154
 30
0.0
 10
75.30737574072177
 20
-131.7494086042154
 30
0.0
 10
75.30737574072177
 20
-131.9778184348875
 30
0.0
 10
75.30737574072177
 20
-131.9778184348875
 30
0.0
 10
75.25035941044088
 20
-131.9891872499888
 30
0.0
 10
75.10222030457514
 20
-132.0229491857443
 30
0.0
 10
75.10222030457514
 20
-132.239990201315
 30
0.0
 10
75.10222030457514
 20
-132.5521158522786
 30
0.0
 10
75.43019339477092
 20
-132.5948350362957
 30
0.0
 10
75.63534883091755
 20
-132.6086154182368
 30
0.0
 10
75.55714516340238
 20
-132.509052158713
 30
0.0
 10
75.49788952105608
 20
-132.4367051535228
 30
0.0
 10
75.49788952105608
 20
-132.2420572586062
 30
0.0
 10
75.49788952105608
 20
-132.0501654400777
 30
0.0
 10
75.6057210097444
 20
-131.7266709740128
 30
0.0
 10
76.01189776745537
 20
-131.7266709740128
 30
0.0
 10
76.33125811893802
 20
-131.7266709740128
 30
0.0
 10
76.55139972044549
 20
-131.9392333654527
 30
0.0
 10
76.55139972044549
 20
-132.2785752707498
 30
0.0
  0
SPLINE
  5
72
330
6B
100
AcDbEntity
  8
_U+30EC_U+30A4_U+30E4_U+30FC 1
370
     0
100
AcDbSpline
210
0.0
220
0.0
230
1.0
 70
    11
 71
     3
 72
    17
 73
    13
 74
     0
 42
0.0000000001
 43
0.0000000001
 12
1.0
 22
0.0
 32
0.0
 13
1.0
 23
0.0
 33
0.0
 40
0.0
 40
0.0
 40
0.0
 40
0.0
 40
1.0
 40
1.0
 40
1.0
 40
2.0
 40
2.0
 40
2.0
 40
3.0
 40
3.0
 40
3.0
 40
4.0
 40
4.0
 40
4.0
 40
4.0
 10
75.69253741597271
 20
-132.260316264678
 30
0.0
 10
75.69253741597271
 20
-132.5407470371773
 30
0.0
 10
75.90406627876705
 20
-132.5813991639033
 30
0.0
 10
76.02033825139422
 20
-132.5813991639033
 30
0.0
 10
76.1958658663677
 20
-132.5813991639033
 30
0.0
 10
76.35881888282002
 20
-132.4797688470884
 30
0.0
 10
76.35881888282002
 20
-132.2830538948806
 30
0.0
 10
76.35881888282002
 20
-132.1542073237323
 30
0.0
 10
76.29956324047373
 20
-131.9664496197862
 30
0.0
 10
76.01396482474651
 20
-131.9664496197862
 30
0.0
 10
75.78968910865675
 20
-131.9664496197862
 30
0.0
 10
75.69253741597271
 20
-132.1156222542975
 30
0.0
 10
75.69253741597271
 20
-132.260316264678
 30
0.0
  0
HATCH
  5
73
330
6B
100
AcDbEntity
  8
_U+30EC_U+30A4_U+30E4_U+30FC 1
 62
   179
420
  2234388
100
AcDbHatch
 10
0.0
 20
0.0
 30
0.0
210
0.0
220
0.0
230
1.0
  2
SOLID
 70
     1
 71
     0
 91
        2
 92
        1
 93
        1
 72
     4
 94
        3
 73
     0
 74
     1
 95
       32
 96
       28
 40
0.0
 40
0.0
 40
0.0
 40
0.0
 40
1.0
 40
1.0
 40
1.0
 40
2.0
 40
2.0
 40
2.0
 40
3.0
 40
3.0
 40
3.0
 40
4.0
 40
4.0
 40
4.0
 40
5.0
 40
5.0
 40
5.0
 40
6.0
 40
6.0
 40
6.0
 40
7.0
 40
7.0
 40
7.0
 40
8.0
 40
8.0
 40
8.0
 40
9.0
 40
9.0
 40
9.0
 40
9.0
 10
76.55139972044549
 20
-132.2785752707498
 10
76.55139972044549
 20
-132.8301350579383
 10
75.99708385686878
 20
-132.8390923061999
 10
75.7834879367833
 20
-132.8390923061999
 10
75.55283879404583
 20
-132.8390923061999
 10
74.90550535236737
 20
-132.818766242837
 10
74.90550535236737
 20
-132.2375786344753
 10
74.90550535236737
 20
-132.0522324973689
 10
74.97526853594368
 20
-131.7900607309414
 10
75.30737574072177
 20
-131.7494086042154
 10
75.30737574072177
 20
-131.7494086042154
 10
75.30737574072177
 20
-131.9778184348875
 10
75.30737574072177
 20
-131.9778184348875
 10
75.25035941044088
 20
-131.9891872499888
 10
75.10222030457514
 20
-132.0229491857443
 10
75.10222030457514
 20
-132.239990201315
 10
75.10222030457514
 20
-132.5521158522786
 10
75.43019339477092
 20
-132.5948350362957
 10
75.63534883091755
 20
-132.6086154182368
 10
75.55714516340238
 20
-132.509052158713
 10
75.49788952105608
 20
-132.4367051535228
 10
75.49788952105608
 20
-132.2420572586062
 10
75.49788952105608
 20
-132.0501654400777
 10
75.6057210097444
 20
-131.7266709740128
 10
76.01189776745537
 20
-131.7266709740128
 10
76.33125811893802
 20
-131.7266709740128
 10
76.55139972044549
 20
-131.9392333654527
 10
76.55139972044549
 20
-132.2785752707498
 97
        0
 97
        0
 92
        1
 93
        1
 72
     4
 94
        3
 73
     0
 74
     1
 95
       17
 96
       13
 40
0.0
 40
0.0
 40
0.0
 40
0.0
 40
1.0
 40
1.0
 40
1.0
 40
2.0
 40
2.0
 40
2.0
 40
3.0
 40
3.0
 40
3.0
 40
4.0
 40
4.0
 40
4.0
 40
4.0
 10
75.69253741597271
 20
-132.260316264678
 10
75.69253741597271
 20
-132.5407470371773
 10
75.90406627876705
 20
-132.5813991639033
 10
76.02033825139422
 20
-132.5813991639033
 10
76.1958658663677
 20
-132.5813991639033
 10
76.35881888282002
 20
-132.4797688470884
 10
76.35881888282002
 20
-132.2830538948806
 10
76.35881888282002
 20
-132.1542073237323
 10
76.29956324047373
 20
-131.9664496197862
 10
76.01396482474651
 20
-131.9664496197862
 10
75.78968910865675
 20
-131.9664496197862
 10
75.69253741597271
 20
-132.1156222542975
 10
75.69253741597271
 20
-132.260316264678
 97
        0
 97
        0
 75
     2
 76
     1
 98
        0
  0
ENDBLK
  5
6E
330
6B
100
AcDbEntity
  8
0
100
AcDbBlockEnd
  0
BLOCK
  5
82
330
80
100
AcDbEntity
  8
0
100
AcDbBlockBegin
  2
block 4
 70
     0
 10
0.0
 20
0.0
 30
0.0
  3
block 4
  1

  0
SPLINE
  5
84
330
80
100
AcDbEntity
  8
_U+30EC_U+30A4_U+30E4_U+30FC 1
370
     0
100
AcDbSpline
210
0.0
220
0.0
230
1.0
 70
    11
 71
     3
 72
    26
 73
    22
 74
     0
 42
0.0000000001
 43
0.0000000001
 12
1.0
 22
0.0
 32
0.0
 13
1.0
 23
0.0
 33
0.0
 40
0.0
 40
0.0
 40
0.0
 40
0.0
 40
1.0
 40
1.0
 40
1.0
 40
2.0
 40
2.0
 40
2.0
 40
3.0
 40
3.0
 40
3.0
 40
4.0
 40
4.0
 40
4.0
 40
5.0
 40
5.0
 40
5.0
 40
6.0
 40
6.0
 40
6.0
 40
7.0
 40
7.0
 40
7.0
 40
7.0
 10
86.42090926658922
 20
-119.9027587590868
 30
0.0
 10
86.42090926658922
 20
-119.9027587590868
 30
0.0
 10
86.42090926658922
 20
-118.7986056560642
 30
0.0
 10
86.42090926658922
 20
-118.7986056560642
 30
0.0
 10
86.42090926658922
 20
-118.7986056560642
 30
0.0
 10
86.06847599844816
 20
-118.7986056560642
 30
0.0
 10
86.06847599844816
 20
-118.7986056560642
 30
0.0
 10
86.06847599844816
 20
-118.7986056560642
 30
0.0
 10
86.06847599844816
 20
-118.6504665501985
 30
0.0
 10
86.06847599844816
 20
-118.6504665501985
 30
0.0
 10
86.42332083342889
 20
-118.6356526396119
 30
0.0
 10
86.4729302084165
 20
-118.4726996231596
 30
0.0
 10
86.5046250868808
 20
-118.3584947078236
 30
0.0
 10
86.5046250868808
 20
-118.3584947078236
 30
0.0
 10
86.6606879123626
 20
-118.3584947078236
 30
0.0
 10
86.6606879123626
 20
-118.3584947078236
 30
0.0
 10
86.6606879123626
 20
-118.3584947078236
 30
0.0
 10
86.6606879123626
 20
-119.9027587590868
 30
0.0
 10
86.6606879123626
 20
-119.9027587590868
 30
0.0
 10
86.6606879123626
 20
-119.9027587590868
 30
0.0
 10
86.42090926658922
 20
-119.9027587590868
 30
0.0
 10
86.42090926658922
 20
-119.9027587590868
 30
0.0
  0
HATCH
  5
85
330
80
100
AcDbEntity
  8
_U+30EC_U+30A4_U+30E4_U+30FC 1
 62
   179
420
  2234388
100
AcDbHatch
 10
0.0
 20
0.0
 30
0.0
210
0.0
220
0.0
230
1.0
  2
SOLID
 70
     1
 71
     0
 91
        1
 92
        1
 93
        1
 72
     4
 94
        3
 73
     0
 74
     1
 95
       26
 96
       22
 40
0.0
 40
0.0
 40
0.0
 40
0.0
 40
1.0
 40
1.0
 40
1.0
 40
2.0
 40
2.0
 40
2.0
 40
3.0
 40
3.0
 40
3.0
 40
4.0
 40
4.0
 40
4.0
 40
5.0
 40
5.0
 40
5.0
 40
6.0
 40
6.0
 40
6.0
 40
7.0
 40
7.0
 40
7.0
 40
7.0
 10
86.42090926658922
 20
-119.9027587590868
 10
86.42090926658922
 20
-119.9027587590868
 10
86.42090926658922
 20
-118.7986056560642
 10
86.42090926658922
 20
-118.7986056560642
 10
86.42090926658922
 20
-118.7986056560642
 10
86.06847599844816
 20
-118.7986056560642
 10
86.06847599844816
 20
-118.7986056560642
 10
86.06847599844816
 20
-118.7986056560642
 10
86.06847599844816
 20
-118.6504665501985
 10
86.06847599844816
 20
-118.6504665501985
 10
86.42332083342889
 20
-118.6356526396119
 10
86.4729302084165
 20
-118.4726996231596
 10
86.5046250868808
 20
-118.3584947078236
 10
86.5046250868808
 20
-118.3584947078236
 10
86.6606879123626
 20
-118.3584947078236
 10
86.6606879123626
 20
-118.3584947078236
 10
86.6606879123626
 20
-118.3584947078236
 10
86.6606879123626
 20
-119.9027587590868
 10
86.6606879123626
 20
-119.9027587590868
 10
86.6606879123626
 20
-119.9027587590868
 10
86.42090926658922
 20
-119.9027587590868
 10
86.42090926658922
 20
-119.9027587590868
 97
        0
 97
        0
 75
     2
 76
     1
 98
        0
  0
SPLINE
  5
86
330
80
100
AcDbEntity
  8
_U+30EC_U+30A4_U+30E4_U+30FC 1
370
     0
100
AcDbSpline
210
0.0
220
0.0
230
1.0
 70
    11
 71
     3
 72
    29
 73
    25
 74
     0
 42
0.0000000001
 43
0.0000000001
 12
1.0
 22
0.0
 32
0.0
 13
1.0
 23
0.0
 33
0.0
 40
0.0
 40
0.0
 40
0.0
 40
0.0
 40
1.0
 40
1.0
 40
1.0
 40
2.0
 40
2.0
 40
2.0
 40
3.0
 40
3.0
 40
3.0
 40
4.0
 40
4.0
 40
4.0
 40
5.0
 40
5.0
 40
5.0
 40
6.0
 40
6.0
 40
6.0
 40
7.0
 40
7.0
 40
7.0
 40
8.0
 40
8.0
 40
8.0
 40
8.0
 10
88.15585935296104
 20
-119.7249918320479
 30
0.0
 10
88.04044865420516
 20
-119.9344536375511
 30
0.0
 10
87.85510251709873
 20
-119.95340166272
 30
0.0
 10
87.73073457008121
 20
-119.95340166272
 30
0.0
 10
87.55916881491576
 20
-119.95340166272
 30
0.0
 10
87.40758461356478
 20
-119.9068928736691
 30
0.0
 10
87.3059542967499
 20
-119.7249918320479
 30
0.0
 10
87.19502222212486
 20
-119.5303439371313
 30
0.0
 10
87.17469615876189
 20
-119.2936658772946
 30
0.0
 10
87.17469615876189
 20
-119.1307128608423
 30
0.0
 10
87.17469615876189
 20
-118.9867078695589
 30
0.0
 10
87.1929551648337
 20
-118.7348713895871
 30
0.0
 10
87.3059542967499
 20
-118.5360893800882
 30
0.0
 10
87.42102048595724
 20
-118.3330010012327
 30
0.0
 10
87.59293075067121
 20
-118.3097466067073
 30
0.0
 10
87.73073457008121
 20
-118.3097466067073
 30
0.0
 10
87.90057777750403
 20
-118.3097466067073
 30
0.0
 10
88.05422903614617
 20
-118.354188338467
 30
0.0
 10
88.15585935296104
 20
-118.5360893800882
 30
0.0
 10
88.26231280345526
 20
-118.7286702177137
 30
0.0
 10
88.28711749094906
 20
-118.9570800483857
 30
0.0
 10
88.28711749094906
 20
-119.1307128608423
 30
0.0
 10
88.28711749094906
 20
-119.3019341064592
 30
0.0
 10
88.2643798607464
 20
-119.5324109944225
 30
0.0
 10
88.15585935296104
 20
-119.7249918320479
 30
0.0
  0
SPLINE
  5
87
330
80
100
AcDbEntity
  8
_U+30EC_U+30A4_U+30E4_U+30FC 1
370
     0
100
AcDbSpline
210
0.0
220
0.0
230
1.0
 70
    11
 71
     3
 72
    17
 73
    13
 74
     0
 42
0.0000000001
 43
0.0000000001
 12
1.0
 22
0.0
 32
0.0
 13
1.0
 23
0.0
 33
0.0
 40
0.0
 40
0.0
 40
0.0
 40
0.0
 40
1.0
 40
1.0
 40
1.0
 40
2.0
 40
2.0
 40
2.0
 40
3.0
 40
3.0
 40
3.0
 40
4.0
 40
4.0
 40
4.0
 40
4.0
 10
87.73073457008121
 20
-118.5023274443328
 30
0.0
 10
87.46408417952287
 20
-118.5023274443328
 30
0.0
 10
87.41447480453527
 20
-118.7858588027688
 30
0.0
 10
87.41447480453527
 20
-119.1307128608423
 30
0.0
 10
87.41447480453527
 20
-119.450073212325
 30
0.0
 10
87.45271536442155
 20
-119.7587537678034
 30
0.0
 10
87.73073457008121
 20
-119.7587537678034
 30
0.0
 10
87.9953179033484
 20
-119.7587537678034
 30
0.0
 10
88.04733884517567
 20
-119.477633976207
 30
0.0
 10
88.04733884517567
 20
-119.1307128608423
 30
0.0
 10
88.04733884517567
 20
-118.8110079998111
 30
0.0
 10
88.00668671844971
 20
-118.5023274443328
 30
0.0
 10
87.73073457008121
 20
-118.5023274443328
 30
0.0
  0
HATCH
  5
88
330
80
100
AcDbEntity
  8
_U+30EC_U+30A4_U+30E4_U+30FC 1
 62
   179
420
  2234388
100
AcDbHatch
 10
0.0
 20
0.0
 30
0.0
210
0.0
220
0.0
230
1.0
  2
SOLID
 70
     1
 71
     0
 91
        2
 92
        1
 93
        1
 72
     4
 94
        3
 73
     0
 74
     1
 95
       29
 96
       25
 40
0.0
 40
0.0
 40
0.0
 40
0.0
 40
1.0
 40
1.0
 40
1.0
 40
2.0
 40
2.0
 40
2.0
 40
3.0
 40
3.0
 40
3.0
 40
4.0
 40
4.0
 40
4.0
 40
5.0
 40
5.0
 40
5.0
 40
6.0
 40
6.0
 40
6.0
 40
7.0
 40
7.0
 40
7.0
 40
8.0
 40
8.0
 40
8.0
 40
8.0
 10
88.15585935296104
 20
-119.7249918320479
 10
88.04044865420516
 20
-119.9344536375511
 10
87.85510251709873
 20
-119.95340166272
 10
87.73073457008121
 20
-119.95340166272
 10
87.55916881491576
 20
-119.95340166272
 10
87.40758461356478
 20
-119.9068928736691
 10
87.3059542967499
 20
-119.7249918320479
 10
87.19502222212486
 20
-119.5303439371313
 10
87.17469615876189
 20
-119.2936658772946
 10
87.17469615876189
 20
-119.1307128608423
 10
87.17469615876189
 20
-118.9867078695589
 10
87.1929551648337
 20
-118.7348713895871
 10
87.3059542967499
 20
-118.5360893800882
 10
87.42102048595724
 20
-118.3330010012327
 10
87.59293075067121
 20
-118.3097466067073
 10
87.73073457008121
 20
-118.3097466067073
 10
87.90057777750403
 20
-118.3097466067073
 10
88.05422903614617
 20
-118.354188338467
 10
88.15585935296104
 20
-118.5360893800882
 10
88.26231280345526
 20
-118.7286702177137
 10
88.28711749094906
 20
-118.9570800483857
 10
88.28711749094906
 20
-119.1307128608423
 10
88.28711749094906
 20
-119.3019341064592
 10
88.2643798607464
 20
-119.5324109944225
 10
88.15585935296104
 20
-119.7249918320479
 97
        0
 97
        0
 92
        1
 93
        1
 72
     4
 94
        3
 73
     0
 74
     1
 95
       17
 96
       13
 40
0.0
 40
0.0
 40
0.0
 40
0.0
 40
1.0
 40
1.0
 40
1.0
 40
2.0
 40
2.0
 40
2.0
 40
3.0
 40
3.0
 40
3.0
 40
4.0
 40
4.0
 40
4.0
 40
4.0
 10
87.73073457008121
 20
-118.5023274443328
 10
87.46408417952287
 20
-118.5023274443328
 10
87.41447480453527
 20
-118.7858588027688
 10
87.41447480453527
 20
-119.1307128608423
 10
87.41447480453527
 20
-119.450073212325
 10
87.45271536442155
 20
-119.7587537678034
 10
87.73073457008121
 20
-119.7587537678034
 10
87.9953179033484
 20
-119.7587537678034
 10
88.04733884517567
 20
-119.477633976207
 10
88.04733884517567
 20
-119.1307128608423
 10
88.04733884517567
 20
-118.8110079998111
 10
88.00668671844971
 20
-118.5023274443328
 10
87.73073457008121
 20
-118.5023274443328
 97
        0
 97
        0
 75
     2
 76
     1
 98
        0
  0
ENDBLK
  5
83
330
80
100
AcDbEntity
  8
0
100
AcDbBlockEnd
  0
BLOCK
  5
8F
330
8D
100
AcDbEntity
  8
0
100
AcDbBlockBegin
  2
block 5
 70
     0
 10
0.0
 20
0.0
 30
0.0
  3
block 5
  1

  0
SPLINE
  5
91
330
8D
100
AcDbEntity
  8
_U+30EC_U+30A4_U+30E4_U+30FC 1
370
     0
100
AcDbSpline
210
0.0
220
0.0
230
1.0
 70
    11
 71
     3
 72
    44
 73
    40
 74
     0
 42
0.0000000001
 43
0.0000000001
 12
1.0
 22
0.0
 32
0.0
 13
1.0
 23
0.0
 33
0.0
 40
0.0
 40
0.0
 40
0.0
 40
0.0
 40
1.0
 40
1.0
 40
1.0
 40
2.0
 40
2.0
 40
2.0
 40
3.0
 40
3.0
 40
3.0
 40
4.0
 40
4.0
 40
4.0
 40
5.0
 40
5.0
 40
5.0
 40
6.0
 40
6.0
 40
6.0
 40
7.0
 40
7.0
 40
7.0
 40
8.0
 40
8.0
 40
8.0
 40
9.0
 40
9.0
 40
9.0
 40
10.0
 40
10.0
 40
10.0
 40
11.0
 40
11.0
 40
11.0
 40
12.0
 40
12.0
 40
12.0
 40
13.0
 40
13.0
 40
13.0
 40
13.0
 10
74.54187552389925
 20
-142.8198784365173
 30
0.0
 10
74.30898706909636
 20
-142.9786973383873
 30
0.0
 10
74.20959606434691
 20
-143.0527668913201
 30
0.0
 10
74.15757512251963
 20
-143.1964273730551
 30
0.0
 10
74.15757512251963
 20
-143.1964273730551
 30
0.0
 10
74.98956568220747
 20
-143.1964273730551
 30
0.0
 10
74.98956568220747
 20
-143.1964273730551
 30
0.0
 10
74.98956568220747
 20
-143.1964273730551
 30
0.0
 10
74.98956568220747
 20
-143.401755063976
 30
0.0
 10
74.98956568220747
 20
-143.401755063976
 30
0.0
 10
74.98956568220747
 20
-143.401755063976
 30
0.0
 10
73.89075247718704
 20
-143.401755063976
 30
0.0
 10
73.89075247718704
 20
-143.401755063976
 30
0.0
 10
73.92468666771674
 20
-143.044154152607
 30
0.0
 10
73.99479436084158
 20
-142.9659504850918
 30
0.0
 10
74.40631101655468
 20
-142.6676052160692
 30
0.0
 10
74.67985159808352
 20
-142.4688232065703
 30
0.0
 10
74.74995929120834
 20
-142.4009548255109
 30
0.0
 10
74.74995929120834
 20
-142.2634955156494
 30
0.0
 10
74.74995929120834
 20
-142.1449842309568
 30
0.0
 10
74.67313366188728
 20
-142.0140706025173
 30
0.0
 10
74.46281058251277
 20
-142.0140706025173
 30
0.0
 10
74.18461912207884
 20
-142.0140706025173
 30
0.0
 10
74.1756618738172
 20
-142.2445474904805
 30
0.0
 10
74.17118324968638
 20
-142.360991717882
 30
0.0
 10
74.17118324968638
 20
-142.360991717882
 30
0.0
 10
73.93140460391298
 20
-142.360991717882
 30
0.0
 10
73.93140460391298
 20
-142.360991717882
 30
0.0
 10
73.9405341069489
 20
-142.2338676944763
 30
0.0
 10
73.95190292205022
 20
-142.1219020912056
 30
0.0
 10
74.03768579963294
 20
-142.003390806513
 30
0.0
 10
74.15533581045422
 20
-141.8425048473519
 30
0.0
 10
74.3542900747274
 20
-141.8087429115964
 30
0.0
 10
74.47865802174492
 20
-141.8087429115964
 30
0.0
 10
74.77476397870214
 20
-141.8087429115964
 30
0.0
 10
74.99628361840371
 20
-141.9927110105088
 30
0.0
 10
74.99628361840371
 20
-142.2655625729406
 30
0.0
 10
74.99628361840371
 20
-142.4943169131612
 30
0.0
 10
74.87191567138619
 20
-142.5935356631364
 30
0.0
 10
74.54187552389925
 20
-142.8198784365173
 30
0.0
  0
HATCH
  5
92
330
8D
100
AcDbEntity
  8
_U+30EC_U+30A4_U+30E4_U+30FC 1
 62
   179
420
  2234388
100
AcDbHatch
 10
0.0
 20
0.0
 30
0.0
210
0.0
220
0.0
230
1.0
  2
SOLID
 70
     1
 71
     0
 91
        1
 92
        1
 93
        1
 72
     4
 94
        3
 73
     0
 74
     1
 95
       44
 96
       40
 40
0.0
 40
0.0
 40
0.0
 40
0.0
 40
1.0
 40
1.0
 40
1.0
 40
2.0
 40
2.0
 40
2.0
 40
3.0
 40
3.0
 40
3.0
 40
4.0
 40
4.0
 40
4.0
 40
5.0
 40
5.0
 40
5.0
 40
6.0
 40
6.0
 40
6.0
 40
7.0
 40
7.0
 40
7.0
 40
8.0
 40
8.0
 40
8.0
 40
9.0
 40
9.0
 40
9.0
 40
10.0
 40
10.0
 40
10.0
 40
11.0
 40
11.0
 40
11.0
 40
12.0
 40
12.0
 40
12.0
 40
13.0
 40
13.0
 40
13.0
 40
13.0
 10
74.54187552389925
 20
-142.8198784365173
 10
74.30898706909636
 20
-142.9786973383873
 10
74.20959606434691
 20
-143.0527668913201
 10
74.15757512251963
 20
-143.1964273730551
 10
74.15757512251963
 20
-143.1964273730551
 10
74.98956568220747
 20
-143.1964273730551
 10
74.98956568220747
 20
-143.1964273730551
 10
74.98956568220747
 20
-143.1964273730551
 10
74.98956568220747
 20
-143.401755063976
 10
74.98956568220747
 20
-143.401755063976
 10
74.98956568220747
 20
-143.401755063976
 10
73.89075247718704
 20
-143.401755063976
 10
73.89075247718704
 20
-143.401755063976
 10
73.92468666771674
 20
-143.044154152607
 10
73.99479436084158
 20
-142.9659504850918
 10
74.40631101655468
 20
-142.6676052160692
 10
74.67985159808352
 20
-142.4688232065703
 10
74.74995929120834
 20
-142.4009548255109
 10
74.74995929120834
 20
-142.2634955156494
 10
74.74995929120834
 20
-142.1449842309568
 10
74.67313366188728
 20
-142.0140706025173
 10
74.46281058251277
 20
-142.0140706025173
 10
74.18461912207884
 20
-142.0140706025173
 10
74.1756618738172
 20
-142.2445474904805
 10
74.17118324968638
 20
-142.360991717882
 10
74.17118324968638
 20
-142.360991717882
 10
73.93140460391298
 20
-142.360991717882
 10
73.93140460391298
 20
-142.360991717882
 10
73.9405341069489
 20
-142.2338676944763
 10
73.95190292205022
 20
-142.1219020912056
 10
74.03768579963294
 20
-142.003390806513
 10
74.15533581045422
 20
-141.8425048473519
 10
74.3542900747274
 20
-141.8087429115964
 10
74.47865802174492
 20
-141.8087429115964
 10
74.77476397870214
 20
-141.8087429115964
 10
74.99628361840371
 20
-141.9927110105088
 10
74.99628361840371
 20
-142.2655625729406
 10
74.99628361840371
 20
-142.4943169131612
 10
74.87191567138619
 20
-142.5935356631364
 10
74.54187552389925
 20
-142.8198784365173
 97
        0
 97
        0
 75
     2
 76
     1
 98
        0
  0
SPLINE
  5
93
330
8D
100
AcDbEntity
  8
_U+30EC_U+30A4_U+30E4_U+30FC 1
370
     0
100
AcDbSpline
210
0.0
220
0.0
230
1.0
 70
    11
 71
     3
 72
    44
 73
    40
 74
     0
 42
0.0000000001
 43
0.0000000001
 12
1.0
 22
0.0
 32
0.0
 13
1.0
 23
0.0
 33
0.0
 40
0.0
 40
0.0
 40
0.0
 40
0.0
 40
1.0
 40
1.0
 40
1.0
 40
2.0
 40
2.0
 40
2.0
 40
3.0
 40
3.0
 40
3.0
 40
4.0
 40
4.0
 40
4.0
 40
5.0
 40
5.0
 40
5.0
 40
6.0
 40
6.0
 40
6.0
 40
7.0
 40
7.0
 40
7.0
 40
8.0
 40
8.0
 40
8.0
 40
9.0
 40
9.0
 40
9.0
 40
10.0
 40
10.0
 40
10.0
 40
11.0
 40
11.0
 40
11.0
 40
12.0
 40
12.0
 40
12.0
 40
13.0
 40
13.0
 40
13.0
 40
13.0
 10
76.24960935593761
 20
-143.401755063976
 30
0.0
 10
76.22480466844381
 20
-143.3573133322162
 30
0.0
 10
76.20206703824115
 20
-143.3046033712919
 30
0.0
 10
76.19982772617574
 20
-143.0737819737802
 30
0.0
 10
76.19534910204491
 20
-142.8305582325215
 30
0.0
 10
76.13213159989058
 20
-142.760622794171
 30
0.0
 10
75.94213458387905
 20
-142.760622794171
 30
0.0
 10
75.94213458387905
 20
-142.760622794171
 30
0.0
 10
75.50581324067217
 20
-142.760622794171
 30
0.0
 10
75.50581324067217
 20
-142.760622794171
 30
0.0
 10
75.50581324067217
 20
-142.760622794171
 30
0.0
 10
75.50581324067217
 20
-143.401755063976
 30
0.0
 10
75.50581324067217
 20
-143.401755063976
 30
0.0
 10
75.50581324067217
 20
-143.401755063976
 30
0.0
 10
75.2548380345717
 20
-143.401755063976
 30
0.0
 10
75.2548380345717
 20
-143.401755063976
 30
0.0
 10
75.2548380345717
 20
-143.401755063976
 30
0.0
 10
75.2548380345717
 20
-141.8573187579385
 30
0.0
 10
75.2548380345717
 20
-141.8573187579385
 30
0.0
 10
75.2548380345717
 20
-141.8573187579385
 30
0.0
 10
75.97606877440876
 20
-141.8573187579385
 30
0.0
 10
75.97606877440876
 20
-141.8573187579385
 30
0.0
 10
76.30386960983029
 20
-141.8573187579385
 30
0.0
 10
76.48249781074048
 20
-142.0288845131039
 30
0.0
 10
76.48249781074048
 20
-142.284855107658
 30
0.0
 10
76.48249781074048
 20
-142.3354980112911
 30
0.0
 10
76.47354056247885
 20
-142.4181803029371
 30
0.0
 10
76.42599824478239
 20
-142.4984510277434
 30
0.0
 10
76.36260848785379
 20
-142.6021484018495
 30
0.0
 10
76.29267304950322
 20
-142.6210964270183
 30
0.0
 10
76.22704398050921
 20
-142.6379773948961
 30
0.0
 10
76.37397730295513
 20
-142.6803520693646
 30
0.0
 10
76.44632430814536
 20
-142.7289279157067
 30
0.0
 10
76.45080293227619
 20
-143.044154152607
 30
0.0
 10
76.45528155640702
 20
-143.3149386577477
 30
0.0
 10
76.49386662584182
 20
-143.346633536212
 30
0.0
 10
76.56621363103206
 20
-143.401755063976
 30
0.0
 10
76.56621363103206
 20
-143.401755063976
 30
0.0
 10
76.24960935593761
 20
-143.401755063976
 30
0.0
 10
76.24960935593761
 20
-143.401755063976
 30
0.0
  0
SPLINE
  5
94
330
8D
100
AcDbEntity
  8
_U+30EC_U+30A4_U+30E4_U+30FC 1
370
     0
100
AcDbSpline
210
0.0
220
0.0
230
1.0
 70
    11
 71
     3
 72
    20
 73
    16
 74
     0
 42
0.0000000001
 43
0.0000000001
 12
1.0
 22
0.0
 32
0.0
 13
1.0
 23
0.0
 33
0.0
 40
0.0
 40
0.0
 40
0.0
 40
0.0
 40
1.0
 40
1.0
 40
1.0
 40
2.0
 40
2.0
 40
2.0
 40
3.0
 40
3.0
 40
3.0
 40
4.0
 40
4.0
 40
4.0
 40
5.0
 40
5.0
 40
5.0
 40
5.0
 10
75.98054739853958
 20
-142.0688476207328
 30
0.0
 10
75.98054739853958
 20
-142.0688476207328
 30
0.0
 10
75.50581324067217
 20
-142.0688476207328
 30
0.0
 10
75.50581324067217
 20
-142.0688476207328
 30
0.0
 10
75.50581324067217
 20
-142.0688476207328
 30
0.0
 10
75.50581324067217
 20
-142.5490939313766
 30
0.0
 10
75.50581324067217
 20
-142.5490939313766
 30
0.0
 10
75.50581324067217
 20
-142.5490939313766
 30
0.0
 10
75.97830808647417
 20
-142.5490939313766
 30
0.0
 10
75.97830808647417
 20
-142.5490939313766
 30
0.0
 10
76.08458928219413
 20
-142.5490939313766
 30
0.0
 10
76.22928329257462
 20
-142.4729573211526
 30
0.0
 10
76.22928329257462
 20
-142.3017360755357
 30
0.0
 10
76.22928329257462
 20
-142.2235324080205
 30
0.0
 10
76.1931097899795
 20
-142.0688476207328
 30
0.0
 10
75.98054739853958
 20
-142.0688476207328
 30
0.0
  0
HATCH
  5
95
330
8D
100
AcDbEntity
  8
_U+30EC_U+30A4_U+30E4_U+30FC 1
 62
   179
420
  2234388
100
AcDbHatch
 10
0.0
 20
0.0
 30
0.0
210
0.0
220
0.0
230
1.0
  2
SOLID
 70
     1
 71
     0
 91
        2
 92
        1
 93
        1
 72
     4
 94
        3
 73
     0
 74
     1
 95
       44
 96
       40
 40
0.0
 40
0.0
 40
0.0
 40
0.0
 40
1.0
 40
1.0
 40
1.0
 40
2.0
 40
2.0
 40
2.0
 40
3.0
 40
3.0
 40
3.0
 40
4.0
 40
4.0
 40
4.0
 40
5.0
 40
5.0
 40
5.0
 40
6.0
 40
6.0
 40
6.0
 40
7.0
 40
7.0
 40
7.0
 40
8.0
 40
8.0
 40
8.0
 40
9.0
 40
9.0
 40
9.0
 40
10.0
 40
10.0
 40
10.0
 40
11.0
 40
11.0
 40
11.0
 40
12.0
 40
12.0
 40
12.0
 40
13.0
 40
13.0
 40
13.0
 40
13.0
 10
76.24960935593761
 20
-143.401755063976
 10
76.22480466844381
 20
-143.3573133322162
 10
76.20206703824115
 20
-143.3046033712919
 10
76.19982772617574
 20
-143.0737819737802
 10
76.19534910204491
 20
-142.8305582325215
 10
76.13213159989058
 20
-142.760622794171
 10
75.94213458387905
 20
-142.760622794171
 10
75.94213458387905
 20
-142.760622794171
 10
75.50581324067217
 20
-142.760622794171
 10
75.50581324067217
 20
-142.760622794171
 10
75.50581324067217
 20
-142.760622794171
 10
75.50581324067217
 20
-143.401755063976
 10
75.50581324067217
 20
-143.401755063976
 10
75.50581324067217
 20
-143.401755063976
 10
75.2548380345717
 20
-143.401755063976
 10
75.2548380345717
 20
-143.401755063976
 10
75.2548380345717
 20
-143.401755063976
 10
75.2548380345717
 20
-141.8573187579385
 10
75.2548380345717
 20
-141.8573187579385
 10
75.2548380345717
 20
-141.8573187579385
 10
75.97606877440876
 20
-141.8573187579385
 10
75.97606877440876
 20
-141.8573187579385
 10
76.30386960983029
 20
-141.8573187579385
 10
76.48249781074048
 20
-142.0288845131039
 10
76.48249781074048
 20
-142.284855107658
 10
76.48249781074048
 20
-142.3354980112911
 10
76.47354056247885
 20
-142.4181803029371
 10
76.42599824478239
 20
-142.4984510277434
 10
76.36260848785379
 20
-142.6021484018495
 10
76.29267304950322
 20
-142.6210964270183
 10
76.22704398050921
 20
-142.6379773948961
 10
76.37397730295513
 20
-142.6803520693646
 10
76.44632430814536
 20
-142.7289279157067
 10
76.45080293227619
 20
-143.044154152607
 10
76.45528155640702
 20
-143.3149386577477
 10
76.49386662584182
 20
-143.346633536212
 10
76.56621363103206
 20
-143.401755063976
 10
76.56621363103206
 20
-143.401755063976
 10
76.24960935593761
 20
-143.401755063976
 10
76.24960935593761
 20
-143.401755063976
 97
        0
 97
        0
 92
        1
 93
        1
 72
     4
 94
        3
 73
     0
 74
     1
 95
       20
 96
       16
 40
0.0
 40
0.0
 40
0.0
 40
0.0
 40
1.0
 40
1.0
 40
1.0
 40
2.0
 40
2.0
 40
2.0
 40
3.0
 40
3.0
 40
3.0
 40
4.0
 40
4.0
 40
4.0
 40
5.0
 40
5.0
 40
5.0
 40
5.0
 10
75.98054739853958
 20
-142.0688476207328
 10
75.98054739853958
 20
-142.0688476207328
 10
75.50581324067217
 20
-142.0688476207328
 10
75.50581324067217
 20
-142.0688476207328
 10
75.50581324067217
 20
-142.0688476207328
 10
75.50581324067217
 20
-142.5490939313766
 10
75.50581324067217
 20
-142.5490939313766
 10
75.50581324067217
 20
-142.5490939313766
 10
75.97830808647417
 20
-142.5490939313766
 10
75.97830808647417
 20
-142.5490939313766
 10
76.08458928219413
 20
-142.5490939313766
 10
76.22928329257462
 20
-142.4729573211526
 10
76.22928329257462
 20
-142.3017360755357
 10
76.22928329257462
 20
-142.2235324080205
 10
76.1931097899795
 20
-142.0688476207328
 10
75.98054739853958
 20
-142.0688476207328
 97
        0
 97
        0
 75
     2
 76
     1
 98
        0
  0
ENDBLK
  5
90
330
8D
100
AcDbEntity
  8
0
100
AcDbBlockEnd
  0
BLOCK
  5
A3
330
A1
100
AcDbEntity
  8
0
100
AcDbBlockBegin
  2
block 6
 70
     0
 10
0.0
 20
0.0
 30
0.0
  3
block 6
  1

  0
SPLINE
  5
A5
330
A1
100
AcDbEntity
  8
_U+30EC_U+30A4_U+30E4_U+30FC 1
370
     0
100
AcDbSpline
210
0.0
220
0.0
230
1.0
 70
    11
 71
     3
 72
    26
 73
    22
 74
     0
 42
0.0000000001
 43
0.0000000001
 12
1.0
 22
0.0
 32
0.0
 13
1.0
 23
0.0
 33
0.0
 40
0.0
 40
0.0
 40
0.0
 40
0.0
 40
1.0
 40
1.0
 40
1.0
 40
2.0
 40
2.0
 40
2.0
 40
3.0
 40
3.0
 40
3.0
 40
4.0
 40
4.0
 40
4.0
 40
5.0
 40
5.0
 40
5.0
 40
6.0
 40
6.0
 40
6.0
 40
7.0
 40
7.0
 40
7.0
 40
7.0
 10
79.97668590665513
 20
-119.8986246445045
 30
0.0
 10
79.97668590665513
 20
-119.8986246445045
 30
0.0
 10
79.97668590665513
 20
-118.7944715414819
 30
0.0
 10
79.97668590665513
 20
-118.7944715414819
 30
0.0
 10
79.97668590665513
 20
-118.7944715414819
 30
0.0
 10
79.62425263851408
 20
-118.7944715414819
 30
0.0
 10
79.62425263851408
 20
-118.7944715414819
 30
0.0
 10
79.62425263851408
 20
-118.7944715414819
 30
0.0
 10
79.62425263851408
 20
-118.6463324356162
 30
0.0
 10
79.62425263851408
 20
-118.6463324356162
 30
0.0
 10
79.97909747349482
 20
-118.6315185250296
 30
0.0
 10
80.02870684848241
 20
-118.4685655085773
 30
0.0
 10
80.06040172694671
 20
-118.354188338467
 30
0.0
 10
80.06040172694671
 20
-118.354188338467
 30
0.0
 10
80.21646455242853
 20
-118.354188338467
 30
0.0
 10
80.21646455242853
 20
-118.354188338467
 30
0.0
 10
80.21646455242853
 20
-118.354188338467
 30
0.0
 10
80.21646455242853
 20
-119.8986246445045
 30
0.0
 10
80.21646455242853
 20
-119.8986246445045
 30
0.0
 10
80.21646455242853
 20
-119.8986246445045
 30
0.0
 10
79.97668590665513
 20
-119.8986246445045
 30
0.0
 10
79.97668590665513
 20
-119.8986246445045
 30
0.0
  0
HATCH
  5
A6
330
A1
100
AcDbEntity
  8
_U+30EC_U+30A4_U+30E4_U+30FC 1
 62
   179
420
  2234388
100
AcDbHatch
 10
0.0
 20
0.0
 30
0.0
210
0.0
220
0.0
230
1.0
  2
SOLID
 70
     1
 71
     0
 91
        1
 92
        1
 93
        1
 72
     4
 94
        3
 73
     0
 74
     1
 95
       26
 96
       22
 40
0.0
 40
0.0
 40
0.0
 40
0.0
 40
1.0
 40
1.0
 40
1.0
 40
2.0
 40
2.0
 40
2.0
 40
3.0
 40
3.0
 40
3.0
 40
4.0
 40
4.0
 40
4.0
 40
5.0
 40
5.0
 40
5.0
 40
6.0
 40
6.0
 40
6.0
 40
7.0
 40
7.0
 40
7.0
 40
7.0
 10
79.97668590665513
 20
-119.8986246445045
 10
79.97668590665513
 20
-119.8986246445045
 10
79.97668590665513
 20
-118.7944715414819
 10
79.97668590665513
 20
-118.7944715414819
 10
79.97668590665513
 20
-118.7944715414819
 10
79.62425263851408
 20
-118.7944715414819
 10
79.62425263851408
 20
-118.7944715414819
 10
79.62425263851408
 20
-118.7944715414819
 10
79.62425263851408
 20
-118.6463324356162
 10
79.62425263851408
 20
-118.6463324356162
 10
79.97909747349482
 20
-118.6315185250296
 10
80.02870684848241
 20
-118.4685655085773
 10
80.06040172694671
 20
-118.354188338467
 10
80.06040172694671
 20
-118.354188338467
 10
80.21646455242853
 20
-118.354188338467
 10
80.21646455242853
 20
-118.354188338467
 10
80.21646455242853
 20
-118.354188338467
 10
80.21646455242853
 20
-119.8986246445045
 10
80.21646455242853
 20
-119.8986246445045
 10
80.21646455242853
 20
-119.8986246445045
 10
79.97668590665513
 20
-119.8986246445045
 10
79.97668590665513
 20
-119.8986246445045
 97
        0
 97
        0
 75
     2
 76
     1
 98
        0
  0
ENDBLK
  5
A4
330
A1
100
AcDbEntity
  8
0
100
AcDbBlockEnd
  0
ENDSEC
  0
SECTION
  2
ENTITIES
  0
POLYLINE
  5
41
330
1F
100
AcDbEntity
  8
_U+30EC_U+30A4_U+30E4_U+30FC 1
 62
   179
420
  2234388
370
     9
100
AcDb2dPolyline
 66
     1
 10
0.0
 20
0.0
 30
0.0
  0
VERTEX
  5
42
330
41
100
AcDbEntity
  8
_U+30EC_U+30A4_U+30E4_U+30FC 1
 62
   179
420
  2234388
370
     9
100
AcDbVertex
100
AcDb2dVertex
 10
81.18316042884503
 20
-140.2787671871528
 30
0.0
  0
VERTEX
  5
43
330
41
100
AcDbEntity
  8
_U+30EC_U+30A4_U+30E4_U+30FC 1
 62
   179
420
  2234388
370
     9
100
AcDbVertex
100
AcDb2dVertex
 10
81.68269374943421
 20
-139.4126624651467
 30
0.0
  0
SEQEND
  5
44
330
41
100
AcDbEntity
  8
_U+30EC_U+30A4_U+30E4_U+30FC 1
 62
   179
420
  2234388
370
     9
  0
POLYLINE
  5
45
330
1F
100
AcDbEntity
  8
_U+30EC_U+30A4_U+30E4_U+30FC 1
 62
   179
420
  2234388
370
     9
100
AcDb2dPolyline
 66
     1
 10
0.0
 20
0.0
 30
0.0
  0
VERTEX
  5
46
330
45
100
AcDbEntity
  8
_U+30EC_U+30A4_U+30E4_U+30FC 1
 62
   179
420
  2234388
370
     9
100
AcDbVertex
100
AcDb2dVertex
 10
80.81694182707693
 20
-139.9122310761331
 30
0.0
  0
VERTEX
  5
47
330
45
100
AcDbEntity
  8
_U+30EC_U+30A4_U+30E4_U+30FC 1
 62
   179
420
  2234388
370
     9
100
AcDbVertex
100
AcDb2dVertex
 10
81.68269374943421
 20
-139.4126624651467
 30
0.0
  0
SEQEND
  5
48
330
45
100
AcDbEntity
  8
_U+30EC_U+30A4_U+30E4_U+30FC 1
 62
   179
420
  2234388
370
     9
  0
SPLINE
  5
49
330
1F
100
AcDbEntity
  8
_U+30EC_U+30A4_U+30E4_U+30FC 1
 62
   179
420
  2234388
370
     9
100
AcDbSpline
210
0.0
220
0.0
230
1.0
 70
    11
 71
     3
 72
    17
 73
    13
 74
     0
 42
0.0000000001
 43
0.0000000001
 12
1.0
 22
0.0
 32
0.0
 13
1.0
 23
0.0
 33
0.0
 40
0.0
 40
0.0
 40
0.0
 40
0.0
 40
1.0
 40
1.0
 40
1.0
 40
2.0
 40
2.0
 40
2.0
 40
3.0
 40
3.0
 40
3.0
 40
4.0
 40
4.0
 40
4.0
 40
4.0
 10
93.19672512235346
 20
-123.998284413445
 30
0.0
 10
93.19672512235346
 20
-123.9431805245698
 30
0.0
 10
93.15192234571869
 20
-123.8983777468031
 30
0.0
 10
93.09681845823562
 20
-123.8983777468031
 30
0.0
 10
93.04167929297567
 20
-123.8983777468031
 30
0.0
 10
92.99691179411779
 20
-123.9431805245698
 30
0.0
 10
92.99691179411779
 20
-123.998284413445
 30
0.0
 10
92.99691179411779
 20
-124.0534235800978
 30
0.0
 10
93.04167929297567
 20
-124.0981910800867
 30
0.0
 10
93.09681845823562
 20
-124.0981910800867
 30
0.0
 10
93.15192234571869
 20
-124.0981910800867
 30
0.0
 10
93.19672512235346
 20
-124.0534235800978
 30
0.0
 10
93.19672512235346
 20
-123.998284413445
 30
0.0
  0
SPLINE
  5
4A
330
1F
100
AcDbEntity
  8
_U+30EC_U+30A4_U+30E4_U+30FC 1
 62
   179
420
  2234388
370
     9
100
AcDbSpline
210
0.0
220
0.0
230
1.0
 70
    11
 71
     3
 72
    17
 73
    13
 74
     0
 42
0.0000000001
 43
0.0000000001
 12
1.0
 22
0.0
 32
0.0
 13
1.0
 23
0.0
 33
0.0
 40
0.0
 40
0.0
 40
0.0
 40
0.0
 40
1.0
 40
1.0
 40
1.0
 40
2.0
 40
2.0
 40
2.0
 40
3.0
 40
3.0
 40
3.0
 40
4.0
 40
4.0
 40
4.0
 40
4.0
 10
92.19695292563755
 20
-120.4987641365418
 30
0.0
 10
92.19695292563755
 20
-120.4429546921114
 30
0.0
 10
92.15218542677967
 20
-120.398151914345
 30
0.0
 10
92.09704626151971
 20
-120.398151914345
 30
0.0
 10
92.04194237403664
 20
-120.398151914345
 30
0.0
 10
91.99713959740188
 20
-120.4429546921114
 30
0.0
 10
91.99713959740188
 20
-120.4987641365418
 30
0.0
 10
91.99713959740188
 20
-120.5538680254171
 30
0.0
 10
92.04194237403664
 20
-120.5986708031838
 30
0.0
 10
92.09704626151971
 20
-120.5986708031838
 30
0.0
 10
92.15218542677967
 20
-120.5986708031838
 30
0.0
 10
92.19695292563755
 20
-120.5538680254171
 30
0.0
 10
92.19695292563755
 20
-120.4987641365418
 30
0.0
  0
SPLINE
  5
4B
330
1F
100
AcDbEntity
  8
_U+30EC_U+30A4_U+30E4_U+30FC 1
 62
   179
420
  2234388
370
     9
100
AcDbSpline
210
0.0
220
0.0
230
1.0
 70
    11
 71
     3
 72
    17
 73
    13
 74
     0
 42
0.0000000001
 43
0.0000000001
 12
1.0
 22
0.0
 32
0.0
 13
1.0
 23
0.0
 33
0.0
 40
0.0
 40
0.0
 40
0.0
 40
0.0
 40
1.0
 40
1.0
 40
1.0
 40
2.0
 40
2.0
 40
2.0
 40
3.0
 40
3.0
 40
3.0
 40
4.0
 40
4.0
 40
4.0
 40
4.0
 10
82.19669095854327
 20
-120.4987641365418
 30
0.0
 10
82.19669095854327
 20
-120.4429546921114
 30
0.0
 10
82.15259373744605
 20
-120.398151914345
 30
0.0
 10
82.09678429442543
 20
-120.398151914345
 30
0.0
 10
82.04168040694236
 20
-120.398151914345
 30
0.0
 10
81.9968776303076
 20
-120.4429546921114
 30
0.0
 10
81.9968776303076
 20
-120.4987641365418
 30
0.0
 10
81.9968776303076
 20
-120.5538680254171
 30
0.0
 10
82.04168040694236
 20
-120.5986708031838
 30
0.0
 10
82.09678429442543
 20
-120.5986708031838
 30
0.0
 10
82.15259373744605
 20
-120.5986708031838
 30
0.0
 10
82.19669095854327
 20
-120.5538680254171
 30
0.0
 10
82.19669095854327
 20
-120.4987641365418
 30
0.0
  0
SPLINE
  5
4C
330
1F
100
AcDbEntity
  8
_U+30EC_U+30A4_U+30E4_U+30FC 1
 62
   179
420
  2234388
370
     9
100
AcDbSpline
210
0.0
220
0.0
230
1.0
 70
    11
 71
     3
 72
    17
 73
    13
 74
     0
 42
0.0000000001
 43
0.0000000001
 12
1.0
 22
0.0
 32
0.0
 13
1.0
 23
0.0
 33
0.0
 40
0.0
 40
0.0
 40
0.0
 40
0.0
 40
1.0
 40
1.0
 40
1.0
 40
2.0
 40
2.0
 40
2.0
 40
3.0
 40
3.0
 40
3.0
 40
4.0
 40
4.0
 40
4.0
 40
4.0
 10
108.1966594618955
 20
-123.998284413445
 30
0.0
 10
108.1966594618955
 20
-123.9431805245698
 30
0.0
 10
108.1518919630376
 20
-123.8983777468031
 30
0.0
 10
108.0967555285311
 20
-123.8983777468031
 30
0.0
 10
108.0416489102946
 20
-123.8983777468031
 30
0.0
 10
107.9968461336598
 20
-123.9431805245698
 30
0.0
 10
107.9968461336598
 20
-123.998284413445
 30
0.0
 10
107.9968461336598
 20
-124.0534235800978
 30
0.0
 10
108.0416489102946
 20
-124.0981910800867
 30
0.0
 10
108.0967555285311
 20
-124.0981910800867
 30
0.0
 10
108.1518919630376
 20
-124.0981910800867
 30
0.0
 10
108.1966594618955
 20
-124.0534235800978
 30
0.0
 10
108.1966594618955
 20
-123.998284413445
 30
0.0
  0
SPLINE
  5
4D
330
1F
100
AcDbEntity
  8
_U+30EC_U+30A4_U+30E4_U+30FC 1
 62
   179
420
  2234388
370
     9
100
AcDbSpline
210
0.0
220
0.0
230
1.0
 70
    11
 71
     3
 72
    17
 73
    13
 74
     0
 42
0.0000000001
 43
0.0000000001
 12
1.0
 22
0.0
 32
0.0
 13
1.0
 23
0.0
 33
0.0
 40
0.0
 40
0.0
 40
0.0
 40
0.0
 40
1.0
 40
1.0
 40
1.0
 40
2.0
 40
2.0
 40
2.0
 40
3.0
 40
3.0
 40
3.0
 40
4.0
 40
4.0
 40
4.0
 40
4.0
 10
77.19719497497992
 20
-139.998344131667
 30
0.0
 10
77.19719497497992
 20
-139.9432402427921
 30
0.0
 10
77.15239219834515
 20
-139.8984374650254
 30
0.0
 10
77.09728831086208
 20
-139.8984374650254
 30
0.0
 10
77.04214914560214
 20
-139.8984374650254
 30
0.0
 10
76.99738164674426
 20
-139.9432402427921
 30
0.0
 10
76.99738164674426
 20
-139.998344131667
 30
0.0
 10
76.99738164674426
 20
-140.0534832983201
 30
0.0
 10
77.04214914560214
 20
-140.0982507983087
 30
0.0
 10
77.09728831086208
 20
-140.0982507983087
 30
0.0
 10
77.15239219834515
 20
-140.0982507983087
 30
0.0
 10
77.19719497497992
 20
-140.0534832983201
 30
0.0
 10
77.19719497497992
 20
-139.998344131667
 30
0.0
  0
SPLINE
  5
4E
330
1F
100
AcDbEntity
  8
_U+30EC_U+30A4_U+30E4_U+30FC 1
 62
   179
420
  2234388
370
     9
100
AcDbSpline
210
0.0
220
0.0
230
1.0
 70
    11
 71
     3
 72
    17
 73
    13
 74
     0
 42
0.0000000001
 43
0.0000000001
 12
1.0
 22
0.0
 32
0.0
 13
1.0
 23
0.0
 33
0.0
 40
0.0
 40
0.0
 40
0.0
 40
0.0
 40
1.0
 40
1.0
 40
1.0
 40
2.0
 40
2.0
 40
2.0
 40
3.0
 40
3.0
 40
3.0
 40
4.0
 40
4.0
 40
4.0
 40
4.0
 10
77.19719497497992
 20
-124.4985233022087
 30
0.0
 10
77.19719497497992
 20
-124.443384135556
 30
0.0
 10
77.15239219834515
 20
-124.3986166355671
 30
0.0
 10
77.09728831086208
 20
-124.3986166355671
 30
0.0
 10
77.04214914560214
 20
-124.3986166355671
 30
0.0
 10
76.99738164674426
 20
-124.443384135556
 30
0.0
 10
76.99738164674426
 20
-124.4985233022087
 30
0.0
 10
76.99738164674426
 20
-124.553627191084
 30
0.0
 10
77.04214914560214
 20
-124.5984299688504
 30
0.0
 10
77.09728831086208
 20
-124.5984299688504
 30
0.0
 10
77.15239219834515
 20
-124.5984299688504
 30
0.0
 10
77.19719497497992
 20
-124.553627191084
 30
0.0
 10
77.19719497497992
 20
-124.4985233022087
 30
0.0
  0
POLYLINE
  5
4F
330
1F
100
AcDbEntity
  8
_U+30EC_U+30A4_U+30E4_U+30FC 1
 62
   179
420
  2234388
370
     9
100
AcDb2dPolyline
 66
     1
 10
0.0
 20
0.0
 30
0.0
  0
VERTEX
  5
50
330
4F
100
AcDbEntity
  8
_U+30EC_U+30A4_U+30E4_U+30FC 1
 62
   179
420
  2234388
370
     9
100
AcDbVertex
100
AcDb2dVertex
 10
93.09681845823562
 20
-123.998284413445
 30
0.0
  0
VERTEX
  5
51
330
4F
100
AcDbEntity
  8
_U+30EC_U+30A4_U+30E4_U+30FC 1
 62
   179
420
  2234388
370
     9
100
AcDbVertex
100
AcDb2dVertex
 10
108.0967555285311
 20
-123.998284413445
 30
0.0
  0
SEQEND
  5
52
330
4F
100
AcDbEntity
  8
_U+30EC_U+30A4_U+30E4_U+30FC 1
 62
   179
420
  2234388
370
     9
  0
POLYLINE
  5
53
330
1F
100
AcDbEntity
  8
_U+30EC_U+30A4_U+30E4_U+30FC 1
 62
   179
420
  2234388
370
     9
100
AcDb2dPolyline
 66
     1
 10
0.0
 20
0.0
 30
0.0
  0
VERTEX
  5
54
330
53
100
AcDbEntity
  8
_U+30EC_U+30A4_U+30E4_U+30FC 1
 62
   179
420
  2234388
370
     9
100
AcDbVertex
100
AcDb2dVertex
 10
108.0967555285311
 20
-125.457973024191
 30
0.0
  0
VERTEX
  5
55
330
53
100
AcDbEntity
  8
_U+30EC_U+30A4_U+30E4_U+30FC 1
 62
   179
420
  2234388
370
     9
100
AcDbVertex
100
AcDb2dVertex
 10
108.0967555285311
 20
-122.9985121914725
 30
0.0
  0
SEQEND
  5
56
330
53
100
AcDbEntity
  8
_U+30EC_U+30A4_U+30E4_U+30FC 1
 62
   179
420
  2234388
370
     9
  0
INSERT
  5
58
330
1F
100
AcDbEntity
  8
_U+30EC_U+30A4_U+30E4_U+30FC 1
100
AcDbBlockReference
  2
block 2
 10
0.0
 20
0.0
 30
0.0
  0
POLYLINE
  5
5F
330
1F
100
AcDbEntity
  8
_U+30EC_U+30A4_U+30E4_U+30FC 1
 62
   179
420
  2234388
370
     9
100
AcDb2dPolyline
 66
     1
 10
0.0
 20
0.0
 30
0.0
  0
VERTEX
  5
60
330
5F
100
AcDbEntity
  8
_U+30EC_U+30A4_U+30E4_U+30FC 1
 62
   179
420
  2234388
370
     9
100
AcDbVertex
100
AcDb2dVertex
 10
77.09728831086208
 20
-139.998344131667
 30
0.0
  0
VERTEX
  5
61
330
5F
100
AcDbEntity
  8
_U+30EC_U+30A4_U+30E4_U+30FC 1
 62
   179
420
  2234388
370
     9
100
AcDbVertex
100
AcDb2dVertex
 10
77.09728831086208
 20
-124.4985233022087
 30
0.0
  0
SEQEND
  5
62
330
5F
100
AcDbEntity
  8
_U+30EC_U+30A4_U+30E4_U+30FC 1
 62
   179
420
  2234388
370
     9
  0
POLYLINE
  5
63
330
1F
100
AcDbEntity
  8
_U+30EC_U+30A4_U+30E4_U+30FC 1
 62
   179
420
  2234388
370
     9
100
AcDb2dPolyline
 66
     1
 10
0.0
 20
0.0
 30
0.0
  0
VERTEX
  5
64
330
63
100
AcDbEntity
  8
_U+30EC_U+30A4_U+30E4_U+30FC 1
 62
   179
420
  2234388
370
     9
100
AcDbVertex
100
AcDb2dVertex
 10
80.55719155592594
 20
-139.998344131667
 30
0.0
  0
VERTEX
  5
65
330
63
100
AcDbEntity
  8
_U+30EC_U+30A4_U+30E4_U+30FC 1
 62
   179
420
  2234388
370
     9
100
AcDbVertex
100
AcDb2dVertex
 10
76.0971633363774
 20
-139.998344131667
 30
0.0
  0
SEQEND
  5
66
330
63
100
AcDbEntity
  8
_U+30EC_U+30A4_U+30E4_U+30FC 1
 62
   179
420
  2234388
370
     9
  0
POLYLINE
  5
67
330
1F
100
AcDbEntity
  8
_U+30EC_U+30A4_U+30E4_U+30FC 1
 62
   179
420
  2234388
370
     9
100
AcDb2dPolyline
 66
     1
 10
0.0
 20
0.0
 30
0.0
  0
VERTEX
  5
68
330
67
100
AcDbEntity
  8
_U+30EC_U+30A4_U+30E4_U+30FC 1
 62
   179
420
  2234388
370
     9
100
AcDbVertex
100
AcDb2dVertex
 10
78.55729438472534
 20
-124.4985233022087
 30
0.0
  0
VERTEX
  5
69
330
67
100
AcDbEntity
  8
_U+30EC_U+30A4_U+30E4_U+30FC 1
 62
   179
420
  2234388
370
     9
100
AcDbVertex
100
AcDb2dVertex
 10
76.0971633363774
 20
-124.4985233022087
 30
0.0
  0
SEQEND
  5
6A
330
67
100
AcDbEntity
  8
_U+30EC_U+30A4_U+30E4_U+30FC 1
 62
   179
420
  2234388
370
     9
  0
INSERT
  5
6C
330
1F
100
AcDbEntity
  8
_U+30EC_U+30A4_U+30E4_U+30FC 1
100
AcDbBlockReference
  2
block 3
 10
0.0
 20
0.0
 30
0.0
  0
POLYLINE
  5
74
330
1F
100
AcDbEntity
  8
_U+30EC_U+30A4_U+30E4_U+30FC 1
 62
   179
420
  2234388
370
     9
100
AcDb2dPolyline
 66
     1
 10
0.0
 20
0.0
 30
0.0
  0
VERTEX
  5
75
330
74
100
AcDbEntity
  8
_U+30EC_U+30A4_U+30E4_U+30FC 1
 62
   179
420
  2234388
370
     9
100
AcDbVertex
100
AcDb2dVertex
 10
82.09678429442543
 20
-120.4987641365418
 30
0.0
  0
VERTEX
  5
76
330
74
100
AcDbEntity
  8
_U+30EC_U+30A4_U+30E4_U+30FC 1
 62
   179
420
  2234388
370
     9
100
AcDbVertex
100
AcDb2dVertex
 10
92.09704626151971
 20
-120.4987641365418
 30
0.0
  0
SEQEND
  5
77
330
74
100
AcDbEntity
  8
_U+30EC_U+30A4_U+30E4_U+30FC 1
 62
   179
420
  2234388
370
     9
  0
POLYLINE
  5
78
330
1F
100
AcDbEntity
  8
_U+30EC_U+30A4_U+30E4_U+30FC 1
 62
   179
420
  2234388
370
     9
100
AcDb2dPolyline
 66
     1
 10
0.0
 20
0.0
 30
0.0
  0
VERTEX
  5
79
330
78
100
AcDbEntity
  8
_U+30EC_U+30A4_U+30E4_U+30FC 1
 62
   179
420
  2234388
370
     9
100
AcDbVertex
100
AcDb2dVertex
 10
82.09678429442543
 20
-121.9508680250678
 30
0.0
  0
VERTEX
  5
7A
330
78
100
AcDbEntity
  8
_U+30EC_U+30A4_U+30E4_U+30FC 1
 62
   179
420
  2234388
370
     9
100
AcDbVertex
100
AcDb2dVertex
 10
82.09678429442543
 20
-119.4983216367919
 30
0.0
  0
SEQEND
  5
7B
330
78
100
AcDbEntity
  8
_U+30EC_U+30A4_U+30E4_U+30FC 1
 62
   179
420
  2234388
370
     9
  0
POLYLINE
  5
7C
330
1F
100
AcDbEntity
  8
_U+30EC_U+30A4_U+30E4_U+30FC 1
 62
   179
420
  2234388
370
     9
100
AcDb2dPolyline
 66
     1
 10
0.0
 20
0.0
 30
0.0
  0
VERTEX
  5
7D
330
7C
100
AcDbEntity
  8
_U+30EC_U+30A4_U+30E4_U+30FC 1
 62
   179
420
  2234388
370
     9
100
AcDbVertex
100
AcDb2dVertex
 10
92.09704626151971
 20
-122.9585424692603
 30
0.0
  0
VERTEX
  5
7E
330
7C
100
AcDbEntity
  8
_U+30EC_U+30A4_U+30E4_U+30FC 1
 62
   179
420
  2234388
370
     9
100
AcDbVertex
100
AcDb2dVertex
 10
92.09704626151971
 20
-119.4983216367919
 30
0.0
  0
SEQEND
  5
7F
330
7C
100
AcDbEntity
  8
_U+30EC_U+30A4_U+30E4_U+30FC 1
 62
   179
420
  2234388
370
     9
  0
INSERT
  5
81
330
1F
100
AcDbEntity
  8
_U+30EC_U+30A4_U+30E4_U+30FC 1
100
AcDbBlockReference
  2
block 4
 10
0.0
 20
0.0
 30
0.0
  0
POLYLINE
  5
89
330
1F
100
AcDbEntity
  8
_U+30EC_U+30A4_U+30E4_U+30FC 1
 62
   179
420
  2234388
370
     9
100
AcDb2dPolyline
 66
     1
 10
0.0
 20
0.0
 30
0.0
  0
VERTEX
  5
8A
330
89
100
AcDbEntity
  8
_U+30EC_U+30A4_U+30E4_U+30FC 1
 62
   179
420
  2234388
370
     9
100
AcDbVertex
100
AcDb2dVertex
 10
81.68269374943421
 20
-139.4126624651467
 30
0.0
  0
VERTEX
  5
8B
330
89
100
AcDbEntity
  8
_U+30EC_U+30A4_U+30E4_U+30FC 1
 62
   179
420
  2234388
370
     9
100
AcDbVertex
100
AcDb2dVertex
 10
77.09728831086208
 20
-143.9981032973339
 30
0.0
  0
SEQEND
  5
8C
330
89
100
AcDbEntity
  8
_U+30EC_U+30A4_U+30E4_U+30FC 1
 62
   179
420
  2234388
370
     9
  0
INSERT
  5
8E
330
1F
100
AcDbEntity
  8
_U+30EC_U+30A4_U+30E4_U+30FC 1
100
AcDbBlockReference
  2
block 5
 10
0.0
 20
0.0
 30
0.0
  0
SPLINE
  5
96
330
1F
100
AcDbEntity
  8
_U+30EC_U+30A4_U+30E4_U+30FC 1
 62
   179
420
  2234388
370
    25
100
AcDbSpline
210
0.0
220
0.0
230
1.0
 70
    11
 71
     3
 72
    74
 73
    70
 74
     0
 42
0.0000000001
 43
0.0000000001
 12
1.0
 22
0.0
 32
0.0
 13
1.0
 23
0.0
 33
0.0
 40
0.0
 40
0.0
 40
0.0
 40
0.0
 40
1.0
 40
1.0
 40
1.0
 40
2.0
 40
2.0
 40
2.0
 40
3.0
 40
3.0
 40
3.0
 40
4.0
 40
4.0
 40
4.0
 40
5.0
 40
5.0
 40
5.0
 40
6.0
 40
6.0
 40
6.0
 40
7.0
 40
7.0
 40
7.0
 40
8.0
 40
8.0
 40
8.0
 40
9.0
 40
9.0
 40
9.0
 40
10.0
 40
10.0
 40
10.0
 40
11.0
 40
11.0
 40
11.0
 40
12.0
 40
12.0
 40
12.0
 40
13.0
 40
13.0
 40
13.0
 40
14.0
 40
14.0
 40
14.0
 40
15.0
 40
15.0
 40
15.0
 40
16.0
 40
16.0
 40
16.0
 40
17.0
 40
17.0
 40
17.0
 40
18.0
 40
18.0
 40
18.0
 40
19.0
 40
19.0
 40
19.0
 40
20.0
 40
20.0
 40
20.0
 40
21.0
 40
21.0
 40
21.0
 40
22.0
 40
22.0
 40
22.0
 40
23.0
 40
23.0
 40
23.0
 40
23.0
 10
92.09704626151971
 20
-128.2912371901495
 30
0.0
 10
92.09704626151971
 20
-128.2912371901495
 30
0.0
 10
82.60944094801313
 20
-137.7790191322221
 30
0.0
 10
82.60944094801313
 20
-137.7790191322221
 30
0.0
 10
82.55327872722373
 20
-137.8354988544299
 30
0.0
 10
82.4771492847215
 20
-137.8672135766445
 30
0.0
 10
82.39720984231649
 20
-137.8672135766445
 30
0.0
 10
82.23182762431352
 20
-137.8672135766445
 30
0.0
 10
82.09748984996298
 20
-137.7328405211225
 30
0.0
 10
82.09748984996298
 20
-137.5667880211641
 30
0.0
 10
82.09748984996298
 20
-137.5667880211641
 30
0.0
 10
82.09748984996298
 20
-125.4986130241809
 30
0.0
 10
82.09748984996298
 20
-125.4986130241809
 30
0.0
 10
81.54525153071843
 20
-125.4986130241809
 30
0.0
 10
81.0973648754783
 20
-125.9464996907357
 30
0.0
 10
81.0973648754783
 20
-126.4983852461531
 30
0.0
 10
81.0973648754783
 20
-126.4983852461531
 30
0.0
 10
81.0973648754783
 20
-137.9981294099452
 30
0.0
 10
81.0973648754783
 20
-137.9981294099452
 30
0.0
 10
81.0973648754783
 20
-139.1026060763354
 30
0.0
 10
81.9927501304129
 20
-139.998344131667
 30
0.0
 10
83.09726204667889
 20
-139.998344131667
 30
0.0
 10
83.09726204667889
 20
-139.998344131667
 30
0.0
 10
95.59727200555486
 20
-139.998344131667
 30
0.0
 10
95.59727200555486
 20
-139.998344131667
 30
0.0
 10
96.14915754703063
 20
-139.998344131667
 30
0.0
 10
96.59704420227075
 20
-139.551163020668
 30
0.0
 10
96.59704420227075
 20
-138.9985719096945
 30
0.0
 10
96.59704420227075
 20
-138.9985719096945
 30
0.0
 10
83.52856814678647
 20
-138.9985719096945
 30
0.0
 10
83.52856814678647
 20
-138.9985719096945
 30
0.0
 10
83.449334259919
 20
-138.9985719096945
 30
0.0
 10
83.37285203964801
 20
-138.9668924652581
 30
0.0
 10
83.3166898188586
 20
-138.9103774652721
 30
0.0
 10
83.19956759962442
 20
-138.7932552430797
 30
0.0
 10
83.19956759962442
 20
-138.6030727431272
 30
0.0
 10
83.3166898188586
 20
-138.4859505209342
 30
0.0
 10
83.3166898188586
 20
-138.4859505209342
 30
0.0
 10
92.80397763237328
 20
-128.9988388566389
 30
0.0
 10
92.80397763237328
 20
-128.9988388566389
 30
0.0
 10
92.80397763237328
 20
-128.9988388566389
 30
0.0
 10
96.09680532614402
 20
-128.9988388566389
 30
0.0
 10
96.09680532614402
 20
-128.9988388566389
 30
0.0
 10
96.45441615035395
 20
-128.9988388566389
 30
0.0
 10
96.78443975304546
 20
-128.8079860789091
 30
0.0
 10
96.96291002627008
 20
-128.4985999678752
 30
0.0
 10
96.96291002627008
 20
-128.4985999678752
 30
0.0
 10
107.5972221953229
 20
-128.4985999678752
 30
0.0
 10
107.5972221953229
 20
-128.4985999678752
 30
0.0
 10
107.8728447479345
 20
-128.4985999678752
 30
0.0
 10
108.0967555285311
 20
-128.2746919123758
 30
0.0
 10
108.0967555285311
 20
-127.9983963568893
 30
0.0
 10
108.0967555285311
 20
-127.9983963568893
 30
0.0
 10
93.09681845823562
 20
-127.9983963568893
 30
0.0
 10
93.09681845823562
 20
-127.9983963568893
 30
0.0
 10
93.09681845823562
 20
-127.9983963568893
 30
0.0
 10
93.09681845823562
 20
-112.9987791384169
 30
0.0
 10
93.09681845823562
 20
-112.9987791384169
 30
0.0
 10
92.82052290972895
 20
-112.9987791384169
 30
0.0
 10
92.59728513764645
 20
-113.2223696939167
 30
0.0
 10
92.59728513764645
 20
-113.4986652494032
 30
0.0
 10
92.59728513764645
 20
-113.4986652494032
 30
0.0
 10
92.59728513764645
 20
-124.1326574689667
 30
0.0
 10
92.59728513764645
 20
-124.1326574689667
 30
0.0
 10
92.28722875666776
 20
-124.3114452466998
 30
0.0
 10
92.09704626151971
 20
-124.6415041355064
 30
0.0
 10
92.09704626151971
 20
-124.9987269131949
 30
0.0
 10
92.09704626151971
 20
-124.9987269131949
 30
0.0
 10
92.09704626151971
 20
-128.2912371901495
 30
0.0
 10
92.09704626151971
 20
-128.2912371901495
 30
0.0
  0
HATCH
  5
97
330
1F
100
AcDbEntity
  8
_U+30EC_U+30A4_U+30E4_U+30FC 1
 62
   253
420
 11711154
100
AcDbHatch
 10
0.0
 20
0.0
 30
0.0
210
0.0
220
0.0
230
1.0
  2
SOLID
 70
     1
 71
     0
 91
        1
 92
        1
 93
        1
 72
     4
 94
        3
 73
     0
 74
     1
 95
       74
 96
       70
 40
0.0
 40
0.0
 40
0.0
 40
0.0
 40
1.0
 40
1.0
 40
1.0
 40
2.0
 40
2.0
 40
2.0
 40
3.0
 40
3.0
 40
3.0
 40
4.0
 40
4.0
 40
4.0
 40
5.0
 40
5.0
 40
5.0
 40
6.0
 40
6.0
 40
6.0
 40
7.0
 40
7.0
 40
7.0
 40
8.0
 40
8.0
 40
8.0
 40
9.0
 40
9.0
 40
9.0
 40
10.0
 40
10.0
 40
10.0
 40
11.0
 40
11.0
 40
11.0
 40
12.0
 40
12.0
 40
12.0
 40
13.0
 40
13.0
 40
13.0
 40
14.0
 40
14.0
 40
14.0
 40
15.0
 40
15.0
 40
15.0
 40
16.0
 40
16.0
 40
16.0
 40
17.0
 40
17.0
 40
17.0
 40
18.0
 40
18.0
 40
18.0
 40
19.0
 40
19.0
 40
19.0
 40
20.0
 40
20.0
 40
20.0
 40
21.0
 40
21.0
 40
21.0
 40
22.0
 40
22.0
 40
22.0
 40
23.0
 40
23.0
 40
23.0
 40
23.0
 10
92.09704626151971
 20
-128.2912371901495
 10
92.09704626151971
 20
-128.2912371901495
 10
82.60944094801313
 20
-137.7790191322221
 10
82.60944094801313
 20
-137.7790191322221
 10
82.55327872722373
 20
-137.8354988544299
 10
82.4771492847215
 20
-137.8672135766445
 10
82.39720984231649
 20
-137.8672135766445
 10
82.23182762431352
 20
-137.8672135766445
 10
82.09748984996298
 20
-137.7328405211225
 10
82.09748984996298
 20
-137.5667880211641
 10
82.09748984996298
 20
-137.5667880211641
 10
82.09748984996298
 20
-125.4986130241809
 10
82.09748984996298
 20
-125.4986130241809
 10
81.54525153071843
 20
-125.4986130241809
 10
81.0973648754783
 20
-125.9464996907357
 10
81.0973648754783
 20
-126.4983852461531
 10
81.0973648754783
 20
-126.4983852461531
 10
81.0973648754783
 20
-137.9981294099452
 10
81.0973648754783
 20
-137.9981294099452
 10
81.0973648754783
 20
-139.1026060763354
 10
81.9927501304129
 20
-139.998344131667
 10
83.09726204667889
 20
-139.998344131667
 10
83.09726204667889
 20
-139.998344131667
 10
95.59727200555486
 20
-139.998344131667
 10
95.59727200555486
 20
-139.998344131667
 10
96.14915754703063
 20
-139.998344131667
 10
96.59704420227075
 20
-139.551163020668
 10
96.59704420227075
 20
-138.9985719096945
 10
96.59704420227075
 20
-138.9985719096945
 10
83.52856814678647
 20
-138.9985719096945
 10
83.52856814678647
 20
-138.9985719096945
 10
83.449334259919
 20
-138.9985719096945
 10
83.37285203964801
 20
-138.9668924652581
 10
83.3166898188586
 20
-138.9103774652721
 10
83.19956759962442
 20
-138.7932552430797
 10
83.19956759962442
 20
-138.6030727431272
 10
83.3166898188586
 20
-138.4859505209342
 10
83.3166898188586
 20
-138.4859505209342
 10
92.80397763237328
 20
-128.9988388566389
 10
92.80397763237328
 20
-128.9988388566389
 10
92.80397763237328
 20
-128.9988388566389
 10
96.09680532614402
 20
-128.9988388566389
 10
96.09680532614402
 20
-128.9988388566389
 10
96.45441615035395
 20
-128.9988388566389
 10
96.78443975304546
 20
-128.8079860789091
 10
96.96291002627008
 20
-128.4985999678752
 10
96.96291002627008
 20
-128.4985999678752
 10
107.5972221953229
 20
-128.4985999678752
 10
107.5972221953229
 20
-128.4985999678752
 10
107.8728447479345
 20
-128.4985999678752
 10
108.0967555285311
 20
-128.2746919123758
 10
108.0967555285311
 20
-127.9983963568893
 10
108.0967555285311
 20
-127.9983963568893
 10
93.09681845823562
 20
-127.9983963568893
 10
93.09681845823562
 20
-127.9983963568893
 10
93.09681845823562
 20
-127.9983963568893
 10
93.09681845823562
 20
-112.9987791384169
 10
93.09681845823562
 20
-112.9987791384169
 10
92.82052290972895
 20
-112.9987791384169
 10
92.59728513764645
 20
-113.2223696939167
 10
92.59728513764645
 20
-113.4986652494032
 10
92.59728513764645
 20
-113.4986652494032
 10
92.59728513764645
 20
-124.1326574689667
 10
92.59728513764645
 20
-124.1326574689667
 10
92.28722875666776
 20
-124.3114452466998
 10
92.09704626151971
 20
-124.6415041355064
 10
92.09704626151971
 20
-124.9987269131949
 10
92.09704626151971
 20
-124.9987269131949
 10
92.09704626151971
 20
-128.2912371901495
 10
92.09704626151971
 20
-128.2912371901495
 97
        0
 97
        0
 75
     2
 76
     1
 98
        0
  0
POLYLINE
  5
98
330
1F
100
AcDbEntity
  8
_U+30EC_U+30A4_U+30E4_U+30FC 1
 62
   179
420
  2234388
370
     9
100
AcDb2dPolyline
 66
     1
 10
0.0
 20
0.0
 30
0.0
  0
VERTEX
  5
99
330
98
100
AcDbEntity
  8
_U+30EC_U+30A4_U+30E4_U+30FC 1
 62
   179
420
  2234388
370
     9
100
AcDbVertex
100
AcDb2dVertex
 10
79.55431491484478
 20
-120.4946366365429
 30
0.0
  0
VERTEX
  5
9A
330
98
100
AcDbEntity
  8
_U+30EC_U+30A4_U+30E4_U+30FC 1
 62
   179
420
  2234388
370
     9
100
AcDbVertex
100
AcDb2dVertex
 10
85.5942583718641
 20
-120.4946366365429
 30
0.0
  0
SEQEND
  5
9B
330
98
100
AcDbEntity
  8
_U+30EC_U+30A4_U+30E4_U+30FC 1
 62
   179
420
  2234388
370
     9
  0
SPLINE
  5
9C
330
1F
100
AcDbEntity
  8
_U+30EC_U+30A4_U+30E4_U+30FC 1
 62
   179
420
  2234388
370
     9
100
AcDbSpline
210
0.0
220
0.0
230
1.0
 70
    11
 71
     3
 72
    17
 73
    13
 74
     0
 42
0.0000000001
 43
0.0000000001
 12
1.0
 22
0.0
 32
0.0
 13
1.0
 23
0.0
 33
0.0
 40
0.0
 40
0.0
 40
0.0
 40
0.0
 40
1.0
 40
1.0
 40
1.0
 40
2.0
 40
2.0
 40
2.0
 40
3.0
 40
3.0
 40
3.0
 40
4.0
 40
4.0
 40
4.0
 40
4.0
 10
81.1941670952309
 20
-120.4908266365441
 30
0.0
 10
81.1941670952309
 20
-120.4357227476689
 30
0.0
 10
81.149399596373
 20
-120.3909199699022
 30
0.0
 10
81.09426043111306
 20
-120.3909199699022
 30
0.0
 10
81.03915654362999
 20
-120.3909199699022
 30
0.0
 10
80.99435376699522
 20
-120.4357227476689
 30
0.0
 10
80.99435376699522
 20
-120.4908266365441
 30
0.0
 10
80.99435376699522
 20
-120.5459658031969
 30
0.0
 10
81.03915654362999
 20
-120.5907333031858
 30
0.0
 10
81.09426043111306
 20
-120.5907333031858
 30
0.0
 10
81.149399596373
 20
-120.5907333031858
 30
0.0
 10
81.1941670952309
 20
-120.5459658031969
 30
0.0
 10
81.1941670952309
 20
-120.4908266365441
 30
0.0
  0
POLYLINE
  5
9D
330
1F
100
AcDbEntity
  8
_U+30EC_U+30A4_U+30E4_U+30FC 1
 62
   179
420
  2234388
370
     9
100
AcDb2dPolyline
 66
     1
 10
0.0
 20
0.0
 30
0.0
  0
VERTEX
  5
9E
330
9D
100
AcDbEntity
  8
_U+30EC_U+30A4_U+30E4_U+30FC 1
 62
   179
420
  2234388
370
     9
100
AcDbVertex
100
AcDb2dVertex
 10
81.09426043111306
 20
-121.9508680250678
 30
0.0
  0
VERTEX
  5
9F
330
9D
100
AcDbEntity
  8
_U+30EC_U+30A4_U+30E4_U+30FC 1
 62
   179
420
  2234388
370
     9
100
AcDbVertex
100
AcDb2dVertex
 10
81.09426043111306
 20
-119.4910544145716
 30
0.0
  0
SEQEND
  5
A0
330
9D
100
AcDbEntity
  8
_U+30EC_U+30A4_U+30E4_U+30FC 1
 62
   179
420
  2234388
370
     9
  0
INSERT
  5
A2
330
1F
100
AcDbEntity
  8
_U+30EC_U+30A4_U+30E4_U+30FC 1
100
AcDbBlockReference
  2
block 6
 10
0.0
 20
0.0
 30
0.0
  0
ENDSEC
  0
SECTION
  2
OBJECTS
  0
DICTIONARY
  5
C
330
0
100
AcDbDictionary
281
     1
  3
ACAD_GROUP
350
D
  3
ACAD_LAYOUT
350
1A
  3
ACAD_MATERIAL
350
3B
  3
ACAD_MLEADERSTYLE
350
A8
  3
ACAD_MLINESTYLE
350
17
  3
ACAD_PLOTSETTINGS
350
19
  3
ACAD_PLOTSTYLENAME
350
E
  3
ACAD_TABLESTYLE
350
A7
  3
ACAD_VISUALSTYLE
350
2A
  0
SUN
  5
3F
330
29
100
AcDbSun
 90
        1
290
     0
 63
     7
421
 16777215
 40
1.0
291
     1
 91
  2455826
 92
 54000000
292
     0
 70
     2
 71
   256
280
     1
  0
DICTIONARY
  5
D
102
{ACAD_REACTORS
330
C
102
}
330
C
100
AcDbDictionary
281
     1
  0
DICTIONARY
  5
1A
102
{ACAD_REACTORS
330
C
102
}
330
C
100
AcDbDictionary
281
     1
  3
Layout1
350
1E
  3
Layout2
350
26
  3
Model
350
22
  0
DICTIONARY
  5
3B
102
{ACAD_REACTORS
330
C
102
}
330
C
100
AcDbDictionary
281
     1
  3
ByBlock
350
3D
  3
ByLayer
350
3C
  3
Global
350
3E
  0
DICTIONARY
  5
A8
102
{ACAD_REACTORS
330
C
102
}
330
C
100
AcDbDictionary
281
     1
  0
DICTIONARY
  5
17
102
{ACAD_REACTORS
330
C
102
}
330
C
100
AcDbDictionary
281
     1
  3
Standard
350
18
  0
DICTIONARY
  5
19
102
{ACAD_REACTORS
330
C
102
}
330
C
100
AcDbDictionary
281
     1
  0
ACDBDICTIONARYWDFLT
  5
E
102
{ACAD_REACTORS
330
C
102
}
330
C
100
AcDbDictionary
281
     1
  3
Normal
350
F
100
AcDbDictionaryWithDefault
340
F
  0
DICTIONARY
  5
A7
102
{ACAD_REACTORS
330
C
102
}
330
C
100
AcDbDictionary
281
     1
  0
DICTIONARY
  5
2A
102
{ACAD_REACTORS
330
C
102
}
330
C
100
AcDbDictionary
281
     1
  3
2dWireframe
350
2F
  3
3D Hidden
350
31
  3
3dWireframe
350
30
  3
Basic
350
32
  3
Brighten
350
36
  3
ColorChange
350
3A
  3
Conceptual
350
34
  3
Dim
350
35
  3
Facepattern
350
39
  3
Flat
350
2B
  3
FlatWithEdges
350
2C
  3
Gouraud
350
2D
  3
GouraudWithEdges
350
2E
  3
Linepattern
350
38
  3
Realistic
350
33
  3
Thicken
350
37
  0
LAYOUT
  5
1E
102
{ACAD_REACTORS
330
1A
102
}
330
1A
100
AcDbPlotSettings
  1

  2
none_device
  4

  6

 40
0.0
 41
0.0
 42
0.0
 43
0.0
 44
0.0
 45
0.0
 46
0.0
 47
0.0
 48
0.0
 49
0.0
140
0.0
141
0.0
142
1.0
143
1.0
 70
   688
 72
     0
 73
     0
 74
     5
  7

 75
    16
 76
     0
 77
     2
 78
   300
147
1.0
148
0.0
149
0.0
100
AcDbLayout
  1
Layout1
 70
     1
 71
     1
 10
0.0
 20
0.0
 11
12.0
 21
9.0
 12
0.0
 22
0.0
 32
0.0
 14
1.000000000000000E+20
 24
1.000000000000000E+20
 34
1.000000000000000E+20
 15
-1.000000000000000E+20
 25
-1.000000000000000E+20
 35
-1.000000000000000E+20
146
0.0
 13
0.0
 23
0.0
 33
0.0
 16
1.0
 26
0.0
 36
0.0
 17
0.0
 27
1.0
 37
0.0
 76
     0
330
1B
  0
LAYOUT
  5
26
102
{ACAD_REACTORS
330
1A
102
}
330
1A
100
AcDbPlotSettings
  1

  2
none_device
  4

  6

 40
0.0
 41
0.0
 42
0.0
 43
0.0
 44
0.0
 45
0.0
 46
0.0
 47
0.0
 48
0.0
 49
0.0
140
0.0
141
0.0
142
1.0
143
1.0
 70
   688
 72
     0
 73
     0
 74
     5
  7

 75
    16
 76
     0
 77
     2
 78
   300
147
1.0
148
0.0
149
0.0
100
AcDbLayout
  1
Layout2
 70
     1
 71
     2
 10
0.0
 20
0.0
 11
0.0
 21
0.0
 12
0.0
 22
0.0
 32
0.0
 14
0.0
 24
0.0
 34
0.0
 15
0.0
 25
0.0
 35
0.0
146
0.0
 13
0.0
 23
0.0
 33
0.0
 16
1.0
 26
0.0
 36
0.0
 17
0.0
 27
1.0
 37
0.0
 76
     0
330
23
  0
LAYOUT
  5
22
102
{ACAD_REACTORS
330
1A
102
}
330
1A
100
AcDbPlotSettings
  1

  2
none_device
  4

  6

 40
0.0
 41
0.0
 42
0.0
 43
0.0
 44
0.0
 45
0.0
 46
0.0
 47
0.0
 48
0.0
 49
0.0
140
0.0
141
0.0
142
1.0
143
1.0
 70
  1712
 72
     0
 73
     0
 74
     0
  7

 75
     0
 76
     0
 77
     2
 78
   300
147
1.0
148
0.0
149
0.0
100
AcDbLayout
  1
Model
 70
     1
 71
     0
 10
0.0
 20
0.0
 11
12.0
 21
9.0
 12
0.0
 22
0.0
 32
0.0
 14
1.000000000000000E+20
 24
1.000000000000000E+20
 34
1.000000000000000E+20
 15
-1.000000000000000E+20
 25
-1.000000000000000E+20
 35
-1.000000000000000E+20
146
0.0
 13
0.0
 23
0.0
 33
0.0
 16
1.0
 26
0.0
 36
0.0
 17
0.0
 27
1.0
 37
0.0
 76
     0
330
1F
331
29
  0
MATERIAL
  5
3D
102
{ACAD_REACTORS
330
3B
102
}
330
3B
100
AcDbMaterial
  1
ByBlock
 72
     1
 94
      127
  0
MATERIAL
  5
3C
102
{ACAD_REACTORS
330
3B
102
}
330
3B
100
AcDbMaterial
  1
ByLayer
 72
     1
 94
      127
  0
MATERIAL
  5
3E
102
{ACAD_REACTORS
330
3B
102
}
330
3B
100
AcDbMaterial
  1
Global
 72
     1
 94
      127
  0
MLINESTYLE
  5
18
102
{ACAD_REACTORS
330
17
102
}
330
17
100
AcDbMlineStyle
  2
Standard
 70
     0
  3

 62
   256
 51
90.0
 52
90.0
 71
     2
 49
0.5
 62
   256
  6
BYLAYER
 49
-0.5
 62
   256
  6
BYLAYER
  0
ACDBPLACEHOLDER
  5
F
102
{ACAD_REACTORS
330
E
102
}
330
E
  0
VISUALSTYLE
  5
2F
102
{ACAD_REACTORS
330
2A
102
}
330
2A
100
AcDbVisualStyle
  2
2dWireframe
 70
     4
177
     2
291
     0
 71
     0
176
     1
 72
     2
176
     1
 73
     0
176
     1
 90
        0
176
     1
 40
-0.6
176
     1
 41
-30.0
176
     1
 62
     5
 63
     7
421
 16777215
176
     1
 74
     1
176
     1
 91
        4
176
     1
 64
     7
176
     1
 65
   257
176
     1
 75
     1
176
     1
175
     1
176
     1
 42
1.0
176
     1
 92
        0
176
     1
 66
   257
176
     1
 43
1.0
176
     1
 76
     1
176
     1
 77
     6
176
     1
 78
     2
176
     1
 67
     7
176
     1
 79
     5
176
     1
170
     0
176
     1
171
     0
176
     1
290
     0
176
     1
 93
        1
176
     1
 44
0.0
176
     1
173
     0
176
     1
  0
VISUALSTYLE
  5
31
102
{ACAD_REACTORS
330
2A
102
}
330
2A
100
AcDbVisualStyle
  2
3D Hidden
 70
     6
177
     2
291
     0
 71
     1
176
     1
 72
     2
176
     1
 73
     2
176
     1
 90
        0
176
     1
 40
-0.6
176
     1
 41
-30.0
176
     1
 62
     5
 63
     7
421
 16777215
176
     1
 74
     2
176
     1
 91
        2
176
     1
 64
     7
176
     1
 65
   257
176
     1
 75
     2
176
     1
175
     1
176
     1
 42
40.0
176
     1
 92
        0
176
     1
 66
   257
176
     1
 43
1.0
176
     1
 76
     1
176
     1
 77
     6
176
     1
 78
     2
176
     1
 67
     7
176
     1
 79
     3
176
     1
170
     0
176
     1
171
     0
176
     1
290
     0
176
     1
 93
        1
176
     1
 44
0.0
176
     1
173
     0
176
     1
  0
VISUALSTYLE
  5
30
102
{ACAD_REACTORS
330
2A
102
}
330
2A
100
AcDbVisualStyle
  2
3dWireframe
 70
     5
177
     2
291
     0
 71
     0
176
     1
 72
     2
176
     1
 73
     0
176
     1
 90
        0
176
     1
 40
-0.6
176
     1
 41
-30.0
176
     1
 62
     5
 63
     7
421
 16777215
176
     1
 74
     1
176
     1
 91
        4
176
     1
 64
     7
176
     1
 65
   257
176
     1
 75
     1
176
     1
175
     1
176
     1
 42
1.0
176
     1
 92
        0
176
     1
 66
   257
176
     1
 43
1.0
176
     1
 76
     1
176
     1
 77
     6
176
     1
 78
     2
176
     1
 67
     7
176
     1
 79
     5
176
     1
170
     0
176
     1
171
     0
176
     1
290
     0
176
     1
 93
        1
176
     1
 44
0.0
176
     1
173
     0
176
     1
  0
VISUALSTYLE
  5
32
102
{ACAD_REACTORS
330
2A
102
}
330
2A
100
AcDbVisualStyle
  2
Basic
 70
     7
177
     2
291
     1
 71
     1
176
     1
 72
     0
176
     1
 73
     1
176
     1
 90
        0
176
     1
 40
-0.6
176
     1
 41
-30.0
176
     1
 62
     5
 63
     7
421
 16777215
176
     1
 74
     0
176
     1
 91
        4
176
     1
 64
     7
176
     1
 65
   257
176
     1
 75
     1
176
     1
175
     1
176
     1
 42
1.0
176
     1
 92
        8
176
     1
 66
     7
176
     1
 43
1.0
176
     1
 76
     1
176
     1
 77
     6
176
     1
 78
     2
176
     1
 67
     7
176
     1
 79
     5
176
     1
170
     0
176
     1
171
     0
176
     1
290
     0
176
     1
 93
        1
176
     1
 44
0.0
176
     1
173
     0
176
     1
  0
VISUALSTYLE
  5
36
102
{ACAD_REACTORS
330
2A
102
}
330
2A
100
AcDbVisualStyle
  2
Brighten
 70
    12
177
     2
291
     1
 71
     2
176
     1
 72
     2
176
     1
 73
     0
176
     1
 90
        0
176
     1
 40
-0.6
176
     1
 41
-30.0
176
     1
 62
     5
 63
     7
421
 16777215
176
     1
 74
     1
176
     1
 91
        4
176
     1
 64
     7
176
     1
 65
   257
176
     1
 75
     1
176
     1
175
     1
176
     1
 42
1.0
176
     1
 92
        8
176
     1
 66
     7
176
     1
 43
1.0
176
     1
 76
     1
176
     1
 77
     6
176
     1
 78
     2
176
     1
 67
     7
176
     1
 79
     5
176
     1
170
     0
176
     1
171
     0
176
     1
290
     0
176
     1
 93
        1
176
     1
 44
50.0
176
     1
173
     0
176
     1
  0
VISUALSTYLE
  5
3A
102
{ACAD_REACTORS
330
2A
102
}
330
2A
100
AcDbVisualStyle
  2
ColorChange
 70
    16
177
     2
291
     1
 71
     2
176
     1
 72
     2
176
     1
 73
     3
176
     1
 90
        0
176
     1
 40
-0.6
176
     1
 41
-30.0
176
     1
 62
     5
 63
     8
421
  8421504
176
     1
 74
     1
176
     1
 91
        4
176
     1
 64
     7
176
     1
 65
   257
176
     1
 75
     1
176
     1
175
     1
176
     1
 42
1.0
176
     1
 92
        8
176
     1
 66
     8
424
  8421504
176
     1
 43
1.0
176
     1
 76
     1
176
     1
 77
     6
176
     1
 78
     2
176
     1
 67
     7
176
     1
 79
     5
176
     1
170
     0
176
     1
171
     0
176
     1
290
     0
176
     1
 93
        1
176
     1
 44
0.0
176
     1
173
     0
176
     1
  0
VISUALSTYLE
  5
34
102
{ACAD_REACTORS
330
2A
102
}
330
2A
100
AcDbVisualStyle
  2
Conceptual
 70
     9
177
     2
291
     0
 71
     3
176
     1
 72
     2
176
     1
 73
     0
176
     1
 90
        0
176
     1
 40
-0.6
176
     1
 41
-30.0
176
     1
 62
     5
 63
     7
421
 16777215
176
     1
 74
     2
176
     1
 91
        2
176
     1
 64
     7
176
     1
 65
   257
176
     1
 75
     1
176
     1
175
     1
176
     1
 42
40.0
176
     1
 92
        8
176
     1
 66
     7
176
     1
 43
1.0
176
     1
 76
     1
176
     1
 77
     6
176
     1
 78
     2
176
     1
 67
     7
176
     1
 79
     3
176
     1
170
     0
176
     1
171
     0
176
     1
290
     0
176
     1
 93
        1
176
     1
 44
0.0
176
     1
173
     0
176
     1
  0
VISUALSTYLE
  5
35
102
{ACAD_REACTORS
330
2A
102
}
330
2A
100
AcDbVisualStyle
  2
Dim
 70
    11
177
     2
291
     1
 71
     2
176
     1
 72
     2
176
     1
 73
     0
176
     1
 90
        0
176
     1
 40
-0.6
176
     1
 41
-30.0
176
     1
 62
     5
 63
     7
421
 16777215
176
     1
 74
     1
176
     1
 91
        4
176
     1
 64
     7
176
     1
 65
   257
176
     1
 75
     1
176
     1
175
     1
176
     1
 42
1.0
176
     1
 92
        8
176
     1
 66
     7
176
     1
 43
1.0
176
     1
 76
     1
176
     1
 77
     6
176
     1
 78
     2
176
     1
 67
     7
176
     1
 79
     5
176
     1
170
     0
176
     1
171
     0
176
     1
290
     0
176
     1
 93
        1
176
     1
 44
-50.0
176
     1
173
     0
176
     1
  0
VISUALSTYLE
  5
39
102
{ACAD_REACTORS
330
2A
102
}
330
2A
100
AcDbVisualStyle
  2
Facepattern
 70
    15
177
     2
291
     1
 71
     2
176
     1
 72
     2
176
     1
 73
     0
176
     1
 90
        0
176
     1
 40
-0.6
176
     1
 41
-30.0
176
     1
 62
     5
 63
     7
421
 16777215
176
     1
 74
     1
176
     1
 91
        4
176
     1
 64
     7
176
     1
 65
   257
176
     1
 75
     1
176
     1
175
     1
176
     1
 42
1.0
176
     1
 92
        8
176
     1
 66
     7
176
     1
 43
1.0
176
     1
 76
     1
176
     1
 77
     6
176
     1
 78
     2
176
     1
 67
     7
176
     1
 79
     5
176
     1
170
     0
176
     1
171
     0
176
     1
290
     0
176
     1
 93
        1
176
     1
 44
0.0
176
     1
173
     0
176
     1
  0
VISUALSTYLE
  5
2B
102
{ACAD_REACTORS
330
2A
102
}
330
2A
100
AcDbVisualStyle
  2
Flat
 70
     0
177
     2
291
     1
 71
     2
176
     1
 72
     1
176
     1
 73
     1
176
     1
 90
        2
176
     1
 40
-0.6
176
     1
 41
30.0
176
     1
 62
     5
 63
     7
421
 16777215
176
     1
 74
     0
176
     1
 91
        4
176
     1
 64
     7
176
     1
 65
   257
176
     1
 75
     1
176
     1
175
     1
176
     1
 42
1.0
176
     1
 92
        8
176
     1
 66
     7
176
     1
 43
1.0
176
     1
 76
     1
176
     1
 77
     6
176
     1
 78
     2
176
     1
 67
     7
176
     1
 79
     5
176
     1
170
     0
176
     1
171
     0
176
     1
290
     0
176
     1
 93
       13
176
     1
 44
0.0
176
     1
173
     0
176
     1
  0
VISUALSTYLE
  5
2C
102
{ACAD_REACTORS
330
2A
102
}
330
2A
100
AcDbVisualStyle
  2
FlatWithEdges
 70
     1
177
     2
291
     1
 71
     2
176
     1
 72
     1
176
     1
 73
     1
176
     1
 90
        2
176
     1
 40
-0.6
176
     1
 41
30.0
176
     1
 62
     5
 63
     7
421
 16777215
176
     1
 74
     1
176
     1
 91
        4
176
     1
 64
     7
176
     1
 65
   257
176
     1
 75
     1
176
     1
175
     1
176
     1
 42
1.0
176
     1
 92
        0
176
     1
 66
   257
176
     1
 43
1.0
176
     1
 76
     1
176
     1
 77
     6
176
     1
 78
     2
176
     1
 67
     7
176
     1
 79
     5
176
     1
170
     0
176
     1
171
     0
176
     1
290
     0
176
     1
 93
       13
176
     1
 44
0.0
176
     1
173
     0
176
     1
  0
VISUALSTYLE
  5
2D
102
{ACAD_REACTORS
330
2A
102
}
330
2A
100
AcDbVisualStyle
  2
Gouraud
 70
     2
177
     2
291
     1
 71
     2
176
     1
 72
     2
176
     1
 73
     1
176
     1
 90
        2
176
     1
 40
-0.6
176
     1
 41
30.0
176
     1
 62
     5
 63
     7
421
 16777215
176
     1
 74
     0
176
     1
 91
        4
176
     1
 64
     7
176
     1
 65
   257
176
     1
 75
     1
176
     1
175
     1
176
     1
 42
1.0
176
     1
 92
        0
176
     1
 66
     7
176
     1
 43
1.0
176
     1
 76
     1
176
     1
 77
     6
176
     1
 78
     2
176
     1
 67
     7
176
     1
 79
     5
176
     1
170
     0
176
     1
171
     0
176
     1
290
     0
176
     1
 93
       13
176
     1
 44
0.0
176
     1
173
     0
176
     1
  0
VISUALSTYLE
  5
2E
102
{ACAD_REACTORS
330
2A
102
}
330
2A
100
AcDbVisualStyle
  2
GouraudWithEdges
 70
     3
177
     2
291
     1
 71
     2
176
     1
 72
     2
176
     1
 73
     1
176
     1
 90
        2
176
     1
 40
-0.6
176
     1
 41
30.0
176
     1
 62
     5
 63
     7
421
 16777215
176
     1
 74
     1
176
     1
 91
        4
176
     1
 64
     7
176
     1
 65
   257
176
     1
 75
     1
176
     1
175
     1
176
     1
 42
1.0
176
     1
 92
        0
176
     1
 66
   257
176
     1
 43
1.0
176
     1
 76
     1
176
     1
 77
     6
176
     1
 78
     2
176
     1
 67
     7
176
     1
 79
     5
176
     1
170
     0
176
     1
171
     0
176
     1
290
     0
176
     1
 93
       13
176
     1
 44
0.0
176
     1
173
     0
176
     1
  0
VISUALSTYLE
  5
38
102
{ACAD_REACTORS
330
2A
102
}
330
2A
100
AcDbVisualStyle
  2
Linepattern
 70
    14
177
     2
291
     1
 71
     2
176
     1
 72
     2
176
     1
 73
     0
176
     1
 90
        0
176
     1
 40
-0.6
176
     1
 41
-30.0
176
     1
 62
     5
 63
     7
421
 16777215
176
     1
 74
     1
176
     1
 91
        4
176
     1
 64
     7
176
     1
 65
   257
176
     1
 75
     7
176
     1
175
     7
176
     1
 42
1.0
176
     1
 92
        8
176
     1
 66
     7
176
     1
 43
1.0
176
     1
 76
     1
176
     1
 77
     6
176
     1
 78
     2
176
     1
 67
     7
176
     1
 79
     5
176
     1
170
     0
176
     1
171
     0
176
     1
290
     0
176
     1
 93
        1
176
     1
 44
0.0
176
     1
173
     0
176
     1
  0
VISUALSTYLE
  5
33
102
{ACAD_REACTORS
330
2A
102
}
330
2A
100
AcDbVisualStyle
  2
Realistic
 70
     8
177
     2
291
     0
 71
     2
176
     1
 72
     2
176
     1
 73
     0
176
     1
 90
        0
176
     1
 40
-0.6
176
     1
 41
-30.0
176
     1
 62
     5
 63
     7
421
 16777215
176
     1
 74
     1
176
     1
 91
        0
176
     1
 64
     7
176
     1
 65
   257
176
     1
 75
     1
176
     1
175
     1
176
     1
 42
1.0
176
     1
 92
        8
176
     1
 66
     8
424
  7895160
176
     1
 43
1.0
176
     1
 76
     1
176
     1
 77
     6
176
     1
 78
     2
176
     1
 67
     7
176
     1
 79
     5
176
     1
170
     0
176
     1
171
     0
176
     1
290
     0
176
     1
 93
       13
176
     1
 44
0.0
176
     1
173
     0
176
     1
  0
VISUALSTYLE
  5
37
102
{ACAD_REACTORS
330
2A
102
}
330
2A
100
AcDbVisualStyle
  2
Thicken
 70
    13
177
     2
291
     1
 71
     2
176
     1
 72
     2
176
     1
 73
     0
176
     1
 90
        0
176
     1
 40
-0.6
176
     1
 41
-30.0
176
     1
 62
     5
 63
     7
421
 16777215
176
     1
 74
     1
176
     1
 91
        4
176
     1
 64
     7
176
     1
 65
   257
176
     1
 75
     1
176
     1
175
     1
176
     1
 42
1.0
176
     1
 92
       12
176
     1
 66
     7
176
     1
 43
1.0
176
     1
 76
     1
176
     1
 77
     6
176
     1
 78
     2
176
     1
 67
     7
176
     1
 79
     5
176
     1
170
     0
176
     1
171
     0
176
     1
290
     0
176
     1
 93
        1
176
     1
 44
0.0
176
     1
173
     0
176
     1
  0
ENDSEC
  0
EOF
