  0
SECTION
  2
HEADER
  9
$ACADVER
  1
AC1024
  9
$ACADMAINTVER
 70
     6
  9
$DWGCODEPAGE
  3
UNDEFINED
  9
$INSBASE
 10
0.0
 20
0.0
 30
0.0
  9
$EXTMIN
 10
1.000000000000000E+20
 20
1.000000000000000E+20
 30
1.000000000000000E+20
  9
$EXTMAX
 10
-1.000000000000000E+20
 20
-1.000000000000000E+20
 30
-1.000000000000000E+20
  9
$LIMMIN
 10
0.0
 20
0.0
  9
$LIMMAX
 10
12.0
 20
9.0
  9
$ORTHOMODE
 70
     0
  9
$REGENMODE
 70
     1
  9
$FILLMODE
 70
     1
  9
$QTEXTMODE
 70
     0
  9
$MIRRTEXT
 70
     1
  9
$LTSCALE
 40
1.0
  9
$ATTMODE
 70
     1
  9
$TEXTSIZE
 40
0.2
  9
$TRACEWID
 40
0.05
  9
$TEXTSTYLE
  7
Standard
  9
$CLAYER
  8
0
  9
$CELTYPE
  6
ByLayer
  9
$CECOLOR
 62
   256
  9
$CELTSCALE
 40
1.0
  9
$DISPSILH
 70
     0
  9
$DIMSCALE
 40
1.0
  9
$DIMASZ
 40
0.18
  9
$DIMEXO
 40
0.0625
  9
$DIMDLI
 40
0.38
  9
$DIMRND
 40
0.0
  9
$DIMDLE
 40
0.0
  9
$DIMEXE
 40
0.18
  9
$DIMTP
 40
0.0
  9
$DIMTM
 40
0.0
  9
$DIMTXT
 40
0.18
  9
$DIMCEN
 40
0.09
  9
$DIMTSZ
 40
0.0
  9
$DIMTOL
 70
     0
  9
$DIMLIM
 70
     0
  9
$DIMTIH
 70
     1
  9
$DIMTOH
 70
     1
  9
$DIMSE1
 70
     0
  9
$DIMSE2
 70
     0
  9
$DIMTAD
 70
     0
  9
$DIMZIN
 70
     0
  9
$DIMBLK
  1

  9
$DIMASO
 70
     1
  9
$DIMSHO
 70
     1
  9
$DIMPOST
  1

  9
$DIMAPOST
  1

  9
$DIMALT
 70
     0
  9
$DIMALTD
 70
     2
  9
$DIMALTF
 40
25.4
  9
$DIMLFAC
 40
1.0
  9
$DIMTOFL
 70
     0
  9
$DIMTVP
 40
0.0
  9
$DIMTIX
 70
     0
  9
$DIMSOXD
 70
     0
  9
$DIMSAH
 70
     0
  9
$DIMBLK1
  1

  9
$DIMBLK2
  1

  9
$DIMSTYLE
  2
Standard
  9
$DIMCLRD
 70
     0
  9
$DIMCLRE
 70
     0
  9
$DIMCLRT
 70
     0
  9
$DIMTFAC
 40
1.0
  9
$DIMGAP
 40
0.09
  9
$DIMJUST
 70
     0
  9
$DIMSD1
 70
     0
  9
$DIMSD2
 70
     0
  9
$DIMTOLJ
 70
     1
  9
$DIMTZIN
 70
     0
  9
$DIMALTZ
 70
     0
  9
$DIMALTTZ
 70
     0
  9
$DIMUPT
 70
     0
  9
$DIMDEC
 70
     4
  9
$DIMTDEC
 70
     4
  9
$DIMALTU
 70
     2
  9
$DIMALTTD
 70
     2
  9
$DIMTXSTY
  7
Standard
  9
$DIMAUNIT
 70
     0
  9
$DIMADEC
 70
     0
  9
$DIMALTRND
 40
0.0
  9
$DIMAZIN
 70
     0
  9
$DIMDSEP
 70
    46
  9
$DIMATFIT
 70
     3
  9
$DIMFRAC
 70
     0
  9
$DIMLDRBLK
  1

  9
$DIMLUNIT
 70
     2
  9
$DIMLWD
 70
    -2
  9
$DIMLWE
 70
    -2
  9
$DIMTMOVE
 70
     0
  9
$DIMFXL
 40
1.0
  9
$DIMFXLON
 70
     0
  9
$DIMJOGANG
 40
0.7853981633974483
  9
$DIMTFILL
 70
     0
  9
$DIMTFILLCLR
 70
     0
  9
$DIMARCSYM
 70
     0
  9
$DIMLTYPE
  6

  9
$DIMLTEX1
  6

  9
$DIMLTEX2
  6

  9
$DIMTXTDIRECTION
 70
     0
  9
$LUNITS
 70
     2
  9
$LUPREC
 70
     4
  9
$SKETCHINC
 40
0.1
  9
$FILLETRAD
 40
0.5
  9
$AUNITS
 70
     0
  9
$AUPREC
 70
     0
  9
$MENU
  1
.
  9
$ELEVATION
 40
0.0
  9
$PELEVATION
 40
0.0
  9
$THICKNESS
 40
0.0
  9
$LIMCHECK
 70
     0
  9
$CHAMFERA
 40
0.5
  9
$CHAMFERB
 40
0.5
  9
$CHAMFERC
 40
1.0
  9
$CHAMFERD
 40
0.0
  9
$SKPOLY
 70
     0
  9
$TDCREATE
 40
2457917.619293982
  9
$TDUCREATE
 40
2457917.244293982
  9
$TDUPDATE
 40
2457917.619293982
  9
$TDUUPDATE
 40
2457917.244293982
  9
$TDINDWG
 40
0.0000000116
  9
$TDUSRTIMER
 40
0.0000000116
  9
$USRTIMER
 70
     1
  9
$ANGBASE
 50
0.0
  9
$ANGDIR
 70
     0
  9
$PDMODE
 70
     0
  9
$PDSIZE
 40
0.0
  9
$PLINEWID
 40
0.0
  9
$SPLFRAME
 70
     0
  9
$SPLINETYPE
 70
     6
  9
$SPLINESEGS
 70
     8
  9
$HANDSEED
  5
D2
  9
$SURFTAB1
 70
     6
  9
$SURFTAB2
 70
     6
  9
$SURFTYPE
 70
     6
  9
$SURFU
 70
     6
  9
$SURFV
 70
     6
  9
$UCSBASE
  2

  9
$UCSNAME
  2

  9
$UCSORG
 10
0.0
 20
0.0
 30
0.0
  9
$UCSXDIR
 10
1.0
 20
0.0
 30
0.0
  9
$UCSYDIR
 10
0.0
 20
1.0
 30
0.0
  9
$UCSORTHOREF
  2

  9
$UCSORTHOVIEW
 70
     0
  9
$UCSORGTOP
 10
0.0
 20
0.0
 30
0.0
  9
$UCSORGBOTTOM
 10
0.0
 20
0.0
 30
0.0
  9
$UCSORGLEFT
 10
0.0
 20
0.0
 30
0.0
  9
$UCSORGRIGHT
 10
0.0
 20
0.0
 30
0.0
  9
$UCSORGFRONT
 10
0.0
 20
0.0
 30
0.0
  9
$UCSORGBACK
 10
0.0
 20
0.0
 30
0.0
  9
$PUCSBASE
  2

  9
$PUCSNAME
  2

  9
$PUCSORG
 10
0.0
 20
0.0
 30
0.0
  9
$PUCSXDIR
 10
1.0
 20
0.0
 30
0.0
  9
$PUCSYDIR
 10
0.0
 20
1.0
 30
0.0
  9
$PUCSORTHOREF
  2

  9
$PUCSORTHOVIEW
 70
     0
  9
$PUCSORGTOP
 10
0.0
 20
0.0
 30
0.0
  9
$PUCSORGBOTTOM
 10
0.0
 20
0.0
 30
0.0
  9
$PUCSORGLEFT
 10
0.0
 20
0.0
 30
0.0
  9
$PUCSORGRIGHT
 10
0.0
 20
0.0
 30
0.0
  9
$PUCSORGFRONT
 10
0.0
 20
0.0
 30
0.0
  9
$PUCSORGBACK
 10
0.0
 20
0.0
 30
0.0
  9
$USERI1
 70
     0
  9
$USERI2
 70
     0
  9
$USERI3
 70
     0
  9
$USERI4
 70
     0
  9
$USERI5
 70
     0
  9
$USERR1
 40
0.0
  9
$USERR2
 40
0.0
  9
$USERR3
 40
0.0
  9
$USERR4
 40
0.0
  9
$USERR5
 40
0.0
  9
$WORLDVIEW
 70
     1
  9
$SHADEDGE
 70
     3
  9
$SHADEDIF
 70
    70
  9
$TILEMODE
 70
     1
  9
$MAXACTVP
 70
    64
  9
$PINSBASE
 10
0.0
 20
0.0
 30
0.0
  9
$PLIMCHECK
 70
     0
  9
$PEXTMIN
 10
1.000000000000000E+20
 20
1.000000000000000E+20
 30
1.000000000000000E+20
  9
$PEXTMAX
 10
-1.000000000000000E+20
 20
-1.000000000000000E+20
 30
-1.000000000000000E+20
  9
$PLIMMIN
 10
0.0
 20
0.0
  9
$PLIMMAX
 10
12.0
 20
9.0
  9
$UNITMODE
 70
     0
  9
$VISRETAIN
 70
     1
  9
$PLINEGEN
 70
     0
  9
$PSLTSCALE
 70
     1
  9
$TREEDEPTH
 70
  3020
  9
$CMLSTYLE
  2
Standard
  9
$CMLJUST
 70
     0
  9
$CMLSCALE
 40
1.0
  9
$PROXYGRAPHICS
 70
     1
  9
$MEASUREMENT
 70
     0
  9
$CELWEIGHT
370
    -1
  9
$ENDCAPS
280
     0
  9
$JOINSTYLE
280
     0
  9
$LWDISPLAY
290
     1
  9
$INSUNITS
 70
     1
  9
$HYPERLINKBASE
  1

  9
$STYLESHEET
  1

  9
$XEDIT
290
     1
  9
$CEPSNTYPE
380
     0
  9
$PSTYLEMODE
290
     1
  9
$FINGERPRINTGUID
  2
{64D6F07B-D78A-BF65-7386-3ED23EAEBB84}
  9
$VERSIONGUID
  2
{FAEB1C32-E019-11D5-929B-00C0DF256EC4}
  9
$EXTNAMES
290
     1
  9
$PSVPSCALE
 40
0.0
  9
$OLESTARTUP
290
     0
  9
$SORTENTS
280
   127
  9
$INDEXCTL
280
     0
  9
$HIDETEXT
280
     1
  9
$XCLIPFRAME
280
     2
  9
$HALOGAP
280
     0
  9
$OBSCOLOR
 70
   257
  9
$OBSLTYPE
280
     0
  9
$INTERSECTIONDISPLAY
280
     0
  9
$INTERSECTIONCOLOR
 70
   257
  9
$DIMASSOC
280
     2
  9
$PROJECTNAME
  1

  9
$CAMERADISPLAY
290
     0
  9
$LENSLENGTH
 40
50.0
  9
$CAMERAHEIGHT
 40
0.0
  9
$STEPSPERSEC
 40
2.0
  9
$STEPSIZE
 40
6.0
  9
$3DDWFPREC
 40
2.0
  9
$PSOLWIDTH
 40
0.25
  9
$PSOLHEIGHT
 40
4.0
  9
$LOFTANG1
 40
1.570796326794897
  9
$LOFTANG2
 40
1.570796326794897
  9
$LOFTMAG1
 40
0.0
  9
$LOFTMAG2
 40
0.0
  9
$LOFTPARAM
 70
     7
  9
$LOFTNORMALS
280
     1
  9
$LATITUDE
 40
37.795
  9
$LONGITUDE
 40
-122.394
  9
$NORTHDIRECTION
 40
0.0
  9
$TIMEZONE
 70
 -8000
  9
$LIGHTGLYPHDISPLAY
280
     1
  9
$TILEMODELIGHTSYNCH
280
     1
  9
$CMATERIAL
347
3C
  9
$SOLIDHIST
280
     1
  9
$SHOWHIST
280
     1
  9
$DWFFRAME
280
     2
  9
$DGNFRAME
280
     2
  9
$REALWORLDSCALE
290
     1
  9
$INTERFERECOLOR
 62
   256
  9
$CSHADOW
280
     0
  9
$SHADOWPLANELOCATION
 40
0.0
  0
ENDSEC
  0
SECTION
  2
CLASSES
  0
CLASS
  1
ACDBDICTIONARYWDFLT
  2
AcDbDictionaryWithDefault
  3
ObjectDBX Classes
 90
        0
 91
        4
280
     0
281
     0
  0
CLASS
  1
VISUALSTYLE
  2
AcDbVisualStyle
  3
ObjectDBX Classes
 90
     4095
 91
        4
280
     0
281
     0
  0
CLASS
  1
MATERIAL
  2
AcDbMaterial
  3
ObjectDBX Classes
 90
     1153
 91
        4
280
     0
281
     0
  0
CLASS
  1
SUN
  2
AcDbSun
  3
SCENEOE
 90
     1024
 91
        4
280
     0
281
     0
  0
ENDSEC
  0
SECTION
  2
TABLES
  0
TABLE
  2
VPORT
  5
8
330
0
100
AcDbSymbolTable
 70
     1
  0
VPORT
  5
29
330
8
100
AcDbSymbolTableRecord
100
AcDbViewportTableRecord
  2
*Active
 70
     0
 10
0.0
 20
0.0
 11
1.0
 21
1.0
 12
0.0
 22
0.0
 13
0.0
 23
0.0
 14
0.5
 24
0.5
 15
0.5
 25
0.5
 16
0.0
 26
0.0
 36
1.0
 17
91.00082462281999
 27
-128.4993055234307
 37
0.0
 40
256.9986110468615
 41
0.7081814508812795
 42
50.0
 43
0.0
 44
0.0
 50
0.0
 51
0.0
 71
     0
 72
   100
 73
     1
 74
     3
 75
     0
 76
     0
 77
     0
 78
     0
281
     0
 65
     1
110
0.0
120
0.0
130
0.0
111
1.0
121
0.0
131
0.0
112
0.0
122
1.0
132
0.0
 79
     0
146
0.0
 60
     3
 61
     5
292
     1
282
     1
141
0.0
142
0.0
 63
   250
361
3F
  0
ENDTAB
  0
TABLE
  2
LTYPE
  5
5
330
0
100
AcDbSymbolTable
 70
     1
  0
LTYPE
  5
14
330
5
100
AcDbSymbolTableRecord
100
AcDbLinetypeTableRecord
  2
ByBlock
 70
     0
  3

 72
    65
 73
     0
 40
0.0
  0
LTYPE
  5
15
330
5
100
AcDbSymbolTableRecord
100
AcDbLinetypeTableRecord
  2
ByLayer
 70
     0
  3

 72
    65
 73
     0
 40
0.0
  0
LTYPE
  5
16
330
5
100
AcDbSymbolTableRecord
100
AcDbLinetypeTableRecord
  2
Continuous
 70
     0
  3
Solid line
 72
    65
 73
     0
 40
0.0
  0
ENDTAB
  0
TABLE
  2
LAYER
  5
2
330
0
100
AcDbSymbolTable
 70
     2
  0
LAYER
  5
10
330
2
100
AcDbSymbolTableRecord
100
AcDbLayerTableRecord
  2
0
 70
     0
 62
     7
  6
Continuous
370
    -3
390
F
347
3E
  0
LAYER
  5
40
330
2
100
AcDbSymbolTableRecord
100
AcDbLayerTableRecord
  2
_U+30EC_U+30A4_U+30E4_U+30FC 1
 70
     0
 62
     7
  6
Continuous
370
    -3
390
F
347
3E
  0
ENDTAB
  0
TABLE
  2
STYLE
  5
3
330
0
100
AcDbSymbolTable
 70
     1
  0
STYLE
  5
11
330
3
100
AcDbSymbolTableRecord
100
AcDbTextStyleTableRecord
  2
Standard
 70
     0
 40
0.0
 41
1.0
 50
0.0
 71
     0
 42
0.2
  3
txt
  4

  0
ENDTAB
  0
TABLE
  2
VIEW
  5
6
330
0
100
AcDbSymbolTable
 70
     0
  0
ENDTAB
  0
TABLE
  2
UCS
  5
7
330
0
100
AcDbSymbolTable
 70
     0
  0
ENDTAB
  0
TABLE
  2
APPID
  5
9
330
0
100
AcDbSymbolTable
 70
     1
  0
APPID
  5
12
330
9
100
AcDbSymbolTableRecord
100
AcDbRegAppTableRecord
  2
ACAD
 70
     0
  0
ENDTAB
  0
TABLE
  2
DIMSTYLE
  5
A
330
0
100
AcDbSymbolTable
 70
     1
100
AcDbDimStyleTable
  0
DIMSTYLE
105
27
330
A
100
AcDbSymbolTableRecord
100
AcDbDimStyleTableRecord
  2
Standard
 70
     0
178
     0
340
11
  0
ENDTAB
  0
TABLE
  2
BLOCK_RECORD
  5
1
330
0
100
AcDbSymbolTable
 70
     6
  0
BLOCK_RECORD
  5
1F
330
1
100
AcDbSymbolTableRecord
100
AcDbBlockTableRecord
  2
*Model_Space
340
22
 70
     0
280
     1
281
     0
  0
BLOCK_RECORD
  5
1B
330
1
100
AcDbSymbolTableRecord
100
AcDbBlockTableRecord
  2
*Paper_Space
340
1E
 70
     0
280
     1
281
     0
  0
BLOCK_RECORD
  5
23
330
1
100
AcDbSymbolTableRecord
100
AcDbBlockTableRecord
  2
*Paper_Space0
340
26
 70
     0
280
     1
281
     0
  0
BLOCK_RECORD
  5
57
330
1
100
AcDbSymbolTableRecord
100
AcDbBlockTableRecord
  2
block 2
340
0
102
{BLKREFS
331
58
102
}
 70
     0
280
     1
281
     0
  0
BLOCK_RECORD
  5
6B
330
1
100
AcDbSymbolTableRecord
100
AcDbBlockTableRecord
  2
block 3
340
0
102
{BLKREFS
331
6C
102
}
 70
     0
280
     1
281
     0
  0
BLOCK_RECORD
  5
89
330
1
100
AcDbSymbolTableRecord
100
AcDbBlockTableRecord
  2
block 4
340
0
102
{BLKREFS
331
8A
102
}
 70
     0
280
     1
281
     0
  0
BLOCK_RECORD
  5
B6
330
1
100
AcDbSymbolTableRecord
100
AcDbBlockTableRecord
  2
block 5
340
0
102
{BLKREFS
331
B7
102
}
 70
     0
280
     1
281
     0
  0
BLOCK_RECORD
  5
CA
330
1
100
AcDbSymbolTableRecord
100
AcDbBlockTableRecord
  2
block 6
340
0
102
{BLKREFS
331
CB
102
}
 70
     0
280
     1
281
     0
  0
ENDTAB
  0
ENDSEC
  0
SECTION
  2
BLOCKS
  0
BLOCK
  5
20
330
1F
100
AcDbEntity
  8
0
100
AcDbBlockBegin
  2
*Model_Space
 70
     0
 10
0.0
 20
0.0
 30
0.0
  3
*Model_Space
  1

  0
ENDBLK
  5
21
330
1F
100
AcDbEntity
  8
0
100
AcDbBlockEnd
  0
BLOCK
  5
1C
330
1B
100
AcDbEntity
 67
     1
  8
0
100
AcDbBlockBegin
  2
*Paper_Space
 70
     0
 10
0.0
 20
0.0
 30
0.0
  3
*Paper_Space
  1

  0
ENDBLK
  5
1D
330
1B
100
AcDbEntity
 67
     1
  8
0
100
AcDbBlockEnd
  0
BLOCK
  5
24
330
23
100
AcDbEntity
  8
0
100
AcDbBlockBegin
  2
*Paper_Space0
 70
     0
 10
0.0
 20
0.0
 30
0.0
  3
*Paper_Space0
  1

  0
ENDBLK
  5
25
330
23
100
AcDbEntity
  8
0
100
AcDbBlockEnd
  0
BLOCK
  5
59
330
57
100
AcDbEntity
  8
0
100
AcDbBlockBegin
  2
block 2
 70
     0
 10
0.0
 20
0.0
 30
0.0
  3
block 2
  1

  0
SPLINE
  5
5B
330
57
100
AcDbEntity
  8
_U+30EC_U+30A4_U+30E4_U+30FC 1
370
     0
100
AcDbSpline
210
0.0
220
0.0
230
1.0
 70
    11
 71
     3
 72
    26
 73
    22
 74
     0
 42
0.0000000001
 43
0.0000000001
 12
1.0
 22
0.0
 32
0.0
 13
1.0
 23
0.0
 33
0.0
 40
0.0
 40
0.0
 40
0.0
 40
0.0
 40
1.0
 40
1.0
 40
1.0
 40
2.0
 40
2.0
 40
2.0
 40
3.0
 40
3.0
 40
3.0
 40
4.0
 40
4.0
 40
4.0
 40
5.0
 40
5.0
 40
5.0
 40
6.0
 40
6.0
 40
6.0
 40
7.0
 40
7.0
 40
7.0
 40
7.0
 10
99.02031247524492
 20
-124.228076140818
 30
0.0
 10
99.02031247524492
 20
-124.228076140818
 30
0.0
 10
99.02031247524492
 20
-123.1239230377954
 30
0.0
 10
99.02031247524492
 20
-123.1239230377954
 30
0.0
 10
99.02031247524492
 20
-123.1239230377954
 30
0.0
 10
98.66787920710387
 20
-123.1239230377954
 30
0.0
 10
98.66787920710387
 20
-123.1239230377954
 30
0.0
 10
98.66787920710387
 20
-123.1239230377954
 30
0.0
 10
98.66787920710387
 20
-122.9757839319297
 30
0.0
 10
98.66787920710387
 20
-122.9757839319297
 30
0.0
 10
99.0227240420846
 20
-122.9609700213431
 30
0.0
 10
99.0723334170722
 20
-122.7980170048908
 30
0.0
 10
99.1040282955365
 20
-122.6836398347805
 30
0.0
 10
99.1040282955365
 20
-122.6836398347805
 30
0.0
 10
99.26009112101832
 20
-122.6836398347805
 30
0.0
 10
99.26009112101832
 20
-122.6836398347805
 30
0.0
 10
99.26009112101832
 20
-122.6836398347805
 30
0.0
 10
99.26009112101832
 20
-124.228076140818
 30
0.0
 10
99.26009112101832
 20
-124.228076140818
 30
0.0
 10
99.26009112101832
 20
-124.228076140818
 30
0.0
 10
99.02031247524492
 20
-124.228076140818
 30
0.0
 10
99.02031247524492
 20
-124.228076140818
 30
0.0
  0
HATCH
  5
5C
330
57
100
AcDbEntity
  8
_U+30EC_U+30A4_U+30E4_U+30FC 1
 62
   179
420
  2234388
100
AcDbHatch
 10
0.0
 20
0.0
 30
0.0
210
0.0
220
0.0
230
1.0
  2
SOLID
 70
     1
 71
     0
 91
        1
 92
        1
 93
        1
 72
     4
 94
        3
 73
     0
 74
     1
 95
       26
 96
       22
 40
0.0
 40
0.0
 40
0.0
 40
0.0
 40
1.0
 40
1.0
 40
1.0
 40
2.0
 40
2.0
 40
2.0
 40
3.0
 40
3.0
 40
3.0
 40
4.0
 40
4.0
 40
4.0
 40
5.0
 40
5.0
 40
5.0
 40
6.0
 40
6.0
 40
6.0
 40
7.0
 40
7.0
 40
7.0
 40
7.0
 10
99.02031247524492
 20
-124.228076140818
 10
99.02031247524492
 20
-124.228076140818
 10
99.02031247524492
 20
-123.1239230377954
 10
99.02031247524492
 20
-123.1239230377954
 10
99.02031247524492
 20
-123.1239230377954
 10
98.66787920710387
 20
-123.1239230377954
 10
98.66787920710387
 20
-123.1239230377954
 10
98.66787920710387
 20
-123.1239230377954
 10
98.66787920710387
 20
-122.9757839319297
 10
98.66787920710387
 20
-122.9757839319297
 10
99.0227240420846
 20
-122.9609700213431
 10
99.0723334170722
 20
-122.7980170048908
 10
99.1040282955365
 20
-122.6836398347805
 10
99.1040282955365
 20
-122.6836398347805
 10
99.26009112101832
 20
-122.6836398347805
 10
99.26009112101832
 20
-122.6836398347805
 10
99.26009112101832
 20
-122.6836398347805
 10
99.26009112101832
 20
-124.228076140818
 10
99.26009112101832
 20
-124.228076140818
 10
99.26009112101832
 20
-124.228076140818
 10
99.02031247524492
 20
-124.228076140818
 10
99.02031247524492
 20
-124.228076140818
 97
        0
 97
        0
 75
     2
 76
     1
 98
        0
  0
SPLINE
  5
5D
330
57
100
AcDbEntity
  8
_U+30EC_U+30A4_U+30E4_U+30FC 1
370
     0
100
AcDbSpline
210
0.0
220
0.0
230
1.0
 70
    11
 71
     3
 72
    53
 73
    49
 74
     0
 42
0.0000000001
 43
0.0000000001
 12
1.0
 22
0.0
 32
0.0
 13
1.0
 23
0.0
 33
0.0
 40
0.0
 40
0.0
 40
0.0
 40
0.0
 40
1.0
 40
1.0
 40
1.0
 40
2.0
 40
2.0
 40
2.0
 40
3.0
 40
3.0
 40
3.0
 40
4.0
 40
4.0
 40
4.0
 40
5.0
 40
5.0
 40
5.0
 40
6.0
 40
6.0
 40
6.0
 40
7.0
 40
7.0
 40
7.0
 40
8.0
 40
8.0
 40
8.0
 40
9.0
 40
9.0
 40
9.0
 40
10.0
 40
10.0
 40
10.0
 40
11.0
 40
11.0
 40
11.0
 40
12.0
 40
12.0
 40
12.0
 40
13.0
 40
13.0
 40
13.0
 40
14.0
 40
14.0
 40
14.0
 40
15.0
 40
15.0
 40
15.0
 40
16.0
 40
16.0
 40
16.0
 40
16.0
 10
100.3098117153739
 20
-124.2787190444512
 30
0.0
 10
100.2264404046309
 20
-124.2787190444512
 30
0.0
 10
100.117575387297
 20
-124.2618380765734
 30
0.0
 10
100.0093993890601
 20
-124.1984483196448
 30
0.0
 10
99.82370874240519
 20
-124.0885497736654
 30
0.0
 10
99.80131562175106
 20
-123.9572916356774
 30
0.0
 10
99.78098955838809
 20
-123.849460146989
 30
0.0
 10
99.78098955838809
 20
-123.849460146989
 30
0.0
 10
100.0183566373218
 20
-123.849460146989
 30
0.0
 10
100.0183566373218
 20
-123.849460146989
 30
0.0
 10
100.076923260571
 20
-124.0482421564879
 30
0.0
 10
100.2126600226899
 20
-124.0778699776611
 30
0.0
 10
100.3122232822136
 20
-124.0778699776611
 30
0.0
 10
100.4613959167249
 20
-124.0778699776611
 30
0.0
 10
100.6240044236287
 20
-123.9783067181374
 30
0.0
 10
100.6240044236287
 20
-123.745762772883
 30
0.0
 10
100.6240044236287
 20
-123.4897921783289
 30
0.0
 10
100.4321126051003
 20
-123.4198567399784
 30
0.0
 10
100.303266033952
 20
-123.4198567399784
 30
0.0
 10
100.269159588648
 20
-123.4198567399784
 30
0.0
 10
100.117575387297
 20
-123.4198567399784
 30
0.0
 10
100.0228352614526
 20
-123.5490478206752
 30
0.0
 10
100.0228352614526
 20
-123.5490478206752
 30
0.0
 10
99.83507755750651
 20
-123.5300997955064
 30
0.0
 10
99.83507755750651
 20
-123.5300997955064
 30
0.0
 10
99.83507755750651
 20
-123.5300997955064
 30
0.0
 10
99.96392412865485
 20
-122.6836398347805
 30
0.0
 10
99.96392412865485
 20
-122.6836398347805
 30
0.0
 10
99.96392412865485
 20
-122.6836398347805
 30
0.0
 10
100.7959146883427
 20
-122.6836398347805
 30
0.0
 10
100.7959146883427
 20
-122.6836398347805
 30
0.0
 10
100.7959146883427
 20
-122.6836398347805
 30
0.0
 10
100.7959146883427
 20
-122.8782877296971
 30
0.0
 10
100.7959146883427
 20
-122.8782877296971
 30
0.0
 10
100.7959146883427
 20
-122.8782877296971
 30
0.0
 10
100.1382459602085
 20
-122.8782877296971
 30
0.0
 10
100.1382459602085
 20
-122.8782877296971
 30
0.0
 10
100.1382459602085
 20
-122.8782877296971
 30
0.0
 10
100.0679660123094
 20
-123.3013454552858
 30
0.0
 10
100.0679660123094
 20
-123.3013454552858
 30
0.0
 10
100.1334228265292
 20
-123.2675835195303
 30
0.0
 10
100.2216172709515
 20
-123.2272759023529
 30
0.0
 10
100.3483967848087
 20
-123.2272759023529
 30
0.0
 10
100.6195257994979
 20
-123.2272759023529
 30
0.0
 10
100.8727403176638
 20
-123.4136555681049
 30
0.0
 10
100.8727403176638
 20
-123.7268147477141
 30
0.0
 10
100.8727403176638
 20
-124.0441080419056
 30
0.0
 10
100.6333061814389
 20
-124.2787190444512
 30
0.0
 10
100.3098117153739
 20
-124.2787190444512
 30
0.0
  0
HATCH
  5
5E
330
57
100
AcDbEntity
  8
_U+30EC_U+30A4_U+30E4_U+30FC 1
 62
   179
420
  2234388
100
AcDbHatch
 10
0.0
 20
0.0
 30
0.0
210
0.0
220
0.0
230
1.0
  2
SOLID
 70
     1
 71
     0
 91
        1
 92
        1
 93
        1
 72
     4
 94
        3
 73
     0
 74
     1
 95
       53
 96
       49
 40
0.0
 40
0.0
 40
0.0
 40
0.0
 40
1.0
 40
1.0
 40
1.0
 40
2.0
 40
2.0
 40
2.0
 40
3.0
 40
3.0
 40
3.0
 40
4.0
 40
4.0
 40
4.0
 40
5.0
 40
5.0
 40
5.0
 40
6.0
 40
6.0
 40
6.0
 40
7.0
 40
7.0
 40
7.0
 40
8.0
 40
8.0
 40
8.0
 40
9.0
 40
9.0
 40
9.0
 40
10.0
 40
10.0
 40
10.0
 40
11.0
 40
11.0
 40
11.0
 40
12.0
 40
12.0
 40
12.0
 40
13.0
 40
13.0
 40
13.0
 40
14.0
 40
14.0
 40
14.0
 40
15.0
 40
15.0
 40
15.0
 40
16.0
 40
16.0
 40
16.0
 40
16.0
 10
100.3098117153739
 20
-124.2787190444512
 10
100.2264404046309
 20
-124.2787190444512
 10
100.117575387297
 20
-124.2618380765734
 10
100.0093993890601
 20
-124.1984483196448
 10
99.82370874240519
 20
-124.0885497736654
 10
99.80131562175106
 20
-123.9572916356774
 10
99.78098955838809
 20
-123.849460146989
 10
99.78098955838809
 20
-123.849460146989
 10
100.0183566373218
 20
-123.849460146989
 10
100.0183566373218
 20
-123.849460146989
 10
100.076923260571
 20
-124.0482421564879
 10
100.2126600226899
 20
-124.0778699776611
 10
100.3122232822136
 20
-124.0778699776611
 10
100.4613959167249
 20
-124.0778699776611
 10
100.6240044236287
 20
-123.9783067181374
 10
100.6240044236287
 20
-123.745762772883
 10
100.6240044236287
 20
-123.4897921783289
 10
100.4321126051003
 20
-123.4198567399784
 10
100.303266033952
 20
-123.4198567399784
 10
100.269159588648
 20
-123.4198567399784
 10
100.117575387297
 20
-123.4198567399784
 10
100.0228352614526
 20
-123.5490478206752
 10
100.0228352614526
 20
-123.5490478206752
 10
99.83507755750651
 20
-123.5300997955064
 10
99.83507755750651
 20
-123.5300997955064
 10
99.83507755750651
 20
-123.5300997955064
 10
99.96392412865485
 20
-122.6836398347805
 10
99.96392412865485
 20
-122.6836398347805
 10
99.96392412865485
 20
-122.6836398347805
 10
100.7959146883427
 20
-122.6836398347805
 10
100.7959146883427
 20
-122.6836398347805
 10
100.7959146883427
 20
-122.6836398347805
 10
100.7959146883427
 20
-122.8782877296971
 10
100.7959146883427
 20
-122.8782877296971
 10
100.7959146883427
 20
-122.8782877296971
 10
100.1382459602085
 20
-122.8782877296971
 10
100.1382459602085
 20
-122.8782877296971
 10
100.1382459602085
 20
-122.8782877296971
 10
100.0679660123094
 20
-123.3013454552858
 10
100.0679660123094
 20
-123.3013454552858
 10
100.1334228265292
 20
-123.2675835195303
 10
100.2216172709515
 20
-123.2272759023529
 10
100.3483967848087
 20
-123.2272759023529
 10
100.6195257994979
 20
-123.2272759023529
 10
100.8727403176638
 20
-123.4136555681049
 10
100.8727403176638
 20
-123.7268147477141
 10
100.8727403176638
 20
-124.0441080419056
 10
100.6333061814389
 20
-124.2787190444512
 10
100.3098117153739
 20
-124.2787190444512
 97
        0
 97
        0
 75
     2
 76
     1
 98
        0
  0
ENDBLK
  5
5A
330
57
100
AcDbEntity
  8
0
100
AcDbBlockEnd
  0
BLOCK
  5
6D
330
6B
100
AcDbEntity
  8
0
100
AcDbBlockBegin
  2
block 3
 70
     0
 10
0.0
 20
0.0
 30
0.0
  3
block 3
  1

  0
SPLINE
  5
6F
330
6B
100
AcDbEntity
  8
_U+30EC_U+30A4_U+30E4_U+30FC 1
370
     0
100
AcDbSpline
210
0.0
220
0.0
230
1.0
 70
    11
 71
     3
 72
    29
 73
    25
 74
     0
 42
0.0000000001
 43
0.0000000001
 12
1.0
 22
0.0
 32
0.0
 13
1.0
 23
0.0
 33
0.0
 40
0.0
 40
0.0
 40
0.0
 40
0.0
 40
1.0
 40
1.0
 40
1.0
 40
2.0
 40
2.0
 40
2.0
 40
3.0
 40
3.0
 40
3.0
 40
4.0
 40
4.0
 40
4.0
 40
5.0
 40
5.0
 40
5.0
 40
6.0
 40
6.0
 40
6.0
 40
7.0
 40
7.0
 40
7.0
 40
8.0
 40
8.0
 40
8.0
 40
8.0
 10
86.17182886300566
 20
-120.278274166979
 30
0.0
 10
85.88726397592401
 20
-120.278274166979
 30
0.0
 10
85.61579045168634
 20
-120.1408148571176
 30
0.0
 10
85.61579045168634
 20
-119.7918266844618
 30
0.0
 10
85.61579045168634
 20
-119.5358560899077
 30
0.0
 10
85.76737465303732
 20
-119.4407714545148
 30
0.0
 10
85.88037378495352
 20
-119.3794487548774
 30
0.0
 10
85.74704858967435
 20
-119.3201931125311
 30
0.0
 10
85.66539982667393
 20
-119.2058159424208
 30
0.0
 10
85.66539982667393
 20
-119.0449299832596
 30
0.0
 10
85.66539982667393
 20
-118.7700113635367
 30
0.0
 10
85.87796221811385
 20
-118.6346191109664
 30
0.0
 10
86.17182886300566
 20
-118.6346191109664
 30
0.0
 10
86.47499726570764
 20
-118.6346191109664
 30
0.0
 10
86.67825789933738
 20
-118.7786241022498
 30
0.0
 10
86.67825789933738
 20
-119.0449299832596
 30
0.0
 10
86.67825789933738
 20
-119.2058159424208
 30
0.0
 10
86.59488658859433
 20
-119.3201931125311
 30
0.0
 10
86.46121688376664
 20
-119.3794487548774
 30
0.0
 10
86.55630151915953
 20
-119.4300916585105
 30
0.0
 10
86.72580021703384
 20
-119.5251762939034
 30
0.0
 10
86.72580021703384
 20
-119.7876925698795
 30
0.0
 10
86.72580021703384
 20
-120.1621744491261
 30
0.0
 10
86.42745494801119
 20
-120.278274166979
 30
0.0
 10
86.17182886300566
 20
-120.278274166979
 30
0.0
  0
SPLINE
  5
70
330
6B
100
AcDbEntity
  8
_U+30EC_U+30A4_U+30E4_U+30FC 1
370
     0
100
AcDbSpline
210
0.0
220
0.0
230
1.0
 70
    11
 71
     3
 72
    17
 73
    13
 74
     0
 42
0.0000000001
 43
0.0000000001
 12
1.0
 22
0.0
 32
0.0
 13
1.0
 23
0.0
 33
0.0
 40
0.0
 40
0.0
 40
0.0
 40
0.0
 40
1.0
 40
1.0
 40
1.0
 40
2.0
 40
2.0
 40
2.0
 40
3.0
 40
3.0
 40
3.0
 40
4.0
 40
4.0
 40
4.0
 40
4.0
 10
86.17182886300566
 20
-119.4872802435657
 30
0.0
 10
86.01817760436352
 20
-119.4872802435657
 30
0.0
 10
85.85556909745972
 20
-119.574096649794
 30
0.0
 10
85.85556909745972
 20
-119.7770127738752
 30
0.0
 10
85.85556909745972
 20
-119.9823404647961
 30
0.0
 10
85.99096135003005
 20
-120.0836262720624
 30
0.0
 10
86.17182886300566
 20
-120.0836262720624
 30
0.0
 10
86.3709553820531
 20
-120.0836262720624
 30
0.0
 10
86.48843313810012
 20
-119.9609808727875
 30
0.0
 10
86.48843313810012
 20
-119.7832139457486
 30
0.0
 10
86.48843313810012
 20
-119.5613497964986
 30
0.0
 10
86.314455816095
 20
-119.4872802435657
 30
0.0
 10
86.17182886300566
 20
-119.4872802435657
 30
0.0
  0
SPLINE
  5
71
330
6B
100
AcDbEntity
  8
_U+30EC_U+30A4_U+30E4_U+30FC 1
370
     0
100
AcDbSpline
210
0.0
220
0.0
230
1.0
 70
    11
 71
     3
 72
    17
 73
    13
 74
     0
 42
0.0000000001
 43
0.0000000001
 12
1.0
 22
0.0
 32
0.0
 13
1.0
 23
0.0
 33
0.0
 40
0.0
 40
0.0
 40
0.0
 40
0.0
 40
1.0
 40
1.0
 40
1.0
 40
2.0
 40
2.0
 40
2.0
 40
3.0
 40
3.0
 40
3.0
 40
4.0
 40
4.0
 40
4.0
 40
4.0
 10
86.17182886300566
 20
-118.8271999485918
 30
0.0
 10
85.99543997416086
 20
-118.8271999485918
 30
0.0
 10
85.90517847244732
 20
-118.9222845839847
 30
0.0
 10
85.90517847244732
 20
-119.057676836555
 30
0.0
 10
85.90517847244732
 20
-119.1803222358299
 30
0.0
 10
85.9820041017684
 20
-119.2988335205225
 30
0.0
 10
86.17182886300566
 20
-119.2988335205225
 30
0.0
 10
86.36199813379145
 20
-119.2988335205225
 30
0.0
 10
86.43882376311252
 20
-119.1803222358299
 30
0.0
 10
86.43882376311252
 20
-119.057676836555
 30
0.0
 10
86.43882376311252
 20
-118.9222845839847
 30
0.0
 10
86.3461506945593
 20
-118.8271999485918
 30
0.0
 10
86.17182886300566
 20
-118.8271999485918
 30
0.0
  0
HATCH
  5
72
330
6B
100
AcDbEntity
  8
_U+30EC_U+30A4_U+30E4_U+30FC 1
 62
   179
420
  2234388
100
AcDbHatch
 10
0.0
 20
0.0
 30
0.0
210
0.0
220
0.0
230
1.0
  2
SOLID
 70
     1
 71
     0
 91
        3
 92
        1
 93
        1
 72
     4
 94
        3
 73
     0
 74
     1
 95
       29
 96
       25
 40
0.0
 40
0.0
 40
0.0
 40
0.0
 40
1.0
 40
1.0
 40
1.0
 40
2.0
 40
2.0
 40
2.0
 40
3.0
 40
3.0
 40
3.0
 40
4.0
 40
4.0
 40
4.0
 40
5.0
 40
5.0
 40
5.0
 40
6.0
 40
6.0
 40
6.0
 40
7.0
 40
7.0
 40
7.0
 40
8.0
 40
8.0
 40
8.0
 40
8.0
 10
86.17182886300566
 20
-120.278274166979
 10
85.88726397592401
 20
-120.278274166979
 10
85.61579045168634
 20
-120.1408148571176
 10
85.61579045168634
 20
-119.7918266844618
 10
85.61579045168634
 20
-119.5358560899077
 10
85.76737465303732
 20
-119.4407714545148
 10
85.88037378495352
 20
-119.3794487548774
 10
85.74704858967435
 20
-119.3201931125311
 10
85.66539982667393
 20
-119.2058159424208
 10
85.66539982667393
 20
-119.0449299832596
 10
85.66539982667393
 20
-118.7700113635367
 10
85.87796221811385
 20
-118.6346191109664
 10
86.17182886300566
 20
-118.6346191109664
 10
86.47499726570764
 20
-118.6346191109664
 10
86.67825789933738
 20
-118.7786241022498
 10
86.67825789933738
 20
-119.0449299832596
 10
86.67825789933738
 20
-119.2058159424208
 10
86.59488658859433
 20
-119.3201931125311
 10
86.46121688376664
 20
-119.3794487548774
 10
86.55630151915953
 20
-119.4300916585105
 10
86.72580021703384
 20
-119.5251762939034
 10
86.72580021703384
 20
-119.7876925698795
 10
86.72580021703384
 20
-120.1621744491261
 10
86.42745494801119
 20
-120.278274166979
 10
86.17182886300566
 20
-120.278274166979
 97
        0
 97
        0
 92
        1
 93
        1
 72
     4
 94
        3
 73
     0
 74
     1
 95
       17
 96
       13
 40
0.0
 40
0.0
 40
0.0
 40
0.0
 40
1.0
 40
1.0
 40
1.0
 40
2.0
 40
2.0
 40
2.0
 40
3.0
 40
3.0
 40
3.0
 40
4.0
 40
4.0
 40
4.0
 40
4.0
 10
86.17182886300566
 20
-119.4872802435657
 10
86.01817760436352
 20
-119.4872802435657
 10
85.85556909745972
 20
-119.574096649794
 10
85.85556909745972
 20
-119.7770127738752
 10
85.85556909745972
 20
-119.9823404647961
 10
85.99096135003005
 20
-120.0836262720624
 10
86.17182886300566
 20
-120.0836262720624
 10
86.3709553820531
 20
-120.0836262720624
 10
86.48843313810012
 20
-119.9609808727875
 10
86.48843313810012
 20
-119.7832139457486
 10
86.48843313810012
 20
-119.5613497964986
 10
86.314455816095
 20
-119.4872802435657
 10
86.17182886300566
 20
-119.4872802435657
 97
        0
 97
        0
 92
        1
 93
        1
 72
     4
 94
        3
 73
     0
 74
     1
 95
       17
 96
       13
 40
0.0
 40
0.0
 40
0.0
 40
0.0
 40
1.0
 40
1.0
 40
1.0
 40
2.0
 40
2.0
 40
2.0
 40
3.0
 40
3.0
 40
3.0
 40
4.0
 40
4.0
 40
4.0
 40
4.0
 10
86.17182886300566
 20
-118.8271999485918
 10
85.99543997416086
 20
-118.8271999485918
 10
85.90517847244732
 20
-118.9222845839847
 10
85.90517847244732
 20
-119.057676836555
 10
85.90517847244732
 20
-119.1803222358299
 10
85.9820041017684
 20
-119.2988335205225
 10
86.17182886300566
 20
-119.2988335205225
 10
86.36199813379145
 20
-119.2988335205225
 10
86.43882376311252
 20
-119.1803222358299
 10
86.43882376311252
 20
-119.057676836555
 10
86.43882376311252
 20
-118.9222845839847
 10
86.3461506945593
 20
-118.8271999485918
 10
86.17182886300566
 20
-118.8271999485918
 97
        0
 97
        0
 75
     2
 76
     1
 98
        0
  0
POLYLINE
  5
73
330
6B
100
AcDbEntity
  8
_U+30EC_U+30A4_U+30E4_U+30FC 1
370
     0
100
AcDb2dPolyline
 66
     1
 10
0.0
 20
0.0
 30
0.0
  0
VERTEX
  5
74
330
73
100
AcDbEntity
  8
_U+30EC_U+30A4_U+30E4_U+30FC 1
370
     0
100
AcDbVertex
100
AcDb2dVertex
 10
86.95937769093378
 20
-120.2276312633459
 30
0.0
  0
VERTEX
  5
75
330
73
100
AcDbEntity
  8
_U+30EC_U+30A4_U+30E4_U+30FC 1
370
     0
100
AcDbVertex
100
AcDb2dVertex
 10
86.95937769093378
 20
-119.9757947833741
 30
0.0
  0
VERTEX
  5
76
330
73
100
AcDbEntity
  8
_U+30EC_U+30A4_U+30E4_U+30FC 1
370
     0
100
AcDbVertex
100
AcDb2dVertex
 10
87.22843964833179
 20
-119.9757947833741
 30
0.0
  0
VERTEX
  5
77
330
73
100
AcDbEntity
  8
_U+30EC_U+30A4_U+30E4_U+30FC 1
370
     0
100
AcDbVertex
100
AcDb2dVertex
 10
87.22843964833179
 20
-120.2276312633459
 30
0.0
  0
VERTEX
  5
78
330
73
100
AcDbEntity
  8
_U+30EC_U+30A4_U+30E4_U+30FC 1
370
     0
100
AcDbVertex
100
AcDb2dVertex
 10
86.95937769093378
 20
-120.2276312633459
 30
0.0
  0
SEQEND
  5
79
330
73
100
AcDbEntity
  8
_U+30EC_U+30A4_U+30E4_U+30FC 1
370
     0
  0
HATCH
  5
7A
330
6B
100
AcDbEntity
  8
_U+30EC_U+30A4_U+30E4_U+30FC 1
 62
   179
420
  2234388
100
AcDbHatch
 10
0.0
 20
0.0
 30
0.0
210
0.0
220
0.0
230
1.0
  2
SOLID
 70
     1
 71
     0
 91
        1
 92
        1
 93
        4
 72
     1
 10
86.95937769093378
 20
-120.2276312633459
 11
86.95937769093378
 21
-119.9757947833741
 72
     1
 10
86.95937769093378
 20
-119.9757947833741
 11
87.22843964833179
 21
-119.9757947833741
 72
     1
 10
87.22843964833179
 20
-119.9757947833741
 11
87.22843964833179
 21
-120.2276312633459
 72
     1
 10
87.22843964833179
 20
-120.2276312633459
 11
86.95937769093378
 21
-120.2276312633459
 97
        0
 75
     2
 76
     1
 98
        0
  0
SPLINE
  5
7B
330
6B
100
AcDbEntity
  8
_U+30EC_U+30A4_U+30E4_U+30FC 1
370
     0
100
AcDbSpline
210
0.0
220
0.0
230
1.0
 70
    11
 71
     3
 72
    53
 73
    49
 74
     0
 42
0.0000000001
 43
0.0000000001
 12
1.0
 22
0.0
 32
0.0
 13
1.0
 23
0.0
 33
0.0
 40
0.0
 40
0.0
 40
0.0
 40
0.0
 40
1.0
 40
1.0
 40
1.0
 40
2.0
 40
2.0
 40
2.0
 40
3.0
 40
3.0
 40
3.0
 40
4.0
 40
4.0
 40
4.0
 40
5.0
 40
5.0
 40
5.0
 40
6.0
 40
6.0
 40
6.0
 40
7.0
 40
7.0
 40
7.0
 40
8.0
 40
8.0
 40
8.0
 40
9.0
 40
9.0
 40
9.0
 40
10.0
 40
10.0
 40
10.0
 40
11.0
 40
11.0
 40
11.0
 40
12.0
 40
12.0
 40
12.0
 40
13.0
 40
13.0
 40
13.0
 40
14.0
 40
14.0
 40
14.0
 40
15.0
 40
15.0
 40
15.0
 40
16.0
 40
16.0
 40
16.0
 40
16.0
 10
87.9953179033484
 20
-120.278274166979
 30
0.0
 10
87.91160208305682
 20
-120.278274166979
 30
0.0
 10
87.80342608481998
 20
-120.2613931991013
 30
0.0
 10
87.69456106748609
 20
-120.1980034421727
 30
0.0
 10
87.50921493037964
 20
-120.0881048961933
 30
0.0
 10
87.48682180972553
 20
-119.9568467582052
 30
0.0
 10
87.46649574636254
 20
-119.8490152695169
 30
0.0
 10
87.46649574636254
 20
-119.8490152695169
 30
0.0
 10
87.70386282529626
 20
-119.8490152695169
 30
0.0
 10
87.70386282529626
 20
-119.8490152695169
 30
0.0
 10
87.7624294485455
 20
-120.0477972790158
 30
0.0
 10
87.89816621066436
 20
-120.077425100189
 30
0.0
 10
87.99772947018808
 20
-120.077425100189
 30
0.0
 10
88.1469021046994
 20
-120.077425100189
 30
0.0
 10
88.30985512115171
 20
-119.9778618406653
 30
0.0
 10
88.30985512115171
 20
-119.7453178954109
 30
0.0
 10
88.30985512115171
 20
-119.4893473008568
 30
0.0
 10
88.11761879307477
 20
-119.4194118625063
 30
0.0
 10
87.98877222192642
 20
-119.4194118625063
 30
0.0
 10
87.95466577662245
 20
-119.4194118625063
 30
0.0
 10
87.80342608481998
 20
-119.4194118625063
 30
0.0
 10
87.70834144942708
 20
-119.5486029432031
 30
0.0
 10
87.70834144942708
 20
-119.5486029432031
 30
0.0
 10
87.52058374548096
 20
-119.5296549180343
 30
0.0
 10
87.52058374548096
 20
-119.5296549180343
 30
0.0
 10
87.52058374548096
 20
-119.5296549180343
 30
0.0
 10
87.6494303166293
 20
-118.6833672120826
 30
0.0
 10
87.6494303166293
 20
-118.6833672120826
 30
0.0
 10
87.6494303166293
 20
-118.6833672120826
 30
0.0
 10
88.48142087631715
 20
-118.6833672120826
 30
0.0
 10
88.48142087631715
 20
-118.6833672120826
 30
0.0
 10
88.48142087631715
 20
-118.6833672120826
 30
0.0
 10
88.48142087631715
 20
-118.877842852225
 30
0.0
 10
88.48142087631715
 20
-118.877842852225
 30
0.0
 10
88.48142087631715
 20
-118.877842852225
 30
0.0
 10
87.82375214818296
 20
-118.877842852225
 30
0.0
 10
87.82375214818296
 20
-118.877842852225
 30
0.0
 10
87.82375214818296
 20
-118.877842852225
 30
0.0
 10
87.75347220028385
 20
-119.3009005778137
 30
0.0
 10
87.75347220028385
 20
-119.3009005778137
 30
0.0
 10
87.81892901450361
 20
-119.2671386420582
 30
0.0
 10
87.907123458926
 20
-119.2268310248808
 30
0.0
 10
88.0339029727832
 20
-119.2268310248808
 30
0.0
 10
88.30503198747236
 20
-119.2268310248808
 30
0.0
 10
88.55824650563822
 20
-119.4132106906328
 30
0.0
 10
88.55824650563822
 20
-119.726369870242
 30
0.0
 10
88.55824650563822
 20
-120.0436631644335
 30
0.0
 10
88.31881236941335
 20
-120.278274166979
 30
0.0
 10
87.9953179033484
 20
-120.278274166979
 30
0.0
  0
HATCH
  5
7C
330
6B
100
AcDbEntity
  8
_U+30EC_U+30A4_U+30E4_U+30FC 1
 62
   179
420
  2234388
100
AcDbHatch
 10
0.0
 20
0.0
 30
0.0
210
0.0
220
0.0
230
1.0
  2
SOLID
 70
     1
 71
     0
 91
        1
 92
        1
 93
        1
 72
     4
 94
        3
 73
     0
 74
     1
 95
       53
 96
       49
 40
0.0
 40
0.0
 40
0.0
 40
0.0
 40
1.0
 40
1.0
 40
1.0
 40
2.0
 40
2.0
 40
2.0
 40
3.0
 40
3.0
 40
3.0
 40
4.0
 40
4.0
 40
4.0
 40
5.0
 40
5.0
 40
5.0
 40
6.0
 40
6.0
 40
6.0
 40
7.0
 40
7.0
 40
7.0
 40
8.0
 40
8.0
 40
8.0
 40
9.0
 40
9.0
 40
9.0
 40
10.0
 40
10.0
 40
10.0
 40
11.0
 40
11.0
 40
11.0
 40
12.0
 40
12.0
 40
12.0
 40
13.0
 40
13.0
 40
13.0
 40
14.0
 40
14.0
 40
14.0
 40
15.0
 40
15.0
 40
15.0
 40
16.0
 40
16.0
 40
16.0
 40
16.0
 10
87.9953179033484
 20
-120.278274166979
 10
87.91160208305682
 20
-120.278274166979
 10
87.80342608481998
 20
-120.2613931991013
 10
87.69456106748609
 20
-120.1980034421727
 10
87.50921493037964
 20
-120.0881048961933
 10
87.48682180972553
 20
-119.9568467582052
 10
87.46649574636254
 20
-119.8490152695169
 10
87.46649574636254
 20
-119.8490152695169
 10
87.70386282529626
 20
-119.8490152695169
 10
87.70386282529626
 20
-119.8490152695169
 10
87.7624294485455
 20
-120.0477972790158
 10
87.89816621066436
 20
-120.077425100189
 10
87.99772947018808
 20
-120.077425100189
 10
88.1469021046994
 20
-120.077425100189
 10
88.30985512115171
 20
-119.9778618406653
 10
88.30985512115171
 20
-119.7453178954109
 10
88.30985512115171
 20
-119.4893473008568
 10
88.11761879307477
 20
-119.4194118625063
 10
87.98877222192642
 20
-119.4194118625063
 10
87.95466577662245
 20
-119.4194118625063
 10
87.80342608481998
 20
-119.4194118625063
 10
87.70834144942708
 20
-119.5486029432031
 10
87.70834144942708
 20
-119.5486029432031
 10
87.52058374548096
 20
-119.5296549180343
 10
87.52058374548096
 20
-119.5296549180343
 10
87.52058374548096
 20
-119.5296549180343
 10
87.6494303166293
 20
-118.6833672120826
 10
87.6494303166293
 20
-118.6833672120826
 10
87.6494303166293
 20
-118.6833672120826
 10
88.48142087631715
 20
-118.6833672120826
 10
88.48142087631715
 20
-118.6833672120826
 10
88.48142087631715
 20
-118.6833672120826
 10
88.48142087631715
 20
-118.877842852225
 10
88.48142087631715
 20
-118.877842852225
 10
88.48142087631715
 20
-118.877842852225
 10
87.82375214818296
 20
-118.877842852225
 10
87.82375214818296
 20
-118.877842852225
 10
87.82375214818296
 20
-118.877842852225
 10
87.75347220028385
 20
-119.3009005778137
 10
87.75347220028385
 20
-119.3009005778137
 10
87.81892901450361
 20
-119.2671386420582
 10
87.907123458926
 20
-119.2268310248808
 10
88.0339029727832
 20
-119.2268310248808
 10
88.30503198747236
 20
-119.2268310248808
 10
88.55824650563822
 20
-119.4132106906328
 10
88.55824650563822
 20
-119.726369870242
 10
88.55824650563822
 20
-120.0436631644335
 10
88.31881236941335
 20
-120.278274166979
 10
87.9953179033484
 20
-120.278274166979
 97
        0
 97
        0
 75
     2
 76
     1
 98
        0
  0
ENDBLK
  5
6E
330
6B
100
AcDbEntity
  8
0
100
AcDbBlockEnd
  0
BLOCK
  5
8B
330
89
100
AcDbEntity
  8
0
100
AcDbBlockBegin
  2
block 4
 70
     0
 10
0.0
 20
0.0
 30
0.0
  3
block 4
  1

  0
SPLINE
  5
8D
330
89
100
AcDbEntity
  8
_U+30EC_U+30A4_U+30E4_U+30FC 1
370
     0
100
AcDbSpline
210
0.0
220
0.0
230
1.0
 70
    11
 71
     3
 72
    26
 73
    22
 74
     0
 42
0.0000000001
 43
0.0000000001
 12
1.0
 22
0.0
 32
0.0
 13
1.0
 23
0.0
 33
0.0
 40
0.0
 40
0.0
 40
0.0
 40
0.0
 40
1.0
 40
1.0
 40
1.0
 40
2.0
 40
2.0
 40
2.0
 40
3.0
 40
3.0
 40
3.0
 40
4.0
 40
4.0
 40
4.0
 40
5.0
 40
5.0
 40
5.0
 40
6.0
 40
6.0
 40
6.0
 40
7.0
 40
7.0
 40
7.0
 40
7.0
 10
77.10003117647152
 20
-133.4182128572704
 30
0.0
 10
77.10003117647152
 20
-133.4182128572704
 30
0.0
 10
75.9957058186747
 20
-133.4182128572704
 30
0.0
 10
75.9957058186747
 20
-133.4182128572704
 30
0.0
 10
75.9957058186747
 20
-133.4182128572704
 30
0.0
 10
75.9957058186747
 20
-133.7706461254115
 30
0.0
 10
75.9957058186747
 20
-133.7706461254115
 30
0.0
 10
75.9957058186747
 20
-133.7706461254115
 30
0.0
 10
75.84756671280894
 20
-133.7706461254115
 30
0.0
 10
75.84756671280894
 20
-133.7706461254115
 30
0.0
 10
75.83292505699663
 20
-133.4158012904308
 30
0.0
 10
75.66997204054432
 20
-133.3661919154432
 30
0.0
 10
75.55576712520828
 20
-133.3344970369789
 30
0.0
 10
75.55576712520828
 20
-133.3344970369789
 30
0.0
 10
75.55576712520828
 20
-133.1784342114971
 30
0.0
 10
75.55576712520828
 20
-133.1784342114971
 30
0.0
 10
75.55576712520828
 20
-133.1784342114971
 30
0.0
 10
77.10003117647152
 20
-133.1784342114971
 30
0.0
 10
77.10003117647152
 20
-133.1784342114971
 30
0.0
 10
77.10003117647152
 20
-133.1784342114971
 30
0.0
 10
77.10003117647152
 20
-133.4182128572704
 30
0.0
 10
77.10003117647152
 20
-133.4182128572704
 30
0.0
  0
HATCH
  5
8E
330
89
100
AcDbEntity
  8
_U+30EC_U+30A4_U+30E4_U+30FC 1
 62
   179
420
  2234388
100
AcDbHatch
 10
0.0
 20
0.0
 30
0.0
210
0.0
220
0.0
230
1.0
  2
SOLID
 70
     1
 71
     0
 91
        1
 92
        1
 93
        1
 72
     4
 94
        3
 73
     0
 74
     1
 95
       26
 96
       22
 40
0.0
 40
0.0
 40
0.0
 40
0.0
 40
1.0
 40
1.0
 40
1.0
 40
2.0
 40
2.0
 40
2.0
 40
3.0
 40
3.0
 40
3.0
 40
4.0
 40
4.0
 40
4.0
 40
5.0
 40
5.0
 40
5.0
 40
6.0
 40
6.0
 40
6.0
 40
7.0
 40
7.0
 40
7.0
 40
7.0
 10
77.10003117647152
 20
-133.4182128572704
 10
77.10003117647152
 20
-133.4182128572704
 10
75.9957058186747
 20
-133.4182128572704
 10
75.9957058186747
 20
-133.4182128572704
 10
75.9957058186747
 20
-133.4182128572704
 10
75.9957058186747
 20
-133.7706461254115
 10
75.9957058186747
 20
-133.7706461254115
 10
75.9957058186747
 20
-133.7706461254115
 10
75.84756671280894
 20
-133.7706461254115
 10
75.84756671280894
 20
-133.7706461254115
 10
75.83292505699663
 20
-133.4158012904308
 10
75.66997204054432
 20
-133.3661919154432
 10
75.55576712520828
 20
-133.3344970369789
 10
75.55576712520828
 20
-133.3344970369789
 10
75.55576712520828
 20
-133.1784342114971
 10
75.55576712520828
 20
-133.1784342114971
 10
75.55576712520828
 20
-133.1784342114971
 10
77.10003117647152
 20
-133.1784342114971
 10
77.10003117647152
 20
-133.1784342114971
 10
77.10003117647152
 20
-133.1784342114971
 10
77.10003117647152
 20
-133.4182128572704
 10
77.10003117647152
 20
-133.4182128572704
 97
        0
 97
        0
 75
     2
 76
     1
 98
        0
  0
POLYLINE
  5
8F
330
89
100
AcDbEntity
  8
_U+30EC_U+30A4_U+30E4_U+30FC 1
370
     0
100
AcDb2dPolyline
 66
     1
 10
0.0
 20
0.0
 30
0.0
  0
VERTEX
  5
90
330
8F
100
AcDbEntity
  8
_U+30EC_U+30A4_U+30E4_U+30FC 1
370
     0
100
AcDbVertex
100
AcDb2dVertex
 10
76.75311006110687
 20
-131.7531982092492
 30
0.0
  0
VERTEX
  5
91
330
8F
100
AcDbEntity
  8
_U+30EC_U+30A4_U+30E4_U+30FC 1
370
     0
100
AcDbVertex
100
AcDb2dVertex
 10
77.10003117647152
 20
-131.7531982092492
 30
0.0
  0
VERTEX
  5
92
330
8F
100
AcDbEntity
  8
_U+30EC_U+30A4_U+30E4_U+30FC 1
370
     0
100
AcDbVertex
100
AcDb2dVertex
 10
77.10003117647152
 20
-131.9860866640521
 30
0.0
  0
VERTEX
  5
93
330
8F
100
AcDbEntity
  8
_U+30EC_U+30A4_U+30E4_U+30FC 1
370
     0
100
AcDbVertex
100
AcDb2dVertex
 10
76.75311006110687
 20
-131.9860866640521
 30
0.0
  0
VERTEX
  5
94
330
8F
100
AcDbEntity
  8
_U+30EC_U+30A4_U+30E4_U+30FC 1
370
     0
100
AcDbVertex
100
AcDb2dVertex
 10
76.75311006110687
 20
-132.6871635953004
 30
0.0
  0
VERTEX
  5
95
330
8F
100
AcDbEntity
  8
_U+30EC_U+30A4_U+30E4_U+30FC 1
370
     0
100
AcDbVertex
100
AcDb2dVertex
 10
76.5288343450171
 20
-132.6871635953004
 30
0.0
  0
VERTEX
  5
96
330
8F
100
AcDbEntity
  8
_U+30EC_U+30A4_U+30E4_U+30FC 1
370
     0
100
AcDbVertex
100
AcDb2dVertex
 10
75.55576712520828
 20
-131.9612819765583
 30
0.0
  0
VERTEX
  5
97
330
8F
100
AcDbEntity
  8
_U+30EC_U+30A4_U+30E4_U+30FC 1
370
     0
100
AcDbVertex
100
AcDb2dVertex
 10
75.55576712520828
 20
-131.7531982092492
 30
0.0
  0
VERTEX
  5
98
330
8F
100
AcDbEntity
  8
_U+30EC_U+30A4_U+30E4_U+30FC 1
370
     0
100
AcDbVertex
100
AcDb2dVertex
 10
76.55415579683368
 20
-131.7531982092492
 30
0.0
  0
VERTEX
  5
99
330
8F
100
AcDbEntity
  8
_U+30EC_U+30A4_U+30E4_U+30FC 1
370
     0
100
AcDbVertex
100
AcDb2dVertex
 10
76.55415579683368
 20
-131.5316785695476
 30
0.0
  0
VERTEX
  5
9A
330
8F
100
AcDbEntity
  8
_U+30EC_U+30A4_U+30E4_U+30FC 1
370
     0
100
AcDbVertex
100
AcDb2dVertex
 10
76.75311006110687
 20
-131.5316785695476
 30
0.0
  0
VERTEX
  5
9B
330
8F
100
AcDbEntity
  8
_U+30EC_U+30A4_U+30E4_U+30FC 1
370
     0
100
AcDbVertex
100
AcDb2dVertex
 10
76.75311006110687
 20
-131.7531982092492
 30
0.0
  0
SEQEND
  5
9C
330
8F
100
AcDbEntity
  8
_U+30EC_U+30A4_U+30E4_U+30FC 1
370
     0
  0
POLYLINE
  5
9D
330
89
100
AcDbEntity
  8
_U+30EC_U+30A4_U+30E4_U+30FC 1
370
     0
100
AcDb2dPolyline
 66
     1
 10
0.0
 20
0.0
 30
0.0
  0
VERTEX
  5
9E
330
9D
100
AcDbEntity
  8
_U+30EC_U+30A4_U+30E4_U+30FC 1
370
     0
100
AcDbVertex
100
AcDb2dVertex
 10
75.89838187121639
 20
-131.9860866640521
 30
0.0
  0
VERTEX
  5
9F
330
9D
100
AcDbEntity
  8
_U+30EC_U+30A4_U+30E4_U+30FC 1
370
     0
100
AcDbVertex
100
AcDb2dVertex
 10
76.55415579683368
 20
-132.4746012038605
 30
0.0
  0
VERTEX
  5
A0
330
9D
100
AcDbEntity
  8
_U+30EC_U+30A4_U+30E4_U+30FC 1
370
     0
100
AcDbVertex
100
AcDb2dVertex
 10
76.55415579683368
 20
-131.9860866640521
 30
0.0
  0
VERTEX
  5
A1
330
9D
100
AcDbEntity
  8
_U+30EC_U+30A4_U+30E4_U+30FC 1
370
     0
100
AcDbVertex
100
AcDb2dVertex
 10
75.89838187121639
 20
-131.9860866640521
 30
0.0
  0
SEQEND
  5
A2
330
9D
100
AcDbEntity
  8
_U+30EC_U+30A4_U+30E4_U+30FC 1
370
     0
  0
HATCH
  5
A3
330
89
100
AcDbEntity
  8
_U+30EC_U+30A4_U+30E4_U+30FC 1
 62
   179
420
  2234388
100
AcDbHatch
 10
0.0
 20
0.0
 30
0.0
210
0.0
220
0.0
230
1.0
  2
SOLID
 70
     1
 71
     0
 91
        2
 92
        1
 93
       11
 72
     1
 10
76.75311006110687
 20
-131.7531982092492
 11
77.10003117647152
 21
-131.7531982092492
 72
     1
 10
77.10003117647152
 20
-131.7531982092492
 11
77.10003117647152
 21
-131.9860866640521
 72
     1
 10
77.10003117647152
 20
-131.9860866640521
 11
76.75311006110687
 21
-131.9860866640521
 72
     1
 10
76.75311006110687
 20
-131.9860866640521
 11
76.75311006110687
 21
-132.6871635953004
 72
     1
 10
76.75311006110687
 20
-132.6871635953004
 11
76.5288343450171
 21
-132.6871635953004
 72
     1
 10
76.5288343450171
 20
-132.6871635953004
 11
75.55576712520828
 21
-131.9612819765583
 72
     1
 10
75.55576712520828
 20
-131.9612819765583
 11
75.55576712520828
 21
-131.7531982092492
 72
     1
 10
75.55576712520828
 20
-131.7531982092492
 11
76.55415579683368
 21
-131.7531982092492
 72
     1
 10
76.55415579683368
 20
-131.7531982092492
 11
76.55415579683368
 21
-131.5316785695476
 72
     1
 10
76.55415579683368
 20
-131.5316785695476
 11
76.75311006110687
 21
-131.5316785695476
 72
     1
 10
76.75311006110687
 20
-131.5316785695476
 11
76.75311006110687
 21
-131.7531982092492
 97
        0
 92
        1
 93
        3
 72
     1
 10
75.89838187121639
 20
-131.9860866640521
 11
76.55415579683368
 21
-132.4746012038605
 72
     1
 10
76.55415579683368
 20
-132.4746012038605
 11
76.55415579683368
 21
-131.9860866640521
 72
     1
 10
76.55415579683368
 20
-131.9860866640521
 11
75.89838187121639
 21
-131.9860866640521
 97
        0
 75
     2
 76
     1
 98
        0
  0
POLYLINE
  5
A4
330
89
100
AcDbEntity
  8
_U+30EC_U+30A4_U+30E4_U+30FC 1
370
     0
100
AcDb2dPolyline
 66
     1
 10
0.0
 20
0.0
 30
0.0
  0
VERTEX
  5
A5
330
A4
100
AcDbEntity
  8
_U+30EC_U+30A4_U+30E4_U+30FC 1
370
     0
100
AcDbVertex
100
AcDb2dVertex
 10
77.10003117647152
 20
-131.3208387258504
 30
0.0
  0
VERTEX
  5
A6
330
A4
100
AcDbEntity
  8
_U+30EC_U+30A4_U+30E4_U+30FC 1
370
     0
100
AcDbVertex
100
AcDb2dVertex
 10
76.84836695127402
 20
-131.3208387258504
 30
0.0
  0
VERTEX
  5
A7
330
A4
100
AcDbEntity
  8
_U+30EC_U+30A4_U+30E4_U+30FC 1
370
     0
100
AcDbVertex
100
AcDb2dVertex
 10
76.84836695127402
 20
-131.0517767684523
 30
0.0
  0
VERTEX
  5
A8
330
A4
100
AcDbEntity
  8
_U+30EC_U+30A4_U+30E4_U+30FC 1
370
     0
100
AcDbVertex
100
AcDb2dVertex
 10
77.10003117647152
 20
-131.0517767684523
 30
0.0
  0
VERTEX
  5
A9
330
A4
100
AcDbEntity
  8
_U+30EC_U+30A4_U+30E4_U+30FC 1
370
     0
100
AcDbVertex
100
AcDb2dVertex
 10
77.10003117647152
 20
-131.3208387258504
 30
0.0
  0
SEQEND
  5
AA
330
A4
100
AcDbEntity
  8
_U+30EC_U+30A4_U+30E4_U+30FC 1
370
     0
  0
HATCH
  5
AB
330
89
100
AcDbEntity
  8
_U+30EC_U+30A4_U+30E4_U+30FC 1
 62
   179
420
  2234388
100
AcDbHatch
 10
0.0
 20
0.0
 30
0.0
210
0.0
220
0.0
230
1.0
  2
SOLID
 70
     1
 71
     0
 91
        1
 92
        1
 93
        4
 72
     1
 10
77.10003117647152
 20
-131.3208387258504
 11
76.84836695127402
 21
-131.3208387258504
 72
     1
 10
76.84836695127402
 20
-131.3208387258504
 11
76.84836695127402
 21
-131.0517767684523
 72
     1
 10
76.84836695127402
 20
-131.0517767684523
 11
77.10003117647152
 21
-131.0517767684523
 72
     1
 10
77.10003117647152
 20
-131.0517767684523
 11
77.10003117647152
 21
-131.3208387258504
 97
        0
 75
     2
 76
     1
 98
        0
  0
SPLINE
  5
AC
330
89
100
AcDbEntity
  8
_U+30EC_U+30A4_U+30E4_U+30FC 1
370
     0
100
AcDbSpline
210
0.0
220
0.0
230
1.0
 70
    11
 71
     3
 72
    53
 73
    49
 74
     0
 42
0.0000000001
 43
0.0000000001
 12
1.0
 22
0.0
 32
0.0
 13
1.0
 23
0.0
 33
0.0
 40
0.0
 40
0.0
 40
0.0
 40
0.0
 40
1.0
 40
1.0
 40
1.0
 40
2.0
 40
2.0
 40
2.0
 40
3.0
 40
3.0
 40
3.0
 40
4.0
 40
4.0
 40
4.0
 40
5.0
 40
5.0
 40
5.0
 40
6.0
 40
6.0
 40
6.0
 40
7.0
 40
7.0
 40
7.0
 40
8.0
 40
8.0
 40
8.0
 40
9.0
 40
9.0
 40
9.0
 40
10.0
 40
10.0
 40
10.0
 40
11.0
 40
11.0
 40
11.0
 40
12.0
 40
12.0
 40
12.0
 40
13.0
 40
13.0
 40
13.0
 40
14.0
 40
14.0
 40
14.0
 40
15.0
 40
15.0
 40
15.0
 40
16.0
 40
16.0
 40
16.0
 40
16.0
 10
77.15084633487896
 20
-130.2848985134357
 30
0.0
 10
77.15084633487896
 20
-130.3686143337273
 30
0.0
 10
77.13396536700124
 20
-130.4767903319641
 30
0.0
 10
77.07040335529838
 20
-130.585655349298
 30
0.0
 10
76.96033255454465
 20
-130.7710014864045
 30
0.0
 10
76.82924667133089
 20
-130.7933946070586
 30
0.0
 10
76.72141518264257
 20
-130.8137206704216
 30
0.0
 10
76.72141518264257
 20
-130.8137206704216
 30
0.0
 10
76.72141518264257
 20
-130.5763535914879
 30
0.0
 10
76.72141518264257
 20
-130.5763535914879
 30
0.0
 10
76.92019719214149
 20
-130.5177869682386
 30
0.0
 10
76.94982501331464
 20
-130.3820502061198
 30
0.0
 10
76.94982501331464
 20
-130.282486946596
 30
0.0
 10
76.94982501331464
 20
-130.1333143120847
 30
0.0
 10
76.85043400856517
 20
-129.9703612956324
 30
0.0
 10
76.61771780853654
 20
-129.9703612956324
 30
0.0
 10
76.36174721398248
 20
-129.9703612956324
 30
0.0
 10
76.29198403040617
 20
-130.1625976237094
 30
0.0
 10
76.29198403040617
 20
-130.2914441948577
 30
0.0
 10
76.29198403040617
 20
-130.3255506401617
 30
0.0
 10
76.29198403040617
 20
-130.4767903319641
 30
0.0
 10
76.42100285632878
 20
-130.571874967357
 30
0.0
 10
76.42100285632878
 20
-130.571874967357
 30
0.0
 10
76.40188257638565
 20
-130.7596326713032
 30
0.0
 10
76.40188257638565
 20
-130.7596326713032
 30
0.0
 10
76.40188257638565
 20
-130.7596326713032
 30
0.0
 10
75.55576712520828
 20
-130.6307861001548
 30
0.0
 10
75.55576712520828
 20
-130.6307861001548
 30
0.0
 10
75.55576712520828
 20
-130.6307861001548
 30
0.0
 10
75.55576712520828
 20
-129.798795540467
 30
0.0
 10
75.55576712520828
 20
-129.798795540467
 30
0.0
 10
75.55576712520828
 20
-129.798795540467
 30
0.0
 10
75.7504150201249
 20
-129.798795540467
 30
0.0
 10
75.7504150201249
 20
-129.798795540467
 30
0.0
 10
75.7504150201249
 20
-129.798795540467
 30
0.0
 10
75.7504150201249
 20
-130.4564642686012
 30
0.0
 10
75.7504150201249
 20
-130.4564642686012
 30
0.0
 10
75.7504150201249
 20
-130.4564642686012
 30
0.0
 10
76.17347274571358
 20
-130.5267442165003
 30
0.0
 10
76.17347274571358
 20
-130.5267442165003
 30
0.0
 10
76.13953855518388
 20
-130.4612874022805
 30
0.0
 10
76.09940319278071
 20
-130.3730929578581
 30
0.0
 10
76.09940319278071
 20
-130.2463134440009
 30
0.0
 10
76.09940319278071
 20
-129.9751844293118
 30
0.0
 10
76.28561060375846
 20
-129.7219699111459
 30
0.0
 10
76.59859752859342
 20
-129.7219699111459
 30
0.0
 10
76.91606307755919
 20
-129.7219699111459
 30
0.0
 10
77.15084633487896
 20
-129.9614040473708
 30
0.0
 10
77.15084633487896
 20
-130.2848985134357
 30
0.0
  0
HATCH
  5
AD
330
89
100
AcDbEntity
  8
_U+30EC_U+30A4_U+30E4_U+30FC 1
 62
   179
420
  2234388
100
AcDbHatch
 10
0.0
 20
0.0
 30
0.0
210
0.0
220
0.0
230
1.0
  2
SOLID
 70
     1
 71
     0
 91
        1
 92
        1
 93
        1
 72
     4
 94
        3
 73
     0
 74
     1
 95
       53
 96
       49
 40
0.0
 40
0.0
 40
0.0
 40
0.0
 40
1.0
 40
1.0
 40
1.0
 40
2.0
 40
2.0
 40
2.0
 40
3.0
 40
3.0
 40
3.0
 40
4.0
 40
4.0
 40
4.0
 40
5.0
 40
5.0
 40
5.0
 40
6.0
 40
6.0
 40
6.0
 40
7.0
 40
7.0
 40
7.0
 40
8.0
 40
8.0
 40
8.0
 40
9.0
 40
9.0
 40
9.0
 40
10.0
 40
10.0
 40
10.0
 40
11.0
 40
11.0
 40
11.0
 40
12.0
 40
12.0
 40
12.0
 40
13.0
 40
13.0
 40
13.0
 40
14.0
 40
14.0
 40
14.0
 40
15.0
 40
15.0
 40
15.0
 40
16.0
 40
16.0
 40
16.0
 40
16.0
 10
77.15084633487896
 20
-130.2848985134357
 10
77.15084633487896
 20
-130.3686143337273
 10
77.13396536700124
 20
-130.4767903319641
 10
77.07040335529838
 20
-130.585655349298
 10
76.96033255454465
 20
-130.7710014864045
 10
76.82924667133089
 20
-130.7933946070586
 10
76.72141518264257
 20
-130.8137206704216
 10
76.72141518264257
 20
-130.8137206704216
 10
76.72141518264257
 20
-130.5763535914879
 10
76.72141518264257
 20
-130.5763535914879
 10
76.92019719214149
 20
-130.5177869682386
 10
76.94982501331464
 20
-130.3820502061198
 10
76.94982501331464
 20
-130.282486946596
 10
76.94982501331464
 20
-130.1333143120847
 10
76.85043400856517
 20
-129.9703612956324
 10
76.61771780853654
 20
-129.9703612956324
 10
76.36174721398248
 20
-129.9703612956324
 10
76.29198403040617
 20
-130.1625976237094
 10
76.29198403040617
 20
-130.2914441948577
 10
76.29198403040617
 20
-130.3255506401617
 10
76.29198403040617
 20
-130.4767903319641
 10
76.42100285632878
 20
-130.571874967357
 10
76.42100285632878
 20
-130.571874967357
 10
76.40188257638565
 20
-130.7596326713032
 10
76.40188257638565
 20
-130.7596326713032
 10
76.40188257638565
 20
-130.7596326713032
 10
75.55576712520828
 20
-130.6307861001548
 10
75.55576712520828
 20
-130.6307861001548
 10
75.55576712520828
 20
-130.6307861001548
 10
75.55576712520828
 20
-129.798795540467
 10
75.55576712520828
 20
-129.798795540467
 10
75.55576712520828
 20
-129.798795540467
 10
75.7504150201249
 20
-129.798795540467
 10
75.7504150201249
 20
-129.798795540467
 10
75.7504150201249
 20
-129.798795540467
 10
75.7504150201249
 20
-130.4564642686012
 10
75.7504150201249
 20
-130.4564642686012
 10
75.7504150201249
 20
-130.4564642686012
 10
76.17347274571358
 20
-130.5267442165003
 10
76.17347274571358
 20
-130.5267442165003
 10
76.13953855518388
 20
-130.4612874022805
 10
76.09940319278071
 20
-130.3730929578581
 10
76.09940319278071
 20
-130.2463134440009
 10
76.09940319278071
 20
-129.9751844293118
 10
76.28561060375846
 20
-129.7219699111459
 10
76.59859752859342
 20
-129.7219699111459
 10
76.91606307755919
 20
-129.7219699111459
 10
77.15084633487896
 20
-129.9614040473708
 10
77.15084633487896
 20
-130.2848985134357
 97
        0
 97
        0
 75
     2
 76
     1
 98
        0
  0
ENDBLK
  5
8C
330
89
100
AcDbEntity
  8
0
100
AcDbBlockEnd
  0
BLOCK
  5
B8
330
B6
100
AcDbEntity
  8
0
100
AcDbBlockBegin
  2
block 5
 70
     0
 10
0.0
 20
0.0
 30
0.0
  3
block 5
  1

  0
SPLINE
  5
BA
330
B6
100
AcDbEntity
  8
_U+30EC_U+30A4_U+30E4_U+30FC 1
370
     0
100
AcDbSpline
210
0.0
220
0.0
230
1.0
 70
    11
 71
     3
 72
    44
 73
    40
 74
     0
 42
0.0000000001
 43
0.0000000001
 12
1.0
 22
0.0
 32
0.0
 13
1.0
 23
0.0
 33
0.0
 40
0.0
 40
0.0
 40
0.0
 40
0.0
 40
1.0
 40
1.0
 40
1.0
 40
2.0
 40
2.0
 40
2.0
 40
3.0
 40
3.0
 40
3.0
 40
4.0
 40
4.0
 40
4.0
 40
5.0
 40
5.0
 40
5.0
 40
6.0
 40
6.0
 40
6.0
 40
7.0
 40
7.0
 40
7.0
 40
8.0
 40
8.0
 40
8.0
 40
9.0
 40
9.0
 40
9.0
 40
10.0
 40
10.0
 40
10.0
 40
11.0
 40
11.0
 40
11.0
 40
12.0
 40
12.0
 40
12.0
 40
13.0
 40
13.0
 40
13.0
 40
13.0
 10
75.14132213833273
 20
-142.1460177596024
 30
0.0
 10
74.90843368352984
 20
-142.3048366614724
 30
0.0
 10
74.80904267878039
 20
-142.3789062144053
 30
0.0
 10
74.7570217369531
 20
-142.5225666961402
 30
0.0
 10
74.7570217369531
 20
-142.5225666961402
 30
0.0
 10
75.58901229664095
 20
-142.5225666961402
 30
0.0
 10
75.58901229664095
 20
-142.5225666961402
 30
0.0
 10
75.58901229664095
 20
-142.5225666961402
 30
0.0
 10
75.58901229664095
 20
-142.7278943870611
 30
0.0
 10
75.58901229664095
 20
-142.7278943870611
 30
0.0
 10
75.58901229664095
 20
-142.7278943870611
 30
0.0
 10
74.49019909162051
 20
-142.7278943870611
 30
0.0
 10
74.49019909162051
 20
-142.7278943870611
 30
0.0
 10
74.52413328215022
 20
-142.3702934756922
 30
0.0
 10
74.59424097527506
 20
-142.292089808177
 30
0.0
 10
75.00575763098814
 20
-141.9937445391543
 30
0.0
 10
75.27929821251699
 20
-141.7949625296554
 30
0.0
 10
75.34940590564182
 20
-141.727094148596
 30
0.0
 10
75.34940590564182
 20
-141.5896348387346
 30
0.0
 10
75.34940590564182
 20
-141.471123554042
 30
0.0
 10
75.27258027632075
 20
-141.3402099256025
 30
0.0
 10
75.06225719694625
 20
-141.3402099256025
 30
0.0
 10
74.78406573651232
 20
-141.3402099256025
 30
0.0
 10
74.77510848825067
 20
-141.5706868135657
 30
0.0
 10
74.77062986411984
 20
-141.6871310409671
 30
0.0
 10
74.77062986411984
 20
-141.6871310409671
 30
0.0
 10
74.53085121834646
 20
-141.6871310409671
 30
0.0
 10
74.53085121834646
 20
-141.6871310409671
 30
0.0
 10
74.53998072138236
 20
-141.5600070175614
 30
0.0
 10
74.5513495364837
 20
-141.4480414142908
 30
0.0
 10
74.63713241406641
 20
-141.3295301295982
 30
0.0
 10
74.7547824248877
 20
-141.168644170437
 30
0.0
 10
74.95373668916088
 20
-141.1348822346816
 30
0.0
 10
75.0781046361784
 20
-141.1348822346816
 30
0.0
 10
75.37421059313561
 20
-141.1348822346816
 30
0.0
 10
75.59573023283718
 20
-141.3188503335939
 30
0.0
 10
75.59573023283718
 20
-141.5917018960257
 30
0.0
 10
75.59573023283718
 20
-141.8204562362463
 30
0.0
 10
75.47136228581967
 20
-141.9196749862215
 30
0.0
 10
75.14132213833273
 20
-142.1460177596024
 30
0.0
  0
HATCH
  5
BB
330
B6
100
AcDbEntity
  8
_U+30EC_U+30A4_U+30E4_U+30FC 1
 62
   179
420
  2234388
100
AcDbHatch
 10
0.0
 20
0.0
 30
0.0
210
0.0
220
0.0
230
1.0
  2
SOLID
 70
     1
 71
     0
 91
        1
 92
        1
 93
        1
 72
     4
 94
        3
 73
     0
 74
     1
 95
       44
 96
       40
 40
0.0
 40
0.0
 40
0.0
 40
0.0
 40
1.0
 40
1.0
 40
1.0
 40
2.0
 40
2.0
 40
2.0
 40
3.0
 40
3.0
 40
3.0
 40
4.0
 40
4.0
 40
4.0
 40
5.0
 40
5.0
 40
5.0
 40
6.0
 40
6.0
 40
6.0
 40
7.0
 40
7.0
 40
7.0
 40
8.0
 40
8.0
 40
8.0
 40
9.0
 40
9.0
 40
9.0
 40
10.0
 40
10.0
 40
10.0
 40
11.0
 40
11.0
 40
11.0
 40
12.0
 40
12.0
 40
12.0
 40
13.0
 40
13.0
 40
13.0
 40
13.0
 10
75.14132213833273
 20
-142.1460177596024
 10
74.90843368352984
 20
-142.3048366614724
 10
74.80904267878039
 20
-142.3789062144053
 10
74.7570217369531
 20
-142.5225666961402
 10
74.7570217369531
 20
-142.5225666961402
 10
75.58901229664095
 20
-142.5225666961402
 10
75.58901229664095
 20
-142.5225666961402
 10
75.58901229664095
 20
-142.5225666961402
 10
75.58901229664095
 20
-142.7278943870611
 10
75.58901229664095
 20
-142.7278943870611
 10
75.58901229664095
 20
-142.7278943870611
 10
74.49019909162051
 20
-142.7278943870611
 10
74.49019909162051
 20
-142.7278943870611
 10
74.52413328215022
 20
-142.3702934756922
 10
74.59424097527506
 20
-142.292089808177
 10
75.00575763098814
 20
-141.9937445391543
 10
75.27929821251699
 20
-141.7949625296554
 10
75.34940590564182
 20
-141.727094148596
 10
75.34940590564182
 20
-141.5896348387346
 10
75.34940590564182
 20
-141.471123554042
 10
75.27258027632075
 20
-141.3402099256025
 10
75.06225719694625
 20
-141.3402099256025
 10
74.78406573651232
 20
-141.3402099256025
 10
74.77510848825067
 20
-141.5706868135657
 10
74.77062986411984
 20
-141.6871310409671
 10
74.77062986411984
 20
-141.6871310409671
 10
74.53085121834646
 20
-141.6871310409671
 10
74.53085121834646
 20
-141.6871310409671
 10
74.53998072138236
 20
-141.5600070175614
 10
74.5513495364837
 20
-141.4480414142908
 10
74.63713241406641
 20
-141.3295301295982
 10
74.7547824248877
 20
-141.168644170437
 10
74.95373668916088
 20
-141.1348822346816
 10
75.0781046361784
 20
-141.1348822346816
 10
75.37421059313561
 20
-141.1348822346816
 10
75.59573023283718
 20
-141.3188503335939
 10
75.59573023283718
 20
-141.5917018960257
 10
75.59573023283718
 20
-141.8204562362463
 10
75.47136228581967
 20
-141.9196749862215
 10
75.14132213833273
 20
-142.1460177596024
 97
        0
 97
        0
 75
     2
 76
     1
 98
        0
  0
SPLINE
  5
BC
330
B6
100
AcDbEntity
  8
_U+30EC_U+30A4_U+30E4_U+30FC 1
370
     0
100
AcDbSpline
210
0.0
220
0.0
230
1.0
 70
    11
 71
     3
 72
    44
 73
    40
 74
     0
 42
0.0000000001
 43
0.0000000001
 12
1.0
 22
0.0
 32
0.0
 13
1.0
 23
0.0
 33
0.0
 40
0.0
 40
0.0
 40
0.0
 40
0.0
 40
1.0
 40
1.0
 40
1.0
 40
2.0
 40
2.0
 40
2.0
 40
3.0
 40
3.0
 40
3.0
 40
4.0
 40
4.0
 40
4.0
 40
5.0
 40
5.0
 40
5.0
 40
6.0
 40
6.0
 40
6.0
 40
7.0
 40
7.0
 40
7.0
 40
8.0
 40
8.0
 40
8.0
 40
9.0
 40
9.0
 40
9.0
 40
10.0
 40
10.0
 40
10.0
 40
11.0
 40
11.0
 40
11.0
 40
12.0
 40
12.0
 40
12.0
 40
13.0
 40
13.0
 40
13.0
 40
13.0
 10
76.84905597037107
 20
-142.7278943870611
 30
0.0
 10
76.82425128287727
 20
-142.6834526553014
 30
0.0
 10
76.80151365267463
 20
-142.630742694377
 30
0.0
 10
76.79927434060922
 20
-142.3999212968653
 30
0.0
 10
76.79479571647839
 20
-142.1566975556067
 30
0.0
 10
76.73157821432406
 20
-142.0867621172561
 30
0.0
 10
76.54158119831253
 20
-142.0867621172561
 30
0.0
 10
76.54158119831253
 20
-142.0867621172561
 30
0.0
 10
76.10525985510563
 20
-142.0867621172561
 30
0.0
 10
76.10525985510563
 20
-142.0867621172561
 30
0.0
 10
76.10525985510563
 20
-142.0867621172561
 30
0.0
 10
76.10525985510563
 20
-142.7278943870611
 30
0.0
 10
76.10525985510563
 20
-142.7278943870611
 30
0.0
 10
76.10525985510563
 20
-142.7278943870611
 30
0.0
 10
75.85428464900518
 20
-142.7278943870611
 30
0.0
 10
75.85428464900518
 20
-142.7278943870611
 30
0.0
 10
75.85428464900518
 20
-142.7278943870611
 30
0.0
 10
75.85428464900518
 20
-141.1834580810236
 30
0.0
 10
75.85428464900518
 20
-141.1834580810236
 30
0.0
 10
75.85428464900518
 20
-141.1834580810236
 30
0.0
 10
76.57551538884223
 20
-141.1834580810236
 30
0.0
 10
76.57551538884223
 20
-141.1834580810236
 30
0.0
 10
76.90331622426376
 20
-141.1834580810236
 30
0.0
 10
77.08194442517396
 20
-141.355023836189
 30
0.0
 10
77.08194442517396
 20
-141.6109944307431
 30
0.0
 10
77.08194442517396
 20
-141.6616373343763
 30
0.0
 10
77.0729871769123
 20
-141.7443196260222
 30
0.0
 10
77.02544485921587
 20
-141.8245903508286
 30
0.0
 10
76.96205510228727
 20
-141.9282877249346
 30
0.0
 10
76.8921196639367
 20
-141.9472357501035
 30
0.0
 10
76.82649059494268
 20
-141.9641167179812
 30
0.0
 10
76.97342391738859
 20
-142.0064913924498
 30
0.0
 10
77.04577092257884
 20
-142.0550672387918
 30
0.0
 10
77.05024954670967
 20
-142.3702934756922
 30
0.0
 10
77.05472817084049
 20
-142.6410779808328
 30
0.0
 10
77.0933132402753
 20
-142.6727728592971
 30
0.0
 10
77.16566024546553
 20
-142.7278943870611
 30
0.0
 10
77.16566024546553
 20
-142.7278943870611
 30
0.0
 10
76.84905597037107
 20
-142.7278943870611
 30
0.0
 10
76.84905597037107
 20
-142.7278943870611
 30
0.0
  0
SPLINE
  5
BD
330
B6
100
AcDbEntity
  8
_U+30EC_U+30A4_U+30E4_U+30FC 1
370
     0
100
AcDbSpline
210
0.0
220
0.0
230
1.0
 70
    11
 71
     3
 72
    20
 73
    16
 74
     0
 42
0.0000000001
 43
0.0000000001
 12
1.0
 22
0.0
 32
0.0
 13
1.0
 23
0.0
 33
0.0
 40
0.0
 40
0.0
 40
0.0
 40
0.0
 40
1.0
 40
1.0
 40
1.0
 40
2.0
 40
2.0
 40
2.0
 40
3.0
 40
3.0
 40
3.0
 40
4.0
 40
4.0
 40
4.0
 40
5.0
 40
5.0
 40
5.0
 40
5.0
 10
76.57999401297306
 20
-141.3949869438179
 30
0.0
 10
76.57999401297306
 20
-141.3949869438179
 30
0.0
 10
76.10525985510563
 20
-141.3949869438179
 30
0.0
 10
76.10525985510563
 20
-141.3949869438179
 30
0.0
 10
76.10525985510563
 20
-141.3949869438179
 30
0.0
 10
76.10525985510563
 20
-141.8752332544618
 30
0.0
 10
76.10525985510563
 20
-141.8752332544618
 30
0.0
 10
76.10525985510563
 20
-141.8752332544618
 30
0.0
 10
76.57775470090765
 20
-141.8752332544618
 30
0.0
 10
76.57775470090765
 20
-141.8752332544618
 30
0.0
 10
76.6840358966276
 20
-141.8752332544618
 30
0.0
 10
76.8287299070081
 20
-141.7990966442377
 30
0.0
 10
76.8287299070081
 20
-141.6278753986208
 30
0.0
 10
76.8287299070081
 20
-141.5496717311056
 30
0.0
 10
76.79255640441298
 20
-141.3949869438179
 30
0.0
 10
76.57999401297306
 20
-141.3949869438179
 30
0.0
  0
HATCH
  5
BE
330
B6
100
AcDbEntity
  8
_U+30EC_U+30A4_U+30E4_U+30FC 1
 62
   179
420
  2234388
100
AcDbHatch
 10
0.0
 20
0.0
 30
0.0
210
0.0
220
0.0
230
1.0
  2
SOLID
 70
     1
 71
     0
 91
        2
 92
        1
 93
        1
 72
     4
 94
        3
 73
     0
 74
     1
 95
       44
 96
       40
 40
0.0
 40
0.0
 40
0.0
 40
0.0
 40
1.0
 40
1.0
 40
1.0
 40
2.0
 40
2.0
 40
2.0
 40
3.0
 40
3.0
 40
3.0
 40
4.0
 40
4.0
 40
4.0
 40
5.0
 40
5.0
 40
5.0
 40
6.0
 40
6.0
 40
6.0
 40
7.0
 40
7.0
 40
7.0
 40
8.0
 40
8.0
 40
8.0
 40
9.0
 40
9.0
 40
9.0
 40
10.0
 40
10.0
 40
10.0
 40
11.0
 40
11.0
 40
11.0
 40
12.0
 40
12.0
 40
12.0
 40
13.0
 40
13.0
 40
13.0
 40
13.0
 10
76.84905597037107
 20
-142.7278943870611
 10
76.82425128287727
 20
-142.6834526553014
 10
76.80151365267463
 20
-142.630742694377
 10
76.79927434060922
 20
-142.3999212968653
 10
76.79479571647839
 20
-142.1566975556067
 10
76.73157821432406
 20
-142.0867621172561
 10
76.54158119831253
 20
-142.0867621172561
 10
76.54158119831253
 20
-142.0867621172561
 10
76.10525985510563
 20
-142.0867621172561
 10
76.10525985510563
 20
-142.0867621172561
 10
76.10525985510563
 20
-142.0867621172561
 10
76.10525985510563
 20
-142.7278943870611
 10
76.10525985510563
 20
-142.7278943870611
 10
76.10525985510563
 20
-142.7278943870611
 10
75.85428464900518
 20
-142.7278943870611
 10
75.85428464900518
 20
-142.7278943870611
 10
75.85428464900518
 20
-142.7278943870611
 10
75.85428464900518
 20
-141.1834580810236
 10
75.85428464900518
 20
-141.1834580810236
 10
75.85428464900518
 20
-141.1834580810236
 10
76.57551538884223
 20
-141.1834580810236
 10
76.57551538884223
 20
-141.1834580810236
 10
76.90331622426376
 20
-141.1834580810236
 10
77.08194442517396
 20
-141.355023836189
 10
77.08194442517396
 20
-141.6109944307431
 10
77.08194442517396
 20
-141.6616373343763
 10
77.0729871769123
 20
-141.7443196260222
 10
77.02544485921587
 20
-141.8245903508286
 10
76.96205510228727
 20
-141.9282877249346
 10
76.8921196639367
 20
-141.9472357501035
 10
76.82649059494268
 20
-141.9641167179812
 10
76.97342391738859
 20
-142.0064913924498
 10
77.04577092257884
 20
-142.0550672387918
 10
77.05024954670967
 20
-142.3702934756922
 10
77.05472817084049
 20
-142.6410779808328
 10
77.0933132402753
 20
-142.6727728592971
 10
77.16566024546553
 20
-142.7278943870611
 10
77.16566024546553
 20
-142.7278943870611
 10
76.84905597037107
 20
-142.7278943870611
 10
76.84905597037107
 20
-142.7278943870611
 97
        0
 97
        0
 92
        1
 93
        1
 72
     4
 94
        3
 73
     0
 74
     1
 95
       20
 96
       16
 40
0.0
 40
0.0
 40
0.0
 40
0.0
 40
1.0
 40
1.0
 40
1.0
 40
2.0
 40
2.0
 40
2.0
 40
3.0
 40
3.0
 40
3.0
 40
4.0
 40
4.0
 40
4.0
 40
5.0
 40
5.0
 40
5.0
 40
5.0
 10
76.57999401297306
 20
-141.3949869438179
 10
76.57999401297306
 20
-141.3949869438179
 10
76.10525985510563
 20
-141.3949869438179
 10
76.10525985510563
 20
-141.3949869438179
 10
76.10525985510563
 20
-141.3949869438179
 10
76.10525985510563
 20
-141.8752332544618
 10
76.10525985510563
 20
-141.8752332544618
 10
76.10525985510563
 20
-141.8752332544618
 10
76.57775470090765
 20
-141.8752332544618
 10
76.57775470090765
 20
-141.8752332544618
 10
76.6840358966276
 20
-141.8752332544618
 10
76.8287299070081
 20
-141.7990966442377
 10
76.8287299070081
 20
-141.6278753986208
 10
76.8287299070081
 20
-141.5496717311056
 10
76.79255640441298
 20
-141.3949869438179
 10
76.57999401297306
 20
-141.3949869438179
 97
        0
 97
        0
 75
     2
 76
     1
 98
        0
  0
ENDBLK
  5
B9
330
B6
100
AcDbEntity
  8
0
100
AcDbBlockEnd
  0
BLOCK
  5
CC
330
CA
100
AcDbEntity
  8
0
100
AcDbBlockBegin
  2
block 6
 70
     0
 10
0.0
 20
0.0
 30
0.0
  3
block 6
  1

  0
SPLINE
  5
CE
330
CA
100
AcDbEntity
  8
_U+30EC_U+30A4_U+30E4_U+30FC 1
370
     0
100
AcDbSpline
210
0.0
220
0.0
230
1.0
 70
    11
 71
     3
 72
    26
 73
    22
 74
     0
 42
0.0000000001
 43
0.0000000001
 12
1.0
 22
0.0
 32
0.0
 13
1.0
 23
0.0
 33
0.0
 40
0.0
 40
0.0
 40
0.0
 40
0.0
 40
1.0
 40
1.0
 40
1.0
 40
2.0
 40
2.0
 40
2.0
 40
3.0
 40
3.0
 40
3.0
 40
4.0
 40
4.0
 40
4.0
 40
5.0
 40
5.0
 40
5.0
 40
6.0
 40
6.0
 40
6.0
 40
7.0
 40
7.0
 40
7.0
 40
7.0
 10
80.57664928541139
 20
-120.2269422442488
 30
0.0
 10
80.57664928541139
 20
-120.2269422442488
 30
0.0
 10
80.57664928541139
 20
-119.1227891412262
 30
0.0
 10
80.57664928541139
 20
-119.1227891412262
 30
0.0
 10
80.57664928541139
 20
-119.1227891412262
 30
0.0
 10
80.22421601727034
 20
-119.1227891412262
 30
0.0
 10
80.22421601727034
 20
-119.1227891412262
 30
0.0
 10
80.22421601727034
 20
-119.1227891412262
 30
0.0
 10
80.22421601727034
 20
-118.9746500353605
 30
0.0
 10
80.22421601727034
 20
-118.9746500353605
 30
0.0
 10
80.57906085225108
 20
-118.9598361247739
 30
0.0
 10
80.62867022723867
 20
-118.7968831083216
 30
0.0
 10
80.66036510570297
 20
-118.6825059382113
 30
0.0
 10
80.66036510570297
 20
-118.6825059382113
 30
0.0
 10
80.81642793118479
 20
-118.6825059382113
 30
0.0
 10
80.81642793118479
 20
-118.6825059382113
 30
0.0
 10
80.81642793118479
 20
-118.6825059382113
 30
0.0
 10
80.81642793118479
 20
-120.2269422442488
 30
0.0
 10
80.81642793118479
 20
-120.2269422442488
 30
0.0
 10
80.81642793118479
 20
-120.2269422442488
 30
0.0
 10
80.57664928541139
 20
-120.2269422442488
 30
0.0
 10
80.57664928541139
 20
-120.2269422442488
 30
0.0
  0
HATCH
  5
CF
330
CA
100
AcDbEntity
  8
_U+30EC_U+30A4_U+30E4_U+30FC 1
 62
   179
420
  2234388
100
AcDbHatch
 10
0.0
 20
0.0
 30
0.0
210
0.0
220
0.0
230
1.0
  2
SOLID
 70
     1
 71
     0
 91
        1
 92
        1
 93
        1
 72
     4
 94
        3
 73
     0
 74
     1
 95
       26
 96
       22
 40
0.0
 40
0.0
 40
0.0
 40
0.0
 40
1.0
 40
1.0
 40
1.0
 40
2.0
 40
2.0
 40
2.0
 40
3.0
 40
3.0
 40
3.0
 40
4.0
 40
4.0
 40
4.0
 40
5.0
 40
5.0
 40
5.0
 40
6.0
 40
6.0
 40
6.0
 40
7.0
 40
7.0
 40
7.0
 40
7.0
 10
80.57664928541139
 20
-120.2269422442488
 10
80.57664928541139
 20
-120.2269422442488
 10
80.57664928541139
 20
-119.1227891412262
 10
80.57664928541139
 20
-119.1227891412262
 10
80.57664928541139
 20
-119.1227891412262
 10
80.22421601727034
 20
-119.1227891412262
 10
80.22421601727034
 20
-119.1227891412262
 10
80.22421601727034
 20
-119.1227891412262
 10
80.22421601727034
 20
-118.9746500353605
 10
80.22421601727034
 20
-118.9746500353605
 10
80.57906085225108
 20
-118.9598361247739
 10
80.62867022723867
 20
-118.7968831083216
 10
80.66036510570297
 20
-118.6825059382113
 10
80.66036510570297
 20
-118.6825059382113
 10
80.81642793118479
 20
-118.6825059382113
 10
80.81642793118479
 20
-118.6825059382113
 10
80.81642793118479
 20
-118.6825059382113
 10
80.81642793118479
 20
-120.2269422442488
 10
80.81642793118479
 20
-120.2269422442488
 10
80.81642793118479
 20
-120.2269422442488
 10
80.57664928541139
 20
-120.2269422442488
 10
80.57664928541139
 20
-120.2269422442488
 97
        0
 97
        0
 75
     2
 76
     1
 98
        0
  0
ENDBLK
  5
CD
330
CA
100
AcDbEntity
  8
0
100
AcDbBlockEnd
  0
ENDSEC
  0
SECTION
  2
ENTITIES
  0
POLYLINE
  5
41
330
1F
100
AcDbEntity
  8
_U+30EC_U+30A4_U+30E4_U+30FC 1
 62
   179
420
  2234388
370
     9
100
AcDb2dPolyline
 66
     1
 10
0.0
 20
0.0
 30
0.0
  0
VERTEX
  5
42
330
41
100
AcDbEntity
  8
_U+30EC_U+30A4_U+30E4_U+30FC 1
 62
   179
420
  2234388
370
     9
100
AcDbVertex
100
AcDb2dVertex
 10
81.78242402466765
 20
-139.604220798432
 30
0.0
  0
VERTEX
  5
43
330
41
100
AcDbEntity
  8
_U+30EC_U+30A4_U+30E4_U+30FC 1
 62
   179
420
  2234388
370
     9
100
AcDbVertex
100
AcDb2dVertex
 10
82.28231012302561
 20
-138.7381160764266
 30
0.0
  0
SEQEND
  5
44
330
41
100
AcDbEntity
  8
_U+30EC_U+30A4_U+30E4_U+30FC 1
 62
   179
420
  2234388
370
     9
  0
POLYLINE
  5
45
330
1F
100
AcDbEntity
  8
_U+30EC_U+30A4_U+30E4_U+30FC 1
 62
   179
420
  2234388
370
     9
100
AcDb2dPolyline
 66
     1
 10
0.0
 20
0.0
 30
0.0
  0
VERTEX
  5
46
330
45
100
AcDbEntity
  8
_U+30EC_U+30A4_U+30E4_U+30FC 1
 62
   179
420
  2234388
370
     9
100
AcDbVertex
100
AcDb2dVertex
 10
81.41620542289955
 20
-139.2383549651903
 30
0.0
  0
VERTEX
  5
47
330
45
100
AcDbEntity
  8
_U+30EC_U+30A4_U+30E4_U+30FC 1
 62
   179
420
  2234388
370
     9
100
AcDbVertex
100
AcDb2dVertex
 10
82.28231012302561
 20
-138.7381160764266
 30
0.0
  0
SEQEND
  5
48
330
45
100
AcDbEntity
  8
_U+30EC_U+30A4_U+30E4_U+30FC 1
 62
   179
420
  2234388
370
     9
  0
SPLINE
  5
49
330
1F
100
AcDbEntity
  8
_U+30EC_U+30A4_U+30E4_U+30FC 1
 62
   179
420
  2234388
370
     9
100
AcDbSpline
210
0.0
220
0.0
230
1.0
 70
    11
 71
     3
 72
    17
 73
    13
 74
     0
 42
0.0000000001
 43
0.0000000001
 12
1.0
 22
0.0
 32
0.0
 13
1.0
 23
0.0
 33
0.0
 40
0.0
 40
0.0
 40
0.0
 40
0.0
 40
1.0
 40
1.0
 40
1.0
 40
2.0
 40
2.0
 40
2.0
 40
3.0
 40
3.0
 40
3.0
 40
4.0
 40
4.0
 40
4.0
 40
4.0
 10
92.2965068119866
 20
-124.8238902465719
 30
0.0
 10
92.2965068119866
 20
-124.7687863576967
 30
0.0
 10
92.25174164360381
 20
-124.7239835799302
 30
0.0
 10
92.19660014786878
 20
-124.7239835799302
 30
0.0
 10
92.14149626038571
 20
-124.7239835799302
 30
0.0
 10
92.09669348375094
 20
-124.7687863576967
 30
0.0
 10
92.09669348375094
 20
-124.8238902465719
 30
0.0
 10
92.09669348375094
 20
-124.8790294132247
 30
0.0
 10
92.14149626038571
 20
-124.9237969132135
 30
0.0
 10
92.19660014786878
 20
-124.9237969132135
 30
0.0
 10
92.25174164360381
 20
-124.9237969132135
 30
0.0
 10
92.2965068119866
 20
-124.8790294132247
 30
0.0
 10
92.2965068119866
 20
-124.8238902465719
 30
0.0
  0
SPLINE
  5
4A
330
1F
100
AcDbEntity
  8
_U+30EC_U+30A4_U+30E4_U+30FC 1
 62
   179
420
  2234388
370
     9
100
AcDbSpline
210
0.0
220
0.0
230
1.0
 70
    11
 71
     3
 72
    17
 73
    13
 74
     0
 42
0.0000000001
 43
0.0000000001
 12
1.0
 22
0.0
 32
0.0
 13
1.0
 23
0.0
 33
0.0
 40
0.0
 40
0.0
 40
0.0
 40
0.0
 40
1.0
 40
1.0
 40
1.0
 40
2.0
 40
2.0
 40
2.0
 40
3.0
 40
3.0
 40
3.0
 40
4.0
 40
4.0
 40
4.0
 40
4.0
 10
91.2967346152707
 20
-120.8243074697939
 30
0.0
 10
91.2967346152707
 20
-120.769203580919
 30
0.0
 10
91.25196942163159
 20
-120.7244008031522
 30
0.0
 10
91.19651045116096
 20
-120.7244008031522
 30
0.0
 10
91.14137128590102
 20
-120.7244008031522
 30
0.0
 10
91.09660378704312
 20
-120.769203580919
 30
0.0
 10
91.09660378704312
 20
-120.8243074697939
 30
0.0
 10
91.09660378704312
 20
-120.879446636447
 30
0.0
 10
91.14137128590102
 20
-120.9242141364355
 30
0.0
 10
91.19651045116096
 20
-120.9242141364355
 30
0.0
 10
91.25196942163159
 20
-120.9242141364355
 30
0.0
 10
91.2967346152707
 20
-120.879446636447
 30
0.0
 10
91.2967346152707
 20
-120.8243074697939
 30
0.0
  0
SPLINE
  5
4B
330
1F
100
AcDbEntity
  8
_U+30EC_U+30A4_U+30E4_U+30FC 1
 62
   179
420
  2234388
370
     9
100
AcDbSpline
210
0.0
220
0.0
230
1.0
 70
    11
 71
     3
 72
    17
 73
    13
 74
     0
 42
0.0000000001
 43
0.0000000001
 12
1.0
 22
0.0
 32
0.0
 13
1.0
 23
0.0
 33
0.0
 40
0.0
 40
0.0
 40
0.0
 40
0.0
 40
1.0
 40
1.0
 40
1.0
 40
2.0
 40
2.0
 40
2.0
 40
3.0
 40
3.0
 40
3.0
 40
4.0
 40
4.0
 40
4.0
 40
4.0
 10
82.79666010990344
 20
-120.8243074697939
 30
0.0
 10
82.79666010990344
 20
-120.769203580919
 30
0.0
 10
82.75189261104556
 20
-120.7244008031522
 30
0.0
 10
82.69640275710367
 20
-120.7244008031522
 30
0.0
 10
82.64129678053376
 20
-120.7244008031522
 30
0.0
 10
82.596494003899
 20
-120.769203580919
 30
0.0
 10
82.596494003899
 20
-120.8243074697939
 30
0.0
 10
82.596494003899
 20
-120.879446636447
 30
0.0
 10
82.64129678053376
 20
-120.9242141364355
 30
0.0
 10
82.69640275710367
 20
-120.9242141364355
 30
0.0
 10
82.75189261104556
 20
-120.9242141364355
 30
0.0
 10
82.79666010990344
 20
-120.879446636447
 30
0.0
 10
82.79666010990344
 20
-120.8243074697939
 30
0.0
  0
SPLINE
  5
4C
330
1F
100
AcDbEntity
  8
_U+30EC_U+30A4_U+30E4_U+30FC 1
 62
   179
420
  2234388
370
     9
100
AcDbSpline
210
0.0
220
0.0
230
1.0
 70
    11
 71
     3
 72
    17
 73
    13
 74
     0
 42
0.0000000001
 43
0.0000000001
 12
1.0
 22
0.0
 32
0.0
 13
1.0
 23
0.0
 33
0.0
 40
0.0
 40
0.0
 40
0.0
 40
0.0
 40
1.0
 40
1.0
 40
1.0
 40
2.0
 40
2.0
 40
2.0
 40
3.0
 40
3.0
 40
3.0
 40
4.0
 40
4.0
 40
4.0
 40
4.0
 10
77.79645857080254
 20
-124.8238902465719
 30
0.0
 10
77.79645857080254
 20
-124.7687863576967
 30
0.0
 10
77.75165579416779
 20
-124.7239835799302
 30
0.0
 10
77.6965519066847
 20
-124.7239835799302
 30
0.0
 10
77.64141274142476
 20
-124.7239835799302
 30
0.0
 10
77.59664720282301
 20
-124.7687863576967
 30
0.0
 10
77.59664720282301
 20
-124.8238902465719
 30
0.0
 10
77.59664720282301
 20
-124.8790294132247
 30
0.0
 10
77.64141274142476
 20
-124.9237969132135
 30
0.0
 10
77.6965519066847
 20
-124.9237969132135
 30
0.0
 10
77.75165579416779
 20
-124.9237969132135
 30
0.0
 10
77.79645857080254
 20
-124.8790294132247
 30
0.0
 10
77.79645857080254
 20
-124.8238902465719
 30
0.0
  0
SPLINE
  5
4D
330
1F
100
AcDbEntity
  8
_U+30EC_U+30A4_U+30E4_U+30FC 1
 62
   179
420
  2234388
370
     9
100
AcDbSpline
210
0.0
220
0.0
230
1.0
 70
    11
 71
     3
 72
    17
 73
    13
 74
     0
 42
0.0000000001
 43
0.0000000001
 12
1.0
 22
0.0
 32
0.0
 13
1.0
 23
0.0
 33
0.0
 40
0.0
 40
0.0
 40
0.0
 40
0.0
 40
1.0
 40
1.0
 40
1.0
 40
2.0
 40
2.0
 40
2.0
 40
3.0
 40
3.0
 40
3.0
 40
4.0
 40
4.0
 40
4.0
 40
4.0
 10
77.79645857080254
 20
-139.3237977429469
 30
0.0
 10
77.79645857080254
 20
-139.2686585762939
 30
0.0
 10
77.75165579416779
 20
-139.2238910763053
 30
0.0
 10
77.6965519066847
 20
-139.2238910763053
 30
0.0
 10
77.64141274142476
 20
-139.2238910763053
 30
0.0
 10
77.59664720282301
 20
-139.2686585762939
 30
0.0
 10
77.59664720282301
 20
-139.3237977429469
 30
0.0
 10
77.59664720282301
 20
-139.3796071873774
 30
0.0
 10
77.64141274142476
 20
-139.4244099651441
 30
0.0
 10
77.6965519066847
 20
-139.4244099651441
 30
0.0
 10
77.75165579416779
 20
-139.4244099651441
 30
0.0
 10
77.79645857080254
 20
-139.3796071873774
 30
0.0
 10
77.79645857080254
 20
-139.3237977429469
 30
0.0
  0
SPLINE
  5
4E
330
1F
100
AcDbEntity
  8
_U+30EC_U+30A4_U+30E4_U+30FC 1
 62
   179
420
  2234388
370
     9
100
AcDbSpline
210
0.0
220
0.0
230
1.0
 70
    11
 71
     3
 72
    17
 73
    13
 74
     0
 42
0.0000000001
 43
0.0000000001
 12
1.0
 22
0.0
 32
0.0
 13
1.0
 23
0.0
 33
0.0
 40
0.0
 40
0.0
 40
0.0
 40
0.0
 40
1.0
 40
1.0
 40
1.0
 40
2.0
 40
2.0
 40
2.0
 40
3.0
 40
3.0
 40
3.0
 40
4.0
 40
4.0
 40
4.0
 40
4.0
 10
107.2964764293055
 20
-124.8238902465719
 30
0.0
 10
107.2964764293055
 20
-124.7687863576967
 30
0.0
 10
107.2516736526707
 20
-124.7239835799302
 30
0.0
 10
107.1965697651877
 20
-124.7239835799302
 30
0.0
 10
107.1414333065482
 20
-124.7239835799302
 30
0.0
 10
107.0966631010698
 20
-124.7687863576967
 30
0.0
 10
107.0966631010698
 20
-124.8238902465719
 30
0.0
 10
107.0966631010698
 20
-124.8790294132247
 30
0.0
 10
107.1414333065482
 20
-124.9237969132135
 30
0.0
 10
107.1965697651877
 20
-124.9237969132135
 30
0.0
 10
107.2516736526707
 20
-124.9237969132135
 30
0.0
 10
107.2964764293055
 20
-124.8790294132247
 30
0.0
 10
107.2964764293055
 20
-124.8238902465719
 30
0.0
  0
POLYLINE
  5
4F
330
1F
100
AcDbEntity
  8
_U+30EC_U+30A4_U+30E4_U+30FC 1
 62
   179
420
  2234388
370
     9
100
AcDb2dPolyline
 66
     1
 10
0.0
 20
0.0
 30
0.0
  0
VERTEX
  5
50
330
4F
100
AcDbEntity
  8
_U+30EC_U+30A4_U+30E4_U+30FC 1
 62
   179
420
  2234388
370
     9
100
AcDbVertex
100
AcDb2dVertex
 10
92.19660014786878
 20
-124.8238902465719
 30
0.0
  0
VERTEX
  5
51
330
4F
100
AcDbEntity
  8
_U+30EC_U+30A4_U+30E4_U+30FC 1
 62
   179
420
  2234388
370
     9
100
AcDbVertex
100
AcDb2dVertex
 10
107.1965697651877
 20
-124.8238902465719
 30
0.0
  0
SEQEND
  5
52
330
4F
100
AcDbEntity
  8
_U+30EC_U+30A4_U+30E4_U+30FC 1
 62
   179
420
  2234388
370
     9
  0
POLYLINE
  5
53
330
1F
100
AcDbEntity
  8
_U+30EC_U+30A4_U+30E4_U+30FC 1
 62
   179
420
  2234388
370
     9
100
AcDb2dPolyline
 66
     1
 10
0.0
 20
0.0
 30
0.0
  0
VERTEX
  5
54
330
53
100
AcDbEntity
  8
_U+30EC_U+30A4_U+30E4_U+30FC 1
 62
   179
420
  2234388
370
     9
100
AcDbVertex
100
AcDb2dVertex
 10
107.1965697651877
 20
-126.2839316350956
 30
0.0
  0
VERTEX
  5
55
330
53
100
AcDbEntity
  8
_U+30EC_U+30A4_U+30E4_U+30FC 1
 62
   179
420
  2234388
370
     9
100
AcDbVertex
100
AcDb2dVertex
 10
107.1965697651877
 20
-123.8242944134882
 30
0.0
  0
SEQEND
  5
56
330
53
100
AcDbEntity
  8
_U+30EC_U+30A4_U+30E4_U+30FC 1
 62
   179
420
  2234388
370
     9
  0
INSERT
  5
58
330
1F
100
AcDbEntity
  8
_U+30EC_U+30A4_U+30E4_U+30FC 1
100
AcDbBlockReference
  2
block 2
 10
0.0
 20
0.0
 30
0.0
  0
POLYLINE
  5
5F
330
1F
100
AcDbEntity
  8
_U+30EC_U+30A4_U+30E4_U+30FC 1
 62
   179
420
  2234388
370
     9
100
AcDb2dPolyline
 66
     1
 10
0.0
 20
0.0
 30
0.0
  0
VERTEX
  5
60
330
5F
100
AcDbEntity
  8
_U+30EC_U+30A4_U+30E4_U+30FC 1
 62
   179
420
  2234388
370
     9
100
AcDbVertex
100
AcDb2dVertex
 10
82.69640275710367
 20
-120.8243074697939
 30
0.0
  0
VERTEX
  5
61
330
5F
100
AcDbEntity
  8
_U+30EC_U+30A4_U+30E4_U+30FC 1
 62
   179
420
  2234388
370
     9
100
AcDbVertex
100
AcDb2dVertex
 10
91.19651045116096
 20
-120.8243074697939
 30
0.0
  0
SEQEND
  5
62
330
5F
100
AcDbEntity
  8
_U+30EC_U+30A4_U+30E4_U+30FC 1
 62
   179
420
  2234388
370
     9
  0
POLYLINE
  5
63
330
1F
100
AcDbEntity
  8
_U+30EC_U+30A4_U+30E4_U+30FC 1
 62
   179
420
  2234388
370
     9
100
AcDb2dPolyline
 66
     1
 10
0.0
 20
0.0
 30
0.0
  0
VERTEX
  5
64
330
63
100
AcDbEntity
  8
_U+30EC_U+30A4_U+30E4_U+30FC 1
 62
   179
420
  2234388
370
     9
100
AcDbVertex
100
AcDb2dVertex
 10
82.69675553488143
 20
-122.2796921916523
 30
0.0
  0
VERTEX
  5
65
330
63
100
AcDbEntity
  8
_U+30EC_U+30A4_U+30E4_U+30FC 1
 62
   179
420
  2234388
370
     9
100
AcDbVertex
100
AcDb2dVertex
 10
82.69640275710367
 20
-119.8242177478217
 30
0.0
  0
SEQEND
  5
66
330
63
100
AcDbEntity
  8
_U+30EC_U+30A4_U+30E4_U+30FC 1
 62
   179
420
  2234388
370
     9
  0
POLYLINE
  5
67
330
1F
100
AcDbEntity
  8
_U+30EC_U+30A4_U+30E4_U+30FC 1
 62
   179
420
  2234388
370
     9
100
AcDb2dPolyline
 66
     1
 10
0.0
 20
0.0
 30
0.0
  0
VERTEX
  5
68
330
67
100
AcDbEntity
  8
_U+30EC_U+30A4_U+30E4_U+30FC 1
 62
   179
420
  2234388
370
     9
100
AcDbVertex
100
AcDb2dVertex
 10
91.19651045116096
 20
-123.2841210802901
 30
0.0
  0
VERTEX
  5
69
330
67
100
AcDbEntity
  8
_U+30EC_U+30A4_U+30E4_U+30FC 1
 62
   179
420
  2234388
370
     9
100
AcDbVertex
100
AcDb2dVertex
 10
91.19651045116096
 20
-119.8242177478217
 30
0.0
  0
SEQEND
  5
6A
330
67
100
AcDbEntity
  8
_U+30EC_U+30A4_U+30E4_U+30FC 1
 62
   179
420
  2234388
370
     9
  0
INSERT
  5
6C
330
1F
100
AcDbEntity
  8
_U+30EC_U+30A4_U+30E4_U+30FC 1
100
AcDbBlockReference
  2
block 3
 10
0.0
 20
0.0
 30
0.0
  0
POLYLINE
  5
7D
330
1F
100
AcDbEntity
  8
_U+30EC_U+30A4_U+30E4_U+30FC 1
 62
   179
420
  2234388
370
     9
100
AcDb2dPolyline
 66
     1
 10
0.0
 20
0.0
 30
0.0
  0
VERTEX
  5
7E
330
7D
100
AcDbEntity
  8
_U+30EC_U+30A4_U+30E4_U+30FC 1
 62
   179
420
  2234388
370
     9
100
AcDbVertex
100
AcDb2dVertex
 10
77.6965519066847
 20
-139.3237977429469
 30
0.0
  0
VERTEX
  5
7F
330
7D
100
AcDbEntity
  8
_U+30EC_U+30A4_U+30E4_U+30FC 1
 62
   179
420
  2234388
370
     9
100
AcDbVertex
100
AcDb2dVertex
 10
77.6965519066847
 20
-124.8238902465719
 30
0.0
  0
SEQEND
  5
80
330
7D
100
AcDbEntity
  8
_U+30EC_U+30A4_U+30E4_U+30FC 1
 62
   179
420
  2234388
370
     9
  0
POLYLINE
  5
81
330
1F
100
AcDbEntity
  8
_U+30EC_U+30A4_U+30E4_U+30FC 1
 62
   179
420
  2234388
370
     9
100
AcDb2dPolyline
 66
     1
 10
0.0
 20
0.0
 30
0.0
  0
VERTEX
  5
82
330
81
100
AcDbEntity
  8
_U+30EC_U+30A4_U+30E4_U+30FC 1
 62
   179
420
  2234388
370
     9
100
AcDbVertex
100
AcDb2dVertex
 10
80.68584960819915
 20
-139.3237977429469
 30
0.0
  0
VERTEX
  5
83
330
81
100
AcDbEntity
  8
_U+30EC_U+30A4_U+30E4_U+30FC 1
 62
   179
420
  2234388
370
     9
100
AcDbVertex
100
AcDb2dVertex
 10
76.69677970996881
 20
-139.3237977429469
 30
0.0
  0
SEQEND
  5
84
330
81
100
AcDbEntity
  8
_U+30EC_U+30A4_U+30E4_U+30FC 1
 62
   179
420
  2234388
370
     9
  0
POLYLINE
  5
85
330
1F
100
AcDbEntity
  8
_U+30EC_U+30A4_U+30E4_U+30FC 1
 62
   179
420
  2234388
370
     9
100
AcDb2dPolyline
 66
     1
 10
0.0
 20
0.0
 30
0.0
  0
VERTEX
  5
86
330
85
100
AcDbEntity
  8
_U+30EC_U+30A4_U+30E4_U+30FC 1
 62
   179
420
  2234388
370
     9
100
AcDbVertex
100
AcDb2dVertex
 10
79.15659325832485
 20
-124.8238902465719
 30
0.0
  0
VERTEX
  5
87
330
85
100
AcDbEntity
  8
_U+30EC_U+30A4_U+30E4_U+30FC 1
 62
   179
420
  2234388
370
     9
100
AcDbVertex
100
AcDb2dVertex
 10
76.69677970996881
 20
-124.8238902465719
 30
0.0
  0
SEQEND
  5
88
330
85
100
AcDbEntity
  8
_U+30EC_U+30A4_U+30E4_U+30FC 1
 62
   179
420
  2234388
370
     9
  0
INSERT
  5
8A
330
1F
100
AcDbEntity
  8
_U+30EC_U+30A4_U+30E4_U+30FC 1
100
AcDbBlockReference
  2
block 4
 10
0.0
 20
0.0
 30
0.0
  0
POLYLINE
  5
AE
330
1F
100
AcDbEntity
  8
_U+30EC_U+30A4_U+30E4_U+30FC 1
 62
   179
420
  2234388
370
     9
100
AcDb2dPolyline
 66
     1
 10
0.0
 20
0.0
 30
0.0
  0
VERTEX
  5
AF
330
AE
100
AcDbEntity
  8
_U+30EC_U+30A4_U+30E4_U+30FC 1
 62
   179
420
  2234388
370
     9
100
AcDbVertex
100
AcDb2dVertex
 10
82.28231012302561
 20
-138.7381160764266
 30
0.0
  0
VERTEX
  5
B0
330
AE
100
AcDbEntity
  8
_U+30EC_U+30A4_U+30E4_U+30FC 1
 62
   179
420
  2234388
370
     9
100
AcDbVertex
100
AcDb2dVertex
 10
77.6965519066847
 20
-143.3242271863912
 30
0.0
  0
SEQEND
  5
B1
330
AE
100
AcDbEntity
  8
_U+30EC_U+30A4_U+30E4_U+30FC 1
 62
   179
420
  2234388
370
     9
  0
POLYLINE
  5
B2
330
1F
100
AcDbEntity
  8
_U+30EC_U+30A4_U+30E4_U+30FC 1
 62
   179
420
  2234388
370
     9
100
AcDb2dPolyline
 66
     1
 10
0.0
 20
0.0
 30
0.0
  0
VERTEX
  5
B3
330
B2
100
AcDbEntity
  8
_U+30EC_U+30A4_U+30E4_U+30FC 1
 62
   179
420
  2234388
370
     9
100
AcDbVertex
100
AcDb2dVertex
 10
77.6965519066847
 20
-143.3242271863912
 30
0.0
  0
VERTEX
  5
B4
330
B2
100
AcDbEntity
  8
_U+30EC_U+30A4_U+30E4_U+30FC 1
 62
   179
420
  2234388
370
     9
100
AcDbVertex
100
AcDb2dVertex
 10
74.18256782966725
 20
-143.3242271863912
 30
0.0
  0
SEQEND
  5
B5
330
B2
100
AcDbEntity
  8
_U+30EC_U+30A4_U+30E4_U+30FC 1
 62
   179
420
  2234388
370
     9
  0
INSERT
  5
B7
330
1F
100
AcDbEntity
  8
_U+30EC_U+30A4_U+30E4_U+30FC 1
100
AcDbBlockReference
  2
block 5
 10
0.0
 20
0.0
 30
0.0
  0
SPLINE
  5
BF
330
1F
100
AcDbEntity
  8
_U+30EC_U+30A4_U+30E4_U+30FC 1
 62
   179
420
  2234388
370
    25
100
AcDbSpline
210
0.0
220
0.0
230
1.0
 70
    11
 71
     3
 72
    74
 73
    70
 74
     0
 42
0.0000000001
 43
0.0000000001
 12
1.0
 22
0.0
 32
0.0
 13
1.0
 23
0.0
 33
0.0
 40
0.0
 40
0.0
 40
0.0
 40
0.0
 40
1.0
 40
1.0
 40
1.0
 40
2.0
 40
2.0
 40
2.0
 40
3.0
 40
3.0
 40
3.0
 40
4.0
 40
4.0
 40
4.0
 40
5.0
 40
5.0
 40
5.0
 40
6.0
 40
6.0
 40
6.0
 40
7.0
 40
7.0
 40
7.0
 40
8.0
 40
8.0
 40
8.0
 40
9.0
 40
9.0
 40
9.0
 40
10.0
 40
10.0
 40
10.0
 40
11.0
 40
11.0
 40
11.0
 40
12.0
 40
12.0
 40
12.0
 40
13.0
 40
13.0
 40
13.0
 40
14.0
 40
14.0
 40
14.0
 40
15.0
 40
15.0
 40
15.0
 40
16.0
 40
16.0
 40
16.0
 40
17.0
 40
17.0
 40
17.0
 40
18.0
 40
18.0
 40
18.0
 40
19.0
 40
19.0
 40
19.0
 40
20.0
 40
20.0
 40
20.0
 40
21.0
 40
21.0
 40
21.0
 40
22.0
 40
22.0
 40
22.0
 40
23.0
 40
23.0
 40
23.0
 40
23.0
 10
91.19651045116096
 20
-129.1166666343875
 30
0.0
 10
91.19651045116096
 20
-129.1166666343875
 30
0.0
 10
83.20870454383576
 20
-137.1044727435014
 30
0.0
 10
83.20870454383576
 20
-137.1044727435014
 30
0.0
 10
83.15254442365618
 20
-137.1609524657098
 30
0.0
 10
83.07641288054414
 20
-137.1926671879238
 30
0.0
 10
82.99647343813912
 20
-137.1926671879238
 30
0.0
 10
82.83112649791302
 20
-137.1926671879238
 30
0.0
 10
82.69675553488143
 20
-137.0582941324018
 30
0.0
 10
82.69675553488143
 20
-136.8922416324434
 30
0.0
 10
82.69675553488143
 20
-136.8922416324434
 30
0.0
 10
82.69675553488143
 20
-124.8238902465719
 30
0.0
 10
82.69675553488143
 20
-124.8238902465719
 30
0.0
 10
82.14451512654105
 20
-124.8238902465719
 30
0.0
 10
81.6966637490778
 20
-125.2717769131265
 30
0.0
 10
81.6966637490778
 20
-125.8240152463219
 30
0.0
 10
81.6966637490778
 20
-125.8240152463219
 30
0.0
 10
81.6966637490778
 20
-137.3235830212245
 30
0.0
 10
81.6966637490778
 20
-137.3235830212245
 30
0.0
 10
81.6966637490778
 20
-138.4280596876153
 30
0.0
 10
82.59201372623552
 20
-139.3237977429469
 30
0.0
 10
83.69652775685365
 20
-139.3237977429469
 30
0.0
 10
83.69652775685365
 20
-139.3237977429469
 30
0.0
 10
95.19658701577717
 20
-139.3237977429469
 30
0.0
 10
95.19658701577717
 20
-139.3237977429469
 30
0.0
 10
95.74886061279861
 20
-139.3237977429469
 30
0.0
 10
96.19671199026186
 20
-138.8766166319473
 30
0.0
 10
96.19671199026186
 20
-138.3240255209744
 30
0.0
 10
96.19671199026186
 20
-138.3240255209744
 30
0.0
 10
84.12786702038598
 20
-138.3240255209744
 30
0.0
 10
84.12786702038598
 20
-138.3240255209744
 30
0.0
 10
84.04859997898771
 20
-138.3240255209744
 30
0.0
 10
83.9721509132475
 20
-138.292346076538
 30
0.0
 10
83.9159886924581
 20
-138.235831076552
 30
0.0
 10
83.79883331238362
 20
-138.1187088543589
 30
0.0
 10
83.79883331238362
 20
-137.9285263544065
 30
0.0
 10
83.9159886924581
 20
-137.8114041322141
 30
0.0
 10
83.9159886924581
 20
-137.8114041322141
 30
0.0
 10
91.90375932200644
 20
-129.8243035786551
 30
0.0
 10
91.90375932200644
 20
-129.8243035786551
 30
0.0
 10
91.90375932200644
 20
-129.8243035786551
 30
0.0
 10
95.19658701577717
 20
-129.8243035786551
 30
0.0
 10
95.19658701577717
 20
-129.8243035786551
 30
0.0
 10
95.55384506221831
 20
-129.8243035786551
 30
0.0
 10
95.8839039426867
 20
-129.6334155231471
 30
0.0
 10
96.06269171590323
 20
-129.3240646898914
 30
0.0
 10
96.06269171590323
 20
-129.3240646898914
 30
0.0
 10
106.6966836668297
 20
-129.3240646898914
 30
0.0
 10
106.6966836668297
 20
-129.3240646898914
 30
0.0
 10
106.9726264375676
 20
-129.3240646898914
 30
0.0
 10
107.1965697651877
 20
-129.1001213566141
 30
0.0
 10
107.1965697651877
 20
-128.8238258011277
 30
0.0
 10
107.1965697651877
 20
-128.8238258011277
 30
0.0
 10
92.19660014786878
 20
-128.8238258011277
 30
0.0
 10
92.19660014786878
 20
-128.8238258011277
 30
0.0
 10
92.19660014786878
 20
-128.8238258011277
 30
0.0
 10
92.19660014786878
 20
-113.8242438604327
 30
0.0
 10
92.19660014786878
 20
-113.8242438604327
 30
0.0
 10
91.9203045993621
 20
-113.8242438604327
 30
0.0
 10
91.69671404951082
 20
-114.0479755270436
 30
0.0
 10
91.69671404951082
 20
-114.324129971419
 30
0.0
 10
91.69671404951082
 20
-114.324129971419
 30
0.0
 10
91.69671404951082
 20
-124.9579105243161
 30
0.0
 10
91.69671404951082
 20
-124.9579105243161
 30
0.0
 10
91.3870104463009
 20
-125.1367335798271
 30
0.0
 10
91.19651045116096
 20
-125.4667571908556
 30
0.0
 10
91.19651045116096
 20
-125.8240152463219
 30
0.0
 10
91.19651045116096
 20
-125.8240152463219
 30
0.0
 10
91.19651045116096
 20
-129.1166666343875
 30
0.0
 10
91.19651045116096
 20
-129.1166666343875
 30
0.0
  0
HATCH
  5
C0
330
1F
100
AcDbEntity
  8
_U+30EC_U+30A4_U+30E4_U+30FC 1
 62
   253
420
 11711154
100
AcDbHatch
 10
0.0
 20
0.0
 30
0.0
210
0.0
220
0.0
230
1.0
  2
SOLID
 70
     1
 71
     0
 91
        1
 92
        1
 93
        1
 72
     4
 94
        3
 73
     0
 74
     1
 95
       74
 96
       70
 40
0.0
 40
0.0
 40
0.0
 40
0.0
 40
1.0
 40
1.0
 40
1.0
 40
2.0
 40
2.0
 40
2.0
 40
3.0
 40
3.0
 40
3.0
 40
4.0
 40
4.0
 40
4.0
 40
5.0
 40
5.0
 40
5.0
 40
6.0
 40
6.0
 40
6.0
 40
7.0
 40
7.0
 40
7.0
 40
8.0
 40
8.0
 40
8.0
 40
9.0
 40
9.0
 40
9.0
 40
10.0
 40
10.0
 40
10.0
 40
11.0
 40
11.0
 40
11.0
 40
12.0
 40
12.0
 40
12.0
 40
13.0
 40
13.0
 40
13.0
 40
14.0
 40
14.0
 40
14.0
 40
15.0
 40
15.0
 40
15.0
 40
16.0
 40
16.0
 40
16.0
 40
17.0
 40
17.0
 40
17.0
 40
18.0
 40
18.0
 40
18.0
 40
19.0
 40
19.0
 40
19.0
 40
20.0
 40
20.0
 40
20.0
 40
21.0
 40
21.0
 40
21.0
 40
22.0
 40
22.0
 40
22.0
 40
23.0
 40
23.0
 40
23.0
 40
23.0
 10
91.19651045116096
 20
-129.1166666343875
 10
91.19651045116096
 20
-129.1166666343875
 10
83.20870454383576
 20
-137.1044727435014
 10
83.20870454383576
 20
-137.1044727435014
 10
83.15254442365618
 20
-137.1609524657098
 10
83.07641288054414
 20
-137.1926671879238
 10
82.99647343813912
 20
-137.1926671879238
 10
82.83112649791302
 20
-137.1926671879238
 10
82.69675553488143
 20
-137.0582941324018
 10
82.69675553488143
 20
-136.8922416324434
 10
82.69675553488143
 20
-136.8922416324434
 10
82.69675553488143
 20
-124.8238902465719
 10
82.69675553488143
 20
-124.8238902465719
 10
82.14451512654105
 20
-124.8238902465719
 10
81.6966637490778
 20
-125.2717769131265
 10
81.6966637490778
 20
-125.8240152463219
 10
81.6966637490778
 20
-125.8240152463219
 10
81.6966637490778
 20
-137.3235830212245
 10
81.6966637490778
 20
-137.3235830212245
 10
81.6966637490778
 20
-138.4280596876153
 10
82.59201372623552
 20
-139.3237977429469
 10
83.69652775685365
 20
-139.3237977429469
 10
83.69652775685365
 20
-139.3237977429469
 10
95.19658701577717
 20
-139.3237977429469
 10
95.19658701577717
 20
-139.3237977429469
 10
95.74886061279861
 20
-139.3237977429469
 10
96.19671199026186
 20
-138.8766166319473
 10
96.19671199026186
 20
-138.3240255209744
 10
96.19671199026186
 20
-138.3240255209744
 10
84.12786702038598
 20
-138.3240255209744
 10
84.12786702038598
 20
-138.3240255209744
 10
84.04859997898771
 20
-138.3240255209744
 10
83.9721509132475
 20
-138.292346076538
 10
83.9159886924581
 20
-138.235831076552
 10
83.79883331238362
 20
-138.1187088543589
 10
83.79883331238362
 20
-137.9285263544065
 10
83.9159886924581
 20
-137.8114041322141
 10
83.9159886924581
 20
-137.8114041322141
 10
91.90375932200644
 20
-129.8243035786551
 10
91.90375932200644
 20
-129.8243035786551
 10
91.90375932200644
 20
-129.8243035786551
 10
95.19658701577717
 20
-129.8243035786551
 10
95.19658701577717
 20
-129.8243035786551
 10
95.55384506221831
 20
-129.8243035786551
 10
95.8839039426867
 20
-129.6334155231471
 10
96.06269171590323
 20
-129.3240646898914
 10
96.06269171590323
 20
-129.3240646898914
 10
106.6966836668297
 20
-129.3240646898914
 10
106.6966836668297
 20
-129.3240646898914
 10
106.9726264375676
 20
-129.3240646898914
 10
107.1965697651877
 20
-129.1001213566141
 10
107.1965697651877
 20
-128.8238258011277
 10
107.1965697651877
 20
-128.8238258011277
 10
92.19660014786878
 20
-128.8238258011277
 10
92.19660014786878
 20
-128.8238258011277
 10
92.19660014786878
 20
-128.8238258011277
 10
92.19660014786878
 20
-113.8242438604327
 10
92.19660014786878
 20
-113.8242438604327
 10
91.9203045993621
 20
-113.8242438604327
 10
91.69671404951082
 20
-114.0479755270436
 10
91.69671404951082
 20
-114.324129971419
 10
91.69671404951082
 20
-114.324129971419
 10
91.69671404951082
 20
-124.9579105243161
 10
91.69671404951082
 20
-124.9579105243161
 10
91.3870104463009
 20
-125.1367335798271
 10
91.19651045116096
 20
-125.4667571908556
 10
91.19651045116096
 20
-125.8240152463219
 10
91.19651045116096
 20
-125.8240152463219
 10
91.19651045116096
 20
-129.1166666343875
 10
91.19651045116096
 20
-129.1166666343875
 97
        0
 97
        0
 75
     2
 76
     1
 98
        0
  0
POLYLINE
  5
C1
330
1F
100
AcDbEntity
  8
_U+30EC_U+30A4_U+30E4_U+30FC 1
 62
   179
420
  2234388
370
     9
100
AcDb2dPolyline
 66
     1
 10
0.0
 20
0.0
 30
0.0
  0
VERTEX
  5
C2
330
C1
100
AcDbEntity
  8
_U+30EC_U+30A4_U+30E4_U+30FC 1
 62
   179
420
  2234388
370
     9
100
AcDbVertex
100
AcDb2dVertex
 10
80.15428609107248
 20
-120.8232844142388
 30
0.0
  0
VERTEX
  5
C3
330
C1
100
AcDbEntity
  8
_U+30EC_U+30A4_U+30E4_U+30FC 1
 62
   179
420
  2234388
370
     9
100
AcDbVertex
100
AcDb2dVertex
 10
86.19422752322428
 20
-120.8232844142388
 30
0.0
  0
SEQEND
  5
C4
330
C1
100
AcDbEntity
  8
_U+30EC_U+30A4_U+30E4_U+30FC 1
 62
   179
420
  2234388
370
     9
  0
SPLINE
  5
C5
330
1F
100
AcDbEntity
  8
_U+30EC_U+30A4_U+30E4_U+30FC 1
 62
   179
420
  2234388
370
     9
100
AcDbSpline
210
0.0
220
0.0
230
1.0
 70
    11
 71
     3
 72
    17
 73
    13
 74
     0
 42
0.0000000001
 43
0.0000000001
 12
1.0
 22
0.0
 32
0.0
 13
1.0
 23
0.0
 33
0.0
 40
0.0
 40
0.0
 40
0.0
 40
0.0
 40
1.0
 40
1.0
 40
1.0
 40
2.0
 40
2.0
 40
2.0
 40
3.0
 40
3.0
 40
3.0
 40
4.0
 40
4.0
 40
4.0
 40
4.0
 10
81.79413624659107
 20
-120.8196860809061
 30
0.0
 10
81.79413624659107
 20
-120.7645469142534
 30
0.0
 10
81.74936874773319
 20
-120.7197794142645
 30
0.0
 10
81.69422958247324
 20
-120.7197794142645
 30
0.0
 10
81.63912775736789
 20
-120.7197794142645
 30
0.0
 10
81.59432497960148
 20
-120.7645469142534
 30
0.0
 10
81.59432497960148
 20
-120.8196860809061
 30
0.0
 10
81.59432497960148
 20
-120.8747899697813
 30
0.0
 10
81.63912775736789
 20
-120.9195927475478
 30
0.0
 10
81.69422958247324
 20
-120.9195927475478
 30
0.0
 10
81.74936874773319
 20
-120.9195927475478
 30
0.0
 10
81.79413624659107
 20
-120.8747899697813
 30
0.0
 10
81.79413624659107
 20
-120.8196860809061
 30
0.0
  0
POLYLINE
  5
C6
330
1F
100
AcDbEntity
  8
_U+30EC_U+30A4_U+30E4_U+30FC 1
 62
   179
420
  2234388
370
     9
100
AcDb2dPolyline
 66
     1
 10
0.0
 20
0.0
 30
0.0
  0
VERTEX
  5
C7
330
C6
100
AcDbEntity
  8
_U+30EC_U+30A4_U+30E4_U+30FC 1
 62
   179
420
  2234388
370
     9
100
AcDbVertex
100
AcDb2dVertex
 10
81.69422958247324
 20
-122.2796921916523
 30
0.0
  0
VERTEX
  5
C8
330
C6
100
AcDbEntity
  8
_U+30EC_U+30A4_U+30E4_U+30FC 1
 62
   179
420
  2234388
370
     9
100
AcDbVertex
100
AcDb2dVertex
 10
81.69422958247324
 20
-119.8199138589339
 30
0.0
  0
SEQEND
  5
C9
330
C6
100
AcDbEntity
  8
_U+30EC_U+30A4_U+30E4_U+30FC 1
 62
   179
420
  2234388
370
     9
  0
INSERT
  5
CB
330
1F
100
AcDbEntity
  8
_U+30EC_U+30A4_U+30E4_U+30FC 1
100
AcDbBlockReference
  2
block 6
 10
0.0
 20
0.0
 30
0.0
  0
ENDSEC
  0
SECTION
  2
OBJECTS
  0
DICTIONARY
  5
C
330
0
100
AcDbDictionary
281
     1
  3
ACAD_GROUP
350
D
  3
ACAD_LAYOUT
350
1A
  3
ACAD_MATERIAL
350
3B
  3
ACAD_MLEADERSTYLE
350
D1
  3
ACAD_MLINESTYLE
350
17
  3
ACAD_PLOTSETTINGS
350
19
  3
ACAD_PLOTSTYLENAME
350
E
  3
ACAD_TABLESTYLE
350
D0
  3
ACAD_VISUALSTYLE
350
2A
  0
SUN
  5
3F
330
29
100
AcDbSun
 90
        1
290
     0
 63
     7
421
 16777215
 40
1.0
291
     1
 91
  2455826
 92
 54000000
292
     0
 70
     2
 71
   256
280
     1
  0
DICTIONARY
  5
D
102
{ACAD_REACTORS
330
C
102
}
330
C
100
AcDbDictionary
281
     1
  0
DICTIONARY
  5
1A
102
{ACAD_REACTORS
330
C
102
}
330
C
100
AcDbDictionary
281
     1
  3
Layout1
350
1E
  3
Layout2
350
26
  3
Model
350
22
  0
DICTIONARY
  5
3B
102
{ACAD_REACTORS
330
C
102
}
330
C
100
AcDbDictionary
281
     1
  3
ByBlock
350
3D
  3
ByLayer
350
3C
  3
Global
350
3E
  0
DICTIONARY
  5
D1
102
{ACAD_REACTORS
330
C
102
}
330
C
100
AcDbDictionary
281
     1
  0
DICTIONARY
  5
17
102
{ACAD_REACTORS
330
C
102
}
330
C
100
AcDbDictionary
281
     1
  3
Standard
350
18
  0
DICTIONARY
  5
19
102
{ACAD_REACTORS
330
C
102
}
330
C
100
AcDbDictionary
281
     1
  0
ACDBDICTIONARYWDFLT
  5
E
102
{ACAD_REACTORS
330
C
102
}
330
C
100
AcDbDictionary
281
     1
  3
Normal
350
F
100
AcDbDictionaryWithDefault
340
F
  0
DICTIONARY
  5
D0
102
{ACAD_REACTORS
330
C
102
}
330
C
100
AcDbDictionary
281
     1
  0
DICTIONARY
  5
2A
102
{ACAD_REACTORS
330
C
102
}
330
C
100
AcDbDictionary
281
     1
  3
2dWireframe
350
2F
  3
3D Hidden
350
31
  3
3dWireframe
350
30
  3
Basic
350
32
  3
Brighten
350
36
  3
ColorChange
350
3A
  3
Conceptual
350
34
  3
Dim
350
35
  3
Facepattern
350
39
  3
Flat
350
2B
  3
FlatWithEdges
350
2C
  3
Gouraud
350
2D
  3
GouraudWithEdges
350
2E
  3
Linepattern
350
38
  3
Realistic
350
33
  3
Thicken
350
37
  0
LAYOUT
  5
1E
102
{ACAD_REACTORS
330
1A
102
}
330
1A
100
AcDbPlotSettings
  1

  2
none_device
  4

  6

 40
0.0
 41
0.0
 42
0.0
 43
0.0
 44
0.0
 45
0.0
 46
0.0
 47
0.0
 48
0.0
 49
0.0
140
0.0
141
0.0
142
1.0
143
1.0
 70
   688
 72
     0
 73
     0
 74
     5
  7

 75
    16
 76
     0
 77
     2
 78
   300
147
1.0
148
0.0
149
0.0
100
AcDbLayout
  1
Layout1
 70
     1
 71
     1
 10
0.0
 20
0.0
 11
12.0
 21
9.0
 12
0.0
 22
0.0
 32
0.0
 14
1.000000000000000E+20
 24
1.000000000000000E+20
 34
1.000000000000000E+20
 15
-1.000000000000000E+20
 25
-1.000000000000000E+20
 35
-1.000000000000000E+20
146
0.0
 13
0.0
 23
0.0
 33
0.0
 16
1.0
 26
0.0
 36
0.0
 17
0.0
 27
1.0
 37
0.0
 76
     0
330
1B
  0
LAYOUT
  5
26
102
{ACAD_REACTORS
330
1A
102
}
330
1A
100
AcDbPlotSettings
  1

  2
none_device
  4

  6

 40
0.0
 41
0.0
 42
0.0
 43
0.0
 44
0.0
 45
0.0
 46
0.0
 47
0.0
 48
0.0
 49
0.0
140
0.0
141
0.0
142
1.0
143
1.0
 70
   688
 72
     0
 73
     0
 74
     5
  7

 75
    16
 76
     0
 77
     2
 78
   300
147
1.0
148
0.0
149
0.0
100
AcDbLayout
  1
Layout2
 70
     1
 71
     2
 10
0.0
 20
0.0
 11
0.0
 21
0.0
 12
0.0
 22
0.0
 32
0.0
 14
0.0
 24
0.0
 34
0.0
 15
0.0
 25
0.0
 35
0.0
146
0.0
 13
0.0
 23
0.0
 33
0.0
 16
1.0
 26
0.0
 36
0.0
 17
0.0
 27
1.0
 37
0.0
 76
     0
330
23
  0
LAYOUT
  5
22
102
{ACAD_REACTORS
330
1A
102
}
330
1A
100
AcDbPlotSettings
  1

  2
none_device
  4

  6

 40
0.0
 41
0.0
 42
0.0
 43
0.0
 44
0.0
 45
0.0
 46
0.0
 47
0.0
 48
0.0
 49
0.0
140
0.0
141
0.0
142
1.0
143
1.0
 70
  1712
 72
     0
 73
     0
 74
     0
  7

 75
     0
 76
     0
 77
     2
 78
   300
147
1.0
148
0.0
149
0.0
100
AcDbLayout
  1
Model
 70
     1
 71
     0
 10
0.0
 20
0.0
 11
12.0
 21
9.0
 12
0.0
 22
0.0
 32
0.0
 14
1.000000000000000E+20
 24
1.000000000000000E+20
 34
1.000000000000000E+20
 15
-1.000000000000000E+20
 25
-1.000000000000000E+20
 35
-1.000000000000000E+20
146
0.0
 13
0.0
 23
0.0
 33
0.0
 16
1.0
 26
0.0
 36
0.0
 17
0.0
 27
1.0
 37
0.0
 76
     0
330
1F
331
29
  0
MATERIAL
  5
3D
102
{ACAD_REACTORS
330
3B
102
}
330
3B
100
AcDbMaterial
  1
ByBlock
 72
     1
 94
      127
  0
MATERIAL
  5
3C
102
{ACAD_REACTORS
330
3B
102
}
330
3B
100
AcDbMaterial
  1
ByLayer
 72
     1
 94
      127
  0
MATERIAL
  5
3E
102
{ACAD_REACTORS
330
3B
102
}
330
3B
100
AcDbMaterial
  1
Global
 72
     1
 94
      127
  0
MLINESTYLE
  5
18
102
{ACAD_REACTORS
330
17
102
}
330
17
100
AcDbMlineStyle
  2
Standard
 70
     0
  3

 62
   256
 51
90.0
 52
90.0
 71
     2
 49
0.5
 62
   256
  6
BYLAYER
 49
-0.5
 62
   256
  6
BYLAYER
  0
ACDBPLACEHOLDER
  5
F
102
{ACAD_REACTORS
330
E
102
}
330
E
  0
VISUALSTYLE
  5
2F
102
{ACAD_REACTORS
330
2A
102
}
330
2A
100
AcDbVisualStyle
  2
2dWireframe
 70
     4
177
     2
291
     0
 71
     0
176
     1
 72
     2
176
     1
 73
     0
176
     1
 90
        0
176
     1
 40
-0.6
176
     1
 41
-30.0
176
     1
 62
     5
 63
     7
421
 16777215
176
     1
 74
     1
176
     1
 91
        4
176
     1
 64
     7
176
     1
 65
   257
176
     1
 75
     1
176
     1
175
     1
176
     1
 42
1.0
176
     1
 92
        0
176
     1
 66
   257
176
     1
 43
1.0
176
     1
 76
     1
176
     1
 77
     6
176
     1
 78
     2
176
     1
 67
     7
176
     1
 79
     5
176
     1
170
     0
176
     1
171
     0
176
     1
290
     0
176
     1
 93
        1
176
     1
 44
0.0
176
     1
173
     0
176
     1
  0
VISUALSTYLE
  5
31
102
{ACAD_REACTORS
330
2A
102
}
330
2A
100
AcDbVisualStyle
  2
3D Hidden
 70
     6
177
     2
291
     0
 71
     1
176
     1
 72
     2
176
     1
 73
     2
176
     1
 90
        0
176
     1
 40
-0.6
176
     1
 41
-30.0
176
     1
 62
     5
 63
     7
421
 16777215
176
     1
 74
     2
176
     1
 91
        2
176
     1
 64
     7
176
     1
 65
   257
176
     1
 75
     2
176
     1
175
     1
176
     1
 42
40.0
176
     1
 92
        0
176
     1
 66
   257
176
     1
 43
1.0
176
     1
 76
     1
176
     1
 77
     6
176
     1
 78
     2
176
     1
 67
     7
176
     1
 79
     3
176
     1
170
     0
176
     1
171
     0
176
     1
290
     0
176
     1
 93
        1
176
     1
 44
0.0
176
     1
173
     0
176
     1
  0
VISUALSTYLE
  5
30
102
{ACAD_REACTORS
330
2A
102
}
330
2A
100
AcDbVisualStyle
  2
3dWireframe
 70
     5
177
     2
291
     0
 71
     0
176
     1
 72
     2
176
     1
 73
     0
176
     1
 90
        0
176
     1
 40
-0.6
176
     1
 41
-30.0
176
     1
 62
     5
 63
     7
421
 16777215
176
     1
 74
     1
176
     1
 91
        4
176
     1
 64
     7
176
     1
 65
   257
176
     1
 75
     1
176
     1
175
     1
176
     1
 42
1.0
176
     1
 92
        0
176
     1
 66
   257
176
     1
 43
1.0
176
     1
 76
     1
176
     1
 77
     6
176
     1
 78
     2
176
     1
 67
     7
176
     1
 79
     5
176
     1
170
     0
176
     1
171
     0
176
     1
290
     0
176
     1
 93
        1
176
     1
 44
0.0
176
     1
173
     0
176
     1
  0
VISUALSTYLE
  5
32
102
{ACAD_REACTORS
330
2A
102
}
330
2A
100
AcDbVisualStyle
  2
Basic
 70
     7
177
     2
291
     1
 71
     1
176
     1
 72
     0
176
     1
 73
     1
176
     1
 90
        0
176
     1
 40
-0.6
176
     1
 41
-30.0
176
     1
 62
     5
 63
     7
421
 16777215
176
     1
 74
     0
176
     1
 91
        4
176
     1
 64
     7
176
     1
 65
   257
176
     1
 75
     1
176
     1
175
     1
176
     1
 42
1.0
176
     1
 92
        8
176
     1
 66
     7
176
     1
 43
1.0
176
     1
 76
     1
176
     1
 77
     6
176
     1
 78
     2
176
     1
 67
     7
176
     1
 79
     5
176
     1
170
     0
176
     1
171
     0
176
     1
290
     0
176
     1
 93
        1
176
     1
 44
0.0
176
     1
173
     0
176
     1
  0
VISUALSTYLE
  5
36
102
{ACAD_REACTORS
330
2A
102
}
330
2A
100
AcDbVisualStyle
  2
Brighten
 70
    12
177
     2
291
     1
 71
     2
176
     1
 72
     2
176
     1
 73
     0
176
     1
 90
        0
176
     1
 40
-0.6
176
     1
 41
-30.0
176
     1
 62
     5
 63
     7
421
 16777215
176
     1
 74
     1
176
     1
 91
        4
176
     1
 64
     7
176
     1
 65
   257
176
     1
 75
     1
176
     1
175
     1
176
     1
 42
1.0
176
     1
 92
        8
176
     1
 66
     7
176
     1
 43
1.0
176
     1
 76
     1
176
     1
 77
     6
176
     1
 78
     2
176
     1
 67
     7
176
     1
 79
     5
176
     1
170
     0
176
     1
171
     0
176
     1
290
     0
176
     1
 93
        1
176
     1
 44
50.0
176
     1
173
     0
176
     1
  0
VISUALSTYLE
  5
3A
102
{ACAD_REACTORS
330
2A
102
}
330
2A
100
AcDbVisualStyle
  2
ColorChange
 70
    16
177
     2
291
     1
 71
     2
176
     1
 72
     2
176
     1
 73
     3
176
     1
 90
        0
176
     1
 40
-0.6
176
     1
 41
-30.0
176
     1
 62
     5
 63
     8
421
  8421504
176
     1
 74
     1
176
     1
 91
        4
176
     1
 64
     7
176
     1
 65
   257
176
     1
 75
     1
176
     1
175
     1
176
     1
 42
1.0
176
     1
 92
        8
176
     1
 66
     8
424
  8421504
176
     1
 43
1.0
176
     1
 76
     1
176
     1
 77
     6
176
     1
 78
     2
176
     1
 67
     7
176
     1
 79
     5
176
     1
170
     0
176
     1
171
     0
176
     1
290
     0
176
     1
 93
        1
176
     1
 44
0.0
176
     1
173
     0
176
     1
  0
VISUALSTYLE
  5
34
102
{ACAD_REACTORS
330
2A
102
}
330
2A
100
AcDbVisualStyle
  2
Conceptual
 70
     9
177
     2
291
     0
 71
     3
176
     1
 72
     2
176
     1
 73
     0
176
     1
 90
        0
176
     1
 40
-0.6
176
     1
 41
-30.0
176
     1
 62
     5
 63
     7
421
 16777215
176
     1
 74
     2
176
     1
 91
        2
176
     1
 64
     7
176
     1
 65
   257
176
     1
 75
     1
176
     1
175
     1
176
     1
 42
40.0
176
     1
 92
        8
176
     1
 66
     7
176
     1
 43
1.0
176
     1
 76
     1
176
     1
 77
     6
176
     1
 78
     2
176
     1
 67
     7
176
     1
 79
     3
176
     1
170
     0
176
     1
171
     0
176
     1
290
     0
176
     1
 93
        1
176
     1
 44
0.0
176
     1
173
     0
176
     1
  0
VISUALSTYLE
  5
35
102
{ACAD_REACTORS
330
2A
102
}
330
2A
100
AcDbVisualStyle
  2
Dim
 70
    11
177
     2
291
     1
 71
     2
176
     1
 72
     2
176
     1
 73
     0
176
     1
 90
        0
176
     1
 40
-0.6
176
     1
 41
-30.0
176
     1
 62
     5
 63
     7
421
 16777215
176
     1
 74
     1
176
     1
 91
        4
176
     1
 64
     7
176
     1
 65
   257
176
     1
 75
     1
176
     1
175
     1
176
     1
 42
1.0
176
     1
 92
        8
176
     1
 66
     7
176
     1
 43
1.0
176
     1
 76
     1
176
     1
 77
     6
176
     1
 78
     2
176
     1
 67
     7
176
     1
 79
     5
176
     1
170
     0
176
     1
171
     0
176
     1
290
     0
176
     1
 93
        1
176
     1
 44
-50.0
176
     1
173
     0
176
     1
  0
VISUALSTYLE
  5
39
102
{ACAD_REACTORS
330
2A
102
}
330
2A
100
AcDbVisualStyle
  2
Facepattern
 70
    15
177
     2
291
     1
 71
     2
176
     1
 72
     2
176
     1
 73
     0
176
     1
 90
        0
176
     1
 40
-0.6
176
     1
 41
-30.0
176
     1
 62
     5
 63
     7
421
 16777215
176
     1
 74
     1
176
     1
 91
        4
176
     1
 64
     7
176
     1
 65
   257
176
     1
 75
     1
176
     1
175
     1
176
     1
 42
1.0
176
     1
 92
        8
176
     1
 66
     7
176
     1
 43
1.0
176
     1
 76
     1
176
     1
 77
     6
176
     1
 78
     2
176
     1
 67
     7
176
     1
 79
     5
176
     1
170
     0
176
     1
171
     0
176
     1
290
     0
176
     1
 93
        1
176
     1
 44
0.0
176
     1
173
     0
176
     1
  0
VISUALSTYLE
  5
2B
102
{ACAD_REACTORS
330
2A
102
}
330
2A
100
AcDbVisualStyle
  2
Flat
 70
     0
177
     2
291
     1
 71
     2
176
     1
 72
     1
176
     1
 73
     1
176
     1
 90
        2
176
     1
 40
-0.6
176
     1
 41
30.0
176
     1
 62
     5
 63
     7
421
 16777215
176
     1
 74
     0
176
     1
 91
        4
176
     1
 64
     7
176
     1
 65
   257
176
     1
 75
     1
176
     1
175
     1
176
     1
 42
1.0
176
     1
 92
        8
176
     1
 66
     7
176
     1
 43
1.0
176
     1
 76
     1
176
     1
 77
     6
176
     1
 78
     2
176
     1
 67
     7
176
     1
 79
     5
176
     1
170
     0
176
     1
171
     0
176
     1
290
     0
176
     1
 93
       13
176
     1
 44
0.0
176
     1
173
     0
176
     1
  0
VISUALSTYLE
  5
2C
102
{ACAD_REACTORS
330
2A
102
}
330
2A
100
AcDbVisualStyle
  2
FlatWithEdges
 70
     1
177
     2
291
     1
 71
     2
176
     1
 72
     1
176
     1
 73
     1
176
     1
 90
        2
176
     1
 40
-0.6
176
     1
 41
30.0
176
     1
 62
     5
 63
     7
421
 16777215
176
     1
 74
     1
176
     1
 91
        4
176
     1
 64
     7
176
     1
 65
   257
176
     1
 75
     1
176
     1
175
     1
176
     1
 42
1.0
176
     1
 92
        0
176
     1
 66
   257
176
     1
 43
1.0
176
     1
 76
     1
176
     1
 77
     6
176
     1
 78
     2
176
     1
 67
     7
176
     1
 79
     5
176
     1
170
     0
176
     1
171
     0
176
     1
290
     0
176
     1
 93
       13
176
     1
 44
0.0
176
     1
173
     0
176
     1
  0
VISUALSTYLE
  5
2D
102
{ACAD_REACTORS
330
2A
102
}
330
2A
100
AcDbVisualStyle
  2
Gouraud
 70
     2
177
     2
291
     1
 71
     2
176
     1
 72
     2
176
     1
 73
     1
176
     1
 90
        2
176
     1
 40
-0.6
176
     1
 41
30.0
176
     1
 62
     5
 63
     7
421
 16777215
176
     1
 74
     0
176
     1
 91
        4
176
     1
 64
     7
176
     1
 65
   257
176
     1
 75
     1
176
     1
175
     1
176
     1
 42
1.0
176
     1
 92
        0
176
     1
 66
     7
176
     1
 43
1.0
176
     1
 76
     1
176
     1
 77
     6
176
     1
 78
     2
176
     1
 67
     7
176
     1
 79
     5
176
     1
170
     0
176
     1
171
     0
176
     1
290
     0
176
     1
 93
       13
176
     1
 44
0.0
176
     1
173
     0
176
     1
  0
VISUALSTYLE
  5
2E
102
{ACAD_REACTORS
330
2A
102
}
330
2A
100
AcDbVisualStyle
  2
GouraudWithEdges
 70
     3
177
     2
291
     1
 71
     2
176
     1
 72
     2
176
     1
 73
     1
176
     1
 90
        2
176
     1
 40
-0.6
176
     1
 41
30.0
176
     1
 62
     5
 63
     7
421
 16777215
176
     1
 74
     1
176
     1
 91
        4
176
     1
 64
     7
176
     1
 65
   257
176
     1
 75
     1
176
     1
175
     1
176
     1
 42
1.0
176
     1
 92
        0
176
     1
 66
   257
176
     1
 43
1.0
176
     1
 76
     1
176
     1
 77
     6
176
     1
 78
     2
176
     1
 67
     7
176
     1
 79
     5
176
     1
170
     0
176
     1
171
     0
176
     1
290
     0
176
     1
 93
       13
176
     1
 44
0.0
176
     1
173
     0
176
     1
  0
VISUALSTYLE
  5
38
102
{ACAD_REACTORS
330
2A
102
}
330
2A
100
AcDbVisualStyle
  2
Linepattern
 70
    14
177
     2
291
     1
 71
     2
176
     1
 72
     2
176
     1
 73
     0
176
     1
 90
        0
176
     1
 40
-0.6
176
     1
 41
-30.0
176
     1
 62
     5
 63
     7
421
 16777215
176
     1
 74
     1
176
     1
 91
        4
176
     1
 64
     7
176
     1
 65
   257
176
     1
 75
     7
176
     1
175
     7
176
     1
 42
1.0
176
     1
 92
        8
176
     1
 66
     7
176
     1
 43
1.0
176
     1
 76
     1
176
     1
 77
     6
176
     1
 78
     2
176
     1
 67
     7
176
     1
 79
     5
176
     1
170
     0
176
     1
171
     0
176
     1
290
     0
176
     1
 93
        1
176
     1
 44
0.0
176
     1
173
     0
176
     1
  0
VISUALSTYLE
  5
33
102
{ACAD_REACTORS
330
2A
102
}
330
2A
100
AcDbVisualStyle
  2
Realistic
 70
     8
177
     2
291
     0
 71
     2
176
     1
 72
     2
176
     1
 73
     0
176
     1
 90
        0
176
     1
 40
-0.6
176
     1
 41
-30.0
176
     1
 62
     5
 63
     7
421
 16777215
176
     1
 74
     1
176
     1
 91
        0
176
     1
 64
     7
176
     1
 65
   257
176
     1
 75
     1
176
     1
175
     1
176
     1
 42
1.0
176
     1
 92
        8
176
     1
 66
     8
424
  7895160
176
     1
 43
1.0
176
     1
 76
     1
176
     1
 77
     6
176
     1
 78
     2
176
     1
 67
     7
176
     1
 79
     5
176
     1
170
     0
176
     1
171
     0
176
     1
290
     0
176
     1
 93
       13
176
     1
 44
0.0
176
     1
173
     0
176
     1
  0
VISUALSTYLE
  5
37
102
{ACAD_REACTORS
330
2A
102
}
330
2A
100
AcDbVisualStyle
  2
Thicken
 70
    13
177
     2
291
     1
 71
     2
176
     1
 72
     2
176
     1
 73
     0
176
     1
 90
        0
176
     1
 40
-0.6
176
     1
 41
-30.0
176
     1
 62
     5
 63
     7
421
 16777215
176
     1
 74
     1
176
     1
 91
        4
176
     1
 64
     7
176
     1
 65
   257
176
     1
 75
     1
176
     1
175
     1
176
     1
 42
1.0
176
     1
 92
       12
176
     1
 66
     7
176
     1
 43
1.0
176
     1
 76
     1
176
     1
 77
     6
176
     1
 78
     2
176
     1
 67
     7
176
     1
 79
     5
176
     1
170
     0
176
     1
171
     0
176
     1
290
     0
176
     1
 93
        1
176
     1
 44
0.0
176
     1
173
     0
176
     1
  0
ENDSEC
  0
EOF
