  0
SECTION
  2
HEADER
  9
$ACADVER
  1
AC1024
  9
$ACADMAINTVER
 70
     6
  9
$DWGCODEPAGE
  3
UNDEFINED
  9
$INSBASE
 10
0.0
 20
0.0
 30
0.0
  9
$EXTMIN
 10
1.000000000000000E+20
 20
1.000000000000000E+20
 30
1.000000000000000E+20
  9
$EXTMAX
 10
-1.000000000000000E+20
 20
-1.000000000000000E+20
 30
-1.000000000000000E+20
  9
$LIMMIN
 10
0.0
 20
0.0
  9
$LIMMAX
 10
12.0
 20
9.0
  9
$ORTHOMODE
 70
     0
  9
$REGENMODE
 70
     1
  9
$FILLMODE
 70
     1
  9
$QTEXTMODE
 70
     0
  9
$MIRRTEXT
 70
     1
  9
$LTSCALE
 40
1.0
  9
$ATTMODE
 70
     1
  9
$TEXTSIZE
 40
0.2
  9
$TRACEWID
 40
0.05
  9
$TEXTSTYLE
  7
Standard
  9
$CLAYER
  8
0
  9
$CELTYPE
  6
ByLayer
  9
$CECOLOR
 62
   256
  9
$CELTSCALE
 40
1.0
  9
$DISPSILH
 70
     0
  9
$DIMSCALE
 40
1.0
  9
$DIMASZ
 40
0.18
  9
$DIMEXO
 40
0.0625
  9
$DIMDLI
 40
0.38
  9
$DIMRND
 40
0.0
  9
$DIMDLE
 40
0.0
  9
$DIMEXE
 40
0.18
  9
$DIMTP
 40
0.0
  9
$DIMTM
 40
0.0
  9
$DIMTXT
 40
0.18
  9
$DIMCEN
 40
0.09
  9
$DIMTSZ
 40
0.0
  9
$DIMTOL
 70
     0
  9
$DIMLIM
 70
     0
  9
$DIMTIH
 70
     1
  9
$DIMTOH
 70
     1
  9
$DIMSE1
 70
     0
  9
$DIMSE2
 70
     0
  9
$DIMTAD
 70
     0
  9
$DIMZIN
 70
     0
  9
$DIMBLK
  1

  9
$DIMASO
 70
     1
  9
$DIMSHO
 70
     1
  9
$DIMPOST
  1

  9
$DIMAPOST
  1

  9
$DIMALT
 70
     0
  9
$DIMALTD
 70
     2
  9
$DIMALTF
 40
25.4
  9
$DIMLFAC
 40
1.0
  9
$DIMTOFL
 70
     0
  9
$DIMTVP
 40
0.0
  9
$DIMTIX
 70
     0
  9
$DIMSOXD
 70
     0
  9
$DIMSAH
 70
     0
  9
$DIMBLK1
  1

  9
$DIMBLK2
  1

  9
$DIMSTYLE
  2
Standard
  9
$DIMCLRD
 70
     0
  9
$DIMCLRE
 70
     0
  9
$DIMCLRT
 70
     0
  9
$DIMTFAC
 40
1.0
  9
$DIMGAP
 40
0.09
  9
$DIMJUST
 70
     0
  9
$DIMSD1
 70
     0
  9
$DIMSD2
 70
     0
  9
$DIMTOLJ
 70
     1
  9
$DIMTZIN
 70
     0
  9
$DIMALTZ
 70
     0
  9
$DIMALTTZ
 70
     0
  9
$DIMUPT
 70
     0
  9
$DIMDEC
 70
     4
  9
$DIMTDEC
 70
     4
  9
$DIMALTU
 70
     2
  9
$DIMALTTD
 70
     2
  9
$DIMTXSTY
  7
Standard
  9
$DIMAUNIT
 70
     0
  9
$DIMADEC
 70
     0
  9
$DIMALTRND
 40
0.0
  9
$DIMAZIN
 70
     0
  9
$DIMDSEP
 70
    46
  9
$DIMATFIT
 70
     3
  9
$DIMFRAC
 70
     0
  9
$DIMLDRBLK
  1

  9
$DIMLUNIT
 70
     2
  9
$DIMLWD
 70
    -2
  9
$DIMLWE
 70
    -2
  9
$DIMTMOVE
 70
     0
  9
$DIMFXL
 40
1.0
  9
$DIMFXLON
 70
     0
  9
$DIMJOGANG
 40
0.7853981633974483
  9
$DIMTFILL
 70
     0
  9
$DIMTFILLCLR
 70
     0
  9
$DIMARCSYM
 70
     0
  9
$DIMLTYPE
  6

  9
$DIMLTEX1
  6

  9
$DIMLTEX2
  6

  9
$DIMTXTDIRECTION
 70
     0
  9
$LUNITS
 70
     2
  9
$LUPREC
 70
     4
  9
$SKETCHINC
 40
0.1
  9
$FILLETRAD
 40
0.5
  9
$AUNITS
 70
     0
  9
$AUPREC
 70
     0
  9
$MENU
  1
.
  9
$ELEVATION
 40
0.0
  9
$PELEVATION
 40
0.0
  9
$THICKNESS
 40
0.0
  9
$LIMCHECK
 70
     0
  9
$CHAMFERA
 40
0.5
  9
$CHAMFERB
 40
0.5
  9
$CHAMFERC
 40
1.0
  9
$CHAMFERD
 40
0.0
  9
$SKPOLY
 70
     0
  9
$TDCREATE
 40
2457917.619270822
  9
$TDUCREATE
 40
2457917.244270833
  9
$TDUPDATE
 40
2457917.619270822
  9
$TDUUPDATE
 40
2457917.244270833
  9
$TDINDWG
 40
0.0000000116
  9
$TDUSRTIMER
 40
0.0000000116
  9
$USRTIMER
 70
     1
  9
$ANGBASE
 50
0.0
  9
$ANGDIR
 70
     0
  9
$PDMODE
 70
     0
  9
$PDSIZE
 40
0.0
  9
$PLINEWID
 40
0.0
  9
$SPLFRAME
 70
     0
  9
$SPLINETYPE
 70
     6
  9
$SPLINESEGS
 70
     8
  9
$HANDSEED
  5
EF
  9
$SURFTAB1
 70
     6
  9
$SURFTAB2
 70
     6
  9
$SURFTYPE
 70
     6
  9
$SURFU
 70
     6
  9
$SURFV
 70
     6
  9
$UCSBASE
  2

  9
$UCSNAME
  2

  9
$UCSORG
 10
0.0
 20
0.0
 30
0.0
  9
$UCSXDIR
 10
1.0
 20
0.0
 30
0.0
  9
$UCSYDIR
 10
0.0
 20
1.0
 30
0.0
  9
$UCSORTHOREF
  2

  9
$UCSORTHOVIEW
 70
     0
  9
$UCSORGTOP
 10
0.0
 20
0.0
 30
0.0
  9
$UCSORGBOTTOM
 10
0.0
 20
0.0
 30
0.0
  9
$UCSORGLEFT
 10
0.0
 20
0.0
 30
0.0
  9
$UCSORGRIGHT
 10
0.0
 20
0.0
 30
0.0
  9
$UCSORGFRONT
 10
0.0
 20
0.0
 30
0.0
  9
$UCSORGBACK
 10
0.0
 20
0.0
 30
0.0
  9
$PUCSBASE
  2

  9
$PUCSNAME
  2

  9
$PUCSORG
 10
0.0
 20
0.0
 30
0.0
  9
$PUCSXDIR
 10
1.0
 20
0.0
 30
0.0
  9
$PUCSYDIR
 10
0.0
 20
1.0
 30
0.0
  9
$PUCSORTHOREF
  2

  9
$PUCSORTHOVIEW
 70
     0
  9
$PUCSORGTOP
 10
0.0
 20
0.0
 30
0.0
  9
$PUCSORGBOTTOM
 10
0.0
 20
0.0
 30
0.0
  9
$PUCSORGLEFT
 10
0.0
 20
0.0
 30
0.0
  9
$PUCSORGRIGHT
 10
0.0
 20
0.0
 30
0.0
  9
$PUCSORGFRONT
 10
0.0
 20
0.0
 30
0.0
  9
$PUCSORGBACK
 10
0.0
 20
0.0
 30
0.0
  9
$USERI1
 70
     0
  9
$USERI2
 70
     0
  9
$USERI3
 70
     0
  9
$USERI4
 70
     0
  9
$USERI5
 70
     0
  9
$USERR1
 40
0.0
  9
$USERR2
 40
0.0
  9
$USERR3
 40
0.0
  9
$USERR4
 40
0.0
  9
$USERR5
 40
0.0
  9
$WORLDVIEW
 70
     1
  9
$SHADEDGE
 70
     3
  9
$SHADEDIF
 70
    70
  9
$TILEMODE
 70
     1
  9
$MAXACTVP
 70
    64
  9
$PINSBASE
 10
0.0
 20
0.0
 30
0.0
  9
$PLIMCHECK
 70
     0
  9
$PEXTMIN
 10
1.000000000000000E+20
 20
1.000000000000000E+20
 30
1.000000000000000E+20
  9
$PEXTMAX
 10
-1.000000000000000E+20
 20
-1.000000000000000E+20
 30
-1.000000000000000E+20
  9
$PLIMMIN
 10
0.0
 20
0.0
  9
$PLIMMAX
 10
12.0
 20
9.0
  9
$UNITMODE
 70
     0
  9
$VISRETAIN
 70
     1
  9
$PLINEGEN
 70
     0
  9
$PSLTSCALE
 70
     1
  9
$TREEDEPTH
 70
  3020
  9
$CMLSTYLE
  2
Standard
  9
$CMLJUST
 70
     0
  9
$CMLSCALE
 40
1.0
  9
$PROXYGRAPHICS
 70
     1
  9
$MEASUREMENT
 70
     0
  9
$CELWEIGHT
370
    -1
  9
$ENDCAPS
280
     0
  9
$JOINSTYLE
280
     0
  9
$LWDISPLAY
290
     1
  9
$INSUNITS
 70
     1
  9
$HYPERLINKBASE
  1

  9
$STYLESHEET
  1

  9
$XEDIT
290
     1
  9
$CEPSNTYPE
380
     0
  9
$PSTYLEMODE
290
     1
  9
$FINGERPRINTGUID
  2
{DA353820-ACE5-17D1-BB84-0CDDDDE0A62C}
  9
$VERSIONGUID
  2
{FAEB1C32-E019-11D5-929B-00C0DF256EC4}
  9
$EXTNAMES
290
     1
  9
$PSVPSCALE
 40
0.0
  9
$OLESTARTUP
290
     0
  9
$SORTENTS
280
   127
  9
$INDEXCTL
280
     0
  9
$HIDETEXT
280
     1
  9
$XCLIPFRAME
280
     2
  9
$HALOGAP
280
     0
  9
$OBSCOLOR
 70
   257
  9
$OBSLTYPE
280
     0
  9
$INTERSECTIONDISPLAY
280
     0
  9
$INTERSECTIONCOLOR
 70
   257
  9
$DIMASSOC
280
     2
  9
$PROJECTNAME
  1

  9
$CAMERADISPLAY
290
     0
  9
$LENSLENGTH
 40
50.0
  9
$CAMERAHEIGHT
 40
0.0
  9
$STEPSPERSEC
 40
2.0
  9
$STEPSIZE
 40
6.0
  9
$3DDWFPREC
 40
2.0
  9
$PSOLWIDTH
 40
0.25
  9
$PSOLHEIGHT
 40
4.0
  9
$LOFTANG1
 40
1.570796326794897
  9
$LOFTANG2
 40
1.570796326794897
  9
$LOFTMAG1
 40
0.0
  9
$LOFTMAG2
 40
0.0
  9
$LOFTPARAM
 70
     7
  9
$LOFTNORMALS
280
     1
  9
$LATITUDE
 40
37.795
  9
$LONGITUDE
 40
-122.394
  9
$NORTHDIRECTION
 40
0.0
  9
$TIMEZONE
 70
 -8000
  9
$LIGHTGLYPHDISPLAY
280
     1
  9
$TILEMODELIGHTSYNCH
280
     1
  9
$CMATERIAL
347
3C
  9
$SOLIDHIST
280
     1
  9
$SHOWHIST
280
     1
  9
$DWFFRAME
280
     2
  9
$DGNFRAME
280
     2
  9
$REALWORLDSCALE
290
     1
  9
$INTERFERECOLOR
 62
   256
  9
$CSHADOW
280
     0
  9
$SHADOWPLANELOCATION
 40
0.0
  0
ENDSEC
  0
SECTION
  2
CLASSES
  0
CLASS
  1
ACDBDICTIONARYWDFLT
  2
AcDbDictionaryWithDefault
  3
ObjectDBX Classes
 90
        0
 91
        4
280
     0
281
     0
  0
CLASS
  1
VISUALSTYLE
  2
AcDbVisualStyle
  3
ObjectDBX Classes
 90
     4095
 91
        4
280
     0
281
     0
  0
CLASS
  1
MATERIAL
  2
AcDbMaterial
  3
ObjectDBX Classes
 90
     1153
 91
        4
280
     0
281
     0
  0
CLASS
  1
SUN
  2
AcDbSun
  3
SCENEOE
 90
     1024
 91
        4
280
     0
281
     0
  0
ENDSEC
  0
SECTION
  2
TABLES
  0
TABLE
  2
VPORT
  5
8
330
0
100
AcDbSymbolTable
 70
     1
  0
VPORT
  5
29
330
8
100
AcDbSymbolTableRecord
100
AcDbViewportTableRecord
  2
*Active
 70
     0
 10
0.0
 20
0.0
 11
1.0
 21
1.0
 12
0.0
 22
0.0
 13
0.0
 23
0.0
 14
0.5
 24
0.5
 15
0.5
 25
0.5
 16
0.0
 26
0.0
 36
1.0
 17
91.00082462281999
 27
-128.4993055234307
 37
0.0
 40
256.9986110468615
 41
0.7081814508812795
 42
50.0
 43
0.0
 44
0.0
 50
0.0
 51
0.0
 71
     0
 72
   100
 73
     1
 74
     3
 75
     0
 76
     0
 77
     0
 78
     0
281
     0
 65
     1
110
0.0
120
0.0
130
0.0
111
1.0
121
0.0
131
0.0
112
0.0
122
1.0
132
0.0
 79
     0
146
0.0
 60
     3
 61
     5
292
     1
282
     1
141
0.0
142
0.0
 63
   250
361
3F
  0
ENDTAB
  0
TABLE
  2
LTYPE
  5
5
330
0
100
AcDbSymbolTable
 70
     2
  0
LTYPE
  5
14
330
5
100
AcDbSymbolTableRecord
100
AcDbLinetypeTableRecord
  2
ByBlock
 70
     0
  3

 72
    65
 73
     0
 40
0.0
  0
LTYPE
  5
15
330
5
100
AcDbSymbolTableRecord
100
AcDbLinetypeTableRecord
  2
ByLayer
 70
     0
  3

 72
    65
 73
     0
 40
0.0
  0
LTYPE
  5
16
330
5
100
AcDbSymbolTableRecord
100
AcDbLinetypeTableRecord
  2
Continuous
 70
     0
  3
Solid line
 72
    65
 73
     0
 40
0.0
  0
LTYPE
  5
47
330
5
100
AcDbSymbolTableRecord
100
AcDbLinetypeTableRecord
  2
AI-Linetype-1
 70
     0
  3
Adobe Illustrator Linetype No. 1
 72
    65
 73
     2
 40
1.411111110758333
 49
0.7055555553791667
 74
     0
 49
-0.7055555553791667
 74
     0
  0
ENDTAB
  0
TABLE
  2
LAYER
  5
2
330
0
100
AcDbSymbolTable
 70
     2
  0
LAYER
  5
10
330
2
100
AcDbSymbolTableRecord
100
AcDbLayerTableRecord
  2
0
 70
     0
 62
     7
  6
Continuous
370
    -3
390
F
347
3E
  0
LAYER
  5
40
330
2
100
AcDbSymbolTableRecord
100
AcDbLayerTableRecord
  2
_U+30EC_U+30A4_U+30E4_U+30FC 1
 70
     0
 62
     7
  6
Continuous
370
    -3
390
F
347
3E
  0
ENDTAB
  0
TABLE
  2
STYLE
  5
3
330
0
100
AcDbSymbolTable
 70
     1
  0
STYLE
  5
11
330
3
100
AcDbSymbolTableRecord
100
AcDbTextStyleTableRecord
  2
Standard
 70
     0
 40
0.0
 41
1.0
 50
0.0
 71
     0
 42
0.2
  3
txt
  4

  0
ENDTAB
  0
TABLE
  2
VIEW
  5
6
330
0
100
AcDbSymbolTable
 70
     0
  0
ENDTAB
  0
TABLE
  2
UCS
  5
7
330
0
100
AcDbSymbolTable
 70
     0
  0
ENDTAB
  0
TABLE
  2
APPID
  5
9
330
0
100
AcDbSymbolTable
 70
     1
  0
APPID
  5
12
330
9
100
AcDbSymbolTableRecord
100
AcDbRegAppTableRecord
  2
ACAD
 70
     0
  0
ENDTAB
  0
TABLE
  2
DIMSTYLE
  5
A
330
0
100
AcDbSymbolTable
 70
     1
100
AcDbDimStyleTable
  0
DIMSTYLE
105
27
330
A
100
AcDbSymbolTableRecord
100
AcDbDimStyleTableRecord
  2
Standard
 70
     0
178
     0
340
11
  0
ENDTAB
  0
TABLE
  2
BLOCK_RECORD
  5
1
330
0
100
AcDbSymbolTable
 70
     6
  0
BLOCK_RECORD
  5
1F
330
1
100
AcDbSymbolTableRecord
100
AcDbBlockTableRecord
  2
*Model_Space
340
22
 70
     0
280
     1
281
     0
  0
BLOCK_RECORD
  5
1B
330
1
100
AcDbSymbolTableRecord
100
AcDbBlockTableRecord
  2
*Paper_Space
340
1E
 70
     0
280
     1
281
     0
  0
BLOCK_RECORD
  5
23
330
1
100
AcDbSymbolTableRecord
100
AcDbBlockTableRecord
  2
*Paper_Space0
340
26
 70
     0
280
     1
281
     0
  0
BLOCK_RECORD
  5
8A
330
1
100
AcDbSymbolTableRecord
100
AcDbBlockTableRecord
  2
block 2
340
0
102
{BLKREFS
331
8B
102
}
 70
     0
280
     1
281
     0
  0
BLOCK_RECORD
  5
9E
330
1
100
AcDbSymbolTableRecord
100
AcDbBlockTableRecord
  2
block 3
340
0
102
{BLKREFS
331
9F
102
}
 70
     0
280
     1
281
     0
  0
BLOCK_RECORD
  5
BC
330
1
100
AcDbSymbolTableRecord
100
AcDbBlockTableRecord
  2
block 4
340
0
102
{BLKREFS
331
BD
102
}
 70
     0
280
     1
281
     0
  0
BLOCK_RECORD
  5
D5
330
1
100
AcDbSymbolTableRecord
100
AcDbBlockTableRecord
  2
block 5
340
0
102
{BLKREFS
331
D6
102
}
 70
     0
280
     1
281
     0
  0
BLOCK_RECORD
  5
E7
330
1
100
AcDbSymbolTableRecord
100
AcDbBlockTableRecord
  2
block 6
340
0
102
{BLKREFS
331
E8
102
}
 70
     0
280
     1
281
     0
  0
ENDTAB
  0
ENDSEC
  0
SECTION
  2
BLOCKS
  0
BLOCK
  5
20
330
1F
100
AcDbEntity
  8
0
100
AcDbBlockBegin
  2
*Model_Space
 70
     0
 10
0.0
 20
0.0
 30
0.0
  3
*Model_Space
  1

  0
ENDBLK
  5
21
330
1F
100
AcDbEntity
  8
0
100
AcDbBlockEnd
  0
BLOCK
  5
1C
330
1B
100
AcDbEntity
 67
     1
  8
0
100
AcDbBlockBegin
  2
*Paper_Space
 70
     0
 10
0.0
 20
0.0
 30
0.0
  3
*Paper_Space
  1

  0
ENDBLK
  5
1D
330
1B
100
AcDbEntity
 67
     1
  8
0
100
AcDbBlockEnd
  0
BLOCK
  5
24
330
23
100
AcDbEntity
  8
0
100
AcDbBlockBegin
  2
*Paper_Space0
 70
     0
 10
0.0
 20
0.0
 30
0.0
  3
*Paper_Space0
  1

  0
ENDBLK
  5
25
330
23
100
AcDbEntity
  8
0
100
AcDbBlockEnd
  0
BLOCK
  5
8C
330
8A
100
AcDbEntity
  8
0
100
AcDbBlockBegin
  2
block 2
 70
     0
 10
0.0
 20
0.0
 30
0.0
  3
block 2
  1

  0
SPLINE
  5
8E
330
8A
100
AcDbEntity
  8
_U+30EC_U+30A4_U+30E4_U+30FC 1
370
     0
100
AcDbSpline
210
0.0
220
0.0
230
1.0
 70
    11
 71
     3
 72
    26
 73
    22
 74
     0
 42
0.0000000001
 43
0.0000000001
 12
1.0
 22
0.0
 32
0.0
 13
1.0
 23
0.0
 33
0.0
 40
0.0
 40
0.0
 40
0.0
 40
0.0
 40
1.0
 40
1.0
 40
1.0
 40
2.0
 40
2.0
 40
2.0
 40
3.0
 40
3.0
 40
3.0
 40
4.0
 40
4.0
 40
4.0
 40
5.0
 40
5.0
 40
5.0
 40
6.0
 40
6.0
 40
6.0
 40
7.0
 40
7.0
 40
7.0
 40
7.0
 10
98.25619029661651
 20
-125.0617892482484
 30
0.0
 10
98.25619029661651
 20
-125.0617892482484
 30
0.0
 10
98.25619029661651
 20
-123.9576361452259
 30
0.0
 10
98.25619029661651
 20
-123.9576361452259
 30
0.0
 10
98.25619029661651
 20
-123.9576361452259
 30
0.0
 10
97.90375702847545
 20
-123.9576361452259
 30
0.0
 10
97.90375702847545
 20
-123.9576361452259
 30
0.0
 10
97.90375702847545
 20
-123.9576361452259
 30
0.0
 10
97.90375702847545
 20
-123.8094970393601
 30
0.0
 10
97.90375702847545
 20
-123.8094970393601
 30
0.0
 10
98.25860186345619
 20
-123.7946831287736
 30
0.0
 10
98.30821123844379
 20
-123.6317301123212
 30
0.0
 10
98.33990611690808
 20
-123.5173529422109
 30
0.0
 10
98.33990611690808
 20
-123.5173529422109
 30
0.0
 10
98.49596894238991
 20
-123.5173529422109
 30
0.0
 10
98.49596894238991
 20
-123.5173529422109
 30
0.0
 10
98.49596894238991
 20
-123.5173529422109
 30
0.0
 10
98.49596894238991
 20
-125.0617892482484
 30
0.0
 10
98.49596894238991
 20
-125.0617892482484
 30
0.0
 10
98.49596894238991
 20
-125.0617892482484
 30
0.0
 10
98.25619029661651
 20
-125.0617892482484
 30
0.0
 10
98.25619029661651
 20
-125.0617892482484
 30
0.0
  0
HATCH
  5
8F
330
8A
100
AcDbEntity
  8
_U+30EC_U+30A4_U+30E4_U+30FC 1
 62
     7
420
 16777215
100
AcDbHatch
 10
0.0
 20
0.0
 30
0.0
210
0.0
220
0.0
230
1.0
  2
SOLID
 70
     1
 71
     0
 91
        1
 92
        1
 93
        1
 72
     4
 94
        3
 73
     0
 74
     1
 95
       26
 96
       22
 40
0.0
 40
0.0
 40
0.0
 40
0.0
 40
1.0
 40
1.0
 40
1.0
 40
2.0
 40
2.0
 40
2.0
 40
3.0
 40
3.0
 40
3.0
 40
4.0
 40
4.0
 40
4.0
 40
5.0
 40
5.0
 40
5.0
 40
6.0
 40
6.0
 40
6.0
 40
7.0
 40
7.0
 40
7.0
 40
7.0
 10
98.25619029661651
 20
-125.0617892482484
 10
98.25619029661651
 20
-125.0617892482484
 10
98.25619029661651
 20
-123.9576361452259
 10
98.25619029661651
 20
-123.9576361452259
 10
98.25619029661651
 20
-123.9576361452259
 10
97.90375702847545
 20
-123.9576361452259
 10
97.90375702847545
 20
-123.9576361452259
 10
97.90375702847545
 20
-123.9576361452259
 10
97.90375702847545
 20
-123.8094970393601
 10
97.90375702847545
 20
-123.8094970393601
 10
98.25860186345619
 20
-123.7946831287736
 10
98.30821123844379
 20
-123.6317301123212
 10
98.33990611690808
 20
-123.5173529422109
 10
98.33990611690808
 20
-123.5173529422109
 10
98.49596894238991
 20
-123.5173529422109
 10
98.49596894238991
 20
-123.5173529422109
 10
98.49596894238991
 20
-123.5173529422109
 10
98.49596894238991
 20
-125.0617892482484
 10
98.49596894238991
 20
-125.0617892482484
 10
98.49596894238991
 20
-125.0617892482484
 10
98.25619029661651
 20
-125.0617892482484
 10
98.25619029661651
 20
-125.0617892482484
 97
        0
 97
        0
 75
     2
 76
     1
 98
        0
  0
SPLINE
  5
90
330
8A
100
AcDbEntity
  8
_U+30EC_U+30A4_U+30E4_U+30FC 1
370
     0
100
AcDbSpline
210
0.0
220
0.0
230
1.0
 70
    11
 71
     3
 72
    53
 73
    49
 74
     0
 42
0.0000000001
 43
0.0000000001
 12
1.0
 22
0.0
 32
0.0
 13
1.0
 23
0.0
 33
0.0
 40
0.0
 40
0.0
 40
0.0
 40
0.0
 40
1.0
 40
1.0
 40
1.0
 40
2.0
 40
2.0
 40
2.0
 40
3.0
 40
3.0
 40
3.0
 40
4.0
 40
4.0
 40
4.0
 40
5.0
 40
5.0
 40
5.0
 40
6.0
 40
6.0
 40
6.0
 40
7.0
 40
7.0
 40
7.0
 40
8.0
 40
8.0
 40
8.0
 40
9.0
 40
9.0
 40
9.0
 40
10.0
 40
10.0
 40
10.0
 40
11.0
 40
11.0
 40
11.0
 40
12.0
 40
12.0
 40
12.0
 40
13.0
 40
13.0
 40
13.0
 40
14.0
 40
14.0
 40
14.0
 40
15.0
 40
15.0
 40
15.0
 40
16.0
 40
16.0
 40
16.0
 40
16.0
 10
99.54568953674553
 20
-125.1124321518816
 30
0.0
 10
99.46231822600248
 20
-125.1124321518816
 30
0.0
 10
99.35345320866858
 20
-125.0955511840039
 30
0.0
 10
99.24527721043174
 20
-125.0321614270753
 30
0.0
 10
99.05958656377678
 20
-124.9222628810958
 30
0.0
 10
99.03719344312265
 20
-124.7910047431078
 30
0.0
 10
99.01686737975967
 20
-124.6831732544195
 30
0.0
 10
99.01686737975967
 20
-124.6831732544195
 30
0.0
 10
99.25423445869339
 20
-124.6831732544195
 30
0.0
 10
99.25423445869339
 20
-124.6831732544195
 30
0.0
 10
99.31280108194264
 20
-124.8819552639184
 30
0.0
 10
99.44853784406148
 20
-124.9115830850916
 30
0.0
 10
99.5481011035852
 20
-124.9115830850916
 30
0.0
 10
99.69727373809651
 20
-124.9115830850916
 30
0.0
 10
99.8598822450003
 20
-124.8120198255678
 30
0.0
 10
99.8598822450003
 20
-124.5794758803135
 30
0.0
 10
99.8598822450003
 20
-124.3235052857594
 30
0.0
 10
99.6679904264719
 20
-124.2535698474088
 30
0.0
 10
99.53914385532356
 20
-124.2535698474088
 30
0.0
 10
99.50503741001958
 20
-124.2535698474088
 30
0.0
 10
99.35345320866858
 20
-124.2535698474088
 30
0.0
 10
99.25871308282422
 20
-124.3827609281057
 30
0.0
 10
99.25871308282422
 20
-124.3827609281057
 30
0.0
 10
99.0709553788781
 20
-124.3638129029368
 30
0.0
 10
99.0709553788781
 20
-124.3638129029368
 30
0.0
 10
99.0709553788781
 20
-124.3638129029368
 30
0.0
 10
99.19980195002644
 20
-123.5173529422109
 30
0.0
 10
99.19980195002644
 20
-123.5173529422109
 30
0.0
 10
99.19980195002644
 20
-123.5173529422109
 30
0.0
 10
100.0317925097143
 20
-123.5173529422109
 30
0.0
 10
100.0317925097143
 20
-123.5173529422109
 30
0.0
 10
100.0317925097143
 20
-123.5173529422109
 30
0.0
 10
100.0317925097143
 20
-123.7120008371276
 30
0.0
 10
100.0317925097143
 20
-123.7120008371276
 30
0.0
 10
100.0317925097143
 20
-123.7120008371276
 30
0.0
 10
99.37412378158008
 20
-123.7120008371276
 30
0.0
 10
99.37412378158008
 20
-123.7120008371276
 30
0.0
 10
99.37412378158008
 20
-123.7120008371276
 30
0.0
 10
99.30384383368099
 20
-124.1350585627162
 30
0.0
 10
99.30384383368099
 20
-124.1350585627162
 30
0.0
 10
99.36930064790073
 20
-124.1012966269608
 30
0.0
 10
99.45749509232313
 20
-124.0609890097834
 30
0.0
 10
99.58427460618033
 20
-124.0609890097834
 30
0.0
 10
99.85540362086948
 20
-124.0609890097834
 30
0.0
 10
100.1086181390353
 20
-124.2473686755354
 30
0.0
 10
100.1086181390353
 20
-124.5605278551446
 30
0.0
 10
100.1086181390353
 20
-124.8778211493361
 30
0.0
 10
99.86918400281048
 20
-125.1124321518816
 30
0.0
 10
99.54568953674553
 20
-125.1124321518816
 30
0.0
  0
HATCH
  5
91
330
8A
100
AcDbEntity
  8
_U+30EC_U+30A4_U+30E4_U+30FC 1
 62
     7
420
 16777215
100
AcDbHatch
 10
0.0
 20
0.0
 30
0.0
210
0.0
220
0.0
230
1.0
  2
SOLID
 70
     1
 71
     0
 91
        1
 92
        1
 93
        1
 72
     4
 94
        3
 73
     0
 74
     1
 95
       53
 96
       49
 40
0.0
 40
0.0
 40
0.0
 40
0.0
 40
1.0
 40
1.0
 40
1.0
 40
2.0
 40
2.0
 40
2.0
 40
3.0
 40
3.0
 40
3.0
 40
4.0
 40
4.0
 40
4.0
 40
5.0
 40
5.0
 40
5.0
 40
6.0
 40
6.0
 40
6.0
 40
7.0
 40
7.0
 40
7.0
 40
8.0
 40
8.0
 40
8.0
 40
9.0
 40
9.0
 40
9.0
 40
10.0
 40
10.0
 40
10.0
 40
11.0
 40
11.0
 40
11.0
 40
12.0
 40
12.0
 40
12.0
 40
13.0
 40
13.0
 40
13.0
 40
14.0
 40
14.0
 40
14.0
 40
15.0
 40
15.0
 40
15.0
 40
16.0
 40
16.0
 40
16.0
 40
16.0
 10
99.54568953674553
 20
-125.1124321518816
 10
99.46231822600248
 20
-125.1124321518816
 10
99.35345320866858
 20
-125.0955511840039
 10
99.24527721043174
 20
-125.0321614270753
 10
99.05958656377678
 20
-124.9222628810958
 10
99.03719344312265
 20
-124.7910047431078
 10
99.01686737975967
 20
-124.6831732544195
 10
99.01686737975967
 20
-124.6831732544195
 10
99.25423445869339
 20
-124.6831732544195
 10
99.25423445869339
 20
-124.6831732544195
 10
99.31280108194264
 20
-124.8819552639184
 10
99.44853784406148
 20
-124.9115830850916
 10
99.5481011035852
 20
-124.9115830850916
 10
99.69727373809651
 20
-124.9115830850916
 10
99.8598822450003
 20
-124.8120198255678
 10
99.8598822450003
 20
-124.5794758803135
 10
99.8598822450003
 20
-124.3235052857594
 10
99.6679904264719
 20
-124.2535698474088
 10
99.53914385532356
 20
-124.2535698474088
 10
99.50503741001958
 20
-124.2535698474088
 10
99.35345320866858
 20
-124.2535698474088
 10
99.25871308282422
 20
-124.3827609281057
 10
99.25871308282422
 20
-124.3827609281057
 10
99.0709553788781
 20
-124.3638129029368
 10
99.0709553788781
 20
-124.3638129029368
 10
99.0709553788781
 20
-124.3638129029368
 10
99.19980195002644
 20
-123.5173529422109
 10
99.19980195002644
 20
-123.5173529422109
 10
99.19980195002644
 20
-123.5173529422109
 10
100.0317925097143
 20
-123.5173529422109
 10
100.0317925097143
 20
-123.5173529422109
 10
100.0317925097143
 20
-123.5173529422109
 10
100.0317925097143
 20
-123.7120008371276
 10
100.0317925097143
 20
-123.7120008371276
 10
100.0317925097143
 20
-123.7120008371276
 10
99.37412378158008
 20
-123.7120008371276
 10
99.37412378158008
 20
-123.7120008371276
 10
99.37412378158008
 20
-123.7120008371276
 10
99.30384383368099
 20
-124.1350585627162
 10
99.30384383368099
 20
-124.1350585627162
 10
99.36930064790073
 20
-124.1012966269608
 10
99.45749509232313
 20
-124.0609890097834
 10
99.58427460618033
 20
-124.0609890097834
 10
99.85540362086948
 20
-124.0609890097834
 10
100.1086181390353
 20
-124.2473686755354
 10
100.1086181390353
 20
-124.5605278551446
 10
100.1086181390353
 20
-124.8778211493361
 10
99.86918400281048
 20
-125.1124321518816
 10
99.54568953674553
 20
-125.1124321518816
 97
        0
 97
        0
 75
     2
 76
     1
 98
        0
  0
ENDBLK
  5
8D
330
8A
100
AcDbEntity
  8
0
100
AcDbBlockEnd
  0
BLOCK
  5
A0
330
9E
100
AcDbEntity
  8
0
100
AcDbBlockBegin
  2
block 3
 70
     0
 10
0.0
 20
0.0
 30
0.0
  3
block 3
  1

  0
SPLINE
  5
A2
330
9E
100
AcDbEntity
  8
_U+30EC_U+30A4_U+30E4_U+30FC 1
370
     0
100
AcDbSpline
210
0.0
220
0.0
230
1.0
 70
    11
 71
     3
 72
    26
 73
    22
 74
     0
 42
0.0000000001
 43
0.0000000001
 12
1.0
 22
0.0
 32
0.0
 13
1.0
 23
0.0
 33
0.0
 40
0.0
 40
0.0
 40
0.0
 40
0.0
 40
1.0
 40
1.0
 40
1.0
 40
2.0
 40
2.0
 40
2.0
 40
3.0
 40
3.0
 40
3.0
 40
4.0
 40
4.0
 40
4.0
 40
5.0
 40
5.0
 40
5.0
 40
6.0
 40
6.0
 40
6.0
 40
7.0
 40
7.0
 40
7.0
 40
7.0
 10
78.33595918180491
 20
-133.2525037644299
 30
0.0
 10
78.33595918180491
 20
-133.2525037644299
 30
0.0
 10
77.23163382400807
 20
-133.2525037644299
 30
0.0
 10
77.23163382400807
 20
-133.2525037644299
 30
0.0
 10
77.23163382400807
 20
-133.2525037644299
 30
0.0
 10
77.23163382400807
 20
-133.604937032571
 30
0.0
 10
77.23163382400807
 20
-133.604937032571
 30
0.0
 10
77.23163382400807
 20
-133.604937032571
 30
0.0
 10
77.08349471814232
 20
-133.604937032571
 30
0.0
 10
77.08349471814232
 20
-133.604937032571
 30
0.0
 10
77.06885306233
 20
-133.2500921975902
 30
0.0
 10
76.9059000458777
 20
-133.2004828226027
 30
0.0
 10
76.79169513054167
 20
-133.1687879441384
 30
0.0
 10
76.79169513054167
 20
-133.1687879441384
 30
0.0
 10
76.79169513054167
 20
-133.0127251186565
 30
0.0
 10
76.79169513054167
 20
-133.0127251186565
 30
0.0
 10
76.79169513054167
 20
-133.0127251186565
 30
0.0
 10
78.33595918180491
 20
-133.0127251186565
 30
0.0
 10
78.33595918180491
 20
-133.0127251186565
 30
0.0
 10
78.33595918180491
 20
-133.0127251186565
 30
0.0
 10
78.33595918180491
 20
-133.2525037644299
 30
0.0
 10
78.33595918180491
 20
-133.2525037644299
 30
0.0
  0
HATCH
  5
A3
330
9E
100
AcDbEntity
  8
_U+30EC_U+30A4_U+30E4_U+30FC 1
 62
     7
420
 16777215
100
AcDbHatch
 10
0.0
 20
0.0
 30
0.0
210
0.0
220
0.0
230
1.0
  2
SOLID
 70
     1
 71
     0
 91
        1
 92
        1
 93
        1
 72
     4
 94
        3
 73
     0
 74
     1
 95
       26
 96
       22
 40
0.0
 40
0.0
 40
0.0
 40
0.0
 40
1.0
 40
1.0
 40
1.0
 40
2.0
 40
2.0
 40
2.0
 40
3.0
 40
3.0
 40
3.0
 40
4.0
 40
4.0
 40
4.0
 40
5.0
 40
5.0
 40
5.0
 40
6.0
 40
6.0
 40
6.0
 40
7.0
 40
7.0
 40
7.0
 40
7.0
 10
78.33595918180491
 20
-133.2525037644299
 10
78.33595918180491
 20
-133.2525037644299
 10
77.23163382400807
 20
-133.2525037644299
 10
77.23163382400807
 20
-133.2525037644299
 10
77.23163382400807
 20
-133.2525037644299
 10
77.23163382400807
 20
-133.604937032571
 10
77.23163382400807
 20
-133.604937032571
 10
77.23163382400807
 20
-133.604937032571
 10
77.08349471814232
 20
-133.604937032571
 10
77.08349471814232
 20
-133.604937032571
 10
77.06885306233
 20
-133.2500921975902
 10
76.9059000458777
 20
-133.2004828226027
 10
76.79169513054167
 20
-133.1687879441384
 10
76.79169513054167
 20
-133.1687879441384
 10
76.79169513054167
 20
-133.0127251186565
 10
76.79169513054167
 20
-133.0127251186565
 10
76.79169513054167
 20
-133.0127251186565
 10
78.33595918180491
 20
-133.0127251186565
 10
78.33595918180491
 20
-133.0127251186565
 10
78.33595918180491
 20
-133.0127251186565
 10
78.33595918180491
 20
-133.2525037644299
 10
78.33595918180491
 20
-133.2525037644299
 97
        0
 97
        0
 75
     2
 76
     1
 98
        0
  0
SPLINE
  5
A4
330
9E
100
AcDbEntity
  8
_U+30EC_U+30A4_U+30E4_U+30FC 1
370
     0
100
AcDbSpline
210
0.0
220
0.0
230
1.0
 70
    11
 71
     3
 72
    44
 73
    40
 74
     0
 42
0.0000000001
 43
0.0000000001
 12
1.0
 22
0.0
 32
0.0
 13
1.0
 23
0.0
 33
0.0
 40
0.0
 40
0.0
 40
0.0
 40
0.0
 40
1.0
 40
1.0
 40
1.0
 40
2.0
 40
2.0
 40
2.0
 40
3.0
 40
3.0
 40
3.0
 40
4.0
 40
4.0
 40
4.0
 40
5.0
 40
5.0
 40
5.0
 40
6.0
 40
6.0
 40
6.0
 40
7.0
 40
7.0
 40
7.0
 40
8.0
 40
8.0
 40
8.0
 40
9.0
 40
9.0
 40
9.0
 40
10.0
 40
10.0
 40
10.0
 40
11.0
 40
11.0
 40
11.0
 40
12.0
 40
12.0
 40
12.0
 40
13.0
 40
13.0
 40
13.0
 40
13.0
 10
77.75425480912047
 20
-131.8431152014142
 30
0.0
 10
77.91290145621622
 20
-132.0760036562171
 30
0.0
 10
77.98697100914909
 20
-132.1755669157408
 30
0.0
 10
78.13080374565827
 20
-132.2275878575681
 30
0.0
 10
78.13080374565827
 20
-132.2275878575681
 30
0.0
 10
78.13080374565827
 20
-131.3952527883318
 30
0.0
 10
78.13080374565827
 20
-131.3952527883318
 30
0.0
 10
78.13080374565827
 20
-131.3952527883318
 30
0.0
 10
78.33595918180491
 20
-131.3952527883318
 30
0.0
 10
78.33595918180491
 20
-131.3952527883318
 30
0.0
 10
78.33595918180491
 20
-131.3952527883318
 30
0.0
 10
78.33595918180491
 20
-132.4942382481264
 30
0.0
 10
78.33595918180491
 20
-132.4942382481264
 30
0.0
 10
77.97835827043598
 20
-132.4601318028225
 30
0.0
 10
77.9001546029208
 20
-132.3901963644719
 30
0.0
 10
77.60180933389816
 20
-131.9788519635331
 30
0.0
 10
77.40302732439925
 20
-131.7053113820042
 30
0.0
 10
77.33533119811409
 20
-131.6350314341051
 30
0.0
 10
77.19787188825262
 20
-131.6350314341051
 30
0.0
 10
77.07936060356002
 20
-131.6350314341051
 30
0.0
 10
76.948102465572
 20
-131.7118570634262
 30
0.0
 10
76.948102465572
 20
-131.922352397575
 30
0.0
 10
76.948102465572
 20
-132.2003716032346
 30
0.0
 10
77.17875160830948
 20
-132.2093288514963
 30
0.0
 10
77.29519583571093
 20
-132.2138074756271
 30
0.0
 10
77.29519583571093
 20
-132.2138074756271
 30
0.0
 10
77.29519583571093
 20
-132.4535861214005
 30
0.0
 10
77.29519583571093
 20
-132.4535861214005
 30
0.0
 10
77.16824406707947
 20
-132.4446288731388
 30
0.0
 10
77.05610620903458
 20
-132.4332600580375
 30
0.0
 10
76.937594924342
 20
-132.3471326709063
 30
0.0
 10
76.77688121995509
 20
-132.2296549148593
 30
0.0
 10
76.74294702942538
 20
-132.0308729053604
 30
0.0
 10
76.74294702942538
 20
-131.9065049583428
 30
0.0
 10
76.74294702942538
 20
-131.6102267466113
 30
0.0
 10
76.92708738311198
 20
-131.3887071069098
 30
0.0
 10
77.19993894554376
 20
-131.3887071069098
 30
0.0
 10
77.42834877621583
 20
-131.3887071069098
 30
0.0
 10
77.52791203573955
 20
-131.5130750539273
 30
0.0
 10
77.75425480912047
 20
-131.8431152014142
 30
0.0
  0
HATCH
  5
A5
330
9E
100
AcDbEntity
  8
_U+30EC_U+30A4_U+30E4_U+30FC 1
 62
     7
420
 16777215
100
AcDbHatch
 10
0.0
 20
0.0
 30
0.0
210
0.0
220
0.0
230
1.0
  2
SOLID
 70
     1
 71
     0
 91
        1
 92
        1
 93
        1
 72
     4
 94
        3
 73
     0
 74
     1
 95
       44
 96
       40
 40
0.0
 40
0.0
 40
0.0
 40
0.0
 40
1.0
 40
1.0
 40
1.0
 40
2.0
 40
2.0
 40
2.0
 40
3.0
 40
3.0
 40
3.0
 40
4.0
 40
4.0
 40
4.0
 40
5.0
 40
5.0
 40
5.0
 40
6.0
 40
6.0
 40
6.0
 40
7.0
 40
7.0
 40
7.0
 40
8.0
 40
8.0
 40
8.0
 40
9.0
 40
9.0
 40
9.0
 40
10.0
 40
10.0
 40
10.0
 40
11.0
 40
11.0
 40
11.0
 40
12.0
 40
12.0
 40
12.0
 40
13.0
 40
13.0
 40
13.0
 40
13.0
 10
77.75425480912047
 20
-131.8431152014142
 10
77.91290145621622
 20
-132.0760036562171
 10
77.98697100914909
 20
-132.1755669157408
 10
78.13080374565827
 20
-132.2275878575681
 10
78.13080374565827
 20
-132.2275878575681
 10
78.13080374565827
 20
-131.3952527883318
 10
78.13080374565827
 20
-131.3952527883318
 10
78.13080374565827
 20
-131.3952527883318
 10
78.33595918180491
 20
-131.3952527883318
 10
78.33595918180491
 20
-131.3952527883318
 10
78.33595918180491
 20
-131.3952527883318
 10
78.33595918180491
 20
-132.4942382481264
 10
78.33595918180491
 20
-132.4942382481264
 10
77.97835827043598
 20
-132.4601318028225
 10
77.9001546029208
 20
-132.3901963644719
 10
77.60180933389816
 20
-131.9788519635331
 10
77.40302732439925
 20
-131.7053113820042
 10
77.33533119811409
 20
-131.6350314341051
 10
77.19787188825262
 20
-131.6350314341051
 10
77.07936060356002
 20
-131.6350314341051
 10
76.948102465572
 20
-131.7118570634262
 10
76.948102465572
 20
-131.922352397575
 10
76.948102465572
 20
-132.2003716032346
 10
77.17875160830948
 20
-132.2093288514963
 10
77.29519583571093
 20
-132.2138074756271
 10
77.29519583571093
 20
-132.2138074756271
 10
77.29519583571093
 20
-132.4535861214005
 10
77.29519583571093
 20
-132.4535861214005
 10
77.16824406707947
 20
-132.4446288731388
 10
77.05610620903458
 20
-132.4332600580375
 10
76.937594924342
 20
-132.3471326709063
 10
76.77688121995509
 20
-132.2296549148593
 10
76.74294702942538
 20
-132.0308729053604
 10
76.74294702942538
 20
-131.9065049583428
 10
76.74294702942538
 20
-131.6102267466113
 10
76.92708738311198
 20
-131.3887071069098
 10
77.19993894554376
 20
-131.3887071069098
 10
77.42834877621583
 20
-131.3887071069098
 10
77.52791203573955
 20
-131.5130750539273
 10
77.75425480912047
 20
-131.8431152014142
 97
        0
 97
        0
 75
     2
 76
     1
 98
        0
  0
POLYLINE
  5
A6
330
9E
100
AcDbEntity
  8
_U+30EC_U+30A4_U+30E4_U+30FC 1
370
     0
100
AcDb2dPolyline
 66
     1
 10
0.0
 20
0.0
 30
0.0
  0
VERTEX
  5
A7
330
A6
100
AcDbEntity
  8
_U+30EC_U+30A4_U+30E4_U+30FC 1
370
     0
100
AcDbVertex
100
AcDb2dVertex
 10
78.33595918180491
 20
-131.1551296330098
 30
0.0
  0
VERTEX
  5
A8
330
A6
100
AcDbEntity
  8
_U+30EC_U+30A4_U+30E4_U+30FC 1
370
     0
100
AcDbVertex
100
AcDb2dVertex
 10
78.08429495660741
 20
-131.1551296330098
 30
0.0
  0
VERTEX
  5
A9
330
A6
100
AcDbEntity
  8
_U+30EC_U+30A4_U+30E4_U+30FC 1
370
     0
100
AcDbVertex
100
AcDb2dVertex
 10
78.08429495660741
 20
-130.8860676756118
 30
0.0
  0
VERTEX
  5
AA
330
A6
100
AcDbEntity
  8
_U+30EC_U+30A4_U+30E4_U+30FC 1
370
     0
100
AcDbVertex
100
AcDb2dVertex
 10
78.33595918180491
 20
-130.8860676756118
 30
0.0
  0
VERTEX
  5
AB
330
A6
100
AcDbEntity
  8
_U+30EC_U+30A4_U+30E4_U+30FC 1
370
     0
100
AcDbVertex
100
AcDb2dVertex
 10
78.33595918180491
 20
-131.1551296330098
 30
0.0
  0
SEQEND
  5
AC
330
A6
100
AcDbEntity
  8
_U+30EC_U+30A4_U+30E4_U+30FC 1
370
     0
  0
HATCH
  5
AD
330
9E
100
AcDbEntity
  8
_U+30EC_U+30A4_U+30E4_U+30FC 1
 62
     7
420
 16777215
100
AcDbHatch
 10
0.0
 20
0.0
 30
0.0
210
0.0
220
0.0
230
1.0
  2
SOLID
 70
     1
 71
     0
 91
        1
 92
        1
 93
        4
 72
     1
 10
78.33595918180491
 20
-131.1551296330098
 11
78.08429495660741
 21
-131.1551296330098
 72
     1
 10
78.08429495660741
 20
-131.1551296330098
 11
78.08429495660741
 21
-130.8860676756118
 72
     1
 10
78.08429495660741
 20
-130.8860676756118
 11
78.33595918180491
 21
-130.8860676756118
 72
     1
 10
78.33595918180491
 20
-130.8860676756118
 11
78.33595918180491
 21
-131.1551296330098
 97
        0
 75
     2
 76
     1
 98
        0
  0
SPLINE
  5
AE
330
9E
100
AcDbEntity
  8
_U+30EC_U+30A4_U+30E4_U+30FC 1
370
     0
100
AcDbSpline
210
0.0
220
0.0
230
1.0
 70
    11
 71
     3
 72
    53
 73
    49
 74
     0
 42
0.0000000001
 43
0.0000000001
 12
1.0
 22
0.0
 32
0.0
 13
1.0
 23
0.0
 33
0.0
 40
0.0
 40
0.0
 40
0.0
 40
0.0
 40
1.0
 40
1.0
 40
1.0
 40
2.0
 40
2.0
 40
2.0
 40
3.0
 40
3.0
 40
3.0
 40
4.0
 40
4.0
 40
4.0
 40
5.0
 40
5.0
 40
5.0
 40
6.0
 40
6.0
 40
6.0
 40
7.0
 40
7.0
 40
7.0
 40
8.0
 40
8.0
 40
8.0
 40
9.0
 40
9.0
 40
9.0
 40
10.0
 40
10.0
 40
10.0
 40
11.0
 40
11.0
 40
11.0
 40
12.0
 40
12.0
 40
12.0
 40
13.0
 40
13.0
 40
13.0
 40
14.0
 40
14.0
 40
14.0
 40
15.0
 40
15.0
 40
15.0
 40
16.0
 40
16.0
 40
16.0
 40
16.0
 10
78.38677434021234
 20
-130.1191894205952
 30
0.0
 10
78.38677434021234
 20
-130.2025607313383
 30
0.0
 10
78.36989337233462
 20
-130.3114257486721
 30
0.0
 10
78.30633136063176
 20
-130.419601746909
 30
0.0
 10
78.19626055987803
 20
-130.605292393564
 30
0.0
 10
78.06517467666427
 20
-130.6276855142181
 30
0.0
 10
77.95734318797595
 20
-130.6480115775811
 30
0.0
 10
77.95734318797595
 20
-130.6480115775811
 30
0.0
 10
77.95734318797595
 20
-130.4106444986473
 30
0.0
 10
77.95734318797595
 20
-130.4106444986473
 30
0.0
 10
78.15612519747486
 20
-130.3520778753981
 30
0.0
 10
78.18575301864801
 20
-130.2163411132792
 30
0.0
 10
78.18575301864801
 20
-130.1167778537555
 30
0.0
 10
78.18575301864801
 20
-129.9676052192442
 30
0.0
 10
78.08636201389855
 20
-129.8049967123404
 30
0.0
 10
77.85364581386993
 20
-129.8049967123404
 30
0.0
 10
77.59767521931586
 20
-129.8049967123404
 30
0.0
 10
77.52791203573955
 20
-129.9968885308688
 30
0.0
 10
77.52791203573955
 20
-130.1257351020172
 30
0.0
 10
77.52791203573955
 20
-130.1598415473212
 30
0.0
 10
77.52791203573955
 20
-130.3114257486721
 30
0.0
 10
77.65693086166216
 20
-130.4061658745165
 30
0.0
 10
77.65693086166216
 20
-130.4061658745165
 30
0.0
 10
77.63781058171902
 20
-130.5939235784626
 30
0.0
 10
77.63781058171902
 20
-130.5939235784626
 30
0.0
 10
77.63781058171902
 20
-130.5939235784626
 30
0.0
 10
76.79169513054167
 20
-130.4650770073143
 30
0.0
 10
76.79169513054167
 20
-130.4650770073143
 30
0.0
 10
76.79169513054167
 20
-130.4650770073143
 30
0.0
 10
76.79169513054167
 20
-129.6330864476265
 30
0.0
 10
76.79169513054167
 20
-129.6330864476265
 30
0.0
 10
76.79169513054167
 20
-129.6330864476265
 30
0.0
 10
76.98634302545828
 20
-129.6330864476265
 30
0.0
 10
76.98634302545828
 20
-129.6330864476265
 30
0.0
 10
76.98634302545828
 20
-129.6330864476265
 30
0.0
 10
76.98634302545828
 20
-130.2907551757606
 30
0.0
 10
76.98634302545828
 20
-130.2907551757606
 30
0.0
 10
76.98634302545828
 20
-130.2907551757606
 30
0.0
 10
77.40940075104696
 20
-130.3610351236597
 30
0.0
 10
77.40940075104696
 20
-130.3610351236597
 30
0.0
 10
77.37546656051725
 20
-130.29557830944
 30
0.0
 10
77.33533119811409
 20
-130.2073838650176
 30
0.0
 10
77.33533119811409
 20
-130.0806043511604
 30
0.0
 10
77.33533119811409
 20
-129.8094753364713
 30
0.0
 10
77.52153860909183
 20
-129.5562608183054
 30
0.0
 10
77.8345255339268
 20
-129.5562608183054
 30
0.0
 10
78.15199108289256
 20
-129.5562608183054
 30
0.0
 10
78.38677434021234
 20
-129.7956949545303
 30
0.0
 10
78.38677434021234
 20
-130.1191894205952
 30
0.0
  0
HATCH
  5
AF
330
9E
100
AcDbEntity
  8
_U+30EC_U+30A4_U+30E4_U+30FC 1
 62
     7
420
 16777215
100
AcDbHatch
 10
0.0
 20
0.0
 30
0.0
210
0.0
220
0.0
230
1.0
  2
SOLID
 70
     1
 71
     0
 91
        1
 92
        1
 93
        1
 72
     4
 94
        3
 73
     0
 74
     1
 95
       53
 96
       49
 40
0.0
 40
0.0
 40
0.0
 40
0.0
 40
1.0
 40
1.0
 40
1.0
 40
2.0
 40
2.0
 40
2.0
 40
3.0
 40
3.0
 40
3.0
 40
4.0
 40
4.0
 40
4.0
 40
5.0
 40
5.0
 40
5.0
 40
6.0
 40
6.0
 40
6.0
 40
7.0
 40
7.0
 40
7.0
 40
8.0
 40
8.0
 40
8.0
 40
9.0
 40
9.0
 40
9.0
 40
10.0
 40
10.0
 40
10.0
 40
11.0
 40
11.0
 40
11.0
 40
12.0
 40
12.0
 40
12.0
 40
13.0
 40
13.0
 40
13.0
 40
14.0
 40
14.0
 40
14.0
 40
15.0
 40
15.0
 40
15.0
 40
16.0
 40
16.0
 40
16.0
 40
16.0
 10
78.38677434021234
 20
-130.1191894205952
 10
78.38677434021234
 20
-130.2025607313383
 10
78.36989337233462
 20
-130.3114257486721
 10
78.30633136063176
 20
-130.419601746909
 10
78.19626055987803
 20
-130.605292393564
 10
78.06517467666427
 20
-130.6276855142181
 10
77.95734318797595
 20
-130.6480115775811
 10
77.95734318797595
 20
-130.6480115775811
 10
77.95734318797595
 20
-130.4106444986473
 10
77.95734318797595
 20
-130.4106444986473
 10
78.15612519747486
 20
-130.3520778753981
 10
78.18575301864801
 20
-130.2163411132792
 10
78.18575301864801
 20
-130.1167778537555
 10
78.18575301864801
 20
-129.9676052192442
 10
78.08636201389855
 20
-129.8049967123404
 10
77.85364581386993
 20
-129.8049967123404
 10
77.59767521931586
 20
-129.8049967123404
 10
77.52791203573955
 20
-129.9968885308688
 10
77.52791203573955
 20
-130.1257351020172
 10
77.52791203573955
 20
-130.1598415473212
 10
77.52791203573955
 20
-130.3114257486721
 10
77.65693086166216
 20
-130.4061658745165
 10
77.65693086166216
 20
-130.4061658745165
 10
77.63781058171902
 20
-130.5939235784626
 10
77.63781058171902
 20
-130.5939235784626
 10
77.63781058171902
 20
-130.5939235784626
 10
76.79169513054167
 20
-130.4650770073143
 10
76.79169513054167
 20
-130.4650770073143
 10
76.79169513054167
 20
-130.4650770073143
 10
76.79169513054167
 20
-129.6330864476265
 10
76.79169513054167
 20
-129.6330864476265
 10
76.79169513054167
 20
-129.6330864476265
 10
76.98634302545828
 20
-129.6330864476265
 10
76.98634302545828
 20
-129.6330864476265
 10
76.98634302545828
 20
-129.6330864476265
 10
76.98634302545828
 20
-130.2907551757606
 10
76.98634302545828
 20
-130.2907551757606
 10
76.98634302545828
 20
-130.2907551757606
 10
77.40940075104696
 20
-130.3610351236597
 10
77.40940075104696
 20
-130.3610351236597
 10
77.37546656051725
 20
-130.29557830944
 10
77.33533119811409
 20
-130.2073838650176
 10
77.33533119811409
 20
-130.0806043511604
 10
77.33533119811409
 20
-129.8094753364713
 10
77.52153860909183
 20
-129.5562608183054
 10
77.8345255339268
 20
-129.5562608183054
 10
78.15199108289256
 20
-129.5562608183054
 10
78.38677434021234
 20
-129.7956949545303
 10
78.38677434021234
 20
-130.1191894205952
 97
        0
 97
        0
 75
     2
 76
     1
 98
        0
  0
ENDBLK
  5
A1
330
9E
100
AcDbEntity
  8
0
100
AcDbBlockEnd
  0
BLOCK
  5
BE
330
BC
100
AcDbEntity
  8
0
100
AcDbBlockBegin
  2
block 4
 70
     0
 10
0.0
 20
0.0
 30
0.0
  3
block 4
  1

  0
SPLINE
  5
C0
330
BC
100
AcDbEntity
  8
_U+30EC_U+30A4_U+30E4_U+30FC 1
370
     0
100
AcDbSpline
210
0.0
220
0.0
230
1.0
 70
    11
 71
     3
 72
    32
 73
    28
 74
     0
 42
0.0000000001
 43
0.0000000001
 12
1.0
 22
0.0
 32
0.0
 13
1.0
 23
0.0
 33
0.0
 40
0.0
 40
0.0
 40
0.0
 40
0.0
 40
1.0
 40
1.0
 40
1.0
 40
2.0
 40
2.0
 40
2.0
 40
3.0
 40
3.0
 40
3.0
 40
4.0
 40
4.0
 40
4.0
 40
5.0
 40
5.0
 40
5.0
 40
6.0
 40
6.0
 40
6.0
 40
7.0
 40
7.0
 40
7.0
 40
8.0
 40
8.0
 40
8.0
 40
9.0
 40
9.0
 40
9.0
 40
9.0
 10
86.41246878265036
 20
-121.1119872744095
 30
0.0
 10
85.86090899546186
 20
-121.1119872744095
 30
0.0
 10
85.8519517472002
 20
-120.5580159203813
 30
0.0
 10
85.8519517472002
 20
-120.3440754907473
 30
0.0
 10
85.8519517472002
 20
-120.1135986027841
 30
0.0
 10
85.87227781056319
 20
-119.4662651611057
 30
0.0
 10
86.45346541892484
 20
-119.4662651611057
 30
0.0
 10
86.63881155603127
 20
-119.4662651611057
 30
0.0
 10
86.90098332245879
 20
-119.5362005994562
 30
0.0
 10
86.94163544918473
 20
-119.8683078042343
 30
0.0
 10
86.94163544918473
 20
-119.8683078042343
 30
0.0
 10
86.71322561851267
 20
-119.8683078042343
 30
0.0
 10
86.71322561851267
 20
-119.8683078042343
 30
0.0
 10
86.70185680341135
 20
-119.8111192191792
 30
0.0
 10
86.6680948676559
 20
-119.6629801133134
 30
0.0
 10
86.45105385208515
 20
-119.6629801133134
 30
0.0
 10
86.13892820112152
 20
-119.6629801133134
 30
0.0
 10
86.09620901710443
 20
-119.9909532035092
 30
0.0
 10
86.08242863516342
 20
-120.1959363848816
 30
0.0
 10
86.18199189468714
 20
-120.1177327173664
 30
0.0
 10
86.2543388998774
 20
-120.0584770750201
 30
0.0
 10
86.44898679479401
 20
-120.0584770750201
 30
0.0
 10
86.64087861332243
 20
-120.0584770750201
 30
0.0
 10
86.96437307938739
 20
-120.166653073257
 30
0.0
 10
86.96437307938739
 20
-120.5728298309679
 30
0.0
 10
86.96437307938739
 20
-120.8921901824506
 30
0.0
 10
86.75181068794747
 20
-121.1119872744095
 30
0.0
 10
86.41246878265036
 20
-121.1119872744095
 30
0.0
  0
SPLINE
  5
C1
330
BC
100
AcDbEntity
  8
_U+30EC_U+30A4_U+30E4_U+30FC 1
370
     0
100
AcDbSpline
210
0.0
220
0.0
230
1.0
 70
    11
 71
     3
 72
    17
 73
    13
 74
     0
 42
0.0000000001
 43
0.0000000001
 12
1.0
 22
0.0
 32
0.0
 13
1.0
 23
0.0
 33
0.0
 40
0.0
 40
0.0
 40
0.0
 40
0.0
 40
1.0
 40
1.0
 40
1.0
 40
2.0
 40
2.0
 40
2.0
 40
3.0
 40
3.0
 40
3.0
 40
4.0
 40
4.0
 40
4.0
 40
4.0
 10
86.43072778872218
 20
-120.2531249699367
 30
0.0
 10
86.15029701622285
 20
-120.2531249699367
 30
0.0
 10
86.10964488949689
 20
-120.4646538327311
 30
0.0
 10
86.10964488949689
 20
-120.5810980601325
 30
0.0
 10
86.10964488949689
 20
-120.7567979298802
 30
0.0
 10
86.21127520631177
 20
-120.9197509463326
 30
0.0
 10
86.40799015851954
 20
-120.9197509463326
 30
0.0
 10
86.53683672966788
 20
-120.9197509463326
 30
0.0
 10
86.724594433614
 20
-120.8604953039863
 30
0.0
 10
86.724594433614
 20
-120.5748968882591
 30
0.0
 10
86.724594433614
 20
-120.3506211721693
 30
0.0
 10
86.57542179910267
 20
-120.2531249699367
 30
0.0
 10
86.43072778872218
 20
-120.2531249699367
 30
0.0
  0
HATCH
  5
C2
330
BC
100
AcDbEntity
  8
_U+30EC_U+30A4_U+30E4_U+30FC 1
 62
     7
420
 16777215
100
AcDbHatch
 10
0.0
 20
0.0
 30
0.0
210
0.0
220
0.0
230
1.0
  2
SOLID
 70
     1
 71
     0
 91
        2
 92
        1
 93
        1
 72
     4
 94
        3
 73
     0
 74
     1
 95
       32
 96
       28
 40
0.0
 40
0.0
 40
0.0
 40
0.0
 40
1.0
 40
1.0
 40
1.0
 40
2.0
 40
2.0
 40
2.0
 40
3.0
 40
3.0
 40
3.0
 40
4.0
 40
4.0
 40
4.0
 40
5.0
 40
5.0
 40
5.0
 40
6.0
 40
6.0
 40
6.0
 40
7.0
 40
7.0
 40
7.0
 40
8.0
 40
8.0
 40
8.0
 40
9.0
 40
9.0
 40
9.0
 40
9.0
 10
86.41246878265036
 20
-121.1119872744095
 10
85.86090899546186
 20
-121.1119872744095
 10
85.8519517472002
 20
-120.5580159203813
 10
85.8519517472002
 20
-120.3440754907473
 10
85.8519517472002
 20
-120.1135986027841
 10
85.87227781056319
 20
-119.4662651611057
 10
86.45346541892484
 20
-119.4662651611057
 10
86.63881155603127
 20
-119.4662651611057
 10
86.90098332245879
 20
-119.5362005994562
 10
86.94163544918473
 20
-119.8683078042343
 10
86.94163544918473
 20
-119.8683078042343
 10
86.71322561851267
 20
-119.8683078042343
 10
86.71322561851267
 20
-119.8683078042343
 10
86.70185680341135
 20
-119.8111192191792
 10
86.6680948676559
 20
-119.6629801133134
 10
86.45105385208515
 20
-119.6629801133134
 10
86.13892820112152
 20
-119.6629801133134
 10
86.09620901710443
 20
-119.9909532035092
 10
86.08242863516342
 20
-120.1959363848816
 10
86.18199189468714
 20
-120.1177327173664
 10
86.2543388998774
 20
-120.0584770750201
 10
86.44898679479401
 20
-120.0584770750201
 10
86.64087861332243
 20
-120.0584770750201
 10
86.96437307938739
 20
-120.166653073257
 10
86.96437307938739
 20
-120.5728298309679
 10
86.96437307938739
 20
-120.8921901824506
 10
86.75181068794747
 20
-121.1119872744095
 10
86.41246878265036
 20
-121.1119872744095
 97
        0
 97
        0
 92
        1
 93
        1
 72
     4
 94
        3
 73
     0
 74
     1
 95
       17
 96
       13
 40
0.0
 40
0.0
 40
0.0
 40
0.0
 40
1.0
 40
1.0
 40
1.0
 40
2.0
 40
2.0
 40
2.0
 40
3.0
 40
3.0
 40
3.0
 40
4.0
 40
4.0
 40
4.0
 40
4.0
 10
86.43072778872218
 20
-120.2531249699367
 10
86.15029701622285
 20
-120.2531249699367
 10
86.10964488949689
 20
-120.4646538327311
 10
86.10964488949689
 20
-120.5810980601325
 10
86.10964488949689
 20
-120.7567979298802
 10
86.21127520631177
 20
-120.9197509463326
 10
86.40799015851954
 20
-120.9197509463326
 10
86.53683672966788
 20
-120.9197509463326
 10
86.724594433614
 20
-120.8604953039863
 10
86.724594433614
 20
-120.5748968882591
 10
86.724594433614
 20
-120.3506211721693
 10
86.57542179910267
 20
-120.2531249699367
 10
86.43072778872218
 20
-120.2531249699367
 97
        0
 97
        0
 75
     2
 76
     1
 98
        0
  0
POLYLINE
  5
C3
330
BC
100
AcDbEntity
  8
_U+30EC_U+30A4_U+30E4_U+30FC 1
370
     0
100
AcDb2dPolyline
 66
     1
 10
0.0
 20
0.0
 30
0.0
  0
VERTEX
  5
C4
330
C3
100
AcDbEntity
  8
_U+30EC_U+30A4_U+30E4_U+30FC 1
370
     0
100
AcDbVertex
100
AcDb2dVertex
 10
87.19553898644764
 20
-121.0613443707763
 30
0.0
  0
VERTEX
  5
C5
330
C3
100
AcDbEntity
  8
_U+30EC_U+30A4_U+30E4_U+30FC 1
370
     0
100
AcDbVertex
100
AcDb2dVertex
 10
87.19553898644764
 20
-120.8095078908046
 30
0.0
  0
VERTEX
  5
C6
330
C3
100
AcDbEntity
  8
_U+30EC_U+30A4_U+30E4_U+30FC 1
370
     0
100
AcDbVertex
100
AcDb2dVertex
 10
87.46460094384565
 20
-120.8095078908046
 30
0.0
  0
VERTEX
  5
C7
330
C3
100
AcDbEntity
  8
_U+30EC_U+30A4_U+30E4_U+30FC 1
370
     0
100
AcDbVertex
100
AcDb2dVertex
 10
87.46460094384565
 20
-121.0613443707763
 30
0.0
  0
VERTEX
  5
C8
330
C3
100
AcDbEntity
  8
_U+30EC_U+30A4_U+30E4_U+30FC 1
370
     0
100
AcDbVertex
100
AcDb2dVertex
 10
87.19553898644764
 20
-121.0613443707763
 30
0.0
  0
SEQEND
  5
C9
330
C3
100
AcDbEntity
  8
_U+30EC_U+30A4_U+30E4_U+30FC 1
370
     0
  0
HATCH
  5
CA
330
BC
100
AcDbEntity
  8
_U+30EC_U+30A4_U+30E4_U+30FC 1
 62
     7
420
 16777215
100
AcDbHatch
 10
0.0
 20
0.0
 30
0.0
210
0.0
220
0.0
230
1.0
  2
SOLID
 70
     1
 71
     0
 91
        1
 92
        1
 93
        4
 72
     1
 10
87.19553898644764
 20
-121.0613443707763
 11
87.19553898644764
 21
-120.8095078908046
 72
     1
 10
87.19553898644764
 20
-120.8095078908046
 11
87.46460094384565
 21
-120.8095078908046
 72
     1
 10
87.46460094384565
 20
-120.8095078908046
 11
87.46460094384565
 21
-121.0613443707763
 72
     1
 10
87.46460094384565
 20
-121.0613443707763
 11
87.19553898644764
 21
-121.0613443707763
 97
        0
 75
     2
 76
     1
 98
        0
  0
SPLINE
  5
CB
330
BC
100
AcDbEntity
  8
_U+30EC_U+30A4_U+30E4_U+30FC 1
370
     0
100
AcDbSpline
210
0.0
220
0.0
230
1.0
 70
    11
 71
     3
 72
    53
 73
    49
 74
     0
 42
0.0000000001
 43
0.0000000001
 12
1.0
 22
0.0
 32
0.0
 13
1.0
 23
0.0
 33
0.0
 40
0.0
 40
0.0
 40
0.0
 40
0.0
 40
1.0
 40
1.0
 40
1.0
 40
2.0
 40
2.0
 40
2.0
 40
3.0
 40
3.0
 40
3.0
 40
4.0
 40
4.0
 40
4.0
 40
5.0
 40
5.0
 40
5.0
 40
6.0
 40
6.0
 40
6.0
 40
7.0
 40
7.0
 40
7.0
 40
8.0
 40
8.0
 40
8.0
 40
9.0
 40
9.0
 40
9.0
 40
10.0
 40
10.0
 40
10.0
 40
11.0
 40
11.0
 40
11.0
 40
12.0
 40
12.0
 40
12.0
 40
13.0
 40
13.0
 40
13.0
 40
14.0
 40
14.0
 40
14.0
 40
15.0
 40
15.0
 40
15.0
 40
16.0
 40
16.0
 40
16.0
 40
16.0
 10
88.23147919886227
 20
-121.1119872744095
 30
0.0
 10
88.14810788811923
 20
-121.1119872744095
 30
0.0
 10
88.03924287078533
 20
-121.0951063065318
 30
0.0
 10
87.93106687254848
 20
-121.0317165496032
 30
0.0
 10
87.74537622589352
 20
-120.9218180036237
 30
0.0
 10
87.7229831052394
 20
-120.7905598656357
 30
0.0
 10
87.70265704187642
 20
-120.6827283769474
 30
0.0
 10
87.70265704187642
 20
-120.6827283769474
 30
0.0
 10
87.94002412081014
 20
-120.6827283769474
 30
0.0
 10
87.94002412081014
 20
-120.6827283769474
 30
0.0
 10
87.99859074405938
 20
-120.8815103864463
 30
0.0
 10
88.13432750617822
 20
-120.9111382076194
 30
0.0
 10
88.23389076570194
 20
-120.9111382076194
 30
0.0
 10
88.38306340021326
 20
-120.9111382076194
 30
0.0
 10
88.54567190711705
 20
-120.8115749480957
 30
0.0
 10
88.54567190711705
 20
-120.5790310028414
 30
0.0
 10
88.54567190711705
 20
-120.3230604082873
 30
0.0
 10
88.35378008858864
 20
-120.2531249699367
 30
0.0
 10
88.22493351744029
 20
-120.2531249699367
 30
0.0
 10
88.19082707213633
 20
-120.2531249699367
 30
0.0
 10
88.03924287078533
 20
-120.2531249699367
 30
0.0
 10
87.94450274494096
 20
-120.3823160506336
 30
0.0
 10
87.94450274494096
 20
-120.3823160506336
 30
0.0
 10
87.75674504099484
 20
-120.3633680254647
 30
0.0
 10
87.75674504099484
 20
-120.3633680254647
 30
0.0
 10
87.75674504099484
 20
-120.3633680254647
 30
0.0
 10
87.88559161214319
 20
-119.5169080647388
 30
0.0
 10
87.88559161214319
 20
-119.5169080647388
 30
0.0
 10
87.88559161214319
 20
-119.5169080647388
 30
0.0
 10
88.71758217183103
 20
-119.5169080647388
 30
0.0
 10
88.71758217183103
 20
-119.5169080647388
 30
0.0
 10
88.71758217183103
 20
-119.5169080647388
 30
0.0
 10
88.71758217183103
 20
-119.7115559596555
 30
0.0
 10
88.71758217183103
 20
-119.7115559596555
 30
0.0
 10
88.71758217183103
 20
-119.7115559596555
 30
0.0
 10
88.05991344369683
 20
-119.7115559596555
 30
0.0
 10
88.05991344369683
 20
-119.7115559596555
 30
0.0
 10
88.05991344369683
 20
-119.7115559596555
 30
0.0
 10
87.98963349579773
 20
-120.1346136852441
 30
0.0
 10
87.98963349579773
 20
-120.1346136852441
 30
0.0
 10
88.05509031001748
 20
-120.1008517494887
 30
0.0
 10
88.14328475443988
 20
-120.0605441323113
 30
0.0
 10
88.27006426829708
 20
-120.0605441323113
 30
0.0
 10
88.54119328298623
 20
-120.0605441323113
 30
0.0
 10
88.79440780115209
 20
-120.2469237980633
 30
0.0
 10
88.79440780115209
 20
-120.5600829776725
 30
0.0
 10
88.79440780115209
 20
-120.877376271864
 30
0.0
 10
88.55497366492723
 20
-121.1119872744095
 30
0.0
 10
88.23147919886227
 20
-121.1119872744095
 30
0.0
  0
HATCH
  5
CC
330
BC
100
AcDbEntity
  8
_U+30EC_U+30A4_U+30E4_U+30FC 1
 62
     7
420
 16777215
100
AcDbHatch
 10
0.0
 20
0.0
 30
0.0
210
0.0
220
0.0
230
1.0
  2
SOLID
 70
     1
 71
     0
 91
        1
 92
        1
 93
        1
 72
     4
 94
        3
 73
     0
 74
     1
 95
       53
 96
       49
 40
0.0
 40
0.0
 40
0.0
 40
0.0
 40
1.0
 40
1.0
 40
1.0
 40
2.0
 40
2.0
 40
2.0
 40
3.0
 40
3.0
 40
3.0
 40
4.0
 40
4.0
 40
4.0
 40
5.0
 40
5.0
 40
5.0
 40
6.0
 40
6.0
 40
6.0
 40
7.0
 40
7.0
 40
7.0
 40
8.0
 40
8.0
 40
8.0
 40
9.0
 40
9.0
 40
9.0
 40
10.0
 40
10.0
 40
10.0
 40
11.0
 40
11.0
 40
11.0
 40
12.0
 40
12.0
 40
12.0
 40
13.0
 40
13.0
 40
13.0
 40
14.0
 40
14.0
 40
14.0
 40
15.0
 40
15.0
 40
15.0
 40
16.0
 40
16.0
 40
16.0
 40
16.0
 10
88.23147919886227
 20
-121.1119872744095
 10
88.14810788811923
 20
-121.1119872744095
 10
88.03924287078533
 20
-121.0951063065318
 10
87.93106687254848
 20
-121.0317165496032
 10
87.74537622589352
 20
-120.9218180036237
 10
87.7229831052394
 20
-120.7905598656357
 10
87.70265704187642
 20
-120.6827283769474
 10
87.70265704187642
 20
-120.6827283769474
 10
87.94002412081014
 20
-120.6827283769474
 10
87.94002412081014
 20
-120.6827283769474
 10
87.99859074405938
 20
-120.8815103864463
 10
88.13432750617822
 20
-120.9111382076194
 10
88.23389076570194
 20
-120.9111382076194
 10
88.38306340021326
 20
-120.9111382076194
 10
88.54567190711705
 20
-120.8115749480957
 10
88.54567190711705
 20
-120.5790310028414
 10
88.54567190711705
 20
-120.3230604082873
 10
88.35378008858864
 20
-120.2531249699367
 10
88.22493351744029
 20
-120.2531249699367
 10
88.19082707213633
 20
-120.2531249699367
 10
88.03924287078533
 20
-120.2531249699367
 10
87.94450274494096
 20
-120.3823160506336
 10
87.94450274494096
 20
-120.3823160506336
 10
87.75674504099484
 20
-120.3633680254647
 10
87.75674504099484
 20
-120.3633680254647
 10
87.75674504099484
 20
-120.3633680254647
 10
87.88559161214319
 20
-119.5169080647388
 10
87.88559161214319
 20
-119.5169080647388
 10
87.88559161214319
 20
-119.5169080647388
 10
88.71758217183103
 20
-119.5169080647388
 10
88.71758217183103
 20
-119.5169080647388
 10
88.71758217183103
 20
-119.5169080647388
 10
88.71758217183103
 20
-119.7115559596555
 10
88.71758217183103
 20
-119.7115559596555
 10
88.71758217183103
 20
-119.7115559596555
 10
88.05991344369683
 20
-119.7115559596555
 10
88.05991344369683
 20
-119.7115559596555
 10
88.05991344369683
 20
-119.7115559596555
 10
87.98963349579773
 20
-120.1346136852441
 10
87.98963349579773
 20
-120.1346136852441
 10
88.05509031001748
 20
-120.1008517494887
 10
88.14328475443988
 20
-120.0605441323113
 10
88.27006426829708
 20
-120.0605441323113
 10
88.54119328298623
 20
-120.0605441323113
 10
88.79440780115209
 20
-120.2469237980633
 10
88.79440780115209
 20
-120.5600829776725
 10
88.79440780115209
 20
-120.877376271864
 10
88.55497366492723
 20
-121.1119872744095
 10
88.23147919886227
 20
-121.1119872744095
 97
        0
 97
        0
 75
     2
 76
     1
 98
        0
  0
ENDBLK
  5
BF
330
BC
100
AcDbEntity
  8
0
100
AcDbBlockEnd
  0
BLOCK
  5
D7
330
D5
100
AcDbEntity
  8
0
100
AcDbBlockBegin
  2
block 5
 70
     0
 10
0.0
 20
0.0
 30
0.0
  3
block 5
  1

  0
SPLINE
  5
D9
330
D5
100
AcDbEntity
  8
_U+30EC_U+30A4_U+30E4_U+30FC 1
370
     0
100
AcDbSpline
210
0.0
220
0.0
230
1.0
 70
    11
 71
     3
 72
    44
 73
    40
 74
     0
 42
0.0000000001
 43
0.0000000001
 12
1.0
 22
0.0
 32
0.0
 13
1.0
 23
0.0
 33
0.0
 40
0.0
 40
0.0
 40
0.0
 40
0.0
 40
1.0
 40
1.0
 40
1.0
 40
2.0
 40
2.0
 40
2.0
 40
3.0
 40
3.0
 40
3.0
 40
4.0
 40
4.0
 40
4.0
 40
5.0
 40
5.0
 40
5.0
 40
6.0
 40
6.0
 40
6.0
 40
7.0
 40
7.0
 40
7.0
 40
8.0
 40
8.0
 40
8.0
 40
9.0
 40
9.0
 40
9.0
 40
10.0
 40
10.0
 40
10.0
 40
11.0
 40
11.0
 40
11.0
 40
12.0
 40
12.0
 40
12.0
 40
13.0
 40
13.0
 40
13.0
 40
13.0
 10
76.37742239844037
 20
-140.9798529378453
 30
0.0
 10
76.14453394363748
 20
-141.1386718397153
 30
0.0
 10
76.04514293888802
 20
-141.2127413926482
 30
0.0
 10
75.99312199706075
 20
-141.3564018743831
 30
0.0
 10
75.99312199706075
 20
-141.3564018743831
 30
0.0
 10
76.82511255674859
 20
-141.3564018743831
 30
0.0
 10
76.82511255674859
 20
-141.3564018743831
 30
0.0
 10
76.82511255674859
 20
-141.3564018743831
 30
0.0
 10
76.82511255674859
 20
-141.561729565304
 30
0.0
 10
76.82511255674859
 20
-141.561729565304
 30
0.0
 10
76.82511255674859
 20
-141.561729565304
 30
0.0
 10
75.72629935172814
 20
-141.561729565304
 30
0.0
 10
75.72629935172814
 20
-141.561729565304
 30
0.0
 10
75.76023354225786
 20
-141.2041286539351
 30
0.0
 10
75.83034123538269
 20
-141.1259249864199
 30
0.0
 10
76.24185789109579
 20
-140.8275797173973
 30
0.0
 10
76.51539847262463
 20
-140.6287977078984
 30
0.0
 10
76.58550616574946
 20
-140.5609293268389
 30
0.0
 10
76.58550616574946
 20
-140.4234700169775
 30
0.0
 10
76.58550616574946
 20
-140.3049587322849
 30
0.0
 10
76.50850828165413
 20
-140.1740451038454
 30
0.0
 10
76.29835745705388
 20
-140.1740451038454
 30
0.0
 10
76.02033825139422
 20
-140.1740451038454
 30
0.0
 10
76.01120874835831
 20
-140.4045219918086
 30
0.0
 10
76.00673012422749
 20
-140.52096621921
 30
0.0
 10
76.00673012422749
 20
-140.52096621921
 30
0.0
 10
75.76712373322836
 20
-140.52096621921
 30
0.0
 10
75.76712373322836
 20
-140.52096621921
 30
0.0
 10
75.77608098149001
 20
-140.3938421958043
 30
0.0
 10
75.78744979659133
 20
-140.2818765925337
 30
0.0
 10
75.87323267417406
 20
-140.1633653078411
 30
0.0
 10
75.99088268499534
 20
-140.0024793486799
 30
0.0
 10
76.18983694926851
 20
-139.9687174129245
 30
0.0
 10
76.31420489628603
 20
-139.9687174129245
 30
0.0
 10
76.61031085324326
 20
-139.9687174129245
 30
0.0
 10
76.83183049294482
 20
-140.1526855118368
 30
0.0
 10
76.83183049294482
 20
-140.4255370742686
 30
0.0
 10
76.83183049294482
 20
-140.6542914144892
 30
0.0
 10
76.70763480070157
 20
-140.7535101644644
 30
0.0
 10
76.37742239844037
 20
-140.9798529378453
 30
0.0
  0
HATCH
  5
DA
330
D5
100
AcDbEntity
  8
_U+30EC_U+30A4_U+30E4_U+30FC 1
 62
     7
420
 16777215
100
AcDbHatch
 10
0.0
 20
0.0
 30
0.0
210
0.0
220
0.0
230
1.0
  2
SOLID
 70
     1
 71
     0
 91
        1
 92
        1
 93
        1
 72
     4
 94
        3
 73
     0
 74
     1
 95
       44
 96
       40
 40
0.0
 40
0.0
 40
0.0
 40
0.0
 40
1.0
 40
1.0
 40
1.0
 40
2.0
 40
2.0
 40
2.0
 40
3.0
 40
3.0
 40
3.0
 40
4.0
 40
4.0
 40
4.0
 40
5.0
 40
5.0
 40
5.0
 40
6.0
 40
6.0
 40
6.0
 40
7.0
 40
7.0
 40
7.0
 40
8.0
 40
8.0
 40
8.0
 40
9.0
 40
9.0
 40
9.0
 40
10.0
 40
10.0
 40
10.0
 40
11.0
 40
11.0
 40
11.0
 40
12.0
 40
12.0
 40
12.0
 40
13.0
 40
13.0
 40
13.0
 40
13.0
 10
76.37742239844037
 20
-140.9798529378453
 10
76.14453394363748
 20
-141.1386718397153
 10
76.04514293888802
 20
-141.2127413926482
 10
75.99312199706075
 20
-141.3564018743831
 10
75.99312199706075
 20
-141.3564018743831
 10
76.82511255674859
 20
-141.3564018743831
 10
76.82511255674859
 20
-141.3564018743831
 10
76.82511255674859
 20
-141.3564018743831
 10
76.82511255674859
 20
-141.561729565304
 10
76.82511255674859
 20
-141.561729565304
 10
76.82511255674859
 20
-141.561729565304
 10
75.72629935172814
 20
-141.561729565304
 10
75.72629935172814
 20
-141.561729565304
 10
75.76023354225786
 20
-141.2041286539351
 10
75.83034123538269
 20
-141.1259249864199
 10
76.24185789109579
 20
-140.8275797173973
 10
76.51539847262463
 20
-140.6287977078984
 10
76.58550616574946
 20
-140.5609293268389
 10
76.58550616574946
 20
-140.4234700169775
 10
76.58550616574946
 20
-140.3049587322849
 10
76.50850828165413
 20
-140.1740451038454
 10
76.29835745705388
 20
-140.1740451038454
 10
76.02033825139422
 20
-140.1740451038454
 10
76.01120874835831
 20
-140.4045219918086
 10
76.00673012422749
 20
-140.52096621921
 10
76.00673012422749
 20
-140.52096621921
 10
75.76712373322836
 20
-140.52096621921
 10
75.76712373322836
 20
-140.52096621921
 10
75.77608098149001
 20
-140.3938421958043
 10
75.78744979659133
 20
-140.2818765925337
 10
75.87323267417406
 20
-140.1633653078411
 10
75.99088268499534
 20
-140.0024793486799
 10
76.18983694926851
 20
-139.9687174129245
 10
76.31420489628603
 20
-139.9687174129245
 10
76.61031085324326
 20
-139.9687174129245
 10
76.83183049294482
 20
-140.1526855118368
 10
76.83183049294482
 20
-140.4255370742686
 10
76.83183049294482
 20
-140.6542914144892
 10
76.70763480070157
 20
-140.7535101644644
 10
76.37742239844037
 20
-140.9798529378453
 97
        0
 97
        0
 75
     2
 76
     1
 98
        0
  0
SPLINE
  5
DB
330
D5
100
AcDbEntity
  8
_U+30EC_U+30A4_U+30E4_U+30FC 1
370
     0
100
AcDbSpline
210
0.0
220
0.0
230
1.0
 70
    11
 71
     3
 72
    44
 73
    40
 74
     0
 42
0.0000000001
 43
0.0000000001
 12
1.0
 22
0.0
 32
0.0
 13
1.0
 23
0.0
 33
0.0
 40
0.0
 40
0.0
 40
0.0
 40
0.0
 40
1.0
 40
1.0
 40
1.0
 40
2.0
 40
2.0
 40
2.0
 40
3.0
 40
3.0
 40
3.0
 40
4.0
 40
4.0
 40
4.0
 40
5.0
 40
5.0
 40
5.0
 40
6.0
 40
6.0
 40
6.0
 40
7.0
 40
7.0
 40
7.0
 40
8.0
 40
8.0
 40
8.0
 40
9.0
 40
9.0
 40
9.0
 40
10.0
 40
10.0
 40
10.0
 40
11.0
 40
11.0
 40
11.0
 40
12.0
 40
12.0
 40
12.0
 40
13.0
 40
13.0
 40
13.0
 40
13.0
 10
78.08515623047872
 20
-141.561729565304
 30
0.0
 10
78.06035154298492
 20
-141.5172878335443
 30
0.0
 10
78.03778616755653
 20
-141.46457787262
 30
0.0
 10
78.03537460071685
 20
-141.2337564751082
 30
0.0
 10
78.03089597658602
 20
-140.9905327338496
 30
0.0
 10
77.9676784744317
 20
-140.920597295499
 30
0.0
 10
77.77768145842016
 20
-140.920597295499
 30
0.0
 10
77.77768145842016
 20
-140.920597295499
 30
0.0
 10
77.34136011521328
 20
-140.920597295499
 30
0.0
 10
77.34136011521328
 20
-140.920597295499
 30
0.0
 10
77.34136011521328
 20
-140.920597295499
 30
0.0
 10
77.34136011521328
 20
-141.561729565304
 30
0.0
 10
77.34136011521328
 20
-141.561729565304
 30
0.0
 10
77.34136011521328
 20
-141.561729565304
 30
0.0
 10
77.09038490911283
 20
-141.561729565304
 30
0.0
 10
77.09038490911283
 20
-141.561729565304
 30
0.0
 10
77.09038490911283
 20
-141.561729565304
 30
0.0
 10
77.09038490911283
 20
-140.0172932592665
 30
0.0
 10
77.09038490911283
 20
-140.0172932592665
 30
0.0
 10
77.09038490911283
 20
-140.0172932592665
 30
0.0
 10
77.81161564894988
 20
-140.0172932592665
 30
0.0
 10
77.81161564894988
 20
-140.0172932592665
 30
0.0
 10
78.1394164843714
 20
-140.0172932592665
 30
0.0
 10
78.3180446852816
 20
-140.188859014432
 30
0.0
 10
78.3180446852816
 20
-140.444829608986
 30
0.0
 10
78.3180446852816
 20
-140.4954725126192
 30
0.0
 10
78.3089151822457
 20
-140.5781548042652
 30
0.0
 10
78.2615451193235
 20
-140.6584255290715
 30
0.0
 10
78.19815536239491
 20
-140.7621229031775
 30
0.0
 10
78.12804766927007
 20
-140.7810709283464
 30
0.0
 10
78.06259085505033
 20
-140.7979518962241
 30
0.0
 10
78.20952417749623
 20
-140.8403265706927
 30
0.0
 10
78.28187118268649
 20
-140.8889024170347
 30
0.0
 10
78.2863498068173
 20
-141.2041286539351
 30
0.0
 10
78.2910006857224
 20
-141.4749131590757
 30
0.0
 10
78.32941350038293
 20
-141.50660803754
 30
0.0
 10
78.40176050557318
 20
-141.561729565304
 30
0.0
 10
78.40176050557318
 20
-141.561729565304
 30
0.0
 10
78.08515623047872
 20
-141.561729565304
 30
0.0
 10
78.08515623047872
 20
-141.561729565304
 30
0.0
  0
SPLINE
  5
DC
330
D5
100
AcDbEntity
  8
_U+30EC_U+30A4_U+30E4_U+30FC 1
370
     0
100
AcDbSpline
210
0.0
220
0.0
230
1.0
 70
    11
 71
     3
 72
    20
 73
    16
 74
     0
 42
0.0000000001
 43
0.0000000001
 12
1.0
 22
0.0
 32
0.0
 13
1.0
 23
0.0
 33
0.0
 40
0.0
 40
0.0
 40
0.0
 40
0.0
 40
1.0
 40
1.0
 40
1.0
 40
2.0
 40
2.0
 40
2.0
 40
3.0
 40
3.0
 40
3.0
 40
4.0
 40
4.0
 40
4.0
 40
5.0
 40
5.0
 40
5.0
 40
5.0
 10
77.81609427308071
 20
-140.2288221220608
 30
0.0
 10
77.81609427308071
 20
-140.2288221220608
 30
0.0
 10
77.34136011521328
 20
-140.2288221220608
 30
0.0
 10
77.34136011521328
 20
-140.2288221220608
 30
0.0
 10
77.34136011521328
 20
-140.2288221220608
 30
0.0
 10
77.34136011521328
 20
-140.7090684327047
 30
0.0
 10
77.34136011521328
 20
-140.7090684327047
 30
0.0
 10
77.34136011521328
 20
-140.7090684327047
 30
0.0
 10
77.8138549610153
 20
-140.7090684327047
 30
0.0
 10
77.8138549610153
 20
-140.7090684327047
 30
0.0
 10
77.92013615673525
 20
-140.7090684327047
 30
0.0
 10
78.06483016711574
 20
-140.6329318224807
 30
0.0
 10
78.06483016711574
 20
-140.4617105768637
 30
0.0
 10
78.06483016711574
 20
-140.3835069093486
 30
0.0
 10
78.02865666452061
 20
-140.2288221220608
 30
0.0
 10
77.81609427308071
 20
-140.2288221220608
 30
0.0
  0
HATCH
  5
DD
330
D5
100
AcDbEntity
  8
_U+30EC_U+30A4_U+30E4_U+30FC 1
 62
     7
420
 16777215
100
AcDbHatch
 10
0.0
 20
0.0
 30
0.0
210
0.0
220
0.0
230
1.0
  2
SOLID
 70
     1
 71
     0
 91
        2
 92
        1
 93
        1
 72
     4
 94
        3
 73
     0
 74
     1
 95
       44
 96
       40
 40
0.0
 40
0.0
 40
0.0
 40
0.0
 40
1.0
 40
1.0
 40
1.0
 40
2.0
 40
2.0
 40
2.0
 40
3.0
 40
3.0
 40
3.0
 40
4.0
 40
4.0
 40
4.0
 40
5.0
 40
5.0
 40
5.0
 40
6.0
 40
6.0
 40
6.0
 40
7.0
 40
7.0
 40
7.0
 40
8.0
 40
8.0
 40
8.0
 40
9.0
 40
9.0
 40
9.0
 40
10.0
 40
10.0
 40
10.0
 40
11.0
 40
11.0
 40
11.0
 40
12.0
 40
12.0
 40
12.0
 40
13.0
 40
13.0
 40
13.0
 40
13.0
 10
78.08515623047872
 20
-141.561729565304
 10
78.06035154298492
 20
-141.5172878335443
 10
78.03778616755653
 20
-141.46457787262
 10
78.03537460071685
 20
-141.2337564751082
 10
78.03089597658602
 20
-140.9905327338496
 10
77.9676784744317
 20
-140.920597295499
 10
77.77768145842016
 20
-140.920597295499
 10
77.77768145842016
 20
-140.920597295499
 10
77.34136011521328
 20
-140.920597295499
 10
77.34136011521328
 20
-140.920597295499
 10
77.34136011521328
 20
-140.920597295499
 10
77.34136011521328
 20
-141.561729565304
 10
77.34136011521328
 20
-141.561729565304
 10
77.34136011521328
 20
-141.561729565304
 10
77.09038490911283
 20
-141.561729565304
 10
77.09038490911283
 20
-141.561729565304
 10
77.09038490911283
 20
-141.561729565304
 10
77.09038490911283
 20
-140.0172932592665
 10
77.09038490911283
 20
-140.0172932592665
 10
77.09038490911283
 20
-140.0172932592665
 10
77.81161564894988
 20
-140.0172932592665
 10
77.81161564894988
 20
-140.0172932592665
 10
78.1394164843714
 20
-140.0172932592665
 10
78.3180446852816
 20
-140.188859014432
 10
78.3180446852816
 20
-140.444829608986
 10
78.3180446852816
 20
-140.4954725126192
 10
78.3089151822457
 20
-140.5781548042652
 10
78.2615451193235
 20
-140.6584255290715
 10
78.19815536239491
 20
-140.7621229031775
 10
78.12804766927007
 20
-140.7810709283464
 10
78.06259085505033
 20
-140.7979518962241
 10
78.20952417749623
 20
-140.8403265706927
 10
78.28187118268649
 20
-140.8889024170347
 10
78.2863498068173
 20
-141.2041286539351
 10
78.2910006857224
 20
-141.4749131590757
 10
78.32941350038293
 20
-141.50660803754
 10
78.40176050557318
 20
-141.561729565304
 10
78.40176050557318
 20
-141.561729565304
 10
78.08515623047872
 20
-141.561729565304
 10
78.08515623047872
 20
-141.561729565304
 97
        0
 97
        0
 92
        1
 93
        1
 72
     4
 94
        3
 73
     0
 74
     1
 95
       20
 96
       16
 40
0.0
 40
0.0
 40
0.0
 40
0.0
 40
1.0
 40
1.0
 40
1.0
 40
2.0
 40
2.0
 40
2.0
 40
3.0
 40
3.0
 40
3.0
 40
4.0
 40
4.0
 40
4.0
 40
5.0
 40
5.0
 40
5.0
 40
5.0
 10
77.81609427308071
 20
-140.2288221220608
 10
77.81609427308071
 20
-140.2288221220608
 10
77.34136011521328
 20
-140.2288221220608
 10
77.34136011521328
 20
-140.2288221220608
 10
77.34136011521328
 20
-140.2288221220608
 10
77.34136011521328
 20
-140.7090684327047
 10
77.34136011521328
 20
-140.7090684327047
 10
77.34136011521328
 20
-140.7090684327047
 10
77.8138549610153
 20
-140.7090684327047
 10
77.8138549610153
 20
-140.7090684327047
 10
77.92013615673525
 20
-140.7090684327047
 10
78.06483016711574
 20
-140.6329318224807
 10
78.06483016711574
 20
-140.4617105768637
 10
78.06483016711574
 20
-140.3835069093486
 10
78.02865666452061
 20
-140.2288221220608
 10
77.81609427308071
 20
-140.2288221220608
 97
        0
 97
        0
 75
     2
 76
     1
 98
        0
  0
ENDBLK
  5
D8
330
D5
100
AcDbEntity
  8
0
100
AcDbBlockEnd
  0
BLOCK
  5
E9
330
E7
100
AcDbEntity
  8
0
100
AcDbBlockBegin
  2
block 6
 70
     0
 10
0.0
 20
0.0
 30
0.0
  3
block 6
  1

  0
SPLINE
  5
EB
330
E7
100
AcDbEntity
  8
_U+30EC_U+30A4_U+30E4_U+30FC 1
370
     0
100
AcDbSpline
210
0.0
220
0.0
230
1.0
 70
    11
 71
     3
 72
    26
 73
    22
 74
     0
 42
0.0000000001
 43
0.0000000001
 12
1.0
 22
0.0
 32
0.0
 13
1.0
 23
0.0
 33
0.0
 40
0.0
 40
0.0
 40
0.0
 40
0.0
 40
1.0
 40
1.0
 40
1.0
 40
2.0
 40
2.0
 40
2.0
 40
3.0
 40
3.0
 40
3.0
 40
4.0
 40
4.0
 40
4.0
 40
5.0
 40
5.0
 40
5.0
 40
6.0
 40
6.0
 40
6.0
 40
7.0
 40
7.0
 40
7.0
 40
7.0
 10
81.80999346913084
 20
-121.0585882943881
 30
0.0
 10
81.80999346913084
 20
-121.0585882943881
 30
0.0
 10
81.80999346913084
 20
-119.9544351913656
 30
0.0
 10
81.80999346913084
 20
-119.9544351913656
 30
0.0
 10
81.80999346913084
 20
-119.9544351913656
 30
0.0
 10
81.45756020098978
 20
-119.9544351913656
 30
0.0
 10
81.45756020098978
 20
-119.9544351913656
 30
0.0
 10
81.45756020098978
 20
-119.9544351913656
 30
0.0
 10
81.45756020098978
 20
-119.8062960854998
 30
0.0
 10
81.45756020098978
 20
-119.8062960854998
 30
0.0
 10
81.81240503597051
 20
-119.7914821749132
 30
0.0
 10
81.86201441095811
 20
-119.6285291584609
 30
0.0
 10
81.8937092894224
 20
-119.5141519883506
 30
0.0
 10
81.8937092894224
 20
-119.5141519883506
 30
0.0
 10
82.04977211490423
 20
-119.5141519883506
 30
0.0
 10
82.04977211490423
 20
-119.5141519883506
 30
0.0
 10
82.04977211490423
 20
-119.5141519883506
 30
0.0
 10
82.04977211490423
 20
-121.0585882943881
 30
0.0
 10
82.04977211490423
 20
-121.0585882943881
 30
0.0
 10
82.04977211490423
 20
-121.0585882943881
 30
0.0
 10
81.80999346913084
 20
-121.0585882943881
 30
0.0
 10
81.80999346913084
 20
-121.0585882943881
 30
0.0
  0
HATCH
  5
EC
330
E7
100
AcDbEntity
  8
_U+30EC_U+30A4_U+30E4_U+30FC 1
 62
   179
420
  2234388
100
AcDbHatch
 10
0.0
 20
0.0
 30
0.0
210
0.0
220
0.0
230
1.0
  2
SOLID
 70
     1
 71
     0
 91
        1
 92
        1
 93
        1
 72
     4
 94
        3
 73
     0
 74
     1
 95
       26
 96
       22
 40
0.0
 40
0.0
 40
0.0
 40
0.0
 40
1.0
 40
1.0
 40
1.0
 40
2.0
 40
2.0
 40
2.0
 40
3.0
 40
3.0
 40
3.0
 40
4.0
 40
4.0
 40
4.0
 40
5.0
 40
5.0
 40
5.0
 40
6.0
 40
6.0
 40
6.0
 40
7.0
 40
7.0
 40
7.0
 40
7.0
 10
81.80999346913084
 20
-121.0585882943881
 10
81.80999346913084
 20
-121.0585882943881
 10
81.80999346913084
 20
-119.9544351913656
 10
81.80999346913084
 20
-119.9544351913656
 10
81.80999346913084
 20
-119.9544351913656
 10
81.45756020098978
 20
-119.9544351913656
 10
81.45756020098978
 20
-119.9544351913656
 10
81.45756020098978
 20
-119.9544351913656
 10
81.45756020098978
 20
-119.8062960854998
 10
81.45756020098978
 20
-119.8062960854998
 10
81.81240503597051
 20
-119.7914821749132
 10
81.86201441095811
 20
-119.6285291584609
 10
81.8937092894224
 20
-119.5141519883506
 10
81.8937092894224
 20
-119.5141519883506
 10
82.04977211490423
 20
-119.5141519883506
 10
82.04977211490423
 20
-119.5141519883506
 10
82.04977211490423
 20
-119.5141519883506
 10
82.04977211490423
 20
-121.0585882943881
 10
82.04977211490423
 20
-121.0585882943881
 10
82.04977211490423
 20
-121.0585882943881
 10
81.80999346913084
 20
-121.0585882943881
 10
81.80999346913084
 20
-121.0585882943881
 97
        0
 97
        0
 75
     2
 76
     1
 98
        0
  0
ENDBLK
  5
EA
330
E7
100
AcDbEntity
  8
0
100
AcDbBlockEnd
  0
ENDSEC
  0
SECTION
  2
ENTITIES
  0
POLYLINE
  5
41
330
1F
100
AcDbEntity
  8
_U+30EC_U+30A4_U+30E4_U+30FC 1
  6
AI-Linetype-1
 62
   251
420
  5855577
370
    25
100
AcDb2dPolyline
 66
     1
 10
0.0
 20
0.0
 30
0.0
  0
VERTEX
  5
42
330
41
100
AcDbEntity
  8
_U+30EC_U+30A4_U+30E4_U+30FC 1
  6
AI-Linetype-1
 62
   251
420
  5855577
370
    25
100
AcDbVertex
100
AcDb2dVertex
 10
84.2139800737446
 20
-125.100714968725
 30
0.0
  0
VERTEX
  5
43
330
41
100
AcDbEntity
  8
_U+30EC_U+30A4_U+30E4_U+30FC 1
  6
AI-Linetype-1
 62
   251
420
  5855577
370
    25
100
AcDbVertex
100
AcDb2dVertex
 10
82.33296901062208
 20
-125.100714968725
 30
0.0
  0
VERTEX
  5
44
330
41
100
AcDbEntity
  8
_U+30EC_U+30A4_U+30E4_U+30FC 1
  6
AI-Linetype-1
 62
   251
420
  5855577
370
    25
100
AcDbVertex
100
AcDb2dVertex
 10
82.33296901062208
 20
-138.7415732986479
 30
0.0
  0
VERTEX
  5
45
330
41
100
AcDbEntity
  8
_U+30EC_U+30A4_U+30E4_U+30FC 1
  6
AI-Linetype-1
 62
   251
420
  5855577
370
    25
100
AcDbVertex
100
AcDb2dVertex
 10
96.38481309657412
 20
-138.7415732986479
 30
0.0
  0
VERTEX
  5
46
330
41
100
AcDbEntity
  8
_U+30EC_U+30A4_U+30E4_U+30FC 1
  6
AI-Linetype-1
 62
   251
420
  5855577
370
    25
100
AcDbVertex
100
AcDb2dVertex
 10
96.38481309657412
 20
-136.918770521326
 30
0.0
  0
SEQEND
  5
48
330
41
100
AcDbEntity
  8
_U+30EC_U+30A4_U+30E4_U+30FC 1
  6
AI-Linetype-1
 62
   251
420
  5855577
370
    25
  0
SPLINE
  5
49
330
1F
100
AcDbEntity
  8
_U+30EC_U+30A4_U+30E4_U+30FC 1
370
     0
100
AcDbSpline
210
0.0
220
0.0
230
1.0
 70
    11
 71
     3
 72
    74
 73
    70
 74
     0
 42
0.0000000001
 43
0.0000000001
 12
1.0
 22
0.0
 32
0.0
 13
1.0
 23
0.0
 33
0.0
 40
0.0
 40
0.0
 40
0.0
 40
0.0
 40
1.0
 40
1.0
 40
1.0
 40
2.0
 40
2.0
 40
2.0
 40
3.0
 40
3.0
 40
3.0
 40
4.0
 40
4.0
 40
4.0
 40
5.0
 40
5.0
 40
5.0
 40
6.0
 40
6.0
 40
6.0
 40
7.0
 40
7.0
 40
7.0
 40
8.0
 40
8.0
 40
8.0
 40
9.0
 40
9.0
 40
9.0
 40
10.0
 40
10.0
 40
10.0
 40
11.0
 40
11.0
 40
11.0
 40
12.0
 40
12.0
 40
12.0
 40
13.0
 40
13.0
 40
13.0
 40
14.0
 40
14.0
 40
14.0
 40
15.0
 40
15.0
 40
15.0
 40
16.0
 40
16.0
 40
16.0
 40
17.0
 40
17.0
 40
17.0
 40
18.0
 40
18.0
 40
18.0
 40
19.0
 40
19.0
 40
19.0
 40
20.0
 40
20.0
 40
20.0
 40
21.0
 40
21.0
 40
21.0
 40
22.0
 40
22.0
 40
22.0
 40
23.0
 40
23.0
 40
23.0
 40
23.0
 10
83.93218331235018
 20
-125.6577863574746
 30
0.0
 10
83.38026037279234
 20
-125.6577863574746
 30
0.0
 10
82.93241109037795
 20
-126.1056377462513
 30
0.0
 10
82.93241109037795
 20
-126.6579113572245
 30
0.0
 10
82.93241109037795
 20
-126.6579113572245
 30
0.0
 10
82.93241109037795
 20
-136.1577582992942
 30
0.0
 10
82.93241109037795
 20
-136.1577582992942
 30
0.0
 10
82.93241109037795
 20
-137.2622349656843
 30
0.0
 10
83.82744147249491
 20
-138.157973021016
 30
0.0
 10
84.93195553432271
 20
-138.157973021016
 30
0.0
 10
84.93195553432271
 20
-138.157973021016
 30
0.0
 10
94.43211759083597
 20
-138.157973021016
 30
0.0
 10
94.43211759083597
 20
-138.157973021016
 30
0.0
 10
94.9847110873648
 20
-138.157973021016
 30
0.0
 10
95.43259534308943
 20
-137.7104744100167
 30
0.0
 10
95.43259534308943
 20
-137.1578480212663
 30
0.0
 10
95.43259534308943
 20
-137.1578480212663
 30
0.0
 10
85.36325948886848
 20
-137.1578480212663
 30
0.0
 10
85.36325948886848
 20
-137.1578480212663
 30
0.0
 10
85.28402775645678
 20
-137.1578480212663
 30
0.0
 10
85.20754338173002
 20
-137.126521354607
 30
0.0
 10
85.15173608982317
 20
-137.0700063546217
 30
0.0
 10
85.03461386763013
 20
-136.9528841324286
 30
0.0
 10
85.03461386763013
 20
-136.7627016324762
 30
0.0
 10
85.15173608982317
 20
-136.6455794102831
 30
0.0
 10
85.15173608982317
 20
-136.6455794102831
 30
0.0
 10
91.1393251748421
 20
-130.657988022891
 30
0.0
 10
91.1393251748421
 20
-130.657988022891
 30
0.0
 10
91.1393251748421
 20
-130.657988022891
 30
0.0
 10
94.43211759083597
 20
-130.657988022891
 30
0.0
 10
94.43211759083597
 20
-130.657988022891
 30
0.0
 10
94.78972841504589
 20
-130.657988022891
 30
0.0
 10
95.11978729551427
 20
-130.4671352451612
 30
0.0
 10
95.29822229096202
 20
-130.1577844119048
 30
0.0
 10
95.29822229096202
 20
-130.1577844119048
 30
0.0
 10
105.9325670196573
 20
-130.1577844119048
 30
0.0
 10
105.9325670196573
 20
-130.1577844119048
 30
0.0
 10
106.208862568164
 20
-130.1577844119048
 30
0.0
 10
106.4327706180071
 20
-129.9338410786276
 30
0.0
 10
106.4327706180071
 20
-129.6578983009189
 30
0.0
 10
106.4327706180071
 20
-129.6578983009189
 30
0.0
 10
91.43213072292757
 20
-129.6578983009189
 30
0.0
 10
91.43213072292757
 20
-129.6578983009189
 30
0.0
 10
91.43213072292757
 20
-129.6578983009189
 30
0.0
 10
91.43213072292757
 20
-114.657928304669
 30
0.0
 10
91.43213072292757
 20
-114.657928304669
 30
0.0
 10
91.1558351744209
 20
-114.657928304669
 30
0.0
 10
90.93259740233839
 20
-114.8818716379463
 30
0.0
 10
90.93259740233839
 20
-115.157814415655
 30
0.0
 10
90.93259740233839
 20
-115.157814415655
 30
0.0
 10
90.93259740233839
 20
-125.7918066352188
 30
0.0
 10
90.93259740233839
 20
-125.7918066352188
 30
0.0
 10
90.6225410213597
 20
-125.9705944129519
 30
0.0
 10
90.43239380398853
 20
-126.3006533017582
 30
0.0
 10
90.43239380398853
 20
-126.6579113572245
 30
0.0
 10
90.43239380398853
 20
-126.6579113572245
 30
0.0
 10
90.43239380398853
 20
-129.9507391341787
 30
0.0
 10
90.43239380398853
 20
-129.9507391341787
 30
0.0
 10
90.43239380398853
 20
-129.9507391341787
 30
0.0
 10
84.44409701231827
 20
-135.9386480215711
 30
0.0
 10
84.44409701231827
 20
-135.9386480215711
 30
0.0
 10
84.38828756929765
 20
-135.9951277437789
 30
0.0
 10
84.31180534902664
 20
-136.0264896882157
 30
0.0
 10
84.23190118439851
 20
-136.0264896882157
 30
0.0
 10
84.06651896639553
 20
-136.0264896882157
 30
0.0
 10
83.93218331235018
 20
-135.8921519104712
 30
0.0
 10
83.93218331235018
 20
-135.726416910513
 30
0.0
 10
83.93218331235018
 20
-135.726416910513
 30
0.0
 10
83.93218331235018
 20
-125.6577863574746
 30
0.0
 10
83.93218331235018
 20
-125.6577863574746
 30
0.0
  0
HATCH
  5
4A
330
1F
100
AcDbEntity
  8
_U+30EC_U+30A4_U+30E4_U+30FC 1
 62
   253
420
 11711154
100
AcDbHatch
 10
0.0
 20
0.0
 30
0.0
210
0.0
220
0.0
230
1.0
  2
SOLID
 70
     1
 71
     0
 91
        1
 92
        1
 93
        1
 72
     4
 94
        3
 73
     0
 74
     1
 95
       74
 96
       70
 40
0.0
 40
0.0
 40
0.0
 40
0.0
 40
1.0
 40
1.0
 40
1.0
 40
2.0
 40
2.0
 40
2.0
 40
3.0
 40
3.0
 40
3.0
 40
4.0
 40
4.0
 40
4.0
 40
5.0
 40
5.0
 40
5.0
 40
6.0
 40
6.0
 40
6.0
 40
7.0
 40
7.0
 40
7.0
 40
8.0
 40
8.0
 40
8.0
 40
9.0
 40
9.0
 40
9.0
 40
10.0
 40
10.0
 40
10.0
 40
11.0
 40
11.0
 40
11.0
 40
12.0
 40
12.0
 40
12.0
 40
13.0
 40
13.0
 40
13.0
 40
14.0
 40
14.0
 40
14.0
 40
15.0
 40
15.0
 40
15.0
 40
16.0
 40
16.0
 40
16.0
 40
17.0
 40
17.0
 40
17.0
 40
18.0
 40
18.0
 40
18.0
 40
19.0
 40
19.0
 40
19.0
 40
20.0
 40
20.0
 40
20.0
 40
21.0
 40
21.0
 40
21.0
 40
22.0
 40
22.0
 40
22.0
 40
23.0
 40
23.0
 40
23.0
 40
23.0
 10
83.93218331235018
 20
-125.6577863574746
 10
83.38026037279234
 20
-125.6577863574746
 10
82.93241109037795
 20
-126.1056377462513
 10
82.93241109037795
 20
-126.6579113572245
 10
82.93241109037795
 20
-126.6579113572245
 10
82.93241109037795
 20
-136.1577582992942
 10
82.93241109037795
 20
-136.1577582992942
 10
82.93241109037795
 20
-137.2622349656843
 10
83.82744147249491
 20
-138.157973021016
 10
84.93195553432271
 20
-138.157973021016
 10
84.93195553432271
 20
-138.157973021016
 10
94.43211759083597
 20
-138.157973021016
 10
94.43211759083597
 20
-138.157973021016
 10
94.9847110873648
 20
-138.157973021016
 10
95.43259534308943
 20
-137.7104744100167
 10
95.43259534308943
 20
-137.1578480212663
 10
95.43259534308943
 20
-137.1578480212663
 10
85.36325948886848
 20
-137.1578480212663
 10
85.36325948886848
 20
-137.1578480212663
 10
85.28402775645678
 20
-137.1578480212663
 10
85.20754338173002
 20
-137.126521354607
 10
85.15173608982317
 20
-137.0700063546217
 10
85.03461386763013
 20
-136.9528841324286
 10
85.03461386763013
 20
-136.7627016324762
 10
85.15173608982317
 20
-136.6455794102831
 10
85.15173608982317
 20
-136.6455794102831
 10
91.1393251748421
 20
-130.657988022891
 10
91.1393251748421
 20
-130.657988022891
 10
91.1393251748421
 20
-130.657988022891
 10
94.43211759083597
 20
-130.657988022891
 10
94.43211759083597
 20
-130.657988022891
 10
94.78972841504589
 20
-130.657988022891
 10
95.11978729551427
 20
-130.4671352451612
 10
95.29822229096202
 20
-130.1577844119048
 10
95.29822229096202
 20
-130.1577844119048
 10
105.9325670196573
 20
-130.1577844119048
 10
105.9325670196573
 20
-130.1577844119048
 10
106.208862568164
 20
-130.1577844119048
 10
106.4327706180071
 20
-129.9338410786276
 10
106.4327706180071
 20
-129.6578983009189
 10
106.4327706180071
 20
-129.6578983009189
 10
91.43213072292757
 20
-129.6578983009189
 10
91.43213072292757
 20
-129.6578983009189
 10
91.43213072292757
 20
-129.6578983009189
 10
91.43213072292757
 20
-114.657928304669
 10
91.43213072292757
 20
-114.657928304669
 10
91.1558351744209
 20
-114.657928304669
 10
90.93259740233839
 20
-114.8818716379463
 10
90.93259740233839
 20
-115.157814415655
 10
90.93259740233839
 20
-115.157814415655
 10
90.93259740233839
 20
-125.7918066352188
 10
90.93259740233839
 20
-125.7918066352188
 10
90.6225410213597
 20
-125.9705944129519
 10
90.43239380398853
 20
-126.3006533017582
 10
90.43239380398853
 20
-126.6579113572245
 10
90.43239380398853
 20
-126.6579113572245
 10
90.43239380398853
 20
-129.9507391341787
 10
90.43239380398853
 20
-129.9507391341787
 10
90.43239380398853
 20
-129.9507391341787
 10
84.44409701231827
 20
-135.9386480215711
 10
84.44409701231827
 20
-135.9386480215711
 10
84.38828756929765
 20
-135.9951277437789
 10
84.31180534902664
 20
-136.0264896882157
 10
84.23190118439851
 20
-136.0264896882157
 10
84.06651896639553
 20
-136.0264896882157
 10
83.93218331235018
 20
-135.8921519104712
 10
83.93218331235018
 20
-135.726416910513
 10
83.93218331235018
 20
-135.726416910513
 10
83.93218331235018
 20
-125.6577863574746
 10
83.93218331235018
 20
-125.6577863574746
 97
        0
 97
        0
 75
     2
 76
     1
 98
        0
  0
POLYLINE
  5
4B
330
1F
100
AcDbEntity
  8
_U+30EC_U+30A4_U+30E4_U+30FC 1
 62
     7
420
 16777215
370
    25
100
AcDb2dPolyline
 66
     1
 10
0.0
 20
0.0
 30
0.0
  0
VERTEX
  5
4C
330
4B
100
AcDbEntity
  8
_U+30EC_U+30A4_U+30E4_U+30FC 1
 62
     7
420
 16777215
370
    25
100
AcDbVertex
100
AcDb2dVertex
 10
91.1393251748421
 20
-130.657988022891
 30
0.0
  0
VERTEX
  5
4D
330
4B
100
AcDbEntity
  8
_U+30EC_U+30A4_U+30E4_U+30FC 1
 62
     7
420
 16777215
370
    25
100
AcDbVertex
100
AcDb2dVertex
 10
94.43211759083597
 20
-130.657988022891
 30
0.0
  0
SEQEND
  5
4E
330
4B
100
AcDbEntity
  8
_U+30EC_U+30A4_U+30E4_U+30FC 1
 62
     7
420
 16777215
370
    25
  0
POLYLINE
  5
4F
330
1F
100
AcDbEntity
  8
_U+30EC_U+30A4_U+30E4_U+30FC 1
 62
     7
420
 16777215
370
    25
100
AcDb2dPolyline
 66
     1
 10
0.0
 20
0.0
 30
0.0
  0
VERTEX
  5
50
330
4F
100
AcDbEntity
  8
_U+30EC_U+30A4_U+30E4_U+30FC 1
 62
     7
420
 16777215
370
    25
100
AcDbVertex
100
AcDb2dVertex
 10
90.43239380398853
 20
-126.6579113572245
 30
0.0
  0
VERTEX
  5
51
330
4F
100
AcDbEntity
  8
_U+30EC_U+30A4_U+30E4_U+30FC 1
 62
     7
420
 16777215
370
    25
100
AcDbVertex
100
AcDb2dVertex
 10
90.43239380398853
 20
-129.9507391341787
 30
0.0
  0
SEQEND
  5
52
330
4F
100
AcDbEntity
  8
_U+30EC_U+30A4_U+30E4_U+30FC 1
 62
     7
420
 16777215
370
    25
  0
POLYLINE
  5
53
330
1F
100
AcDbEntity
  8
_U+30EC_U+30A4_U+30E4_U+30FC 1
 62
     7
420
 16777215
370
    25
100
AcDb2dPolyline
 66
     1
 10
0.0
 20
0.0
 30
0.0
  0
VERTEX
  5
54
330
53
100
AcDbEntity
  8
_U+30EC_U+30A4_U+30E4_U+30FC 1
 62
     7
420
 16777215
370
    25
100
AcDbVertex
100
AcDb2dVertex
 10
85.15173608982317
 20
-136.6455794102831
 30
0.0
  0
VERTEX
  5
55
330
53
100
AcDbEntity
  8
_U+30EC_U+30A4_U+30E4_U+30FC 1
 62
     7
420
 16777215
370
    25
100
AcDbVertex
100
AcDb2dVertex
 10
91.1393251748421
 20
-130.657988022891
 30
0.0
  0
SEQEND
  5
56
330
53
100
AcDbEntity
  8
_U+30EC_U+30A4_U+30E4_U+30FC 1
 62
     7
420
 16777215
370
    25
  0
POLYLINE
  5
57
330
1F
100
AcDbEntity
  8
_U+30EC_U+30A4_U+30E4_U+30FC 1
 62
     7
420
 16777215
370
    25
100
AcDb2dPolyline
 66
     1
 10
0.0
 20
0.0
 30
0.0
  0
VERTEX
  5
58
330
57
100
AcDbEntity
  8
_U+30EC_U+30A4_U+30E4_U+30FC 1
 62
     7
420
 16777215
370
    25
100
AcDbVertex
100
AcDb2dVertex
 10
84.44409701231827
 20
-135.9386480215711
 30
0.0
  0
VERTEX
  5
59
330
57
100
AcDbEntity
  8
_U+30EC_U+30A4_U+30E4_U+30FC 1
 62
     7
420
 16777215
370
    25
100
AcDbVertex
100
AcDb2dVertex
 10
90.43239380398853
 20
-129.9507391341787
 30
0.0
  0
SEQEND
  5
5A
330
57
100
AcDbEntity
  8
_U+30EC_U+30A4_U+30E4_U+30FC 1
 62
     7
420
 16777215
370
    25
  0
POLYLINE
  5
5B
330
1F
100
AcDbEntity
  8
_U+30EC_U+30A4_U+30E4_U+30FC 1
 62
     7
420
 16777215
370
    25
100
AcDb2dPolyline
 66
     1
 10
0.0
 20
0.0
 30
0.0
  0
VERTEX
  5
5C
330
5B
100
AcDbEntity
  8
_U+30EC_U+30A4_U+30E4_U+30FC 1
 62
     7
420
 16777215
370
    25
100
AcDbVertex
100
AcDb2dVertex
 10
91.43213072292757
 20
-114.657928304669
 30
0.0
  0
VERTEX
  5
5D
330
5B
100
AcDbEntity
  8
_U+30EC_U+30A4_U+30E4_U+30FC 1
 62
     7
420
 16777215
370
    25
100
AcDbVertex
100
AcDb2dVertex
 10
91.43213072292757
 20
-129.6578983009189
 30
0.0
  0
SEQEND
  5
5E
330
5B
100
AcDbEntity
  8
_U+30EC_U+30A4_U+30E4_U+30FC 1
 62
     7
420
 16777215
370
    25
  0
POLYLINE
  5
5F
330
1F
100
AcDbEntity
  8
_U+30EC_U+30A4_U+30E4_U+30FC 1
 62
     7
420
 16777215
370
    25
100
AcDb2dPolyline
 66
     1
 10
0.0
 20
0.0
 30
0.0
  0
VERTEX
  5
60
330
5F
100
AcDbEntity
  8
_U+30EC_U+30A4_U+30E4_U+30FC 1
 62
     7
420
 16777215
370
    25
100
AcDbVertex
100
AcDb2dVertex
 10
91.43213072292757
 20
-129.6578983009189
 30
0.0
  0
VERTEX
  5
61
330
5F
100
AcDbEntity
  8
_U+30EC_U+30A4_U+30E4_U+30FC 1
 62
     7
420
 16777215
370
    25
100
AcDbVertex
100
AcDb2dVertex
 10
106.4327706180071
 20
-129.6578983009189
 30
0.0
  0
SEQEND
  5
62
330
5F
100
AcDbEntity
  8
_U+30EC_U+30A4_U+30E4_U+30FC 1
 62
     7
420
 16777215
370
    25
  0
POLYLINE
  5
63
330
1F
100
AcDbEntity
  8
_U+30EC_U+30A4_U+30E4_U+30FC 1
 62
     7
420
 16777215
370
    25
100
AcDb2dPolyline
 66
     1
 10
0.0
 20
0.0
 30
0.0
  0
VERTEX
  5
64
330
63
100
AcDbEntity
  8
_U+30EC_U+30A4_U+30E4_U+30FC 1
 62
     7
420
 16777215
370
    25
100
AcDbVertex
100
AcDb2dVertex
 10
90.93259740233839
 20
-115.157814415655
 30
0.0
  0
VERTEX
  5
65
330
63
100
AcDbEntity
  8
_U+30EC_U+30A4_U+30E4_U+30FC 1
 62
     7
420
 16777215
370
    25
100
AcDbVertex
100
AcDb2dVertex
 10
90.93259740233839
 20
-125.7918066352188
 30
0.0
  0
SEQEND
  5
66
330
63
100
AcDbEntity
  8
_U+30EC_U+30A4_U+30E4_U+30FC 1
 62
     7
420
 16777215
370
    25
  0
POLYLINE
  5
67
330
1F
100
AcDbEntity
  8
_U+30EC_U+30A4_U+30E4_U+30FC 1
 62
     7
420
 16777215
370
    25
100
AcDb2dPolyline
 66
     1
 10
0.0
 20
0.0
 30
0.0
  0
VERTEX
  5
68
330
67
100
AcDbEntity
  8
_U+30EC_U+30A4_U+30E4_U+30FC 1
 62
     7
420
 16777215
370
    25
100
AcDbVertex
100
AcDb2dVertex
 10
95.29822229096202
 20
-130.1577844119048
 30
0.0
  0
VERTEX
  5
69
330
67
100
AcDbEntity
  8
_U+30EC_U+30A4_U+30E4_U+30FC 1
 62
     7
420
 16777215
370
    25
100
AcDbVertex
100
AcDb2dVertex
 10
105.9325670196573
 20
-130.1577844119048
 30
0.0
  0
SEQEND
  5
6A
330
67
100
AcDbEntity
  8
_U+30EC_U+30A4_U+30E4_U+30FC 1
 62
     7
420
 16777215
370
    25
  0
POLYLINE
  5
6B
330
1F
100
AcDbEntity
  8
_U+30EC_U+30A4_U+30E4_U+30FC 1
 62
     7
420
 16777215
370
     9
100
AcDb2dPolyline
 66
     1
 10
0.0
 20
0.0
 30
0.0
  0
VERTEX
  5
6C
330
6B
100
AcDbEntity
  8
_U+30EC_U+30A4_U+30E4_U+30FC 1
 62
     7
420
 16777215
370
     9
100
AcDbVertex
100
AcDb2dVertex
 10
83.01785177092704
 20
-138.4380785765015
 30
0.0
  0
VERTEX
  5
6D
330
6B
100
AcDbEntity
  8
_U+30EC_U+30A4_U+30E4_U+30FC 1
 62
     7
420
 16777215
370
     9
100
AcDbVertex
100
AcDb2dVertex
 10
83.5180553692769
 20
-137.5723266322738
 30
0.0
  0
SEQEND
  5
6E
330
6B
100
AcDbEntity
  8
_U+30EC_U+30A4_U+30E4_U+30FC 1
 62
     7
420
 16777215
370
     9
  0
POLYLINE
  5
6F
330
1F
100
AcDbEntity
  8
_U+30EC_U+30A4_U+30E4_U+30FC 1
 62
     7
420
 16777215
370
     9
100
AcDb2dPolyline
 66
     1
 10
0.0
 20
0.0
 30
0.0
  0
VERTEX
  5
70
330
6F
100
AcDbEntity
  8
_U+30EC_U+30A4_U+30E4_U+30FC 1
 62
     7
420
 16777215
370
     9
100
AcDbVertex
100
AcDb2dVertex
 10
82.65198594692772
 20
-138.0721774654822
 30
0.0
  0
VERTEX
  5
71
330
6F
100
AcDbEntity
  8
_U+30EC_U+30A4_U+30E4_U+30FC 1
 62
     7
420
 16777215
370
     9
100
AcDbVertex
100
AcDb2dVertex
 10
83.5180553692769
 20
-137.5723266322738
 30
0.0
  0
SEQEND
  5
72
330
6F
100
AcDbEntity
  8
_U+30EC_U+30A4_U+30E4_U+30FC 1
 62
     7
420
 16777215
370
     9
  0
SPLINE
  5
73
330
1F
100
AcDbEntity
  8
_U+30EC_U+30A4_U+30E4_U+30FC 1
 62
     7
420
 16777215
370
    25
100
AcDbSpline
210
0.0
220
0.0
230
1.0
 70
     8
 71
     3
 72
     8
 73
     4
 74
     0
 42
0.0000000001
 43
0.0000000001
 12
1.0
 22
0.0
 32
0.0
 13
1.0
 23
0.0
 33
0.0
 40
0.0
 40
0.0
 40
0.0
 40
0.0
 40
1.0
 40
1.0
 40
1.0
 40
1.0
 10
90.93259740233839
 20
-125.7918066352188
 30
0.0
 10
90.6225410213597
 20
-125.9705944129519
 30
0.0
 10
90.43239380398853
 20
-126.3006533017582
 30
0.0
 10
90.43239380398853
 20
-126.6579113572245
 30
0.0
  0
SPLINE
  5
74
330
1F
100
AcDbEntity
  8
_U+30EC_U+30A4_U+30E4_U+30FC 1
 62
     7
420
 16777215
370
    25
100
AcDbSpline
210
0.0
220
0.0
230
1.0
 70
     8
 71
     3
 72
     8
 73
     4
 74
     0
 42
0.0000000001
 43
0.0000000001
 12
1.0
 22
0.0
 32
0.0
 13
1.0
 23
0.0
 33
0.0
 40
0.0
 40
0.0
 40
0.0
 40
0.0
 40
1.0
 40
1.0
 40
1.0
 40
1.0
 10
91.43213072292757
 20
-114.657928304669
 30
0.0
 10
91.1558351744209
 20
-114.657928304669
 30
0.0
 10
90.93259740233839
 20
-114.8818716379463
 30
0.0
 10
90.93259740233839
 20
-115.157814415655
 30
0.0
  0
SPLINE
  5
75
330
1F
100
AcDbEntity
  8
_U+30EC_U+30A4_U+30E4_U+30FC 1
 62
     7
420
 16777215
370
    25
100
AcDbSpline
210
0.0
220
0.0
230
1.0
 70
     8
 71
     3
 72
     8
 73
     4
 74
     0
 42
0.0000000001
 43
0.0000000001
 12
1.0
 22
0.0
 32
0.0
 13
1.0
 23
0.0
 33
0.0
 40
0.0
 40
0.0
 40
0.0
 40
0.0
 40
1.0
 40
1.0
 40
1.0
 40
1.0
 10
94.43211759083597
 20
-130.657988022891
 30
0.0
 10
94.78972841504589
 20
-130.657988022891
 30
0.0
 10
95.11978729551427
 20
-130.4671352451612
 30
0.0
 10
95.29822229096202
 20
-130.1577844119048
 30
0.0
  0
SPLINE
  5
76
330
1F
100
AcDbEntity
  8
_U+30EC_U+30A4_U+30E4_U+30FC 1
 62
     7
420
 16777215
370
    25
100
AcDbSpline
210
0.0
220
0.0
230
1.0
 70
     8
 71
     3
 72
     8
 73
     4
 74
     0
 42
0.0000000001
 43
0.0000000001
 12
1.0
 22
0.0
 32
0.0
 13
1.0
 23
0.0
 33
0.0
 40
0.0
 40
0.0
 40
0.0
 40
0.0
 40
1.0
 40
1.0
 40
1.0
 40
1.0
 10
105.9325670196573
 20
-130.1577844119048
 30
0.0
 10
106.208862568164
 20
-130.1577844119048
 30
0.0
 10
106.4327706180071
 20
-129.9338410786276
 30
0.0
 10
106.4327706180071
 20
-129.6578983009189
 30
0.0
  0
SPLINE
  5
77
330
1F
100
AcDbEntity
  8
_U+30EC_U+30A4_U+30E4_U+30FC 1
 62
     7
420
 16777215
370
     9
100
AcDbSpline
210
0.0
220
0.0
230
1.0
 70
    11
 71
     3
 72
    17
 73
    13
 74
     0
 42
0.0000000001
 43
0.0000000001
 12
1.0
 22
0.0
 32
0.0
 13
1.0
 23
0.0
 33
0.0
 40
0.0
 40
0.0
 40
0.0
 40
0.0
 40
1.0
 40
1.0
 40
1.0
 40
2.0
 40
2.0
 40
2.0
 40
3.0
 40
3.0
 40
3.0
 40
4.0
 40
4.0
 40
4.0
 40
4.0
 10
91.5320373870454
 20
-125.6577863574746
 30
0.0
 10
91.5320373870454
 20
-125.6026824685993
 30
0.0
 10
91.48727219935067
 20
-125.5578796908326
 30
0.0
 10
91.43213072292757
 20
-125.5578796908326
 30
0.0
 10
91.3770268354445
 20
-125.5578796908326
 30
0.0
 10
91.33222405880973
 20
-125.6026824685993
 30
0.0
 10
91.33222405880973
 20
-125.6577863574746
 30
0.0
 10
91.33222405880973
 20
-125.7129255241273
 30
0.0
 10
91.3770268354445
 20
-125.7576930241162
 30
0.0
 10
91.43213072292757
 20
-125.7576930241162
 30
0.0
 10
91.48727219935067
 20
-125.7576930241162
 30
0.0
 10
91.5320373870454
 20
-125.7129255241273
 30
0.0
 10
91.5320373870454
 20
-125.6577863574746
 30
0.0
  0
SPLINE
  5
78
330
1F
100
AcDbEntity
  8
_U+30EC_U+30A4_U+30E4_U+30FC 1
 62
     7
420
 16777215
370
    25
100
AcDbSpline
210
0.0
220
0.0
230
1.0
 70
     8
 71
     3
 72
    14
 73
    10
 74
     0
 42
0.0000000001
 43
0.0000000001
 12
1.0
 22
0.0
 32
0.0
 13
1.0
 23
0.0
 33
0.0
 40
0.0
 40
0.0
 40
0.0
 40
0.0
 40
1.0
 40
1.0
 40
1.0
 40
2.0
 40
2.0
 40
2.0
 40
3.0
 40
3.0
 40
3.0
 40
3.0
 10
82.93241109037795
 20
-136.1577582992942
 30
0.0
 10
82.93241109037795
 20
-136.1577582992942
 30
0.0
 10
82.93241109037795
 20
-126.6579113572245
 30
0.0
 10
82.93241109037795
 20
-126.6579113572245
 30
0.0
 10
82.93241109037795
 20
-126.1056377462513
 30
0.0
 10
83.38026037279234
 20
-125.6577863574746
 30
0.0
 10
83.93218331235018
 20
-125.6577863574746
 30
0.0
 10
83.93218331235018
 20
-125.6577863574746
 30
0.0
 10
83.93218331235018
 20
-135.726416910513
 30
0.0
 10
83.93218331235018
 20
-135.726416910513
 30
0.0
  0
SPLINE
  5
79
330
1F
100
AcDbEntity
  8
_U+30EC_U+30A4_U+30E4_U+30FC 1
 62
     7
420
 16777215
370
    25
100
AcDbSpline
210
0.0
220
0.0
230
1.0
 70
     8
 71
     3
 72
    14
 73
    10
 74
     0
 42
0.0000000001
 43
0.0000000001
 12
1.0
 22
0.0
 32
0.0
 13
1.0
 23
0.0
 33
0.0
 40
0.0
 40
0.0
 40
0.0
 40
0.0
 40
1.0
 40
1.0
 40
1.0
 40
2.0
 40
2.0
 40
2.0
 40
3.0
 40
3.0
 40
3.0
 40
3.0
 10
85.36325948886848
 20
-137.1578480212663
 30
0.0
 10
85.36325948886848
 20
-137.1578480212663
 30
0.0
 10
95.43259534308943
 20
-137.1578480212663
 30
0.0
 10
95.43259534308943
 20
-137.1578480212663
 30
0.0
 10
95.43259534308943
 20
-137.7104744100167
 30
0.0
 10
94.9847110873648
 20
-138.157973021016
 30
0.0
 10
94.43211759083597
 20
-138.157973021016
 30
0.0
 10
94.43211759083597
 20
-138.157973021016
 30
0.0
 10
84.93195553432271
 20
-138.157973021016
 30
0.0
 10
84.93195553432271
 20
-138.157973021016
 30
0.0
  0
SPLINE
  5
7A
330
1F
100
AcDbEntity
  8
_U+30EC_U+30A4_U+30E4_U+30FC 1
 62
     7
420
 16777215
370
     9
100
AcDbSpline
210
0.0
220
0.0
230
1.0
 70
    11
 71
     3
 72
    17
 73
    13
 74
     0
 42
0.0000000001
 43
0.0000000001
 12
1.0
 22
0.0
 32
0.0
 13
1.0
 23
0.0
 33
0.0
 40
0.0
 40
0.0
 40
0.0
 40
0.0
 40
1.0
 40
1.0
 40
1.0
 40
2.0
 40
2.0
 40
2.0
 40
3.0
 40
3.0
 40
3.0
 40
4.0
 40
4.0
 40
4.0
 40
4.0
 10
90.53230275514485
 20
-121.6580271918077
 30
0.0
 10
90.53230275514485
 20
-121.6029233029328
 30
0.0
 10
90.48749997737814
 20
-121.558120525166
 30
0.0
 10
90.43239380398853
 20
-121.558120525166
 30
0.0
 10
90.37725463872859
 20
-121.558120525166
 30
0.0
 10
90.33245186209382
 20
-121.6029233029328
 30
0.0
 10
90.33245186209382
 20
-121.6580271918077
 30
0.0
 10
90.33245186209382
 20
-121.7131663584608
 30
0.0
 10
90.37725463872859
 20
-121.7579338584493
 30
0.0
 10
90.43239380398853
 20
-121.7579338584493
 30
0.0
 10
90.48749997737814
 20
-121.7579338584493
 30
0.0
 10
90.53230275514485
 20
-121.7131663584608
 30
0.0
 10
90.53230275514485
 20
-121.6580271918077
 30
0.0
  0
SPLINE
  5
7B
330
1F
100
AcDbEntity
  8
_U+30EC_U+30A4_U+30E4_U+30FC 1
 62
     7
420
 16777215
370
     9
100
AcDbSpline
210
0.0
220
0.0
230
1.0
 70
    11
 71
     3
 72
    17
 73
    13
 74
     0
 42
0.0000000001
 43
0.0000000001
 12
1.0
 22
0.0
 32
0.0
 13
1.0
 23
0.0
 33
0.0
 40
0.0
 40
0.0
 40
0.0
 40
0.0
 40
1.0
 40
1.0
 40
1.0
 40
2.0
 40
2.0
 40
2.0
 40
3.0
 40
3.0
 40
3.0
 40
4.0
 40
4.0
 40
4.0
 40
4.0
 10
84.03208785616283
 20
-121.6580271918077
 30
0.0
 10
84.03208785616283
 20
-121.6029233029328
 30
0.0
 10
83.98728507952806
 20
-121.558120525166
 30
0.0
 10
83.93218331235018
 20
-121.558120525166
 30
0.0
 10
83.87704202678505
 20
-121.558120525166
 30
0.0
 10
83.83227452792717
 20
-121.6029233029328
 30
0.0
 10
83.83227452792717
 20
-121.6580271918077
 30
0.0
 10
83.83227452792717
 20
-121.7131663584608
 30
0.0
 10
83.87704202678505
 20
-121.7579338584493
 30
0.0
 10
83.93218331235018
 20
-121.7579338584493
 30
0.0
 10
83.98728507952806
 20
-121.7579338584493
 30
0.0
 10
84.03208785616283
 20
-121.7131663584608
 30
0.0
 10
84.03208785616283
 20
-121.6580271918077
 30
0.0
  0
SPLINE
  5
7C
330
1F
100
AcDbEntity
  8
_U+30EC_U+30A4_U+30E4_U+30FC 1
 62
     7
420
 16777215
370
     9
100
AcDbSpline
210
0.0
220
0.0
230
1.0
 70
    11
 71
     3
 72
    17
 73
    13
 74
     0
 42
0.0000000001
 43
0.0000000001
 12
1.0
 22
0.0
 32
0.0
 13
1.0
 23
0.0
 33
0.0
 40
0.0
 40
0.0
 40
0.0
 40
0.0
 40
1.0
 40
1.0
 40
1.0
 40
2.0
 40
2.0
 40
2.0
 40
3.0
 40
3.0
 40
3.0
 40
4.0
 40
4.0
 40
4.0
 40
4.0
 10
79.03185103928506
 20
-125.6577863574746
 30
0.0
 10
79.03185103928506
 20
-125.6026824685993
 30
0.0
 10
78.98775381818785
 20
-125.5578796908326
 30
0.0
 10
78.93194437516722
 20
-125.5578796908326
 30
0.0
 10
78.87684048768415
 20
-125.5578796908326
 30
0.0
 10
78.83203771104938
 20
-125.6026824685993
 30
0.0
 10
78.83203771104938
 20
-125.6577863574746
 30
0.0
 10
78.83203771104938
 20
-125.7129255241273
 30
0.0
 10
78.87684048768415
 20
-125.7576930241162
 30
0.0
 10
78.93194437516722
 20
-125.7576930241162
 30
0.0
 10
78.98775381818785
 20
-125.7576930241162
 30
0.0
 10
79.03185103928506
 20
-125.7129255241273
 30
0.0
 10
79.03185103928506
 20
-125.6577863574746
 30
0.0
  0
SPLINE
  5
7D
330
1F
100
AcDbEntity
  8
_U+30EC_U+30A4_U+30E4_U+30FC 1
 62
     7
420
 16777215
370
     9
100
AcDbSpline
210
0.0
220
0.0
230
1.0
 70
    11
 71
     3
 72
    17
 73
    13
 74
     0
 42
0.0000000001
 43
0.0000000001
 12
1.0
 22
0.0
 32
0.0
 13
1.0
 23
0.0
 33
0.0
 40
0.0
 40
0.0
 40
0.0
 40
0.0
 40
1.0
 40
1.0
 40
1.0
 40
2.0
 40
2.0
 40
2.0
 40
3.0
 40
3.0
 40
3.0
 40
4.0
 40
4.0
 40
4.0
 40
4.0
 10
79.03185103928506
 20
-138.157973021016
 30
0.0
 10
79.03185103928506
 20
-138.1028691321411
 30
0.0
 10
78.98775381818785
 20
-138.0580663543743
 30
0.0
 10
78.93194437516722
 20
-138.0580663543743
 30
0.0
 10
78.87684048768415
 20
-138.0580663543743
 30
0.0
 10
78.83203771104938
 20
-138.1028691321411
 30
0.0
 10
78.83203771104938
 20
-138.157973021016
 30
0.0
 10
78.83203771104938
 20
-138.2131121876691
 30
0.0
 10
78.87684048768415
 20
-138.2578796876576
 30
0.0
 10
78.93194437516722
 20
-138.2578796876576
 30
0.0
 10
78.98775381818785
 20
-138.2578796876576
 30
0.0
 10
79.03185103928506
 20
-138.2131121876691
 30
0.0
 10
79.03185103928506
 20
-138.157973021016
 30
0.0
  0
SPLINE
  5
7E
330
1F
100
AcDbEntity
  8
_U+30EC_U+30A4_U+30E4_U+30FC 1
 62
     7
420
 16777215
370
    25
100
AcDbSpline
210
0.0
220
0.0
230
1.0
 70
     8
 71
     3
 72
     8
 73
     4
 74
     0
 42
0.0000000001
 43
0.0000000001
 12
1.0
 22
0.0
 32
0.0
 13
1.0
 23
0.0
 33
0.0
 40
0.0
 40
0.0
 40
0.0
 40
0.0
 40
1.0
 40
1.0
 40
1.0
 40
1.0
 10
82.93241109037795
 20
-136.1577582992942
 30
0.0
 10
82.93241109037795
 20
-137.2622349656843
 30
0.0
 10
83.82744147249491
 20
-138.157973021016
 30
0.0
 10
84.93195553432271
 20
-138.157973021016
 30
0.0
  0
SPLINE
  5
7F
330
1F
100
AcDbEntity
  8
_U+30EC_U+30A4_U+30E4_U+30FC 1
 62
     7
420
 16777215
370
     9
100
AcDbSpline
210
0.0
220
0.0
230
1.0
 70
    11
 71
     3
 72
    17
 73
    13
 74
     0
 42
0.0000000001
 43
0.0000000001
 12
1.0
 22
0.0
 32
0.0
 13
1.0
 23
0.0
 33
0.0
 40
0.0
 40
0.0
 40
0.0
 40
0.0
 40
1.0
 40
1.0
 40
1.0
 40
2.0
 40
2.0
 40
2.0
 40
3.0
 40
3.0
 40
3.0
 40
4.0
 40
4.0
 40
4.0
 40
4.0
 10
106.532677282125
 20
-125.6577863574746
 30
0.0
 10
106.532677282125
 20
-125.6026824685993
 30
0.0
 10
106.4879097832671
 20
-125.5578796908326
 30
0.0
 10
106.4327706180071
 20
-125.5578796908326
 30
0.0
 10
106.3776694178499
 20
-125.5578796908326
 30
0.0
 10
106.3328666400832
 20
-125.6026824685993
 30
0.0
 10
106.3328666400832
 20
-125.6577863574746
 30
0.0
 10
106.3328666400832
 20
-125.7129255241273
 30
0.0
 10
106.3776694178499
 20
-125.7576930241162
 30
0.0
 10
106.4327706180071
 20
-125.7576930241162
 30
0.0
 10
106.4879097832671
 20
-125.7576930241162
 30
0.0
 10
106.532677282125
 20
-125.7129255241273
 30
0.0
 10
106.532677282125
 20
-125.6577863574746
 30
0.0
  0
SPLINE
  5
80
330
1F
100
AcDbEntity
  8
_U+30EC_U+30A4_U+30E4_U+30FC 1
 62
     7
420
 16777215
370
    25
100
AcDbSpline
210
0.0
220
0.0
230
1.0
 70
     8
 71
     3
 72
    11
 73
     7
 74
     0
 42
0.0000000001
 43
0.0000000001
 12
1.0
 22
0.0
 32
0.0
 13
1.0
 23
0.0
 33
0.0
 40
0.0
 40
0.0
 40
0.0
 40
0.0
 40
1.0
 40
1.0
 40
1.0
 40
2.0
 40
2.0
 40
2.0
 40
2.0
 10
85.15173608982317
 20
-136.6455794102831
 30
0.0
 10
85.03461386763013
 20
-136.7627016324762
 30
0.0
 10
85.03461386763013
 20
-136.9528841324286
 30
0.0
 10
85.15173608982317
 20
-137.0700063546217
 30
0.0
 10
85.20754338173002
 20
-137.126521354607
 30
0.0
 10
85.28402775645678
 20
-137.1578480212663
 30
0.0
 10
85.36325948886848
 20
-137.1578480212663
 30
0.0
  0
SPLINE
  5
81
330
1F
100
AcDbEntity
  8
_U+30EC_U+30A4_U+30E4_U+30FC 1
 62
     7
420
 16777215
370
    25
100
AcDbSpline
210
0.0
220
0.0
230
1.0
 70
     8
 71
     3
 72
    11
 73
     7
 74
     0
 42
0.0000000001
 43
0.0000000001
 12
1.0
 22
0.0
 32
0.0
 13
1.0
 23
0.0
 33
0.0
 40
0.0
 40
0.0
 40
0.0
 40
0.0
 40
1.0
 40
1.0
 40
1.0
 40
2.0
 40
2.0
 40
2.0
 40
2.0
 10
83.93218331235018
 20
-135.726416910513
 30
0.0
 10
83.93218331235018
 20
-135.8921519104712
 30
0.0
 10
84.06651896639553
 20
-136.0264896882157
 30
0.0
 10
84.23190118439851
 20
-136.0264896882157
 30
0.0
 10
84.31180534902664
 20
-136.0264896882157
 30
0.0
 10
84.38828756929765
 20
-135.9951277437789
 30
0.0
 10
84.44409701231827
 20
-135.9386480215711
 30
0.0
  0
POLYLINE
  5
82
330
1F
100
AcDbEntity
  8
_U+30EC_U+30A4_U+30E4_U+30FC 1
 62
     7
420
 16777215
370
     9
100
AcDb2dPolyline
 66
     1
 10
0.0
 20
0.0
 30
0.0
  0
VERTEX
  5
83
330
82
100
AcDbEntity
  8
_U+30EC_U+30A4_U+30E4_U+30FC 1
 62
     7
420
 16777215
370
     9
100
AcDbVertex
100
AcDb2dVertex
 10
91.43213072292757
 20
-125.6577863574746
 30
0.0
  0
VERTEX
  5
84
330
82
100
AcDbEntity
  8
_U+30EC_U+30A4_U+30E4_U+30FC 1
 62
     7
420
 16777215
370
     9
100
AcDbVertex
100
AcDb2dVertex
 10
106.4327706180071
 20
-125.6577863574746
 30
0.0
  0
SEQEND
  5
85
330
82
100
AcDbEntity
  8
_U+30EC_U+30A4_U+30E4_U+30FC 1
 62
     7
420
 16777215
370
     9
  0
POLYLINE
  5
86
330
1F
100
AcDbEntity
  8
_U+30EC_U+30A4_U+30E4_U+30FC 1
 62
     7
420
 16777215
370
     9
100
AcDb2dPolyline
 66
     1
 10
0.0
 20
0.0
 30
0.0
  0
VERTEX
  5
87
330
86
100
AcDbEntity
  8
_U+30EC_U+30A4_U+30E4_U+30FC 1
 62
     7
420
 16777215
370
     9
100
AcDbVertex
100
AcDb2dVertex
 10
106.4327706180071
 20
-127.1178277459983
 30
0.0
  0
VERTEX
  5
88
330
86
100
AcDbEntity
  8
_U+30EC_U+30A4_U+30E4_U+30FC 1
 62
     7
420
 16777215
370
     9
100
AcDbVertex
100
AcDb2dVertex
 10
106.4327706180071
 20
-124.6580141355023
 30
0.0
  0
SEQEND
  5
89
330
86
100
AcDbEntity
  8
_U+30EC_U+30A4_U+30E4_U+30FC 1
 62
     7
420
 16777215
370
     9
  0
INSERT
  5
8B
330
1F
100
AcDbEntity
  8
_U+30EC_U+30A4_U+30E4_U+30FC 1
100
AcDbBlockReference
  2
block 2
 10
0.0
 20
0.0
 30
0.0
  0
POLYLINE
  5
92
330
1F
100
AcDbEntity
  8
_U+30EC_U+30A4_U+30E4_U+30FC 1
 62
     7
420
 16777215
370
     9
100
AcDb2dPolyline
 66
     1
 10
0.0
 20
0.0
 30
0.0
  0
VERTEX
  5
93
330
92
100
AcDbEntity
  8
_U+30EC_U+30A4_U+30E4_U+30FC 1
 62
     7
420
 16777215
370
     9
100
AcDbVertex
100
AcDb2dVertex
 10
78.93194437516722
 20
-138.157973021016
 30
0.0
  0
VERTEX
  5
94
330
92
100
AcDbEntity
  8
_U+30EC_U+30A4_U+30E4_U+30FC 1
 62
     7
420
 16777215
370
     9
100
AcDbVertex
100
AcDb2dVertex
 10
78.93194437516722
 20
-125.6577863574746
 30
0.0
  0
SEQEND
  5
95
330
92
100
AcDbEntity
  8
_U+30EC_U+30A4_U+30E4_U+30FC 1
 62
     7
420
 16777215
370
     9
  0
POLYLINE
  5
96
330
1F
100
AcDbEntity
  8
_U+30EC_U+30A4_U+30E4_U+30FC 1
 62
     7
420
 16777215
370
     9
100
AcDb2dPolyline
 66
     1
 10
0.0
 20
0.0
 30
0.0
  0
VERTEX
  5
97
330
96
100
AcDbEntity
  8
_U+30EC_U+30A4_U+30E4_U+30FC 1
 62
     7
420
 16777215
370
     9
100
AcDbVertex
100
AcDb2dVertex
 10
82.0945638683652
 20
-138.157973021016
 30
0.0
  0
VERTEX
  5
98
330
96
100
AcDbEntity
  8
_U+30EC_U+30A4_U+30E4_U+30FC 1
 62
     7
420
 16777215
370
     9
100
AcDbVertex
100
AcDb2dVertex
 10
77.9322074562282
 20
-138.157973021016
 30
0.0
  0
SEQEND
  5
99
330
96
100
AcDbEntity
  8
_U+30EC_U+30A4_U+30E4_U+30FC 1
 62
     7
420
 16777215
370
     9
  0
POLYLINE
  5
9A
330
1F
100
AcDbEntity
  8
_U+30EC_U+30A4_U+30E4_U+30FC 1
 62
     7
420
 16777215
370
     9
100
AcDb2dPolyline
 66
     1
 10
0.0
 20
0.0
 30
0.0
  0
VERTEX
  5
9B
330
9A
100
AcDbEntity
  8
_U+30EC_U+30A4_U+30E4_U+30FC 1
 62
     7
420
 16777215
370
     9
100
AcDbVertex
100
AcDb2dVertex
 10
80.39198572680735
 20
-125.6577863574746
 30
0.0
  0
VERTEX
  5
9C
330
9A
100
AcDbEntity
  8
_U+30EC_U+30A4_U+30E4_U+30FC 1
 62
     7
420
 16777215
370
     9
100
AcDbVertex
100
AcDb2dVertex
 10
77.9322074562282
 20
-125.6577863574746
 30
0.0
  0
SEQEND
  5
9D
330
9A
100
AcDbEntity
  8
_U+30EC_U+30A4_U+30E4_U+30FC 1
 62
     7
420
 16777215
370
     9
  0
INSERT
  5
9F
330
1F
100
AcDbEntity
  8
_U+30EC_U+30A4_U+30E4_U+30FC 1
100
AcDbBlockReference
  2
block 3
 10
0.0
 20
0.0
 30
0.0
  0
POLYLINE
  5
B0
330
1F
100
AcDbEntity
  8
_U+30EC_U+30A4_U+30E4_U+30FC 1
 62
     7
420
 16777215
370
     9
100
AcDb2dPolyline
 66
     1
 10
0.0
 20
0.0
 30
0.0
  0
VERTEX
  5
B1
330
B0
100
AcDbEntity
  8
_U+30EC_U+30A4_U+30E4_U+30FC 1
 62
     7
420
 16777215
370
     9
100
AcDbVertex
100
AcDb2dVertex
 10
83.93218331235018
 20
-121.6580271918077
 30
0.0
  0
VERTEX
  5
B2
330
B0
100
AcDbEntity
  8
_U+30EC_U+30A4_U+30E4_U+30FC 1
 62
     7
420
 16777215
370
     9
100
AcDbVertex
100
AcDb2dVertex
 10
90.43239380398853
 20
-121.6580271918077
 30
0.0
  0
SEQEND
  5
B3
330
B0
100
AcDbEntity
  8
_U+30EC_U+30A4_U+30E4_U+30FC 1
 62
     7
420
 16777215
370
     9
  0
POLYLINE
  5
B4
330
1F
100
AcDbEntity
  8
_U+30EC_U+30A4_U+30E4_U+30FC 1
 62
     7
420
 16777215
370
     9
100
AcDb2dPolyline
 66
     1
 10
0.0
 20
0.0
 30
0.0
  0
VERTEX
  5
B5
330
B4
100
AcDbEntity
  8
_U+30EC_U+30A4_U+30E4_U+30FC 1
 62
     7
420
 16777215
370
     9
100
AcDbVertex
100
AcDb2dVertex
 10
83.93218331235018
 20
-123.1111894136666
 30
0.0
  0
VERTEX
  5
B6
330
B4
100
AcDbEntity
  8
_U+30EC_U+30A4_U+30E4_U+30FC 1
 62
     7
420
 16777215
370
     9
100
AcDbVertex
100
AcDb2dVertex
 10
83.93218331235018
 20
-120.6579374698355
 30
0.0
  0
SEQEND
  5
B7
330
B4
100
AcDbEntity
  8
_U+30EC_U+30A4_U+30E4_U+30FC 1
 62
     7
420
 16777215
370
     9
  0
POLYLINE
  5
B8
330
1F
100
AcDbEntity
  8
_U+30EC_U+30A4_U+30E4_U+30FC 1
 62
     7
420
 16777215
370
     9
100
AcDb2dPolyline
 66
     1
 10
0.0
 20
0.0
 30
0.0
  0
VERTEX
  5
B9
330
B8
100
AcDbEntity
  8
_U+30EC_U+30A4_U+30E4_U+30FC 1
 62
     7
420
 16777215
370
     9
100
AcDbVertex
100
AcDb2dVertex
 10
90.43239380398853
 20
-124.1178408023039
 30
0.0
  0
VERTEX
  5
BA
330
B8
100
AcDbEntity
  8
_U+30EC_U+30A4_U+30E4_U+30FC 1
 62
     7
420
 16777215
370
     9
100
AcDbVertex
100
AcDb2dVertex
 10
90.43239380398853
 20
-120.6579374698355
 30
0.0
  0
SEQEND
  5
BB
330
B8
100
AcDbEntity
  8
_U+30EC_U+30A4_U+30E4_U+30FC 1
 62
     7
420
 16777215
370
     9
  0
INSERT
  5
BD
330
1F
100
AcDbEntity
  8
_U+30EC_U+30A4_U+30E4_U+30FC 1
100
AcDbBlockReference
  2
block 4
 10
0.0
 20
0.0
 30
0.0
  0
POLYLINE
  5
CD
330
1F
100
AcDbEntity
  8
_U+30EC_U+30A4_U+30E4_U+30FC 1
 62
     7
420
 16777215
370
     9
100
AcDb2dPolyline
 66
     1
 10
0.0
 20
0.0
 30
0.0
  0
VERTEX
  5
CE
330
CD
100
AcDbEntity
  8
_U+30EC_U+30A4_U+30E4_U+30FC 1
 62
     7
420
 16777215
370
     9
100
AcDbVertex
100
AcDb2dVertex
 10
83.5180553692769
 20
-137.5723266322738
 30
0.0
  0
VERTEX
  5
CF
330
CD
100
AcDbEntity
  8
_U+30EC_U+30A4_U+30E4_U+30FC 1
 62
     7
420
 16777215
370
     9
100
AcDbVertex
100
AcDb2dVertex
 10
78.93194437516722
 20
-142.1577321866828
 30
0.0
  0
SEQEND
  5
D0
330
CD
100
AcDbEntity
  8
_U+30EC_U+30A4_U+30E4_U+30FC 1
 62
     7
420
 16777215
370
     9
  0
POLYLINE
  5
D1
330
1F
100
AcDbEntity
  8
_U+30EC_U+30A4_U+30E4_U+30FC 1
 62
     7
420
 16777215
370
     9
100
AcDb2dPolyline
 66
     1
 10
0.0
 20
0.0
 30
0.0
  0
VERTEX
  5
D2
330
D1
100
AcDbEntity
  8
_U+30EC_U+30A4_U+30E4_U+30FC 1
 62
     7
420
 16777215
370
     9
100
AcDbVertex
100
AcDb2dVertex
 10
78.93194437516722
 20
-142.1577321866828
 30
0.0
  0
VERTEX
  5
D3
330
D1
100
AcDbEntity
  8
_U+30EC_U+30A4_U+30E4_U+30FC 1
 62
     7
420
 16777215
370
     9
100
AcDbVertex
100
AcDb2dVertex
 10
75.41796029814977
 20
-142.1577321866828
 30
0.0
  0
SEQEND
  5
D4
330
D1
100
AcDbEntity
  8
_U+30EC_U+30A4_U+30E4_U+30FC 1
 62
     7
420
 16777215
370
     9
  0
INSERT
  5
D6
330
1F
100
AcDbEntity
  8
_U+30EC_U+30A4_U+30E4_U+30FC 1
100
AcDbBlockReference
  2
block 5
 10
0.0
 20
0.0
 30
0.0
  0
POLYLINE
  5
DE
330
1F
100
AcDbEntity
  8
_U+30EC_U+30A4_U+30E4_U+30FC 1
 62
   179
420
  2234388
370
     9
100
AcDb2dPolyline
 66
     1
 10
0.0
 20
0.0
 30
0.0
  0
VERTEX
  5
DF
330
DE
100
AcDbEntity
  8
_U+30EC_U+30A4_U+30E4_U+30FC 1
 62
   179
420
  2234388
370
     9
100
AcDbVertex
100
AcDb2dVertex
 10
81.38763042362856
 20
-121.6547463584753
 30
0.0
  0
VERTEX
  5
E0
330
DE
100
AcDbEntity
  8
_U+30EC_U+30A4_U+30E4_U+30FC 1
 62
   179
420
  2234388
370
     9
100
AcDbVertex
100
AcDb2dVertex
 10
87.42757388064788
 20
-121.6547463584753
 30
0.0
  0
SEQEND
  5
E1
330
DE
100
AcDbEntity
  8
_U+30EC_U+30A4_U+30E4_U+30FC 1
 62
   179
420
  2234388
370
     9
  0
SPLINE
  5
E2
330
1F
100
AcDbEntity
  8
_U+30EC_U+30A4_U+30E4_U+30FC 1
 62
   179
420
  2234388
370
     9
100
AcDbSpline
210
0.0
220
0.0
230
1.0
 70
    11
 71
     3
 72
    17
 73
    13
 74
     0
 42
0.0000000001
 43
0.0000000001
 12
1.0
 22
0.0
 32
0.0
 13
1.0
 23
0.0
 33
0.0
 40
0.0
 40
0.0
 40
0.0
 40
0.0
 40
1.0
 40
1.0
 40
1.0
 40
2.0
 40
2.0
 40
2.0
 40
3.0
 40
3.0
 40
3.0
 40
4.0
 40
4.0
 40
4.0
 40
4.0
 10
83.02748260401466
 20
-121.6511480251429
 30
0.0
 10
83.02748260401466
 20
-121.5960088584899
 30
0.0
 10
82.98271510515679
 20
-121.551241358501
 30
0.0
 10
82.92757593989684
 20
-121.551241358501
 30
0.0
 10
82.87247205241377
 20
-121.551241358501
 30
0.0
 10
82.827669275779
 20
-121.5960088584899
 30
0.0
 10
82.827669275779
 20
-121.6511480251429
 30
0.0
 10
82.827669275779
 20
-121.7062519140178
 30
0.0
 10
82.87247205241377
 20
-121.7510546917846
 30
0.0
 10
82.92757593989684
 20
-121.7510546917846
 30
0.0
 10
82.98271510515679
 20
-121.7510546917846
 30
0.0
 10
83.02748260401466
 20
-121.7062519140178
 30
0.0
 10
83.02748260401466
 20
-121.6511480251429
 30
0.0
  0
POLYLINE
  5
E3
330
1F
100
AcDbEntity
  8
_U+30EC_U+30A4_U+30E4_U+30FC 1
 62
   179
420
  2234388
370
     9
100
AcDb2dPolyline
 66
     1
 10
0.0
 20
0.0
 30
0.0
  0
VERTEX
  5
E4
330
E3
100
AcDbEntity
  8
_U+30EC_U+30A4_U+30E4_U+30FC 1
 62
   179
420
  2234388
370
     9
100
AcDbVertex
100
AcDb2dVertex
 10
82.92757593989684
 20
-123.1111894136666
 30
0.0
  0
VERTEX
  5
E5
330
E3
100
AcDbEntity
  8
_U+30EC_U+30A4_U+30E4_U+30FC 1
 62
   179
420
  2234388
370
     9
100
AcDbVertex
100
AcDb2dVertex
 10
82.92757593989684
 20
-120.6513758031704
 30
0.0
  0
SEQEND
  5
E6
330
E3
100
AcDbEntity
  8
_U+30EC_U+30A4_U+30E4_U+30FC 1
 62
   179
420
  2234388
370
     9
  0
INSERT
  5
E8
330
1F
100
AcDbEntity
  8
_U+30EC_U+30A4_U+30E4_U+30FC 1
100
AcDbBlockReference
  2
block 6
 10
0.0
 20
0.0
 30
0.0
  0
ENDSEC
  0
SECTION
  2
OBJECTS
  0
DICTIONARY
  5
C
330
0
100
AcDbDictionary
281
     1
  3
ACAD_GROUP
350
D
  3
ACAD_LAYOUT
350
1A
  3
ACAD_MATERIAL
350
3B
  3
ACAD_MLEADERSTYLE
350
EE
  3
ACAD_MLINESTYLE
350
17
  3
ACAD_PLOTSETTINGS
350
19
  3
ACAD_PLOTSTYLENAME
350
E
  3
ACAD_TABLESTYLE
350
ED
  3
ACAD_VISUALSTYLE
350
2A
  0
SUN
  5
3F
330
29
100
AcDbSun
 90
        1
290
     0
 63
     7
421
 16777215
 40
1.0
291
     1
 91
  2455826
 92
 54000000
292
     0
 70
     2
 71
   256
280
     1
  0
DICTIONARY
  5
D
102
{ACAD_REACTORS
330
C
102
}
330
C
100
AcDbDictionary
281
     1
  0
DICTIONARY
  5
1A
102
{ACAD_REACTORS
330
C
102
}
330
C
100
AcDbDictionary
281
     1
  3
Layout1
350
1E
  3
Layout2
350
26
  3
Model
350
22
  0
DICTIONARY
  5
3B
102
{ACAD_REACTORS
330
C
102
}
330
C
100
AcDbDictionary
281
     1
  3
ByBlock
350
3D
  3
ByLayer
350
3C
  3
Global
350
3E
  0
DICTIONARY
  5
EE
102
{ACAD_REACTORS
330
C
102
}
330
C
100
AcDbDictionary
281
     1
  0
DICTIONARY
  5
17
102
{ACAD_REACTORS
330
C
102
}
330
C
100
AcDbDictionary
281
     1
  3
Standard
350
18
  0
DICTIONARY
  5
19
102
{ACAD_REACTORS
330
C
102
}
330
C
100
AcDbDictionary
281
     1
  0
ACDBDICTIONARYWDFLT
  5
E
102
{ACAD_REACTORS
330
C
102
}
330
C
100
AcDbDictionary
281
     1
  3
Normal
350
F
100
AcDbDictionaryWithDefault
340
F
  0
DICTIONARY
  5
ED
102
{ACAD_REACTORS
330
C
102
}
330
C
100
AcDbDictionary
281
     1
  0
DICTIONARY
  5
2A
102
{ACAD_REACTORS
330
C
102
}
330
C
100
AcDbDictionary
281
     1
  3
2dWireframe
350
2F
  3
3D Hidden
350
31
  3
3dWireframe
350
30
  3
Basic
350
32
  3
Brighten
350
36
  3
ColorChange
350
3A
  3
Conceptual
350
34
  3
Dim
350
35
  3
Facepattern
350
39
  3
Flat
350
2B
  3
FlatWithEdges
350
2C
  3
Gouraud
350
2D
  3
GouraudWithEdges
350
2E
  3
Linepattern
350
38
  3
Realistic
350
33
  3
Thicken
350
37
  0
LAYOUT
  5
1E
102
{ACAD_REACTORS
330
1A
102
}
330
1A
100
AcDbPlotSettings
  1

  2
none_device
  4

  6

 40
0.0
 41
0.0
 42
0.0
 43
0.0
 44
0.0
 45
0.0
 46
0.0
 47
0.0
 48
0.0
 49
0.0
140
0.0
141
0.0
142
1.0
143
1.0
 70
   688
 72
     0
 73
     0
 74
     5
  7

 75
    16
 76
     0
 77
     2
 78
   300
147
1.0
148
0.0
149
0.0
100
AcDbLayout
  1
Layout1
 70
     1
 71
     1
 10
0.0
 20
0.0
 11
12.0
 21
9.0
 12
0.0
 22
0.0
 32
0.0
 14
1.000000000000000E+20
 24
1.000000000000000E+20
 34
1.000000000000000E+20
 15
-1.000000000000000E+20
 25
-1.000000000000000E+20
 35
-1.000000000000000E+20
146
0.0
 13
0.0
 23
0.0
 33
0.0
 16
1.0
 26
0.0
 36
0.0
 17
0.0
 27
1.0
 37
0.0
 76
     0
330
1B
  0
LAYOUT
  5
26
102
{ACAD_REACTORS
330
1A
102
}
330
1A
100
AcDbPlotSettings
  1

  2
none_device
  4

  6

 40
0.0
 41
0.0
 42
0.0
 43
0.0
 44
0.0
 45
0.0
 46
0.0
 47
0.0
 48
0.0
 49
0.0
140
0.0
141
0.0
142
1.0
143
1.0
 70
   688
 72
     0
 73
     0
 74
     5
  7

 75
    16
 76
     0
 77
     2
 78
   300
147
1.0
148
0.0
149
0.0
100
AcDbLayout
  1
Layout2
 70
     1
 71
     2
 10
0.0
 20
0.0
 11
0.0
 21
0.0
 12
0.0
 22
0.0
 32
0.0
 14
0.0
 24
0.0
 34
0.0
 15
0.0
 25
0.0
 35
0.0
146
0.0
 13
0.0
 23
0.0
 33
0.0
 16
1.0
 26
0.0
 36
0.0
 17
0.0
 27
1.0
 37
0.0
 76
     0
330
23
  0
LAYOUT
  5
22
102
{ACAD_REACTORS
330
1A
102
}
330
1A
100
AcDbPlotSettings
  1

  2
none_device
  4

  6

 40
0.0
 41
0.0
 42
0.0
 43
0.0
 44
0.0
 45
0.0
 46
0.0
 47
0.0
 48
0.0
 49
0.0
140
0.0
141
0.0
142
1.0
143
1.0
 70
  1712
 72
     0
 73
     0
 74
     0
  7

 75
     0
 76
     0
 77
     2
 78
   300
147
1.0
148
0.0
149
0.0
100
AcDbLayout
  1
Model
 70
     1
 71
     0
 10
0.0
 20
0.0
 11
12.0
 21
9.0
 12
0.0
 22
0.0
 32
0.0
 14
1.000000000000000E+20
 24
1.000000000000000E+20
 34
1.000000000000000E+20
 15
-1.000000000000000E+20
 25
-1.000000000000000E+20
 35
-1.000000000000000E+20
146
0.0
 13
0.0
 23
0.0
 33
0.0
 16
1.0
 26
0.0
 36
0.0
 17
0.0
 27
1.0
 37
0.0
 76
     0
330
1F
331
29
  0
MATERIAL
  5
3D
102
{ACAD_REACTORS
330
3B
102
}
330
3B
100
AcDbMaterial
  1
ByBlock
 72
     1
 94
      127
  0
MATERIAL
  5
3C
102
{ACAD_REACTORS
330
3B
102
}
330
3B
100
AcDbMaterial
  1
ByLayer
 72
     1
 94
      127
  0
MATERIAL
  5
3E
102
{ACAD_REACTORS
330
3B
102
}
330
3B
100
AcDbMaterial
  1
Global
 72
     1
 94
      127
  0
MLINESTYLE
  5
18
102
{ACAD_REACTORS
330
17
102
}
330
17
100
AcDbMlineStyle
  2
Standard
 70
     0
  3

 62
   256
 51
90.0
 52
90.0
 71
     2
 49
0.5
 62
   256
  6
BYLAYER
 49
-0.5
 62
   256
  6
BYLAYER
  0
ACDBPLACEHOLDER
  5
F
102
{ACAD_REACTORS
330
E
102
}
330
E
  0
VISUALSTYLE
  5
2F
102
{ACAD_REACTORS
330
2A
102
}
330
2A
100
AcDbVisualStyle
  2
2dWireframe
 70
     4
177
     2
291
     0
 71
     0
176
     1
 72
     2
176
     1
 73
     0
176
     1
 90
        0
176
     1
 40
-0.6
176
     1
 41
-30.0
176
     1
 62
     5
 63
     7
421
 16777215
176
     1
 74
     1
176
     1
 91
        4
176
     1
 64
     7
176
     1
 65
   257
176
     1
 75
     1
176
     1
175
     1
176
     1
 42
1.0
176
     1
 92
        0
176
     1
 66
   257
176
     1
 43
1.0
176
     1
 76
     1
176
     1
 77
     6
176
     1
 78
     2
176
     1
 67
     7
176
     1
 79
     5
176
     1
170
     0
176
     1
171
     0
176
     1
290
     0
176
     1
 93
        1
176
     1
 44
0.0
176
     1
173
     0
176
     1
  0
VISUALSTYLE
  5
31
102
{ACAD_REACTORS
330
2A
102
}
330
2A
100
AcDbVisualStyle
  2
3D Hidden
 70
     6
177
     2
291
     0
 71
     1
176
     1
 72
     2
176
     1
 73
     2
176
     1
 90
        0
176
     1
 40
-0.6
176
     1
 41
-30.0
176
     1
 62
     5
 63
     7
421
 16777215
176
     1
 74
     2
176
     1
 91
        2
176
     1
 64
     7
176
     1
 65
   257
176
     1
 75
     2
176
     1
175
     1
176
     1
 42
40.0
176
     1
 92
        0
176
     1
 66
   257
176
     1
 43
1.0
176
     1
 76
     1
176
     1
 77
     6
176
     1
 78
     2
176
     1
 67
     7
176
     1
 79
     3
176
     1
170
     0
176
     1
171
     0
176
     1
290
     0
176
     1
 93
        1
176
     1
 44
0.0
176
     1
173
     0
176
     1
  0
VISUALSTYLE
  5
30
102
{ACAD_REACTORS
330
2A
102
}
330
2A
100
AcDbVisualStyle
  2
3dWireframe
 70
     5
177
     2
291
     0
 71
     0
176
     1
 72
     2
176
     1
 73
     0
176
     1
 90
        0
176
     1
 40
-0.6
176
     1
 41
-30.0
176
     1
 62
     5
 63
     7
421
 16777215
176
     1
 74
     1
176
     1
 91
        4
176
     1
 64
     7
176
     1
 65
   257
176
     1
 75
     1
176
     1
175
     1
176
     1
 42
1.0
176
     1
 92
        0
176
     1
 66
   257
176
     1
 43
1.0
176
     1
 76
     1
176
     1
 77
     6
176
     1
 78
     2
176
     1
 67
     7
176
     1
 79
     5
176
     1
170
     0
176
     1
171
     0
176
     1
290
     0
176
     1
 93
        1
176
     1
 44
0.0
176
     1
173
     0
176
     1
  0
VISUALSTYLE
  5
32
102
{ACAD_REACTORS
330
2A
102
}
330
2A
100
AcDbVisualStyle
  2
Basic
 70
     7
177
     2
291
     1
 71
     1
176
     1
 72
     0
176
     1
 73
     1
176
     1
 90
        0
176
     1
 40
-0.6
176
     1
 41
-30.0
176
     1
 62
     5
 63
     7
421
 16777215
176
     1
 74
     0
176
     1
 91
        4
176
     1
 64
     7
176
     1
 65
   257
176
     1
 75
     1
176
     1
175
     1
176
     1
 42
1.0
176
     1
 92
        8
176
     1
 66
     7
176
     1
 43
1.0
176
     1
 76
     1
176
     1
 77
     6
176
     1
 78
     2
176
     1
 67
     7
176
     1
 79
     5
176
     1
170
     0
176
     1
171
     0
176
     1
290
     0
176
     1
 93
        1
176
     1
 44
0.0
176
     1
173
     0
176
     1
  0
VISUALSTYLE
  5
36
102
{ACAD_REACTORS
330
2A
102
}
330
2A
100
AcDbVisualStyle
  2
Brighten
 70
    12
177
     2
291
     1
 71
     2
176
     1
 72
     2
176
     1
 73
     0
176
     1
 90
        0
176
     1
 40
-0.6
176
     1
 41
-30.0
176
     1
 62
     5
 63
     7
421
 16777215
176
     1
 74
     1
176
     1
 91
        4
176
     1
 64
     7
176
     1
 65
   257
176
     1
 75
     1
176
     1
175
     1
176
     1
 42
1.0
176
     1
 92
        8
176
     1
 66
     7
176
     1
 43
1.0
176
     1
 76
     1
176
     1
 77
     6
176
     1
 78
     2
176
     1
 67
     7
176
     1
 79
     5
176
     1
170
     0
176
     1
171
     0
176
     1
290
     0
176
     1
 93
        1
176
     1
 44
50.0
176
     1
173
     0
176
     1
  0
VISUALSTYLE
  5
3A
102
{ACAD_REACTORS
330
2A
102
}
330
2A
100
AcDbVisualStyle
  2
ColorChange
 70
    16
177
     2
291
     1
 71
     2
176
     1
 72
     2
176
     1
 73
     3
176
     1
 90
        0
176
     1
 40
-0.6
176
     1
 41
-30.0
176
     1
 62
     5
 63
     8
421
  8421504
176
     1
 74
     1
176
     1
 91
        4
176
     1
 64
     7
176
     1
 65
   257
176
     1
 75
     1
176
     1
175
     1
176
     1
 42
1.0
176
     1
 92
        8
176
     1
 66
     8
424
  8421504
176
     1
 43
1.0
176
     1
 76
     1
176
     1
 77
     6
176
     1
 78
     2
176
     1
 67
     7
176
     1
 79
     5
176
     1
170
     0
176
     1
171
     0
176
     1
290
     0
176
     1
 93
        1
176
     1
 44
0.0
176
     1
173
     0
176
     1
  0
VISUALSTYLE
  5
34
102
{ACAD_REACTORS
330
2A
102
}
330
2A
100
AcDbVisualStyle
  2
Conceptual
 70
     9
177
     2
291
     0
 71
     3
176
     1
 72
     2
176
     1
 73
     0
176
     1
 90
        0
176
     1
 40
-0.6
176
     1
 41
-30.0
176
     1
 62
     5
 63
     7
421
 16777215
176
     1
 74
     2
176
     1
 91
        2
176
     1
 64
     7
176
     1
 65
   257
176
     1
 75
     1
176
     1
175
     1
176
     1
 42
40.0
176
     1
 92
        8
176
     1
 66
     7
176
     1
 43
1.0
176
     1
 76
     1
176
     1
 77
     6
176
     1
 78
     2
176
     1
 67
     7
176
     1
 79
     3
176
     1
170
     0
176
     1
171
     0
176
     1
290
     0
176
     1
 93
        1
176
     1
 44
0.0
176
     1
173
     0
176
     1
  0
VISUALSTYLE
  5
35
102
{ACAD_REACTORS
330
2A
102
}
330
2A
100
AcDbVisualStyle
  2
Dim
 70
    11
177
     2
291
     1
 71
     2
176
     1
 72
     2
176
     1
 73
     0
176
     1
 90
        0
176
     1
 40
-0.6
176
     1
 41
-30.0
176
     1
 62
     5
 63
     7
421
 16777215
176
     1
 74
     1
176
     1
 91
        4
176
     1
 64
     7
176
     1
 65
   257
176
     1
 75
     1
176
     1
175
     1
176
     1
 42
1.0
176
     1
 92
        8
176
     1
 66
     7
176
     1
 43
1.0
176
     1
 76
     1
176
     1
 77
     6
176
     1
 78
     2
176
     1
 67
     7
176
     1
 79
     5
176
     1
170
     0
176
     1
171
     0
176
     1
290
     0
176
     1
 93
        1
176
     1
 44
-50.0
176
     1
173
     0
176
     1
  0
VISUALSTYLE
  5
39
102
{ACAD_REACTORS
330
2A
102
}
330
2A
100
AcDbVisualStyle
  2
Facepattern
 70
    15
177
     2
291
     1
 71
     2
176
     1
 72
     2
176
     1
 73
     0
176
     1
 90
        0
176
     1
 40
-0.6
176
     1
 41
-30.0
176
     1
 62
     5
 63
     7
421
 16777215
176
     1
 74
     1
176
     1
 91
        4
176
     1
 64
     7
176
     1
 65
   257
176
     1
 75
     1
176
     1
175
     1
176
     1
 42
1.0
176
     1
 92
        8
176
     1
 66
     7
176
     1
 43
1.0
176
     1
 76
     1
176
     1
 77
     6
176
     1
 78
     2
176
     1
 67
     7
176
     1
 79
     5
176
     1
170
     0
176
     1
171
     0
176
     1
290
     0
176
     1
 93
        1
176
     1
 44
0.0
176
     1
173
     0
176
     1
  0
VISUALSTYLE
  5
2B
102
{ACAD_REACTORS
330
2A
102
}
330
2A
100
AcDbVisualStyle
  2
Flat
 70
     0
177
     2
291
     1
 71
     2
176
     1
 72
     1
176
     1
 73
     1
176
     1
 90
        2
176
     1
 40
-0.6
176
     1
 41
30.0
176
     1
 62
     5
 63
     7
421
 16777215
176
     1
 74
     0
176
     1
 91
        4
176
     1
 64
     7
176
     1
 65
   257
176
     1
 75
     1
176
     1
175
     1
176
     1
 42
1.0
176
     1
 92
        8
176
     1
 66
     7
176
     1
 43
1.0
176
     1
 76
     1
176
     1
 77
     6
176
     1
 78
     2
176
     1
 67
     7
176
     1
 79
     5
176
     1
170
     0
176
     1
171
     0
176
     1
290
     0
176
     1
 93
       13
176
     1
 44
0.0
176
     1
173
     0
176
     1
  0
VISUALSTYLE
  5
2C
102
{ACAD_REACTORS
330
2A
102
}
330
2A
100
AcDbVisualStyle
  2
FlatWithEdges
 70
     1
177
     2
291
     1
 71
     2
176
     1
 72
     1
176
     1
 73
     1
176
     1
 90
        2
176
     1
 40
-0.6
176
     1
 41
30.0
176
     1
 62
     5
 63
     7
421
 16777215
176
     1
 74
     1
176
     1
 91
        4
176
     1
 64
     7
176
     1
 65
   257
176
     1
 75
     1
176
     1
175
     1
176
     1
 42
1.0
176
     1
 92
        0
176
     1
 66
   257
176
     1
 43
1.0
176
     1
 76
     1
176
     1
 77
     6
176
     1
 78
     2
176
     1
 67
     7
176
     1
 79
     5
176
     1
170
     0
176
     1
171
     0
176
     1
290
     0
176
     1
 93
       13
176
     1
 44
0.0
176
     1
173
     0
176
     1
  0
VISUALSTYLE
  5
2D
102
{ACAD_REACTORS
330
2A
102
}
330
2A
100
AcDbVisualStyle
  2
Gouraud
 70
     2
177
     2
291
     1
 71
     2
176
     1
 72
     2
176
     1
 73
     1
176
     1
 90
        2
176
     1
 40
-0.6
176
     1
 41
30.0
176
     1
 62
     5
 63
     7
421
 16777215
176
     1
 74
     0
176
     1
 91
        4
176
     1
 64
     7
176
     1
 65
   257
176
     1
 75
     1
176
     1
175
     1
176
     1
 42
1.0
176
     1
 92
        0
176
     1
 66
     7
176
     1
 43
1.0
176
     1
 76
     1
176
     1
 77
     6
176
     1
 78
     2
176
     1
 67
     7
176
     1
 79
     5
176
     1
170
     0
176
     1
171
     0
176
     1
290
     0
176
     1
 93
       13
176
     1
 44
0.0
176
     1
173
     0
176
     1
  0
VISUALSTYLE
  5
2E
102
{ACAD_REACTORS
330
2A
102
}
330
2A
100
AcDbVisualStyle
  2
GouraudWithEdges
 70
     3
177
     2
291
     1
 71
     2
176
     1
 72
     2
176
     1
 73
     1
176
     1
 90
        2
176
     1
 40
-0.6
176
     1
 41
30.0
176
     1
 62
     5
 63
     7
421
 16777215
176
     1
 74
     1
176
     1
 91
        4
176
     1
 64
     7
176
     1
 65
   257
176
     1
 75
     1
176
     1
175
     1
176
     1
 42
1.0
176
     1
 92
        0
176
     1
 66
   257
176
     1
 43
1.0
176
     1
 76
     1
176
     1
 77
     6
176
     1
 78
     2
176
     1
 67
     7
176
     1
 79
     5
176
     1
170
     0
176
     1
171
     0
176
     1
290
     0
176
     1
 93
       13
176
     1
 44
0.0
176
     1
173
     0
176
     1
  0
VISUALSTYLE
  5
38
102
{ACAD_REACTORS
330
2A
102
}
330
2A
100
AcDbVisualStyle
  2
Linepattern
 70
    14
177
     2
291
     1
 71
     2
176
     1
 72
     2
176
     1
 73
     0
176
     1
 90
        0
176
     1
 40
-0.6
176
     1
 41
-30.0
176
     1
 62
     5
 63
     7
421
 16777215
176
     1
 74
     1
176
     1
 91
        4
176
     1
 64
     7
176
     1
 65
   257
176
     1
 75
     7
176
     1
175
     7
176
     1
 42
1.0
176
     1
 92
        8
176
     1
 66
     7
176
     1
 43
1.0
176
     1
 76
     1
176
     1
 77
     6
176
     1
 78
     2
176
     1
 67
     7
176
     1
 79
     5
176
     1
170
     0
176
     1
171
     0
176
     1
290
     0
176
     1
 93
        1
176
     1
 44
0.0
176
     1
173
     0
176
     1
  0
VISUALSTYLE
  5
33
102
{ACAD_REACTORS
330
2A
102
}
330
2A
100
AcDbVisualStyle
  2
Realistic
 70
     8
177
     2
291
     0
 71
     2
176
     1
 72
     2
176
     1
 73
     0
176
     1
 90
        0
176
     1
 40
-0.6
176
     1
 41
-30.0
176
     1
 62
     5
 63
     7
421
 16777215
176
     1
 74
     1
176
     1
 91
        0
176
     1
 64
     7
176
     1
 65
   257
176
     1
 75
     1
176
     1
175
     1
176
     1
 42
1.0
176
     1
 92
        8
176
     1
 66
     8
424
  7895160
176
     1
 43
1.0
176
     1
 76
     1
176
     1
 77
     6
176
     1
 78
     2
176
     1
 67
     7
176
     1
 79
     5
176
     1
170
     0
176
     1
171
     0
176
     1
290
     0
176
     1
 93
       13
176
     1
 44
0.0
176
     1
173
     0
176
     1
  0
VISUALSTYLE
  5
37
102
{ACAD_REACTORS
330
2A
102
}
330
2A
100
AcDbVisualStyle
  2
Thicken
 70
    13
177
     2
291
     1
 71
     2
176
     1
 72
     2
176
     1
 73
     0
176
     1
 90
        0
176
     1
 40
-0.6
176
     1
 41
-30.0
176
     1
 62
     5
 63
     7
421
 16777215
176
     1
 74
     1
176
     1
 91
        4
176
     1
 64
     7
176
     1
 65
   257
176
     1
 75
     1
176
     1
175
     1
176
     1
 42
1.0
176
     1
 92
       12
176
     1
 66
     7
176
     1
 43
1.0
176
     1
 76
     1
176
     1
 77
     6
176
     1
 78
     2
176
     1
 67
     7
176
     1
 79
     5
176
     1
170
     0
176
     1
171
     0
176
     1
290
     0
176
     1
 93
        1
176
     1
 44
0.0
176
     1
173
     0
176
     1
  0
ENDSEC
  0
EOF
