  0
SECTION
  2
HEADER
  9
$ACADVER
  1
AC1024
  9
$ACADMAINTVER
 70
     6
  9
$DWGCODEPAGE
  3
UNDEFINED
  9
$INSBASE
 10
0.0
 20
0.0
 30
0.0
  9
$EXTMIN
 10
1.000000000000000E+20
 20
1.000000000000000E+20
 30
1.000000000000000E+20
  9
$EXTMAX
 10
-1.000000000000000E+20
 20
-1.000000000000000E+20
 30
-1.000000000000000E+20
  9
$LIMMIN
 10
0.0
 20
0.0
  9
$LIMMAX
 10
12.0
 20
9.0
  9
$ORTHOMODE
 70
     0
  9
$REGENMODE
 70
     1
  9
$FILLMODE
 70
     1
  9
$QTEXTMODE
 70
     0
  9
$MIRRTEXT
 70
     1
  9
$LTSCALE
 40
1.0
  9
$ATTMODE
 70
     1
  9
$TEXTSIZE
 40
0.2
  9
$TRACEWID
 40
0.05
  9
$TEXTSTYLE
  7
Standard
  9
$CLAYER
  8
0
  9
$CELTYPE
  6
ByLayer
  9
$CECOLOR
 62
   256
  9
$CELTSCALE
 40
1.0
  9
$DISPSILH
 70
     0
  9
$DIMSCALE
 40
1.0
  9
$DIMASZ
 40
0.18
  9
$DIMEXO
 40
0.0625
  9
$DIMDLI
 40
0.38
  9
$DIMRND
 40
0.0
  9
$DIMDLE
 40
0.0
  9
$DIMEXE
 40
0.18
  9
$DIMTP
 40
0.0
  9
$DIMTM
 40
0.0
  9
$DIMTXT
 40
0.18
  9
$DIMCEN
 40
0.09
  9
$DIMTSZ
 40
0.0
  9
$DIMTOL
 70
     0
  9
$DIMLIM
 70
     0
  9
$DIMTIH
 70
     1
  9
$DIMTOH
 70
     1
  9
$DIMSE1
 70
     0
  9
$DIMSE2
 70
     0
  9
$DIMTAD
 70
     0
  9
$DIMZIN
 70
     0
  9
$DIMBLK
  1

  9
$DIMASO
 70
     1
  9
$DIMSHO
 70
     1
  9
$DIMPOST
  1

  9
$DIMAPOST
  1

  9
$DIMALT
 70
     0
  9
$DIMALTD
 70
     2
  9
$DIMALTF
 40
25.4
  9
$DIMLFAC
 40
1.0
  9
$DIMTOFL
 70
     0
  9
$DIMTVP
 40
0.0
  9
$DIMTIX
 70
     0
  9
$DIMSOXD
 70
     0
  9
$DIMSAH
 70
     0
  9
$DIMBLK1
  1

  9
$DIMBLK2
  1

  9
$DIMSTYLE
  2
Standard
  9
$DIMCLRD
 70
     0
  9
$DIMCLRE
 70
     0
  9
$DIMCLRT
 70
     0
  9
$DIMTFAC
 40
1.0
  9
$DIMGAP
 40
0.09
  9
$DIMJUST
 70
     0
  9
$DIMSD1
 70
     0
  9
$DIMSD2
 70
     0
  9
$DIMTOLJ
 70
     1
  9
$DIMTZIN
 70
     0
  9
$DIMALTZ
 70
     0
  9
$DIMALTTZ
 70
     0
  9
$DIMUPT
 70
     0
  9
$DIMDEC
 70
     4
  9
$DIMTDEC
 70
     4
  9
$DIMALTU
 70
     2
  9
$DIMALTTD
 70
     2
  9
$DIMTXSTY
  7
Standard
  9
$DIMAUNIT
 70
     0
  9
$DIMADEC
 70
     0
  9
$DIMALTRND
 40
0.0
  9
$DIMAZIN
 70
     0
  9
$DIMDSEP
 70
    46
  9
$DIMATFIT
 70
     3
  9
$DIMFRAC
 70
     0
  9
$DIMLDRBLK
  1

  9
$DIMLUNIT
 70
     2
  9
$DIMLWD
 70
    -2
  9
$DIMLWE
 70
    -2
  9
$DIMTMOVE
 70
     0
  9
$DIMFXL
 40
1.0
  9
$DIMFXLON
 70
     0
  9
$DIMJOGANG
 40
0.7853981633974483
  9
$DIMTFILL
 70
     0
  9
$DIMTFILLCLR
 70
     0
  9
$DIMARCSYM
 70
     0
  9
$DIMLTYPE
  6

  9
$DIMLTEX1
  6

  9
$DIMLTEX2
  6

  9
$DIMTXTDIRECTION
 70
     0
  9
$LUNITS
 70
     2
  9
$LUPREC
 70
     4
  9
$SKETCHINC
 40
0.1
  9
$FILLETRAD
 40
0.5
  9
$AUNITS
 70
     0
  9
$AUPREC
 70
     0
  9
$MENU
  1
.
  9
$ELEVATION
 40
0.0
  9
$PELEVATION
 40
0.0
  9
$THICKNESS
 40
0.0
  9
$LIMCHECK
 70
     0
  9
$CHAMFERA
 40
0.5
  9
$CHAMFERB
 40
0.5
  9
$CHAMFERC
 40
1.0
  9
$CHAMFERD
 40
0.0
  9
$SKPOLY
 70
     0
  9
$TDCREATE
 40
2457917.619143519
  9
$TDUCREATE
 40
2457917.244143519
  9
$TDUPDATE
 40
2457917.619143519
  9
$TDUUPDATE
 40
2457917.244143519
  9
$TDINDWG
 40
0.0000000116
  9
$TDUSRTIMER
 40
0.0000000116
  9
$USRTIMER
 70
     1
  9
$ANGBASE
 50
0.0
  9
$ANGDIR
 70
     0
  9
$PDMODE
 70
     0
  9
$PDSIZE
 40
0.0
  9
$PLINEWID
 40
0.0
  9
$SPLFRAME
 70
     0
  9
$SPLINETYPE
 70
     6
  9
$SPLINESEGS
 70
     8
  9
$HANDSEED
  5
BC
  9
$SURFTAB1
 70
     6
  9
$SURFTAB2
 70
     6
  9
$SURFTYPE
 70
     6
  9
$SURFU
 70
     6
  9
$SURFV
 70
     6
  9
$UCSBASE
  2

  9
$UCSNAME
  2

  9
$UCSORG
 10
0.0
 20
0.0
 30
0.0
  9
$UCSXDIR
 10
1.0
 20
0.0
 30
0.0
  9
$UCSYDIR
 10
0.0
 20
1.0
 30
0.0
  9
$UCSORTHOREF
  2

  9
$UCSORTHOVIEW
 70
     0
  9
$UCSORGTOP
 10
0.0
 20
0.0
 30
0.0
  9
$UCSORGBOTTOM
 10
0.0
 20
0.0
 30
0.0
  9
$UCSORGLEFT
 10
0.0
 20
0.0
 30
0.0
  9
$UCSORGRIGHT
 10
0.0
 20
0.0
 30
0.0
  9
$UCSORGFRONT
 10
0.0
 20
0.0
 30
0.0
  9
$UCSORGBACK
 10
0.0
 20
0.0
 30
0.0
  9
$PUCSBASE
  2

  9
$PUCSNAME
  2

  9
$PUCSORG
 10
0.0
 20
0.0
 30
0.0
  9
$PUCSXDIR
 10
1.0
 20
0.0
 30
0.0
  9
$PUCSYDIR
 10
0.0
 20
1.0
 30
0.0
  9
$PUCSORTHOREF
  2

  9
$PUCSORTHOVIEW
 70
     0
  9
$PUCSORGTOP
 10
0.0
 20
0.0
 30
0.0
  9
$PUCSORGBOTTOM
 10
0.0
 20
0.0
 30
0.0
  9
$PUCSORGLEFT
 10
0.0
 20
0.0
 30
0.0
  9
$PUCSORGRIGHT
 10
0.0
 20
0.0
 30
0.0
  9
$PUCSORGFRONT
 10
0.0
 20
0.0
 30
0.0
  9
$PUCSORGBACK
 10
0.0
 20
0.0
 30
0.0
  9
$USERI1
 70
     0
  9
$USERI2
 70
     0
  9
$USERI3
 70
     0
  9
$USERI4
 70
     0
  9
$USERI5
 70
     0
  9
$USERR1
 40
0.0
  9
$USERR2
 40
0.0
  9
$USERR3
 40
0.0
  9
$USERR4
 40
0.0
  9
$USERR5
 40
0.0
  9
$WORLDVIEW
 70
     1
  9
$SHADEDGE
 70
     3
  9
$SHADEDIF
 70
    70
  9
$TILEMODE
 70
     1
  9
$MAXACTVP
 70
    64
  9
$PINSBASE
 10
0.0
 20
0.0
 30
0.0
  9
$PLIMCHECK
 70
     0
  9
$PEXTMIN
 10
1.000000000000000E+20
 20
1.000000000000000E+20
 30
1.000000000000000E+20
  9
$PEXTMAX
 10
-1.000000000000000E+20
 20
-1.000000000000000E+20
 30
-1.000000000000000E+20
  9
$PLIMMIN
 10
0.0
 20
0.0
  9
$PLIMMAX
 10
12.0
 20
9.0
  9
$UNITMODE
 70
     0
  9
$VISRETAIN
 70
     1
  9
$PLINEGEN
 70
     0
  9
$PSLTSCALE
 70
     1
  9
$TREEDEPTH
 70
  3020
  9
$CMLSTYLE
  2
Standard
  9
$CMLJUST
 70
     0
  9
$CMLSCALE
 40
1.0
  9
$PROXYGRAPHICS
 70
     1
  9
$MEASUREMENT
 70
     0
  9
$CELWEIGHT
370
    -1
  9
$ENDCAPS
280
     0
  9
$JOINSTYLE
280
     0
  9
$LWDISPLAY
290
     1
  9
$INSUNITS
 70
     1
  9
$HYPERLINKBASE
  1

  9
$STYLESHEET
  1

  9
$XEDIT
290
     1
  9
$CEPSNTYPE
380
     0
  9
$PSTYLEMODE
290
     1
  9
$FINGERPRINTGUID
  2
{91ABAE2A-8B07-2F35-B740-F7D338992D1E}
  9
$VERSIONGUID
  2
{FAEB1C32-E019-11D5-929B-00C0DF256EC4}
  9
$EXTNAMES
290
     1
  9
$PSVPSCALE
 40
0.0
  9
$OLESTARTUP
290
     0
  9
$SORTENTS
280
   127
  9
$INDEXCTL
280
     0
  9
$HIDETEXT
280
     1
  9
$XCLIPFRAME
280
     2
  9
$HALOGAP
280
     0
  9
$OBSCOLOR
 70
   257
  9
$OBSLTYPE
280
     0
  9
$INTERSECTIONDISPLAY
280
     0
  9
$INTERSECTIONCOLOR
 70
   257
  9
$DIMASSOC
280
     2
  9
$PROJECTNAME
  1

  9
$CAMERADISPLAY
290
     0
  9
$LENSLENGTH
 40
50.0
  9
$CAMERAHEIGHT
 40
0.0
  9
$STEPSPERSEC
 40
2.0
  9
$STEPSIZE
 40
6.0
  9
$3DDWFPREC
 40
2.0
  9
$PSOLWIDTH
 40
0.25
  9
$PSOLHEIGHT
 40
4.0
  9
$LOFTANG1
 40
1.570796326794897
  9
$LOFTANG2
 40
1.570796326794897
  9
$LOFTMAG1
 40
0.0
  9
$LOFTMAG2
 40
0.0
  9
$LOFTPARAM
 70
     7
  9
$LOFTNORMALS
280
     1
  9
$LATITUDE
 40
37.795
  9
$LONGITUDE
 40
-122.394
  9
$NORTHDIRECTION
 40
0.0
  9
$TIMEZONE
 70
 -8000
  9
$LIGHTGLYPHDISPLAY
280
     1
  9
$TILEMODELIGHTSYNCH
280
     1
  9
$CMATERIAL
347
3C
  9
$SOLIDHIST
280
     1
  9
$SHOWHIST
280
     1
  9
$DWFFRAME
280
     2
  9
$DGNFRAME
280
     2
  9
$REALWORLDSCALE
290
     1
  9
$INTERFERECOLOR
 62
   256
  9
$CSHADOW
280
     0
  9
$SHADOWPLANELOCATION
 40
0.0
  0
ENDSEC
  0
SECTION
  2
CLASSES
  0
CLASS
  1
ACDBDICTIONARYWDFLT
  2
AcDbDictionaryWithDefault
  3
ObjectDBX Classes
 90
        0
 91
        4
280
     0
281
     0
  0
CLASS
  1
VISUALSTYLE
  2
AcDbVisualStyle
  3
ObjectDBX Classes
 90
     4095
 91
        4
280
     0
281
     0
  0
CLASS
  1
MATERIAL
  2
AcDbMaterial
  3
ObjectDBX Classes
 90
     1153
 91
        4
280
     0
281
     0
  0
CLASS
  1
SUN
  2
AcDbSun
  3
SCENEOE
 90
     1024
 91
        4
280
     0
281
     0
  0
ENDSEC
  0
SECTION
  2
TABLES
  0
TABLE
  2
VPORT
  5
8
330
0
100
AcDbSymbolTable
 70
     1
  0
VPORT
  5
29
330
8
100
AcDbSymbolTableRecord
100
AcDbViewportTableRecord
  2
*Active
 70
     0
 10
0.0
 20
0.0
 11
1.0
 21
1.0
 12
0.0
 22
0.0
 13
0.0
 23
0.0
 14
0.5
 24
0.5
 15
0.5
 25
0.5
 16
0.0
 26
0.0
 36
1.0
 17
91.00082462281999
 27
-128.4993055234307
 37
0.0
 40
256.9986110468615
 41
0.7081814508812795
 42
50.0
 43
0.0
 44
0.0
 50
0.0
 51
0.0
 71
     0
 72
   100
 73
     1
 74
     3
 75
     0
 76
     0
 77
     0
 78
     0
281
     0
 65
     1
110
0.0
120
0.0
130
0.0
111
1.0
121
0.0
131
0.0
112
0.0
122
1.0
132
0.0
 79
     0
146
0.0
 60
     3
 61
     5
292
     1
282
     1
141
0.0
142
0.0
 63
   250
361
3F
  0
ENDTAB
  0
TABLE
  2
LTYPE
  5
5
330
0
100
AcDbSymbolTable
 70
     1
  0
LTYPE
  5
14
330
5
100
AcDbSymbolTableRecord
100
AcDbLinetypeTableRecord
  2
ByBlock
 70
     0
  3

 72
    65
 73
     0
 40
0.0
  0
LTYPE
  5
15
330
5
100
AcDbSymbolTableRecord
100
AcDbLinetypeTableRecord
  2
ByLayer
 70
     0
  3

 72
    65
 73
     0
 40
0.0
  0
LTYPE
  5
16
330
5
100
AcDbSymbolTableRecord
100
AcDbLinetypeTableRecord
  2
Continuous
 70
     0
  3
Solid line
 72
    65
 73
     0
 40
0.0
  0
ENDTAB
  0
TABLE
  2
LAYER
  5
2
330
0
100
AcDbSymbolTable
 70
     2
  0
LAYER
  5
10
330
2
100
AcDbSymbolTableRecord
100
AcDbLayerTableRecord
  2
0
 70
     0
 62
     7
  6
Continuous
370
    -3
390
F
347
3E
  0
LAYER
  5
40
330
2
100
AcDbSymbolTableRecord
100
AcDbLayerTableRecord
  2
_U+30EC_U+30A4_U+30E4_U+30FC 1
 70
     0
 62
     7
  6
Continuous
370
    -3
390
F
347
3E
  0
ENDTAB
  0
TABLE
  2
STYLE
  5
3
330
0
100
AcDbSymbolTable
 70
     1
  0
STYLE
  5
11
330
3
100
AcDbSymbolTableRecord
100
AcDbTextStyleTableRecord
  2
Standard
 70
     0
 40
0.0
 41
1.0
 50
0.0
 71
     0
 42
0.2
  3
txt
  4

  0
ENDTAB
  0
TABLE
  2
VIEW
  5
6
330
0
100
AcDbSymbolTable
 70
     0
  0
ENDTAB
  0
TABLE
  2
UCS
  5
7
330
0
100
AcDbSymbolTable
 70
     0
  0
ENDTAB
  0
TABLE
  2
APPID
  5
9
330
0
100
AcDbSymbolTable
 70
     1
  0
APPID
  5
12
330
9
100
AcDbSymbolTableRecord
100
AcDbRegAppTableRecord
  2
ACAD
 70
     0
  0
ENDTAB
  0
TABLE
  2
DIMSTYLE
  5
A
330
0
100
AcDbSymbolTable
 70
     1
100
AcDbDimStyleTable
  0
DIMSTYLE
105
27
330
A
100
AcDbSymbolTableRecord
100
AcDbDimStyleTableRecord
  2
Standard
 70
     0
178
     0
340
11
  0
ENDTAB
  0
TABLE
  2
BLOCK_RECORD
  5
1
330
0
100
AcDbSymbolTable
 70
     6
  0
BLOCK_RECORD
  5
1F
330
1
100
AcDbSymbolTableRecord
100
AcDbBlockTableRecord
  2
*Model_Space
340
22
 70
     0
280
     1
281
     0
  0
BLOCK_RECORD
  5
1B
330
1
100
AcDbSymbolTableRecord
100
AcDbBlockTableRecord
  2
*Paper_Space
340
1E
 70
     0
280
     1
281
     0
  0
BLOCK_RECORD
  5
23
330
1
100
AcDbSymbolTableRecord
100
AcDbBlockTableRecord
  2
*Paper_Space0
340
26
 70
     0
280
     1
281
     0
  0
BLOCK_RECORD
  5
57
330
1
100
AcDbSymbolTableRecord
100
AcDbBlockTableRecord
  2
block 2
340
0
102
{BLKREFS
331
58
102
}
 70
     0
280
     1
281
     0
  0
BLOCK_RECORD
  5
6B
330
1
100
AcDbSymbolTableRecord
100
AcDbBlockTableRecord
  2
block 3
340
0
102
{BLKREFS
331
6C
102
}
 70
     0
280
     1
281
     0
  0
BLOCK_RECORD
  5
87
330
1
100
AcDbSymbolTableRecord
100
AcDbBlockTableRecord
  2
block 4
340
0
102
{BLKREFS
331
88
102
}
 70
     0
280
     1
281
     0
  0
BLOCK_RECORD
  5
A0
330
1
100
AcDbSymbolTableRecord
100
AcDbBlockTableRecord
  2
block 5
340
0
102
{BLKREFS
331
A1
102
}
 70
     0
280
     1
281
     0
  0
BLOCK_RECORD
  5
B4
330
1
100
AcDbSymbolTableRecord
100
AcDbBlockTableRecord
  2
block 6
340
0
102
{BLKREFS
331
B5
102
}
 70
     0
280
     1
281
     0
  0
ENDTAB
  0
ENDSEC
  0
SECTION
  2
BLOCKS
  0
BLOCK
  5
20
330
1F
100
AcDbEntity
  8
0
100
AcDbBlockBegin
  2
*Model_Space
 70
     0
 10
0.0
 20
0.0
 30
0.0
  3
*Model_Space
  1

  0
ENDBLK
  5
21
330
1F
100
AcDbEntity
  8
0
100
AcDbBlockEnd
  0
BLOCK
  5
1C
330
1B
100
AcDbEntity
 67
     1
  8
0
100
AcDbBlockBegin
  2
*Paper_Space
 70
     0
 10
0.0
 20
0.0
 30
0.0
  3
*Paper_Space
  1

  0
ENDBLK
  5
1D
330
1B
100
AcDbEntity
 67
     1
  8
0
100
AcDbBlockEnd
  0
BLOCK
  5
24
330
23
100
AcDbEntity
  8
0
100
AcDbBlockBegin
  2
*Paper_Space0
 70
     0
 10
0.0
 20
0.0
 30
0.0
  3
*Paper_Space0
  1

  0
ENDBLK
  5
25
330
23
100
AcDbEntity
  8
0
100
AcDbBlockEnd
  0
BLOCK
  5
59
330
57
100
AcDbEntity
  8
0
100
AcDbBlockBegin
  2
block 2
 70
     0
 10
0.0
 20
0.0
 30
0.0
  3
block 2
  1

  0
SPLINE
  5
5B
330
57
100
AcDbEntity
  8
_U+30EC_U+30A4_U+30E4_U+30FC 1
370
     0
100
AcDbSpline
210
0.0
220
0.0
230
1.0
 70
    11
 71
     3
 72
    26
 73
    22
 74
     0
 42
0.0000000001
 43
0.0000000001
 12
1.0
 22
0.0
 32
0.0
 13
1.0
 23
0.0
 33
0.0
 40
0.0
 40
0.0
 40
0.0
 40
0.0
 40
1.0
 40
1.0
 40
1.0
 40
2.0
 40
2.0
 40
2.0
 40
3.0
 40
3.0
 40
3.0
 40
4.0
 40
4.0
 40
4.0
 40
5.0
 40
5.0
 40
5.0
 40
6.0
 40
6.0
 40
6.0
 40
7.0
 40
7.0
 40
7.0
 40
7.0
 10
96.65456540552387
 20
-126.7175021384595
 30
0.0
 10
96.65456540552387
 20
-126.7175021384595
 30
0.0
 10
96.65456540552387
 20
-125.6133490354369
 30
0.0
 10
96.65456540552387
 20
-125.6133490354369
 30
0.0
 10
96.65456540552387
 20
-125.6133490354369
 30
0.0
 10
96.3021321373828
 20
-125.6133490354369
 30
0.0
 10
96.3021321373828
 20
-125.6133490354369
 30
0.0
 10
96.3021321373828
 20
-125.6133490354369
 30
0.0
 10
96.3021321373828
 20
-125.4652099295712
 30
0.0
 10
96.3021321373828
 20
-125.4652099295712
 30
0.0
 10
96.65697697236354
 20
-125.4503960189846
 30
0.0
 10
96.70658634735113
 20
-125.2874430025323
 30
0.0
 10
96.73828122581543
 20
-125.173065832422
 30
0.0
 10
96.73828122581543
 20
-125.173065832422
 30
0.0
 10
96.89434405129725
 20
-125.173065832422
 30
0.0
 10
96.89434405129725
 20
-125.173065832422
 30
0.0
 10
96.89434405129725
 20
-125.173065832422
 30
0.0
 10
96.89434405129725
 20
-126.7175021384595
 30
0.0
 10
96.89434405129725
 20
-126.7175021384595
 30
0.0
 10
96.89434405129725
 20
-126.7175021384595
 30
0.0
 10
96.65456540552387
 20
-126.7175021384595
 30
0.0
 10
96.65456540552387
 20
-126.7175021384595
 30
0.0
  0
HATCH
  5
5C
330
57
100
AcDbEntity
  8
_U+30EC_U+30A4_U+30E4_U+30FC 1
 62
   179
420
  2234388
100
AcDbHatch
 10
0.0
 20
0.0
 30
0.0
210
0.0
220
0.0
230
1.0
  2
SOLID
 70
     1
 71
     0
 91
        1
 92
        1
 93
        1
 72
     4
 94
        3
 73
     0
 74
     1
 95
       26
 96
       22
 40
0.0
 40
0.0
 40
0.0
 40
0.0
 40
1.0
 40
1.0
 40
1.0
 40
2.0
 40
2.0
 40
2.0
 40
3.0
 40
3.0
 40
3.0
 40
4.0
 40
4.0
 40
4.0
 40
5.0
 40
5.0
 40
5.0
 40
6.0
 40
6.0
 40
6.0
 40
7.0
 40
7.0
 40
7.0
 40
7.0
 10
96.65456540552387
 20
-126.7175021384595
 10
96.65456540552387
 20
-126.7175021384595
 10
96.65456540552387
 20
-125.6133490354369
 10
96.65456540552387
 20
-125.6133490354369
 10
96.65456540552387
 20
-125.6133490354369
 10
96.3021321373828
 20
-125.6133490354369
 10
96.3021321373828
 20
-125.6133490354369
 10
96.3021321373828
 20
-125.6133490354369
 10
96.3021321373828
 20
-125.4652099295712
 10
96.3021321373828
 20
-125.4652099295712
 10
96.65697697236354
 20
-125.4503960189846
 10
96.70658634735113
 20
-125.2874430025323
 10
96.73828122581543
 20
-125.173065832422
 10
96.73828122581543
 20
-125.173065832422
 10
96.89434405129725
 20
-125.173065832422
 10
96.89434405129725
 20
-125.173065832422
 10
96.89434405129725
 20
-125.173065832422
 10
96.89434405129725
 20
-126.7175021384595
 10
96.89434405129725
 20
-126.7175021384595
 10
96.89434405129725
 20
-126.7175021384595
 10
96.65456540552387
 20
-126.7175021384595
 10
96.65456540552387
 20
-126.7175021384595
 97
        0
 97
        0
 75
     2
 76
     1
 98
        0
  0
SPLINE
  5
5D
330
57
100
AcDbEntity
  8
_U+30EC_U+30A4_U+30E4_U+30FC 1
370
     0
100
AcDbSpline
210
0.0
220
0.0
230
1.0
 70
    11
 71
     3
 72
    53
 73
    49
 74
     0
 42
0.0000000001
 43
0.0000000001
 12
1.0
 22
0.0
 32
0.0
 13
1.0
 23
0.0
 33
0.0
 40
0.0
 40
0.0
 40
0.0
 40
0.0
 40
1.0
 40
1.0
 40
1.0
 40
2.0
 40
2.0
 40
2.0
 40
3.0
 40
3.0
 40
3.0
 40
4.0
 40
4.0
 40
4.0
 40
5.0
 40
5.0
 40
5.0
 40
6.0
 40
6.0
 40
6.0
 40
7.0
 40
7.0
 40
7.0
 40
8.0
 40
8.0
 40
8.0
 40
9.0
 40
9.0
 40
9.0
 40
10.0
 40
10.0
 40
10.0
 40
11.0
 40
11.0
 40
11.0
 40
12.0
 40
12.0
 40
12.0
 40
13.0
 40
13.0
 40
13.0
 40
14.0
 40
14.0
 40
14.0
 40
15.0
 40
15.0
 40
15.0
 40
16.0
 40
16.0
 40
16.0
 40
16.0
 10
97.94406464565287
 20
-126.7681450420927
 30
0.0
 10
97.86069333490983
 20
-126.7681450420927
 30
0.0
 10
97.75182831757594
 20
-126.751264074215
 30
0.0
 10
97.6436523193391
 20
-126.6878743172864
 30
0.0
 10
97.45796167268412
 20
-126.5779757713069
 30
0.0
 10
97.43556855203
 20
-126.4467176333189
 30
0.0
 10
97.41524248866703
 20
-126.3388861446306
 30
0.0
 10
97.41524248866703
 20
-126.3388861446306
 30
0.0
 10
97.65260956760073
 20
-126.3388861446306
 30
0.0
 10
97.65260956760073
 20
-126.3388861446306
 30
0.0
 10
97.71117619084998
 20
-126.5376681541295
 30
0.0
 10
97.84691295296884
 20
-126.5672959753026
 30
0.0
 10
97.94647621249256
 20
-126.5672959753026
 30
0.0
 10
98.09564884700387
 20
-126.5672959753026
 30
0.0
 10
98.25825735390767
 20
-126.4677327157789
 30
0.0
 10
98.25825735390767
 20
-126.2351887705245
 30
0.0
 10
98.25825735390767
 20
-125.9792181759705
 30
0.0
 10
98.06636553537925
 20
-125.9092827376199
 30
0.0
 10
97.9375189642309
 20
-125.9092827376199
 30
0.0
 10
97.90341251892693
 20
-125.9092827376199
 30
0.0
 10
97.75182831757594
 20
-125.9092827376199
 30
0.0
 10
97.65708819173156
 20
-126.0384738183168
 30
0.0
 10
97.65708819173156
 20
-126.0384738183168
 30
0.0
 10
97.46933048778546
 20
-126.0195257931479
 30
0.0
 10
97.46933048778546
 20
-126.0195257931479
 30
0.0
 10
97.46933048778546
 20
-126.0195257931479
 30
0.0
 10
97.5981770589338
 20
-125.173065832422
 30
0.0
 10
97.5981770589338
 20
-125.173065832422
 30
0.0
 10
97.5981770589338
 20
-125.173065832422
 30
0.0
 10
98.43016761862162
 20
-125.173065832422
 30
0.0
 10
98.43016761862162
 20
-125.173065832422
 30
0.0
 10
98.43016761862162
 20
-125.173065832422
 30
0.0
 10
98.43016761862162
 20
-125.3677137273386
 30
0.0
 10
98.43016761862162
 20
-125.3677137273386
 30
0.0
 10
98.43016761862162
 20
-125.3677137273386
 30
0.0
 10
97.77249889048744
 20
-125.3677137273386
 30
0.0
 10
97.77249889048744
 20
-125.3677137273386
 30
0.0
 10
97.77249889048744
 20
-125.3677137273386
 30
0.0
 10
97.70221894258835
 20
-125.7907714529273
 30
0.0
 10
97.70221894258835
 20
-125.7907714529273
 30
0.0
 10
97.76767575680809
 20
-125.7570095171719
 30
0.0
 10
97.85587020123049
 20
-125.7167018999944
 30
0.0
 10
97.98264971508767
 20
-125.7167018999944
 30
0.0
 10
98.25377872977684
 20
-125.7167018999944
 30
0.0
 10
98.5069932479427
 20
-125.9030815657465
 30
0.0
 10
98.5069932479427
 20
-126.2162407453557
 30
0.0
 10
98.5069932479427
 20
-126.5335340395472
 30
0.0
 10
98.26755911171783
 20
-126.7681450420927
 30
0.0
 10
97.94406464565287
 20
-126.7681450420927
 30
0.0
  0
HATCH
  5
5E
330
57
100
AcDbEntity
  8
_U+30EC_U+30A4_U+30E4_U+30FC 1
 62
   179
420
  2234388
100
AcDbHatch
 10
0.0
 20
0.0
 30
0.0
210
0.0
220
0.0
230
1.0
  2
SOLID
 70
     1
 71
     0
 91
        1
 92
        1
 93
        1
 72
     4
 94
        3
 73
     0
 74
     1
 95
       53
 96
       49
 40
0.0
 40
0.0
 40
0.0
 40
0.0
 40
1.0
 40
1.0
 40
1.0
 40
2.0
 40
2.0
 40
2.0
 40
3.0
 40
3.0
 40
3.0
 40
4.0
 40
4.0
 40
4.0
 40
5.0
 40
5.0
 40
5.0
 40
6.0
 40
6.0
 40
6.0
 40
7.0
 40
7.0
 40
7.0
 40
8.0
 40
8.0
 40
8.0
 40
9.0
 40
9.0
 40
9.0
 40
10.0
 40
10.0
 40
10.0
 40
11.0
 40
11.0
 40
11.0
 40
12.0
 40
12.0
 40
12.0
 40
13.0
 40
13.0
 40
13.0
 40
14.0
 40
14.0
 40
14.0
 40
15.0
 40
15.0
 40
15.0
 40
16.0
 40
16.0
 40
16.0
 40
16.0
 10
97.94406464565287
 20
-126.7681450420927
 10
97.86069333490983
 20
-126.7681450420927
 10
97.75182831757594
 20
-126.751264074215
 10
97.6436523193391
 20
-126.6878743172864
 10
97.45796167268412
 20
-126.5779757713069
 10
97.43556855203
 20
-126.4467176333189
 10
97.41524248866703
 20
-126.3388861446306
 10
97.41524248866703
 20
-126.3388861446306
 10
97.65260956760073
 20
-126.3388861446306
 10
97.65260956760073
 20
-126.3388861446306
 10
97.71117619084998
 20
-126.5376681541295
 10
97.84691295296884
 20
-126.5672959753026
 10
97.94647621249256
 20
-126.5672959753026
 10
98.09564884700387
 20
-126.5672959753026
 10
98.25825735390767
 20
-126.4677327157789
 10
98.25825735390767
 20
-126.2351887705245
 10
98.25825735390767
 20
-125.9792181759705
 10
98.06636553537925
 20
-125.9092827376199
 10
97.9375189642309
 20
-125.9092827376199
 10
97.90341251892693
 20
-125.9092827376199
 10
97.75182831757594
 20
-125.9092827376199
 10
97.65708819173156
 20
-126.0384738183168
 10
97.65708819173156
 20
-126.0384738183168
 10
97.46933048778546
 20
-126.0195257931479
 10
97.46933048778546
 20
-126.0195257931479
 10
97.46933048778546
 20
-126.0195257931479
 10
97.5981770589338
 20
-125.173065832422
 10
97.5981770589338
 20
-125.173065832422
 10
97.5981770589338
 20
-125.173065832422
 10
98.43016761862162
 20
-125.173065832422
 10
98.43016761862162
 20
-125.173065832422
 10
98.43016761862162
 20
-125.173065832422
 10
98.43016761862162
 20
-125.3677137273386
 10
98.43016761862162
 20
-125.3677137273386
 10
98.43016761862162
 20
-125.3677137273386
 10
97.77249889048744
 20
-125.3677137273386
 10
97.77249889048744
 20
-125.3677137273386
 10
97.77249889048744
 20
-125.3677137273386
 10
97.70221894258835
 20
-125.7907714529273
 10
97.70221894258835
 20
-125.7907714529273
 10
97.76767575680809
 20
-125.7570095171719
 10
97.85587020123049
 20
-125.7167018999944
 10
97.98264971508767
 20
-125.7167018999944
 10
98.25377872977684
 20
-125.7167018999944
 10
98.5069932479427
 20
-125.9030815657465
 10
98.5069932479427
 20
-126.2162407453557
 10
98.5069932479427
 20
-126.5335340395472
 10
98.26755911171783
 20
-126.7681450420927
 10
97.94406464565287
 20
-126.7681450420927
 97
        0
 97
        0
 75
     2
 76
     1
 98
        0
  0
ENDBLK
  5
5A
330
57
100
AcDbEntity
  8
0
100
AcDbBlockEnd
  0
BLOCK
  5
6D
330
6B
100
AcDbEntity
  8
0
100
AcDbBlockBegin
  2
block 3
 70
     0
 10
0.0
 20
0.0
 30
0.0
  3
block 3
  1

  0
SPLINE
  5
6F
330
6B
100
AcDbEntity
  8
_U+30EC_U+30A4_U+30E4_U+30FC 1
370
     0
100
AcDbSpline
210
0.0
220
0.0
230
1.0
 70
    11
 71
     3
 72
    62
 73
    58
 74
     0
 42
0.0000000001
 43
0.0000000001
 12
1.0
 22
0.0
 32
0.0
 13
1.0
 23
0.0
 33
0.0
 40
0.0
 40
0.0
 40
0.0
 40
0.0
 40
1.0
 40
1.0
 40
1.0
 40
2.0
 40
2.0
 40
2.0
 40
3.0
 40
3.0
 40
3.0
 40
4.0
 40
4.0
 40
4.0
 40
5.0
 40
5.0
 40
5.0
 40
6.0
 40
6.0
 40
6.0
 40
7.0
 40
7.0
 40
7.0
 40
8.0
 40
8.0
 40
8.0
 40
9.0
 40
9.0
 40
9.0
 40
10.0
 40
10.0
 40
10.0
 40
11.0
 40
11.0
 40
11.0
 40
12.0
 40
12.0
 40
12.0
 40
13.0
 40
13.0
 40
13.0
 40
14.0
 40
14.0
 40
14.0
 40
15.0
 40
15.0
 40
15.0
 40
16.0
 40
16.0
 40
16.0
 40
17.0
 40
17.0
 40
17.0
 40
18.0
 40
18.0
 40
18.0
 40
19.0
 40
19.0
 40
19.0
 40
19.0
 10
86.3433946181711
 20
-122.7677001646206
 30
0.0
 10
86.2414197918077
 20
-122.7677001646206
 30
0.0
 10
86.00853133700481
 20
-122.7466850821606
 30
0.0
 10
85.87520614172564
 20
-122.5606499259571
 30
0.0
 10
85.79631345511342
 20
-122.4483398131379
 30
0.0
 10
85.79149032143408
 20
-122.3491210631627
 30
0.0
 10
85.78701169730326
 20
-122.2643717142256
 30
0.0
 10
85.78701169730326
 20
-122.2643717142256
 30
0.0
 10
86.02231171894582
 20
-122.2643717142256
 30
0.0
 10
86.02231171894582
 20
-122.2643717142256
 30
0.0
 10
86.02437877623696
 20
-122.3384412671584
 30
0.0
 10
86.03574759133829
 20
-122.573052269704
 30
0.0
 10
86.33857148449175
 20
-122.573052269704
 30
0.0
 10
86.48567706171191
 20
-122.573052269704
 30
0.0
 10
86.64863007816423
 20
-122.5034613409019
 30
0.0
 10
86.64863007816423
 20
-122.2750515102299
 30
0.0
 10
86.64863007816423
 20
-122.1586072828284
 30
0.0
 10
86.60763344188976
 20
-122.1100314364864
 30
0.0
 10
86.57387150613431
 20
-122.0783365580221
 30
0.0
 10
86.49463430997356
 20
-122.0042670050892
 30
0.0
 10
86.37026636295604
 20
-121.9915201517938
 30
0.0
 10
86.3116997397068
 20
-121.9915201517938
 30
0.0
 10
86.29137367634382
 20
-121.9915201517938
 30
0.0
 10
86.25278860690904
 20
-121.9935872090849
 30
0.0
 10
86.22350529528441
 20
-121.9977213236672
 30
0.0
 10
86.22350529528441
 20
-121.9977213236672
 30
0.0
 10
86.22350529528441
 20
-121.8030734287506
 30
0.0
 10
86.22350529528441
 20
-121.8030734287506
 30
0.0
 10
86.26415742201036
 20
-121.8096191101726
 30
0.0
 10
86.30928817286713
 20
-121.8116861674637
 30
0.0
 10
86.31617836383762
 20
-121.8116861674637
 30
0.0
 10
86.38611380218819
 20
-121.8116861674637
 30
0.0
 10
86.59867619362811
 20
-121.7903265754552
 30
0.0
 10
86.59867619362811
 20
-121.5536485156185
 30
0.0
 10
86.59867619362811
 20
-121.3758815885796
 30
0.0
 10
86.45846080737844
 20
-121.3207600608156
 30
0.0
 10
86.34098305133142
 20
-121.3207600608156
 30
0.0
 10
86.05848522154093
 20
-121.3207600608156
 30
0.0
 10
86.04918346373077
 20
-121.5536485156185
 30
0.0
 10
86.04470483959994
 20
-121.6253065017117
 30
0.0
 10
86.04470483959994
 20
-121.6253065017117
 30
0.0
 10
85.8276638240292
 20
-121.6253065017117
 30
0.0
 10
85.8276638240292
 20
-121.6253065017117
 30
0.0
 10
85.83696558183938
 20
-121.5005940451457
 30
0.0
 10
85.866248893464
 20
-121.1240451086079
 30
0.0
 10
86.3544189237239
 20
-121.1240451086079
 30
0.0
 10
86.59419756949728
 20
-121.1240451086079
 30
0.0
 10
86.85189071179397
 20
-121.2511691320136
 30
0.0
 10
86.85189071179397
 20
-121.5471028341966
 30
0.0
 10
86.85189071179397
 20
-121.7334824999486
 30
0.0
 10
86.75026039497911
 20
-121.815820282046
 30
0.0
 10
86.64380694448488
 20
-121.8771429816835
 30
0.0
 10
86.70960826825316
 20
-121.9047037455655
 30
0.0
 10
86.90391165362125
 20
-121.9849744703718
 30
0.0
 10
86.90391165362125
 20
-122.2623046569344
 30
0.0
 10
86.90391165362125
 20
-122.600613033586
 30
0.0
 10
86.63932832035407
 20
-122.7677001646206
 30
0.0
 10
86.3433946181711
 20
-122.7677001646206
 30
0.0
  0
HATCH
  5
70
330
6B
100
AcDbEntity
  8
_U+30EC_U+30A4_U+30E4_U+30FC 1
 62
   179
420
  2234388
100
AcDbHatch
 10
0.0
 20
0.0
 30
0.0
210
0.0
220
0.0
230
1.0
  2
SOLID
 70
     1
 71
     0
 91
        1
 92
        1
 93
        1
 72
     4
 94
        3
 73
     0
 74
     1
 95
       62
 96
       58
 40
0.0
 40
0.0
 40
0.0
 40
0.0
 40
1.0
 40
1.0
 40
1.0
 40
2.0
 40
2.0
 40
2.0
 40
3.0
 40
3.0
 40
3.0
 40
4.0
 40
4.0
 40
4.0
 40
5.0
 40
5.0
 40
5.0
 40
6.0
 40
6.0
 40
6.0
 40
7.0
 40
7.0
 40
7.0
 40
8.0
 40
8.0
 40
8.0
 40
9.0
 40
9.0
 40
9.0
 40
10.0
 40
10.0
 40
10.0
 40
11.0
 40
11.0
 40
11.0
 40
12.0
 40
12.0
 40
12.0
 40
13.0
 40
13.0
 40
13.0
 40
14.0
 40
14.0
 40
14.0
 40
15.0
 40
15.0
 40
15.0
 40
16.0
 40
16.0
 40
16.0
 40
17.0
 40
17.0
 40
17.0
 40
18.0
 40
18.0
 40
18.0
 40
19.0
 40
19.0
 40
19.0
 40
19.0
 10
86.3433946181711
 20
-122.7677001646206
 10
86.2414197918077
 20
-122.7677001646206
 10
86.00853133700481
 20
-122.7466850821606
 10
85.87520614172564
 20
-122.5606499259571
 10
85.79631345511342
 20
-122.4483398131379
 10
85.79149032143408
 20
-122.3491210631627
 10
85.78701169730326
 20
-122.2643717142256
 10
85.78701169730326
 20
-122.2643717142256
 10
86.02231171894582
 20
-122.2643717142256
 10
86.02231171894582
 20
-122.2643717142256
 10
86.02437877623696
 20
-122.3384412671584
 10
86.03574759133829
 20
-122.573052269704
 10
86.33857148449175
 20
-122.573052269704
 10
86.48567706171191
 20
-122.573052269704
 10
86.64863007816423
 20
-122.5034613409019
 10
86.64863007816423
 20
-122.2750515102299
 10
86.64863007816423
 20
-122.1586072828284
 10
86.60763344188976
 20
-122.1100314364864
 10
86.57387150613431
 20
-122.0783365580221
 10
86.49463430997356
 20
-122.0042670050892
 10
86.37026636295604
 20
-121.9915201517938
 10
86.3116997397068
 20
-121.9915201517938
 10
86.29137367634382
 20
-121.9915201517938
 10
86.25278860690904
 20
-121.9935872090849
 10
86.22350529528441
 20
-121.9977213236672
 10
86.22350529528441
 20
-121.9977213236672
 10
86.22350529528441
 20
-121.8030734287506
 10
86.22350529528441
 20
-121.8030734287506
 10
86.26415742201036
 20
-121.8096191101726
 10
86.30928817286713
 20
-121.8116861674637
 10
86.31617836383762
 20
-121.8116861674637
 10
86.38611380218819
 20
-121.8116861674637
 10
86.59867619362811
 20
-121.7903265754552
 10
86.59867619362811
 20
-121.5536485156185
 10
86.59867619362811
 20
-121.3758815885796
 10
86.45846080737844
 20
-121.3207600608156
 10
86.34098305133142
 20
-121.3207600608156
 10
86.05848522154093
 20
-121.3207600608156
 10
86.04918346373077
 20
-121.5536485156185
 10
86.04470483959994
 20
-121.6253065017117
 10
86.04470483959994
 20
-121.6253065017117
 10
85.8276638240292
 20
-121.6253065017117
 10
85.8276638240292
 20
-121.6253065017117
 10
85.83696558183938
 20
-121.5005940451457
 10
85.866248893464
 20
-121.1240451086079
 10
86.3544189237239
 20
-121.1240451086079
 10
86.59419756949728
 20
-121.1240451086079
 10
86.85189071179397
 20
-121.2511691320136
 10
86.85189071179397
 20
-121.5471028341966
 10
86.85189071179397
 20
-121.7334824999486
 10
86.75026039497911
 20
-121.815820282046
 10
86.64380694448488
 20
-121.8771429816835
 10
86.70960826825316
 20
-121.9047037455655
 10
86.90391165362125
 20
-121.9849744703718
 10
86.90391165362125
 20
-122.2623046569344
 10
86.90391165362125
 20
-122.600613033586
 10
86.63932832035407
 20
-122.7677001646206
 10
86.3433946181711
 20
-122.7677001646206
 97
        0
 97
        0
 75
     2
 76
     1
 98
        0
  0
POLYLINE
  5
71
330
6B
100
AcDbEntity
  8
_U+30EC_U+30A4_U+30E4_U+30FC 1
370
     0
100
AcDb2dPolyline
 66
     1
 10
0.0
 20
0.0
 30
0.0
  0
VERTEX
  5
72
330
71
100
AcDbEntity
  8
_U+30EC_U+30A4_U+30E4_U+30FC 1
370
     0
100
AcDbVertex
100
AcDb2dVertex
 10
87.13990069436086
 20
-122.7170572609874
 30
0.0
  0
VERTEX
  5
73
330
71
100
AcDbEntity
  8
_U+30EC_U+30A4_U+30E4_U+30FC 1
370
     0
100
AcDbVertex
100
AcDb2dVertex
 10
87.13990069436086
 20
-122.4652207810156
 30
0.0
  0
VERTEX
  5
74
330
71
100
AcDbEntity
  8
_U+30EC_U+30A4_U+30E4_U+30FC 1
370
     0
100
AcDbVertex
100
AcDb2dVertex
 10
87.40896265175887
 20
-122.4652207810156
 30
0.0
  0
VERTEX
  5
75
330
71
100
AcDbEntity
  8
_U+30EC_U+30A4_U+30E4_U+30FC 1
370
     0
100
AcDbVertex
100
AcDb2dVertex
 10
87.40896265175887
 20
-122.7170572609874
 30
0.0
  0
VERTEX
  5
76
330
71
100
AcDbEntity
  8
_U+30EC_U+30A4_U+30E4_U+30FC 1
370
     0
100
AcDbVertex
100
AcDb2dVertex
 10
87.13990069436086
 20
-122.7170572609874
 30
0.0
  0
SEQEND
  5
77
330
71
100
AcDbEntity
  8
_U+30EC_U+30A4_U+30E4_U+30FC 1
370
     0
  0
HATCH
  5
78
330
6B
100
AcDbEntity
  8
_U+30EC_U+30A4_U+30E4_U+30FC 1
 62
   179
420
  2234388
100
AcDbHatch
 10
0.0
 20
0.0
 30
0.0
210
0.0
220
0.0
230
1.0
  2
SOLID
 70
     1
 71
     0
 91
        1
 92
        1
 93
        4
 72
     1
 10
87.13990069436086
 20
-122.7170572609874
 11
87.13990069436086
 21
-122.4652207810156
 72
     1
 10
87.13990069436086
 20
-122.4652207810156
 11
87.40896265175887
 21
-122.4652207810156
 72
     1
 10
87.40896265175887
 20
-122.4652207810156
 11
87.40896265175887
 21
-122.7170572609874
 72
     1
 10
87.40896265175887
 20
-122.7170572609874
 11
87.13990069436086
 21
-122.7170572609874
 97
        0
 75
     2
 76
     1
 98
        0
  0
SPLINE
  5
79
330
6B
100
AcDbEntity
  8
_U+30EC_U+30A4_U+30E4_U+30FC 1
370
     0
100
AcDbSpline
210
0.0
220
0.0
230
1.0
 70
    11
 71
     3
 72
    53
 73
    49
 74
     0
 42
0.0000000001
 43
0.0000000001
 12
1.0
 22
0.0
 32
0.0
 13
1.0
 23
0.0
 33
0.0
 40
0.0
 40
0.0
 40
0.0
 40
0.0
 40
1.0
 40
1.0
 40
1.0
 40
2.0
 40
2.0
 40
2.0
 40
3.0
 40
3.0
 40
3.0
 40
4.0
 40
4.0
 40
4.0
 40
5.0
 40
5.0
 40
5.0
 40
6.0
 40
6.0
 40
6.0
 40
7.0
 40
7.0
 40
7.0
 40
8.0
 40
8.0
 40
8.0
 40
9.0
 40
9.0
 40
9.0
 40
10.0
 40
10.0
 40
10.0
 40
11.0
 40
11.0
 40
11.0
 40
12.0
 40
12.0
 40
12.0
 40
13.0
 40
13.0
 40
13.0
 40
14.0
 40
14.0
 40
14.0
 40
15.0
 40
15.0
 40
15.0
 40
16.0
 40
16.0
 40
16.0
 40
16.0
 10
88.17549639722696
 20
-122.7677001646206
 30
0.0
 10
88.09212508648392
 20
-122.7677001646206
 30
0.0
 10
87.98326006915002
 20
-122.7508191967429
 30
0.0
 10
87.87508407091318
 20
-122.6874294398143
 30
0.0
 10
87.68939342425821
 20
-122.5775308938348
 30
0.0
 10
87.66700030360408
 20
-122.4462727558468
 30
0.0
 10
87.64667424024111
 20
-122.3384412671584
 30
0.0
 10
87.64667424024111
 20
-122.3384412671584
 30
0.0
 10
87.88404131917483
 20
-122.3384412671584
 30
0.0
 10
87.88404131917483
 20
-122.3384412671584
 30
0.0
 10
87.94260794242408
 20
-122.5372232766574
 30
0.0
 10
88.07834470454291
 20
-122.5668510978305
 30
0.0
 10
88.17790796406663
 20
-122.5668510978305
 30
0.0
 10
88.32708059857795
 20
-122.5668510978305
 30
0.0
 10
88.48968910548174
 20
-122.4672878383068
 30
0.0
 10
88.48968910548174
 20
-122.2347438930524
 30
0.0
 10
88.48968910548174
 20
-121.9787732984984
 30
0.0
 10
88.29779728695333
 20
-121.9088378601478
 30
0.0
 10
88.16895071580498
 20
-121.9088378601478
 30
0.0
 10
88.13484427050102
 20
-121.9088378601478
 30
0.0
 10
87.98326006915002
 20
-121.9088378601478
 30
0.0
 10
87.88851994330565
 20
-122.0380289408447
 30
0.0
 10
87.88851994330565
 20
-122.0380289408447
 30
0.0
 10
87.70076223935953
 20
-122.0190809156758
 30
0.0
 10
87.70076223935953
 20
-122.0190809156758
 30
0.0
 10
87.70076223935953
 20
-122.0190809156758
 30
0.0
 10
87.82960881050788
 20
-121.1726209549499
 30
0.0
 10
87.82960881050788
 20
-121.1726209549499
 30
0.0
 10
87.82960881050788
 20
-121.1726209549499
 30
0.0
 10
88.66159937019572
 20
-121.1726209549499
 30
0.0
 10
88.66159937019572
 20
-121.1726209549499
 30
0.0
 10
88.66159937019572
 20
-121.1726209549499
 30
0.0
 10
88.66159937019572
 20
-121.3672688498665
 30
0.0
 10
88.66159937019572
 20
-121.3672688498665
 30
0.0
 10
88.66159937019572
 20
-121.3672688498665
 30
0.0
 10
88.00393064206152
 20
-121.3672688498665
 30
0.0
 10
88.00393064206152
 20
-121.3672688498665
 30
0.0
 10
88.00393064206152
 20
-121.3672688498665
 30
0.0
 10
87.93365069416242
 20
-121.7903265754552
 30
0.0
 10
87.93365069416242
 20
-121.7903265754552
 30
0.0
 10
87.99910750838217
 20
-121.7565646396997
 30
0.0
 10
88.08730195280457
 20
-121.7162570225223
 30
0.0
 10
88.21408146666177
 20
-121.7162570225223
 30
0.0
 10
88.48521048135092
 20
-121.7162570225223
 30
0.0
 10
88.73842499951678
 20
-121.9026366882743
 30
0.0
 10
88.73842499951678
 20
-122.2157958678836
 30
0.0
 10
88.73842499951678
 20
-122.5330891620751
 30
0.0
 10
88.49899086329192
 20
-122.7677001646206
 30
0.0
 10
88.17549639722696
 20
-122.7677001646206
 30
0.0
  0
HATCH
  5
7A
330
6B
100
AcDbEntity
  8
_U+30EC_U+30A4_U+30E4_U+30FC 1
 62
   179
420
  2234388
100
AcDbHatch
 10
0.0
 20
0.0
 30
0.0
210
0.0
220
0.0
230
1.0
  2
SOLID
 70
     1
 71
     0
 91
        1
 92
        1
 93
        1
 72
     4
 94
        3
 73
     0
 74
     1
 95
       53
 96
       49
 40
0.0
 40
0.0
 40
0.0
 40
0.0
 40
1.0
 40
1.0
 40
1.0
 40
2.0
 40
2.0
 40
2.0
 40
3.0
 40
3.0
 40
3.0
 40
4.0
 40
4.0
 40
4.0
 40
5.0
 40
5.0
 40
5.0
 40
6.0
 40
6.0
 40
6.0
 40
7.0
 40
7.0
 40
7.0
 40
8.0
 40
8.0
 40
8.0
 40
9.0
 40
9.0
 40
9.0
 40
10.0
 40
10.0
 40
10.0
 40
11.0
 40
11.0
 40
11.0
 40
12.0
 40
12.0
 40
12.0
 40
13.0
 40
13.0
 40
13.0
 40
14.0
 40
14.0
 40
14.0
 40
15.0
 40
15.0
 40
15.0
 40
16.0
 40
16.0
 40
16.0
 40
16.0
 10
88.17549639722696
 20
-122.7677001646206
 10
88.09212508648392
 20
-122.7677001646206
 10
87.98326006915002
 20
-122.7508191967429
 10
87.87508407091318
 20
-122.6874294398143
 10
87.68939342425821
 20
-122.5775308938348
 10
87.66700030360408
 20
-122.4462727558468
 10
87.64667424024111
 20
-122.3384412671584
 10
87.64667424024111
 20
-122.3384412671584
 10
87.88404131917483
 20
-122.3384412671584
 10
87.88404131917483
 20
-122.3384412671584
 10
87.94260794242408
 20
-122.5372232766574
 10
88.07834470454291
 20
-122.5668510978305
 10
88.17790796406663
 20
-122.5668510978305
 10
88.32708059857795
 20
-122.5668510978305
 10
88.48968910548174
 20
-122.4672878383068
 10
88.48968910548174
 20
-122.2347438930524
 10
88.48968910548174
 20
-121.9787732984984
 10
88.29779728695333
 20
-121.9088378601478
 10
88.16895071580498
 20
-121.9088378601478
 10
88.13484427050102
 20
-121.9088378601478
 10
87.98326006915002
 20
-121.9088378601478
 10
87.88851994330565
 20
-122.0380289408447
 10
87.88851994330565
 20
-122.0380289408447
 10
87.70076223935953
 20
-122.0190809156758
 10
87.70076223935953
 20
-122.0190809156758
 10
87.70076223935953
 20
-122.0190809156758
 10
87.82960881050788
 20
-121.1726209549499
 10
87.82960881050788
 20
-121.1726209549499
 10
87.82960881050788
 20
-121.1726209549499
 10
88.66159937019572
 20
-121.1726209549499
 10
88.66159937019572
 20
-121.1726209549499
 10
88.66159937019572
 20
-121.1726209549499
 10
88.66159937019572
 20
-121.3672688498665
 10
88.66159937019572
 20
-121.3672688498665
 10
88.66159937019572
 20
-121.3672688498665
 10
88.00393064206152
 20
-121.3672688498665
 10
88.00393064206152
 20
-121.3672688498665
 10
88.00393064206152
 20
-121.3672688498665
 10
87.93365069416242
 20
-121.7903265754552
 10
87.93365069416242
 20
-121.7903265754552
 10
87.99910750838217
 20
-121.7565646396997
 10
88.08730195280457
 20
-121.7162570225223
 10
88.21408146666177
 20
-121.7162570225223
 10
88.48521048135092
 20
-121.7162570225223
 10
88.73842499951678
 20
-121.9026366882743
 10
88.73842499951678
 20
-122.2157958678836
 10
88.73842499951678
 20
-122.5330891620751
 10
88.49899086329192
 20
-122.7677001646206
 10
88.17549639722696
 20
-122.7677001646206
 97
        0
 97
        0
 75
     2
 76
     1
 98
        0
  0
ENDBLK
  5
6E
330
6B
100
AcDbEntity
  8
0
100
AcDbBlockEnd
  0
BLOCK
  5
89
330
87
100
AcDbEntity
  8
0
100
AcDbBlockBegin
  2
block 4
 70
     0
 10
0.0
 20
0.0
 30
0.0
  3
block 4
  1

  0
SPLINE
  5
8B
330
87
100
AcDbEntity
  8
_U+30EC_U+30A4_U+30E4_U+30FC 1
370
     0
100
AcDbSpline
210
0.0
220
0.0
230
1.0
 70
    11
 71
     3
 72
    32
 73
    28
 74
     0
 42
0.0000000001
 43
0.0000000001
 12
1.0
 22
0.0
 32
0.0
 13
1.0
 23
0.0
 33
0.0
 40
0.0
 40
0.0
 40
0.0
 40
0.0
 40
1.0
 40
1.0
 40
1.0
 40
2.0
 40
2.0
 40
2.0
 40
3.0
 40
3.0
 40
3.0
 40
4.0
 40
4.0
 40
4.0
 40
5.0
 40
5.0
 40
5.0
 40
6.0
 40
6.0
 40
6.0
 40
7.0
 40
7.0
 40
7.0
 40
8.0
 40
8.0
 40
8.0
 40
9.0
 40
9.0
 40
9.0
 40
9.0
 10
79.78513859767524
 20
-132.8831895284112
 30
0.0
 10
79.78513859767524
 20
-133.0685356655176
 30
0.0
 10
79.71520315932467
 20
-133.3307074319451
 30
0.0
 10
79.38309595454659
 20
-133.3713595586711
 30
0.0
 10
79.38309595454659
 20
-133.3713595586711
 30
0.0
 10
79.38309595454659
 20
-133.1432942375475
 30
0.0
 10
79.38309595454659
 20
-133.1432942375475
 30
0.0
 10
79.44235159689289
 20
-133.1319254224462
 30
0.0
 10
79.59049070275863
 20
-133.0978189771422
 30
0.0
 10
79.59049070275863
 20
-132.8807779615715
 30
0.0
 10
79.59049070275863
 20
-132.5689968201564
 30
0.0
 10
79.2604505552717
 20
-132.5283446934304
 30
0.0
 10
79.05529511912506
 20
-132.5145643114894
 30
0.0
 10
79.13556584393139
 20
-132.6117160041735
 30
0.0
 10
79.19275442898653
 20
-132.6840630093637
 30
0.0
 10
79.19275442898653
 20
-132.8787109042803
 30
0.0
 10
79.19275442898653
 20
-133.0709472323573
 30
0.0
 10
79.08698999758937
 20
-133.3940971888737
 30
0.0
 10
78.68081323987842
 20
-133.3940971888737
 30
0.0
 10
78.36128063362149
 20
-133.3940971888737
 30
0.0
 10
78.14131128688828
 20
-133.1815347974338
 30
0.0
 10
78.14131128688828
 20
-132.8425374016852
 30
0.0
 10
78.14131128688828
 20
-132.2930446717879
 30
0.0
 10
78.69562715046499
 20
-132.2816758566865
 30
0.0
 10
78.90922307055048
 20
-132.2816758566865
 30
0.0
 10
79.13987221328796
 20
-132.2816758566865
 30
0.0
 10
79.78513859767524
 20
-132.3020019200495
 30
0.0
 10
79.78513859767524
 20
-132.8831895284112
 30
0.0
  0
SPLINE
  5
8C
330
87
100
AcDbEntity
  8
_U+30EC_U+30A4_U+30E4_U+30FC 1
370
     0
100
AcDbSpline
210
0.0
220
0.0
230
1.0
 70
    11
 71
     3
 72
    17
 73
    13
 74
     0
 42
0.0000000001
 43
0.0000000001
 12
1.0
 22
0.0
 32
0.0
 13
1.0
 23
0.0
 33
0.0
 40
0.0
 40
0.0
 40
0.0
 40
0.0
 40
1.0
 40
1.0
 40
1.0
 40
2.0
 40
2.0
 40
2.0
 40
3.0
 40
3.0
 40
3.0
 40
4.0
 40
4.0
 40
4.0
 40
4.0
 10
78.33389212451375
 20
-132.8401258348455
 30
0.0
 10
78.33389212451375
 20
-132.9669053487027
 30
0.0
 10
78.39090845479464
 20
-133.1543185431003
 30
0.0
 10
78.67650687052185
 20
-133.1543185431003
 30
0.0
 10
78.90284964390277
 20
-133.1543185431003
 30
0.0
 10
78.99810653406992
 20
-133.005145908589
 30
0.0
 10
78.99810653406992
 20
-132.8604518982085
 30
0.0
 10
78.99810653406992
 20
-132.5803656352577
 30
0.0
 10
78.78864472856674
 20
-132.5393689989832
 30
0.0
 10
78.67237275593955
 20
-132.5393689989832
 30
0.0
 10
78.4966728861918
 20
-132.5393689989832
 30
0.0
 10
78.33389212451375
 20
-132.6413438253466
 30
0.0
 10
78.33389212451375
 20
-132.8401258348455
 30
0.0
  0
HATCH
  5
8D
330
87
100
AcDbEntity
  8
_U+30EC_U+30A4_U+30E4_U+30FC 1
 62
   179
420
  2234388
100
AcDbHatch
 10
0.0
 20
0.0
 30
0.0
210
0.0
220
0.0
230
1.0
  2
SOLID
 70
     1
 71
     0
 91
        2
 92
        1
 93
        1
 72
     4
 94
        3
 73
     0
 74
     1
 95
       32
 96
       28
 40
0.0
 40
0.0
 40
0.0
 40
0.0
 40
1.0
 40
1.0
 40
1.0
 40
2.0
 40
2.0
 40
2.0
 40
3.0
 40
3.0
 40
3.0
 40
4.0
 40
4.0
 40
4.0
 40
5.0
 40
5.0
 40
5.0
 40
6.0
 40
6.0
 40
6.0
 40
7.0
 40
7.0
 40
7.0
 40
8.0
 40
8.0
 40
8.0
 40
9.0
 40
9.0
 40
9.0
 40
9.0
 10
79.78513859767524
 20
-132.8831895284112
 10
79.78513859767524
 20
-133.0685356655176
 10
79.71520315932467
 20
-133.3307074319451
 10
79.38309595454659
 20
-133.3713595586711
 10
79.38309595454659
 20
-133.3713595586711
 10
79.38309595454659
 20
-133.1432942375475
 10
79.38309595454659
 20
-133.1432942375475
 10
79.44235159689289
 20
-133.1319254224462
 10
79.59049070275863
 20
-133.0978189771422
 10
79.59049070275863
 20
-132.8807779615715
 10
79.59049070275863
 20
-132.5689968201564
 10
79.2604505552717
 20
-132.5283446934304
 10
79.05529511912506
 20
-132.5145643114894
 10
79.13556584393139
 20
-132.6117160041735
 10
79.19275442898653
 20
-132.6840630093637
 10
79.19275442898653
 20
-132.8787109042803
 10
79.19275442898653
 20
-133.0709472323573
 10
79.08698999758937
 20
-133.3940971888737
 10
78.68081323987842
 20
-133.3940971888737
 10
78.36128063362149
 20
-133.3940971888737
 10
78.14131128688828
 20
-133.1815347974338
 10
78.14131128688828
 20
-132.8425374016852
 10
78.14131128688828
 20
-132.2930446717879
 10
78.69562715046499
 20
-132.2816758566865
 10
78.90922307055048
 20
-132.2816758566865
 10
79.13987221328796
 20
-132.2816758566865
 10
79.78513859767524
 20
-132.3020019200495
 10
79.78513859767524
 20
-132.8831895284112
 97
        0
 97
        0
 92
        1
 93
        1
 72
     4
 94
        3
 73
     0
 74
     1
 95
       17
 96
       13
 40
0.0
 40
0.0
 40
0.0
 40
0.0
 40
1.0
 40
1.0
 40
1.0
 40
2.0
 40
2.0
 40
2.0
 40
3.0
 40
3.0
 40
3.0
 40
4.0
 40
4.0
 40
4.0
 40
4.0
 10
78.33389212451375
 20
-132.8401258348455
 10
78.33389212451375
 20
-132.9669053487027
 10
78.39090845479464
 20
-133.1543185431003
 10
78.67650687052185
 20
-133.1543185431003
 10
78.90284964390277
 20
-133.1543185431003
 10
78.99810653406992
 20
-133.005145908589
 10
78.99810653406992
 20
-132.8604518982085
 10
78.99810653406992
 20
-132.5803656352577
 10
78.78864472856674
 20
-132.5393689989832
 10
78.67237275593955
 20
-132.5393689989832
 10
78.4966728861918
 20
-132.5393689989832
 10
78.33389212451375
 20
-132.6413438253466
 10
78.33389212451375
 20
-132.8401258348455
 97
        0
 97
        0
 75
     2
 76
     1
 98
        0
  0
POLYLINE
  5
8E
330
87
100
AcDbEntity
  8
_U+30EC_U+30A4_U+30E4_U+30FC 1
370
     0
100
AcDb2dPolyline
 66
     1
 10
0.0
 20
0.0
 30
0.0
  0
VERTEX
  5
8F
330
8E
100
AcDbEntity
  8
_U+30EC_U+30A4_U+30E4_U+30FC 1
370
     0
100
AcDbVertex
100
AcDb2dVertex
 10
79.73432343926781
 20
-132.0505099496263
 30
0.0
  0
VERTEX
  5
90
330
8E
100
AcDbEntity
  8
_U+30EC_U+30A4_U+30E4_U+30FC 1
370
     0
100
AcDbVertex
100
AcDb2dVertex
 10
79.48265921407031
 20
-132.0505099496263
 30
0.0
  0
VERTEX
  5
91
330
8E
100
AcDbEntity
  8
_U+30EC_U+30A4_U+30E4_U+30FC 1
370
     0
100
AcDbVertex
100
AcDb2dVertex
 10
79.48265921407031
 20
-131.7814479922283
 30
0.0
  0
VERTEX
  5
92
330
8E
100
AcDbEntity
  8
_U+30EC_U+30A4_U+30E4_U+30FC 1
370
     0
100
AcDbVertex
100
AcDb2dVertex
 10
79.73432343926781
 20
-131.7814479922283
 30
0.0
  0
VERTEX
  5
93
330
8E
100
AcDbEntity
  8
_U+30EC_U+30A4_U+30E4_U+30FC 1
370
     0
100
AcDbVertex
100
AcDb2dVertex
 10
79.73432343926781
 20
-132.0505099496263
 30
0.0
  0
SEQEND
  5
94
330
8E
100
AcDbEntity
  8
_U+30EC_U+30A4_U+30E4_U+30FC 1
370
     0
  0
HATCH
  5
95
330
87
100
AcDbEntity
  8
_U+30EC_U+30A4_U+30E4_U+30FC 1
 62
   179
420
  2234388
100
AcDbHatch
 10
0.0
 20
0.0
 30
0.0
210
0.0
220
0.0
230
1.0
  2
SOLID
 70
     1
 71
     0
 91
        1
 92
        1
 93
        4
 72
     1
 10
79.73432343926781
 20
-132.0505099496263
 11
79.48265921407031
 21
-132.0505099496263
 72
     1
 10
79.48265921407031
 20
-132.0505099496263
 11
79.48265921407031
 21
-131.7814479922283
 72
     1
 10
79.48265921407031
 20
-131.7814479922283
 11
79.73432343926781
 21
-131.7814479922283
 72
     1
 10
79.73432343926781
 20
-131.7814479922283
 11
79.73432343926781
 21
-132.0505099496263
 97
        0
 75
     2
 76
     1
 98
        0
  0
SPLINE
  5
96
330
87
100
AcDbEntity
  8
_U+30EC_U+30A4_U+30E4_U+30FC 1
370
     0
100
AcDbSpline
210
0.0
220
0.0
230
1.0
 70
    11
 71
     3
 72
    53
 73
    49
 74
     0
 42
0.0000000001
 43
0.0000000001
 12
1.0
 22
0.0
 32
0.0
 13
1.0
 23
0.0
 33
0.0
 40
0.0
 40
0.0
 40
0.0
 40
0.0
 40
1.0
 40
1.0
 40
1.0
 40
2.0
 40
2.0
 40
2.0
 40
3.0
 40
3.0
 40
3.0
 40
4.0
 40
4.0
 40
4.0
 40
5.0
 40
5.0
 40
5.0
 40
6.0
 40
6.0
 40
6.0
 40
7.0
 40
7.0
 40
7.0
 40
8.0
 40
8.0
 40
8.0
 40
9.0
 40
9.0
 40
9.0
 40
10.0
 40
10.0
 40
10.0
 40
11.0
 40
11.0
 40
11.0
 40
12.0
 40
12.0
 40
12.0
 40
13.0
 40
13.0
 40
13.0
 40
14.0
 40
14.0
 40
14.0
 40
15.0
 40
15.0
 40
15.0
 40
16.0
 40
16.0
 40
16.0
 40
16.0
 10
79.78513859767524
 20
-131.0145697372116
 30
0.0
 10
79.78513859767524
 20
-131.0982855575032
 30
0.0
 10
79.76825762979752
 20
-131.20646155574
 30
0.0
 10
79.70469561809466
 20
-131.3153265730739
 30
0.0
 10
79.59462481734093
 20
-131.5006727101804
 30
0.0
 10
79.46353893412717
 20
-131.5230658308345
 30
0.0
 10
79.35570744543885
 20
-131.5433918941975
 30
0.0
 10
79.35570744543885
 20
-131.5433918941975
 30
0.0
 10
79.35570744543885
 20
-131.3060248152638
 30
0.0
 10
79.35570744543885
 20
-131.3060248152638
 30
0.0
 10
79.55448945493777
 20
-131.2474581920145
 30
0.0
 10
79.58411727611092
 20
-131.1117214298957
 30
0.0
 10
79.58411727611092
 20
-131.012158170372
 30
0.0
 10
79.58411727611092
 20
-130.8629855358606
 30
0.0
 10
79.48472627136147
 20
-130.7000325194083
 30
0.0
 10
79.25201007133283
 20
-130.7000325194083
 30
0.0
 10
78.99603947677878
 20
-130.7000325194083
 30
0.0
 10
78.92627629320246
 20
-130.8922688474853
 30
0.0
 10
78.92627629320246
 20
-131.0211154186336
 30
0.0
 10
78.92627629320246
 20
-131.0552218639376
 30
0.0
 10
78.92627629320246
 20
-131.20646155574
 30
0.0
 10
79.05529511912506
 20
-131.301546191133
 30
0.0
 10
79.05529511912506
 20
-131.301546191133
 30
0.0
 10
79.03617483918194
 20
-131.4893038950791
 30
0.0
 10
79.03617483918194
 20
-131.4893038950791
 30
0.0
 10
79.03617483918194
 20
-131.4893038950791
 30
0.0
 10
78.19005938800457
 20
-131.3604573239307
 30
0.0
 10
78.19005938800457
 20
-131.3604573239307
 30
0.0
 10
78.19005938800457
 20
-131.3604573239307
 30
0.0
 10
78.19005938800457
 20
-130.5284667642429
 30
0.0
 10
78.19005938800457
 20
-130.5284667642429
 30
0.0
 10
78.19005938800457
 20
-130.5284667642429
 30
0.0
 10
78.38470728292118
 20
-130.5284667642429
 30
0.0
 10
78.38470728292118
 20
-130.5284667642429
 30
0.0
 10
78.38470728292118
 20
-130.5284667642429
 30
0.0
 10
78.38470728292118
 20
-131.1861354923771
 30
0.0
 10
78.38470728292118
 20
-131.1861354923771
 30
0.0
 10
78.38470728292118
 20
-131.1861354923771
 30
0.0
 10
78.80776500850986
 20
-131.2564154402762
 30
0.0
 10
78.80776500850986
 20
-131.2564154402762
 30
0.0
 10
78.77383081798015
 20
-131.1909586260564
 30
0.0
 10
78.73369545557699
 20
-131.102764181634
 30
0.0
 10
78.73369545557699
 20
-130.9759846677769
 30
0.0
 10
78.73369545557699
 20
-130.7048556530877
 30
0.0
 10
78.91990286655475
 20
-130.4516411349218
 30
0.0
 10
79.2328897913897
 20
-130.4516411349218
 30
0.0
 10
79.55035534035547
 20
-130.4516411349218
 30
0.0
 10
79.78513859767524
 20
-130.6910752711467
 30
0.0
 10
79.78513859767524
 20
-131.0145697372116
 30
0.0
  0
HATCH
  5
97
330
87
100
AcDbEntity
  8
_U+30EC_U+30A4_U+30E4_U+30FC 1
 62
   179
420
  2234388
100
AcDbHatch
 10
0.0
 20
0.0
 30
0.0
210
0.0
220
0.0
230
1.0
  2
SOLID
 70
     1
 71
     0
 91
        1
 92
        1
 93
        1
 72
     4
 94
        3
 73
     0
 74
     1
 95
       53
 96
       49
 40
0.0
 40
0.0
 40
0.0
 40
0.0
 40
1.0
 40
1.0
 40
1.0
 40
2.0
 40
2.0
 40
2.0
 40
3.0
 40
3.0
 40
3.0
 40
4.0
 40
4.0
 40
4.0
 40
5.0
 40
5.0
 40
5.0
 40
6.0
 40
6.0
 40
6.0
 40
7.0
 40
7.0
 40
7.0
 40
8.0
 40
8.0
 40
8.0
 40
9.0
 40
9.0
 40
9.0
 40
10.0
 40
10.0
 40
10.0
 40
11.0
 40
11.0
 40
11.0
 40
12.0
 40
12.0
 40
12.0
 40
13.0
 40
13.0
 40
13.0
 40
14.0
 40
14.0
 40
14.0
 40
15.0
 40
15.0
 40
15.0
 40
16.0
 40
16.0
 40
16.0
 40
16.0
 10
79.78513859767524
 20
-131.0145697372116
 10
79.78513859767524
 20
-131.0982855575032
 10
79.76825762979752
 20
-131.20646155574
 10
79.70469561809466
 20
-131.3153265730739
 10
79.59462481734093
 20
-131.5006727101804
 10
79.46353893412717
 20
-131.5230658308345
 10
79.35570744543885
 20
-131.5433918941975
 10
79.35570744543885
 20
-131.5433918941975
 10
79.35570744543885
 20
-131.3060248152638
 10
79.35570744543885
 20
-131.3060248152638
 10
79.55448945493777
 20
-131.2474581920145
 10
79.58411727611092
 20
-131.1117214298957
 10
79.58411727611092
 20
-131.012158170372
 10
79.58411727611092
 20
-130.8629855358606
 10
79.48472627136147
 20
-130.7000325194083
 10
79.25201007133283
 20
-130.7000325194083
 10
78.99603947677878
 20
-130.7000325194083
 10
78.92627629320246
 20
-130.8922688474853
 10
78.92627629320246
 20
-131.0211154186336
 10
78.92627629320246
 20
-131.0552218639376
 10
78.92627629320246
 20
-131.20646155574
 10
79.05529511912506
 20
-131.301546191133
 10
79.05529511912506
 20
-131.301546191133
 10
79.03617483918194
 20
-131.4893038950791
 10
79.03617483918194
 20
-131.4893038950791
 10
79.03617483918194
 20
-131.4893038950791
 10
78.19005938800457
 20
-131.3604573239307
 10
78.19005938800457
 20
-131.3604573239307
 10
78.19005938800457
 20
-131.3604573239307
 10
78.19005938800457
 20
-130.5284667642429
 10
78.19005938800457
 20
-130.5284667642429
 10
78.19005938800457
 20
-130.5284667642429
 10
78.38470728292118
 20
-130.5284667642429
 10
78.38470728292118
 20
-130.5284667642429
 10
78.38470728292118
 20
-130.5284667642429
 10
78.38470728292118
 20
-131.1861354923771
 10
78.38470728292118
 20
-131.1861354923771
 10
78.38470728292118
 20
-131.1861354923771
 10
78.80776500850986
 20
-131.2564154402762
 10
78.80776500850986
 20
-131.2564154402762
 10
78.77383081798015
 20
-131.1909586260564
 10
78.73369545557699
 20
-131.102764181634
 10
78.73369545557699
 20
-130.9759846677769
 10
78.73369545557699
 20
-130.7048556530877
 10
78.91990286655475
 20
-130.4516411349218
 10
79.2328897913897
 20
-130.4516411349218
 10
79.55035534035547
 20
-130.4516411349218
 10
79.78513859767524
 20
-130.6910752711467
 10
79.78513859767524
 20
-131.0145697372116
 97
        0
 97
        0
 75
     2
 76
     1
 98
        0
  0
ENDBLK
  5
8A
330
87
100
AcDbEntity
  8
0
100
AcDbBlockEnd
  0
BLOCK
  5
A2
330
A0
100
AcDbEntity
  8
0
100
AcDbBlockBegin
  2
block 5
 70
     0
 10
0.0
 20
0.0
 30
0.0
  3
block 5
  1

  0
SPLINE
  5
A4
330
A0
100
AcDbEntity
  8
_U+30EC_U+30A4_U+30E4_U+30FC 1
370
     0
100
AcDbSpline
210
0.0
220
0.0
230
1.0
 70
    11
 71
     3
 72
    44
 73
    40
 74
     0
 42
0.0000000001
 43
0.0000000001
 12
1.0
 22
0.0
 32
0.0
 13
1.0
 23
0.0
 33
0.0
 40
0.0
 40
0.0
 40
0.0
 40
0.0
 40
1.0
 40
1.0
 40
1.0
 40
2.0
 40
2.0
 40
2.0
 40
3.0
 40
3.0
 40
3.0
 40
4.0
 40
4.0
 40
4.0
 40
5.0
 40
5.0
 40
5.0
 40
6.0
 40
6.0
 40
6.0
 40
7.0
 40
7.0
 40
7.0
 40
8.0
 40
8.0
 40
8.0
 40
9.0
 40
9.0
 40
9.0
 40
10.0
 40
10.0
 40
10.0
 40
11.0
 40
11.0
 40
11.0
 40
12.0
 40
12.0
 40
12.0
 40
13.0
 40
13.0
 40
13.0
 40
13.0
 10
77.77578665590327
 20
-139.6355766795008
 30
0.0
 10
77.54289820110039
 20
-139.7943955813708
 30
0.0
 10
77.44350719635094
 20
-139.8684651343037
 30
0.0
 10
77.39148625452366
 20
-140.0121256160386
 30
0.0
 10
77.39148625452366
 20
-140.0121256160386
 30
0.0
 10
78.2234768142115
 20
-140.0121256160386
 30
0.0
 10
78.2234768142115
 20
-140.0121256160386
 30
0.0
 10
78.2234768142115
 20
-140.0121256160386
 30
0.0
 10
78.2234768142115
 20
-140.2174533069595
 30
0.0
 10
78.2234768142115
 20
-140.2174533069595
 30
0.0
 10
78.2234768142115
 20
-140.2174533069595
 30
0.0
 10
77.12466360919106
 20
-140.2174533069595
 30
0.0
 10
77.12466360919106
 20
-140.2174533069595
 30
0.0
 10
77.15859779972077
 20
-139.8598523955906
 30
0.0
 10
77.2287054928456
 20
-139.7816487280754
 30
0.0
 10
77.64022214855869
 20
-139.4833034590528
 30
0.0
 10
77.91376273008754
 20
-139.2845214495539
 30
0.0
 10
77.98387042321237
 20
-139.2166530684945
 30
0.0
 10
77.98387042321237
 20
-139.079193758633
 30
0.0
 10
77.98387042321237
 20
-138.9606824739404
 30
0.0
 10
77.90687253911703
 20
-138.8297688455009
 30
0.0
 10
77.6967217145168
 20
-138.8297688455009
 30
0.0
 10
77.41870250885714
 20
-138.8297688455009
 30
0.0
 10
77.40957300582122
 20
-139.0602457334641
 30
0.0
 10
77.40509438169039
 20
-139.1766899608656
 30
0.0
 10
77.40509438169039
 20
-139.1766899608656
 30
0.0
 10
77.16548799069128
 20
-139.1766899608656
 30
0.0
 10
77.16548799069128
 20
-139.1766899608656
 30
0.0
 10
77.17444523895291
 20
-139.0495659374598
 30
0.0
 10
77.18581405405425
 20
-138.9376003341892
 30
0.0
 10
77.27159693163696
 20
-138.8190890494966
 30
0.0
 10
77.38924694245824
 20
-138.6582030903355
 30
0.0
 10
77.58820120673143
 20
-138.62444115458
 30
0.0
 10
77.71256915374894
 20
-138.62444115458
 30
0.0
 10
78.00867511070616
 20
-138.62444115458
 30
0.0
 10
78.23019475040773
 20
-138.8084092534924
 30
0.0
 10
78.23019475040773
 20
-139.0812608159241
 30
0.0
 10
78.23019475040773
 20
-139.3100151561447
 30
0.0
 10
78.10599905816447
 20
-139.4092339061199
 30
0.0
 10
77.77578665590327
 20
-139.6355766795008
 30
0.0
  0
HATCH
  5
A5
330
A0
100
AcDbEntity
  8
_U+30EC_U+30A4_U+30E4_U+30FC 1
 62
   179
420
  2234388
100
AcDbHatch
 10
0.0
 20
0.0
 30
0.0
210
0.0
220
0.0
230
1.0
  2
SOLID
 70
     1
 71
     0
 91
        1
 92
        1
 93
        1
 72
     4
 94
        3
 73
     0
 74
     1
 95
       44
 96
       40
 40
0.0
 40
0.0
 40
0.0
 40
0.0
 40
1.0
 40
1.0
 40
1.0
 40
2.0
 40
2.0
 40
2.0
 40
3.0
 40
3.0
 40
3.0
 40
4.0
 40
4.0
 40
4.0
 40
5.0
 40
5.0
 40
5.0
 40
6.0
 40
6.0
 40
6.0
 40
7.0
 40
7.0
 40
7.0
 40
8.0
 40
8.0
 40
8.0
 40
9.0
 40
9.0
 40
9.0
 40
10.0
 40
10.0
 40
10.0
 40
11.0
 40
11.0
 40
11.0
 40
12.0
 40
12.0
 40
12.0
 40
13.0
 40
13.0
 40
13.0
 40
13.0
 10
77.77578665590327
 20
-139.6355766795008
 10
77.54289820110039
 20
-139.7943955813708
 10
77.44350719635094
 20
-139.8684651343037
 10
77.39148625452366
 20
-140.0121256160386
 10
77.39148625452366
 20
-140.0121256160386
 10
78.2234768142115
 20
-140.0121256160386
 10
78.2234768142115
 20
-140.0121256160386
 10
78.2234768142115
 20
-140.0121256160386
 10
78.2234768142115
 20
-140.2174533069595
 10
78.2234768142115
 20
-140.2174533069595
 10
78.2234768142115
 20
-140.2174533069595
 10
77.12466360919106
 20
-140.2174533069595
 10
77.12466360919106
 20
-140.2174533069595
 10
77.15859779972077
 20
-139.8598523955906
 10
77.2287054928456
 20
-139.7816487280754
 10
77.64022214855869
 20
-139.4833034590528
 10
77.91376273008754
 20
-139.2845214495539
 10
77.98387042321237
 20
-139.2166530684945
 10
77.98387042321237
 20
-139.079193758633
 10
77.98387042321237
 20
-138.9606824739404
 10
77.90687253911703
 20
-138.8297688455009
 10
77.6967217145168
 20
-138.8297688455009
 10
77.41870250885714
 20
-138.8297688455009
 10
77.40957300582122
 20
-139.0602457334641
 10
77.40509438169039
 20
-139.1766899608656
 10
77.40509438169039
 20
-139.1766899608656
 10
77.16548799069128
 20
-139.1766899608656
 10
77.16548799069128
 20
-139.1766899608656
 10
77.17444523895291
 20
-139.0495659374598
 10
77.18581405405425
 20
-138.9376003341892
 10
77.27159693163696
 20
-138.8190890494966
 10
77.38924694245824
 20
-138.6582030903355
 10
77.58820120673143
 20
-138.62444115458
 10
77.71256915374894
 20
-138.62444115458
 10
78.00867511070616
 20
-138.62444115458
 10
78.23019475040773
 20
-138.8084092534924
 10
78.23019475040773
 20
-139.0812608159241
 10
78.23019475040773
 20
-139.3100151561447
 10
78.10599905816447
 20
-139.4092339061199
 10
77.77578665590327
 20
-139.6355766795008
 97
        0
 97
        0
 75
     2
 76
     1
 98
        0
  0
SPLINE
  5
A6
330
A0
100
AcDbEntity
  8
_U+30EC_U+30A4_U+30E4_U+30FC 1
370
     0
100
AcDbSpline
210
0.0
220
0.0
230
1.0
 70
    11
 71
     3
 72
    44
 73
    40
 74
     0
 42
0.0000000001
 43
0.0000000001
 12
1.0
 22
0.0
 32
0.0
 13
1.0
 23
0.0
 33
0.0
 40
0.0
 40
0.0
 40
0.0
 40
0.0
 40
1.0
 40
1.0
 40
1.0
 40
2.0
 40
2.0
 40
2.0
 40
3.0
 40
3.0
 40
3.0
 40
4.0
 40
4.0
 40
4.0
 40
5.0
 40
5.0
 40
5.0
 40
6.0
 40
6.0
 40
6.0
 40
7.0
 40
7.0
 40
7.0
 40
8.0
 40
8.0
 40
8.0
 40
9.0
 40
9.0
 40
9.0
 40
10.0
 40
10.0
 40
10.0
 40
11.0
 40
11.0
 40
11.0
 40
12.0
 40
12.0
 40
12.0
 40
13.0
 40
13.0
 40
13.0
 40
13.0
 10
79.48352048794162
 20
-140.2174533069595
 30
0.0
 10
79.45871580044782
 20
-140.1730115751998
 30
0.0
 10
79.43615042501943
 20
-140.1203016142755
 30
0.0
 10
79.43373885817977
 20
-139.8894802167638
 30
0.0
 10
79.42926023404894
 20
-139.6462564755051
 30
0.0
 10
79.36604273189461
 20
-139.5763210371545
 30
0.0
 10
79.17604571588308
 20
-139.5763210371545
 30
0.0
 10
79.17604571588308
 20
-139.5763210371545
 30
0.0
 10
78.73972437267618
 20
-139.5763210371545
 30
0.0
 10
78.73972437267618
 20
-139.5763210371545
 30
0.0
 10
78.73972437267618
 20
-139.5763210371545
 30
0.0
 10
78.73972437267618
 20
-140.2174533069595
 30
0.0
 10
78.73972437267618
 20
-140.2174533069595
 30
0.0
 10
78.73972437267618
 20
-140.2174533069595
 30
0.0
 10
78.48874916657573
 20
-140.2174533069595
 30
0.0
 10
78.48874916657573
 20
-140.2174533069595
 30
0.0
 10
78.48874916657573
 20
-140.2174533069595
 30
0.0
 10
78.48874916657573
 20
-138.673017000922
 30
0.0
 10
78.48874916657573
 20
-138.673017000922
 30
0.0
 10
78.48874916657573
 20
-138.673017000922
 30
0.0
 10
79.20997990641278
 20
-138.673017000922
 30
0.0
 10
79.20997990641278
 20
-138.673017000922
 30
0.0
 10
79.53778074183431
 20
-138.673017000922
 30
0.0
 10
79.71640894274451
 20
-138.8445827560875
 30
0.0
 10
79.71640894274451
 20
-139.1005533506415
 30
0.0
 10
79.71640894274451
 20
-139.1511962542747
 30
0.0
 10
79.7072794397086
 20
-139.2338785459207
 30
0.0
 10
79.65990937678642
 20
-139.314149270727
 30
0.0
 10
79.59651961985782
 20
-139.417846644833
 30
0.0
 10
79.52641192673299
 20
-139.4367946700019
 30
0.0
 10
79.46095511251323
 20
-139.4536756378797
 30
0.0
 10
79.60788843495914
 20
-139.4960503123482
 30
0.0
 10
79.68023544014939
 20
-139.5446261586902
 30
0.0
 10
79.68471406428021
 20
-139.8598523955906
 30
0.0
 10
79.6893649431853
 20
-140.1306369007312
 30
0.0
 10
79.72777775784584
 20
-140.1623317791955
 30
0.0
 10
79.80012476303608
 20
-140.2174533069595
 30
0.0
 10
79.80012476303608
 20
-140.2174533069595
 30
0.0
 10
79.48352048794162
 20
-140.2174533069595
 30
0.0
 10
79.48352048794162
 20
-140.2174533069595
 30
0.0
  0
SPLINE
  5
A7
330
A0
100
AcDbEntity
  8
_U+30EC_U+30A4_U+30E4_U+30FC 1
370
     0
100
AcDbSpline
210
0.0
220
0.0
230
1.0
 70
    11
 71
     3
 72
    20
 73
    16
 74
     0
 42
0.0000000001
 43
0.0000000001
 12
1.0
 22
0.0
 32
0.0
 13
1.0
 23
0.0
 33
0.0
 40
0.0
 40
0.0
 40
0.0
 40
0.0
 40
1.0
 40
1.0
 40
1.0
 40
2.0
 40
2.0
 40
2.0
 40
3.0
 40
3.0
 40
3.0
 40
4.0
 40
4.0
 40
4.0
 40
5.0
 40
5.0
 40
5.0
 40
5.0
 10
79.21445853054361
 20
-138.8845458637164
 30
0.0
 10
79.21445853054361
 20
-138.8845458637164
 30
0.0
 10
78.73972437267618
 20
-138.8845458637164
 30
0.0
 10
78.73972437267618
 20
-138.8845458637164
 30
0.0
 10
78.73972437267618
 20
-138.8845458637164
 30
0.0
 10
78.73972437267618
 20
-139.3647921743602
 30
0.0
 10
78.73972437267618
 20
-139.3647921743602
 30
0.0
 10
78.73972437267618
 20
-139.3647921743602
 30
0.0
 10
79.2122192184782
 20
-139.3647921743602
 30
0.0
 10
79.2122192184782
 20
-139.3647921743602
 30
0.0
 10
79.31850041419816
 20
-139.3647921743602
 30
0.0
 10
79.46319442457865
 20
-139.2886555641362
 30
0.0
 10
79.46319442457865
 20
-139.1174343185193
 30
0.0
 10
79.46319442457865
 20
-139.0392306510041
 30
0.0
 10
79.42702092198353
 20
-138.8845458637164
 30
0.0
 10
79.21445853054361
 20
-138.8845458637164
 30
0.0
  0
HATCH
  5
A8
330
A0
100
AcDbEntity
  8
_U+30EC_U+30A4_U+30E4_U+30FC 1
 62
   179
420
  2234388
100
AcDbHatch
 10
0.0
 20
0.0
 30
0.0
210
0.0
220
0.0
230
1.0
  2
SOLID
 70
     1
 71
     0
 91
        2
 92
        1
 93
        1
 72
     4
 94
        3
 73
     0
 74
     1
 95
       44
 96
       40
 40
0.0
 40
0.0
 40
0.0
 40
0.0
 40
1.0
 40
1.0
 40
1.0
 40
2.0
 40
2.0
 40
2.0
 40
3.0
 40
3.0
 40
3.0
 40
4.0
 40
4.0
 40
4.0
 40
5.0
 40
5.0
 40
5.0
 40
6.0
 40
6.0
 40
6.0
 40
7.0
 40
7.0
 40
7.0
 40
8.0
 40
8.0
 40
8.0
 40
9.0
 40
9.0
 40
9.0
 40
10.0
 40
10.0
 40
10.0
 40
11.0
 40
11.0
 40
11.0
 40
12.0
 40
12.0
 40
12.0
 40
13.0
 40
13.0
 40
13.0
 40
13.0
 10
79.48352048794162
 20
-140.2174533069595
 10
79.45871580044782
 20
-140.1730115751998
 10
79.43615042501943
 20
-140.1203016142755
 10
79.43373885817977
 20
-139.8894802167638
 10
79.42926023404894
 20
-139.6462564755051
 10
79.36604273189461
 20
-139.5763210371545
 10
79.17604571588308
 20
-139.5763210371545
 10
79.17604571588308
 20
-139.5763210371545
 10
78.73972437267618
 20
-139.5763210371545
 10
78.73972437267618
 20
-139.5763210371545
 10
78.73972437267618
 20
-139.5763210371545
 10
78.73972437267618
 20
-140.2174533069595
 10
78.73972437267618
 20
-140.2174533069595
 10
78.73972437267618
 20
-140.2174533069595
 10
78.48874916657573
 20
-140.2174533069595
 10
78.48874916657573
 20
-140.2174533069595
 10
78.48874916657573
 20
-140.2174533069595
 10
78.48874916657573
 20
-138.673017000922
 10
78.48874916657573
 20
-138.673017000922
 10
78.48874916657573
 20
-138.673017000922
 10
79.20997990641278
 20
-138.673017000922
 10
79.20997990641278
 20
-138.673017000922
 10
79.53778074183431
 20
-138.673017000922
 10
79.71640894274451
 20
-138.8445827560875
 10
79.71640894274451
 20
-139.1005533506415
 10
79.71640894274451
 20
-139.1511962542747
 10
79.7072794397086
 20
-139.2338785459207
 10
79.65990937678642
 20
-139.314149270727
 10
79.59651961985782
 20
-139.417846644833
 10
79.52641192673299
 20
-139.4367946700019
 10
79.46095511251323
 20
-139.4536756378797
 10
79.60788843495914
 20
-139.4960503123482
 10
79.68023544014939
 20
-139.5446261586902
 10
79.68471406428021
 20
-139.8598523955906
 10
79.6893649431853
 20
-140.1306369007312
 10
79.72777775784584
 20
-140.1623317791955
 10
79.80012476303608
 20
-140.2174533069595
 10
79.80012476303608
 20
-140.2174533069595
 10
79.48352048794162
 20
-140.2174533069595
 10
79.48352048794162
 20
-140.2174533069595
 97
        0
 97
        0
 92
        1
 93
        1
 72
     4
 94
        3
 73
     0
 74
     1
 95
       20
 96
       16
 40
0.0
 40
0.0
 40
0.0
 40
0.0
 40
1.0
 40
1.0
 40
1.0
 40
2.0
 40
2.0
 40
2.0
 40
3.0
 40
3.0
 40
3.0
 40
4.0
 40
4.0
 40
4.0
 40
5.0
 40
5.0
 40
5.0
 40
5.0
 10
79.21445853054361
 20
-138.8845458637164
 10
79.21445853054361
 20
-138.8845458637164
 10
78.73972437267618
 20
-138.8845458637164
 10
78.73972437267618
 20
-138.8845458637164
 10
78.73972437267618
 20
-138.8845458637164
 10
78.73972437267618
 20
-139.3647921743602
 10
78.73972437267618
 20
-139.3647921743602
 10
78.73972437267618
 20
-139.3647921743602
 10
79.2122192184782
 20
-139.3647921743602
 10
79.2122192184782
 20
-139.3647921743602
 10
79.31850041419816
 20
-139.3647921743602
 10
79.46319442457865
 20
-139.2886555641362
 10
79.46319442457865
 20
-139.1174343185193
 10
79.46319442457865
 20
-139.0392306510041
 10
79.42702092198353
 20
-138.8845458637164
 10
79.21445853054361
 20
-138.8845458637164
 97
        0
 97
        0
 75
     2
 76
     1
 98
        0
  0
ENDBLK
  5
A3
330
A0
100
AcDbEntity
  8
0
100
AcDbBlockEnd
  0
BLOCK
  5
B6
330
B4
100
AcDbEntity
  8
0
100
AcDbBlockBegin
  2
block 6
 70
     0
 10
0.0
 20
0.0
 30
0.0
  3
block 6
  1

  0
SPLINE
  5
B8
330
B4
100
AcDbEntity
  8
_U+30EC_U+30A4_U+30E4_U+30FC 1
370
     0
100
AcDbSpline
210
0.0
220
0.0
230
1.0
 70
    11
 71
     3
 72
    26
 73
    22
 74
     0
 42
0.0000000001
 43
0.0000000001
 12
1.0
 22
0.0
 32
0.0
 13
1.0
 23
0.0
 33
0.0
 40
0.0
 40
0.0
 40
0.0
 40
0.0
 40
1.0
 40
1.0
 40
1.0
 40
2.0
 40
2.0
 40
2.0
 40
3.0
 40
3.0
 40
3.0
 40
4.0
 40
4.0
 40
4.0
 40
5.0
 40
5.0
 40
5.0
 40
6.0
 40
6.0
 40
6.0
 40
7.0
 40
7.0
 40
7.0
 40
7.0
 10
83.20319008336587
 20
-122.7177462800845
 30
0.0
 10
83.20319008336587
 20
-122.7177462800845
 30
0.0
 10
83.20319008336587
 20
-121.6135931770619
 30
0.0
 10
83.20319008336587
 20
-121.6135931770619
 30
0.0
 10
83.20319008336587
 20
-121.6135931770619
 30
0.0
 10
82.85075681522481
 20
-121.6135931770619
 30
0.0
 10
82.85075681522481
 20
-121.6135931770619
 30
0.0
 10
82.85075681522481
 20
-121.6135931770619
 30
0.0
 10
82.85075681522481
 20
-121.4654540711961
 30
0.0
 10
82.85075681522481
 20
-121.4654540711961
 30
0.0
 10
83.20560165020555
 20
-121.4506401606096
 30
0.0
 10
83.25521102519315
 20
-121.2876871441572
 30
0.0
 10
83.28690590365744
 20
-121.173309974047
 30
0.0
 10
83.28690590365744
 20
-121.173309974047
 30
0.0
 10
83.44296872913927
 20
-121.173309974047
 30
0.0
 10
83.44296872913927
 20
-121.173309974047
 30
0.0
 10
83.44296872913927
 20
-121.173309974047
 30
0.0
 10
83.44296872913927
 20
-122.7177462800845
 30
0.0
 10
83.44296872913927
 20
-122.7177462800845
 30
0.0
 10
83.44296872913927
 20
-122.7177462800845
 30
0.0
 10
83.20319008336587
 20
-122.7177462800845
 30
0.0
 10
83.20319008336587
 20
-122.7177462800845
 30
0.0
  0
HATCH
  5
B9
330
B4
100
AcDbEntity
  8
_U+30EC_U+30A4_U+30E4_U+30FC 1
 62
   179
420
  2234388
100
AcDbHatch
 10
0.0
 20
0.0
 30
0.0
210
0.0
220
0.0
230
1.0
  2
SOLID
 70
     1
 71
     0
 91
        1
 92
        1
 93
        1
 72
     4
 94
        3
 73
     0
 74
     1
 95
       26
 96
       22
 40
0.0
 40
0.0
 40
0.0
 40
0.0
 40
1.0
 40
1.0
 40
1.0
 40
2.0
 40
2.0
 40
2.0
 40
3.0
 40
3.0
 40
3.0
 40
4.0
 40
4.0
 40
4.0
 40
5.0
 40
5.0
 40
5.0
 40
6.0
 40
6.0
 40
6.0
 40
7.0
 40
7.0
 40
7.0
 40
7.0
 10
83.20319008336587
 20
-122.7177462800845
 10
83.20319008336587
 20
-122.7177462800845
 10
83.20319008336587
 20
-121.6135931770619
 10
83.20319008336587
 20
-121.6135931770619
 10
83.20319008336587
 20
-121.6135931770619
 10
82.85075681522481
 20
-121.6135931770619
 10
82.85075681522481
 20
-121.6135931770619
 10
82.85075681522481
 20
-121.6135931770619
 10
82.85075681522481
 20
-121.4654540711961
 10
82.85075681522481
 20
-121.4654540711961
 10
83.20560165020555
 20
-121.4506401606096
 10
83.25521102519315
 20
-121.2876871441572
 10
83.28690590365744
 20
-121.173309974047
 10
83.28690590365744
 20
-121.173309974047
 10
83.44296872913927
 20
-121.173309974047
 10
83.44296872913927
 20
-121.173309974047
 10
83.44296872913927
 20
-121.173309974047
 10
83.44296872913927
 20
-122.7177462800845
 10
83.44296872913927
 20
-122.7177462800845
 10
83.44296872913927
 20
-122.7177462800845
 10
83.20319008336587
 20
-122.7177462800845
 10
83.20319008336587
 20
-122.7177462800845
 97
        0
 97
        0
 75
     2
 76
     1
 98
        0
  0
ENDBLK
  5
B7
330
B4
100
AcDbEntity
  8
0
100
AcDbBlockEnd
  0
ENDSEC
  0
SECTION
  2
ENTITIES
  0
POLYLINE
  5
41
330
1F
100
AcDbEntity
  8
_U+30EC_U+30A4_U+30E4_U+30FC 1
 62
   179
420
  2234388
370
     9
100
AcDb2dPolyline
 66
     1
 10
0.0
 20
0.0
 30
0.0
  0
VERTEX
  5
42
330
41
100
AcDbEntity
  8
_U+30EC_U+30A4_U+30E4_U+30FC 1
 62
   179
420
  2234388
370
     9
100
AcDbVertex
100
AcDb2dVertex
 10
84.41672145746112
 20
-137.0937835768379
 30
0.0
  0
VERTEX
  5
43
330
41
100
AcDbEntity
  8
_U+30EC_U+30A4_U+30E4_U+30FC 1
 62
   179
420
  2234388
370
     9
100
AcDbVertex
100
AcDb2dVertex
 10
84.91696033358785
 20
-136.2280316326096
 30
0.0
  0
SEQEND
  5
44
330
41
100
AcDbEntity
  8
_U+30EC_U+30A4_U+30E4_U+30FC 1
 62
   179
420
  2234388
370
     9
  0
POLYLINE
  5
45
330
1F
100
AcDbEntity
  8
_U+30EC_U+30A4_U+30E4_U+30FC 1
 62
   179
420
  2234388
370
     9
100
AcDb2dPolyline
 66
     1
 10
0.0
 20
0.0
 30
0.0
  0
VERTEX
  5
46
330
45
100
AcDbEntity
  8
_U+30EC_U+30A4_U+30E4_U+30FC 1
 62
   179
420
  2234388
370
     9
100
AcDbVertex
100
AcDb2dVertex
 10
84.05085563346181
 20
-136.7279177435956
 30
0.0
  0
VERTEX
  5
47
330
45
100
AcDbEntity
  8
_U+30EC_U+30A4_U+30E4_U+30FC 1
 62
   179
420
  2234388
370
     9
100
AcDbVertex
100
AcDb2dVertex
 10
84.91696033358785
 20
-136.2280316326096
 30
0.0
  0
SEQEND
  5
48
330
45
100
AcDbEntity
  8
_U+30EC_U+30A4_U+30E4_U+30FC 1
 62
   179
420
  2234388
370
     9
  0
SPLINE
  5
49
330
1F
100
AcDbEntity
  8
_U+30EC_U+30A4_U+30E4_U+30FC 1
 62
   179
420
  2234388
370
     9
100
AcDbSpline
210
0.0
220
0.0
230
1.0
 70
    11
 71
     3
 72
    17
 73
    13
 74
     0
 42
0.0000000001
 43
0.0000000001
 12
1.0
 22
0.0
 32
0.0
 13
1.0
 23
0.0
 33
0.0
 40
0.0
 40
0.0
 40
0.0
 40
0.0
 40
1.0
 40
1.0
 40
1.0
 40
2.0
 40
2.0
 40
2.0
 40
3.0
 40
3.0
 40
3.0
 40
4.0
 40
4.0
 40
4.0
 40
4.0
 10
89.93095548344796
 20
-127.3135135792829
 30
0.0
 10
89.93095548344796
 20
-127.2583744126298
 30
0.0
 10
89.88615270681319
 20
-127.2136069126409
 30
0.0
 10
89.83104881933012
 20
-127.2136069126409
 30
0.0
 10
89.77590965407018
 20
-127.2136069126409
 30
0.0
 10
89.73114442201158
 20
-127.2583744126298
 30
0.0
 10
89.73114442201158
 20
-127.3135135792829
 30
0.0
 10
89.73114442201158
 20
-127.3686174681578
 30
0.0
 10
89.77590965407018
 20
-127.4134202459245
 30
0.0
 10
89.83104881933012
 20
-127.4134202459245
 30
0.0
 10
89.88615270681319
 20
-127.4134202459245
 30
0.0
 10
89.93095548344796
 20
-127.3686174681578
 30
0.0
 10
89.93095548344796
 20
-127.3135135792829
 30
0.0
  0
SPLINE
  5
4A
330
1F
100
AcDbEntity
  8
_U+30EC_U+30A4_U+30E4_U+30FC 1
 62
   179
420
  2234388
370
     9
100
AcDbSpline
210
0.0
220
0.0
230
1.0
 70
    11
 71
     3
 72
    17
 73
    13
 74
     0
 42
0.0000000001
 43
0.0000000001
 12
1.0
 22
0.0
 32
0.0
 13
1.0
 23
0.0
 33
0.0
 40
0.0
 40
0.0
 40
0.0
 40
0.0
 40
1.0
 40
1.0
 40
1.0
 40
2.0
 40
2.0
 40
2.0
 40
3.0
 40
3.0
 40
3.0
 40
4.0
 40
4.0
 40
4.0
 40
4.0
 10
88.93118328673205
 20
-123.313754413616
 30
0.0
 10
88.93118328673205
 20
-123.2586152469632
 30
0.0
 10
88.88638051009728
 20
-123.2138477469744
 30
0.0
 10
88.83092384484544
 20
-123.2138477469744
 30
0.0
 10
88.77578467958548
 20
-123.2138477469744
 30
0.0
 10
88.7310194222616
 20
-123.2586152469632
 30
0.0
 10
88.7310194222616
 20
-123.313754413616
 30
0.0
 10
88.7310194222616
 20
-123.3688583024912
 30
0.0
 10
88.77578467958548
 20
-123.4136610802576
 30
0.0
 10
88.83092384484544
 20
-123.4136610802576
 30
0.0
 10
88.88638051009728
 20
-123.4136610802576
 30
0.0
 10
88.93118328673205
 20
-123.3688583024912
 30
0.0
 10
88.93118328673205
 20
-123.313754413616
 30
0.0
  0
SPLINE
  5
4B
330
1F
100
AcDbEntity
  8
_U+30EC_U+30A4_U+30E4_U+30FC 1
 62
   179
420
  2234388
370
     9
100
AcDbSpline
210
0.0
220
0.0
230
1.0
 70
    11
 71
     3
 72
    17
 73
    13
 74
     0
 42
0.0000000001
 43
0.0000000001
 12
1.0
 22
0.0
 32
0.0
 13
1.0
 23
0.0
 33
0.0
 40
0.0
 40
0.0
 40
0.0
 40
0.0
 40
1.0
 40
1.0
 40
1.0
 40
2.0
 40
2.0
 40
2.0
 40
3.0
 40
3.0
 40
3.0
 40
4.0
 40
4.0
 40
4.0
 40
4.0
 10
85.43095754269692
 20
-123.313754413616
 30
0.0
 10
85.43095754269692
 20
-123.2586152469632
 30
0.0
 10
85.38619004383904
 20
-123.2138477469744
 30
0.0
 10
85.33105087857908
 20
-123.2138477469744
 30
0.0
 10
85.275946991096
 20
-123.2138477469744
 30
0.0
 10
85.23114421446125
 20
-123.2586152469632
 30
0.0
 10
85.23114421446125
 20
-123.313754413616
 30
0.0
 10
85.23114421446125
 20
-123.3688583024912
 30
0.0
 10
85.275946991096
 20
-123.4136610802576
 30
0.0
 10
85.33105087857908
 20
-123.4136610802576
 30
0.0
 10
85.38619004383904
 20
-123.4136610802576
 30
0.0
 10
85.43095754269692
 20
-123.3688583024912
 30
0.0
 10
85.43095754269692
 20
-123.313754413616
 30
0.0
  0
SPLINE
  5
4C
330
1F
100
AcDbEntity
  8
_U+30EC_U+30A4_U+30E4_U+30FC 1
 62
   179
420
  2234388
370
     9
100
AcDbSpline
210
0.0
220
0.0
230
1.0
 70
    11
 71
     3
 72
    17
 73
    13
 74
     0
 42
0.0000000001
 43
0.0000000001
 12
1.0
 22
0.0
 32
0.0
 13
1.0
 23
0.0
 33
0.0
 40
0.0
 40
0.0
 40
0.0
 40
0.0
 40
1.0
 40
1.0
 40
1.0
 40
2.0
 40
2.0
 40
2.0
 40
3.0
 40
3.0
 40
3.0
 40
4.0
 40
4.0
 40
4.0
 40
4.0
 10
80.4311087813648
 20
-127.3135135792829
 30
0.0
 10
80.4311087813648
 20
-127.2583744126298
 30
0.0
 10
80.38630600473003
 20
-127.2136069126409
 30
0.0
 10
80.33102775769504
 20
-127.2136069126409
 30
0.0
 10
80.27571017421823
 20
-127.2136069126409
 30
0.0
 10
80.23094267536035
 20
-127.2583744126298
 30
0.0
 10
80.23094267536035
 20
-127.3135135792829
 30
0.0
 10
80.23094267536035
 20
-127.3686174681578
 30
0.0
 10
80.27571017421823
 20
-127.4134202459245
 30
0.0
 10
80.33102775769504
 20
-127.4134202459245
 30
0.0
 10
80.38630600473003
 20
-127.4134202459245
 30
0.0
 10
80.4311087813648
 20
-127.3686174681578
 30
0.0
 10
80.4311087813648
 20
-127.3135135792829
 30
0.0
  0
SPLINE
  5
4D
330
1F
100
AcDbEntity
  8
_U+30EC_U+30A4_U+30E4_U+30FC 1
 62
   179
420
  2234388
370
     9
100
AcDbSpline
210
0.0
220
0.0
230
1.0
 70
    11
 71
     3
 72
    17
 73
    13
 74
     0
 42
0.0000000001
 43
0.0000000001
 12
1.0
 22
0.0
 32
0.0
 13
1.0
 23
0.0
 33
0.0
 40
0.0
 40
0.0
 40
0.0
 40
0.0
 40
1.0
 40
1.0
 40
1.0
 40
2.0
 40
2.0
 40
2.0
 40
3.0
 40
3.0
 40
3.0
 40
4.0
 40
4.0
 40
4.0
 40
4.0
 10
80.4311087813648
 20
-136.8137132991299
 30
0.0
 10
80.4311087813648
 20
-136.7585741324769
 30
0.0
 10
80.38630600473003
 20
-136.7138066324883
 30
0.0
 10
80.33102775769504
 20
-136.7138066324883
 30
0.0
 10
80.27571017421823
 20
-136.7138066324883
 30
0.0
 10
80.23094267536035
 20
-136.7585741324769
 30
0.0
 10
80.23094267536035
 20
-136.8137132991299
 30
0.0
 10
80.23094267536035
 20
-136.8688171880049
 30
0.0
 10
80.27571017421823
 20
-136.9136199657716
 30
0.0
 10
80.33102775769504
 20
-136.9136199657716
 30
0.0
 10
80.38630600473003
 20
-136.9136199657716
 30
0.0
 10
80.4311087813648
 20
-136.8688171880049
 30
0.0
 10
80.4311087813648
 20
-136.8137132991299
 30
0.0
  0
SPLINE
  5
4E
330
1F
100
AcDbEntity
  8
_U+30EC_U+30A4_U+30E4_U+30FC 1
 62
   179
420
  2234388
370
     9
100
AcDbSpline
210
0.0
220
0.0
230
1.0
 70
    11
 71
     3
 72
    17
 73
    13
 74
     0
 42
0.0000000001
 43
0.0000000001
 12
1.0
 22
0.0
 32
0.0
 13
1.0
 23
0.0
 33
0.0
 40
0.0
 40
0.0
 40
0.0
 40
0.0
 40
1.0
 40
1.0
 40
1.0
 40
2.0
 40
2.0
 40
2.0
 40
3.0
 40
3.0
 40
3.0
 40
4.0
 40
4.0
 40
4.0
 40
4.0
 10
104.9307134341056
 20
-127.3135135792829
 30
0.0
 10
104.9307134341056
 20
-127.2583744126298
 30
0.0
 10
104.8859459352477
 20
-127.2136069126409
 30
0.0
 10
104.8308067699878
 20
-127.2136069126409
 30
0.0
 10
104.7757055293618
 20
-127.2136069126409
 30
0.0
 10
104.7309027515951
 20
-127.2583744126298
 30
0.0
 10
104.7309027515951
 20
-127.3135135792829
 30
0.0
 10
104.7309027515951
 20
-127.3686174681578
 30
0.0
 10
104.7757055293618
 20
-127.4134202459245
 30
0.0
 10
104.8308067699878
 20
-127.4134202459245
 30
0.0
 10
104.8859459352477
 20
-127.4134202459245
 30
0.0
 10
104.9307134341056
 20
-127.3686174681578
 30
0.0
 10
104.9307134341056
 20
-127.3135135792829
 30
0.0
  0
POLYLINE
  5
4F
330
1F
100
AcDbEntity
  8
_U+30EC_U+30A4_U+30E4_U+30FC 1
 62
   179
420
  2234388
370
     9
100
AcDb2dPolyline
 66
     1
 10
0.0
 20
0.0
 30
0.0
  0
VERTEX
  5
50
330
4F
100
AcDbEntity
  8
_U+30EC_U+30A4_U+30E4_U+30FC 1
 62
   179
420
  2234388
370
     9
100
AcDbVertex
100
AcDb2dVertex
 10
89.83104881933012
 20
-127.3135135792829
 30
0.0
  0
VERTEX
  5
51
330
4F
100
AcDbEntity
  8
_U+30EC_U+30A4_U+30E4_U+30FC 1
 62
   179
420
  2234388
370
     9
100
AcDbVertex
100
AcDb2dVertex
 10
104.8308067699878
 20
-127.3135135792829
 30
0.0
  0
SEQEND
  5
52
330
4F
100
AcDbEntity
  8
_U+30EC_U+30A4_U+30E4_U+30FC 1
 62
   179
420
  2234388
370
     9
  0
POLYLINE
  5
53
330
1F
100
AcDbEntity
  8
_U+30EC_U+30A4_U+30E4_U+30FC 1
 62
   179
420
  2234388
370
     9
100
AcDb2dPolyline
 66
     1
 10
0.0
 20
0.0
 30
0.0
  0
VERTEX
  5
54
330
53
100
AcDbEntity
  8
_U+30EC_U+30A4_U+30E4_U+30FC 1
 62
   179
420
  2234388
370
     9
100
AcDbVertex
100
AcDb2dVertex
 10
104.8308067699878
 20
-128.7735196900288
 30
0.0
  0
VERTEX
  5
55
330
53
100
AcDbEntity
  8
_U+30EC_U+30A4_U+30E4_U+30FC 1
 62
   179
420
  2234388
370
     9
100
AcDbVertex
100
AcDb2dVertex
 10
104.8308067699878
 20
-126.3137413573103
 30
0.0
  0
SEQEND
  5
56
330
53
100
AcDbEntity
  8
_U+30EC_U+30A4_U+30E4_U+30FC 1
 62
   179
420
  2234388
370
     9
  0
INSERT
  5
58
330
1F
100
AcDbEntity
  8
_U+30EC_U+30A4_U+30E4_U+30FC 1
100
AcDbBlockReference
  2
block 2
 10
0.0
 20
0.0
 30
0.0
  0
POLYLINE
  5
5F
330
1F
100
AcDbEntity
  8
_U+30EC_U+30A4_U+30E4_U+30FC 1
 62
   179
420
  2234388
370
     9
100
AcDb2dPolyline
 66
     1
 10
0.0
 20
0.0
 30
0.0
  0
VERTEX
  5
60
330
5F
100
AcDbEntity
  8
_U+30EC_U+30A4_U+30E4_U+30FC 1
 62
   179
420
  2234388
370
     9
100
AcDbVertex
100
AcDb2dVertex
 10
88.83092384484544
 20
-123.313754413616
 30
0.0
  0
VERTEX
  5
61
330
5F
100
AcDbEntity
  8
_U+30EC_U+30A4_U+30E4_U+30FC 1
 62
   179
420
  2234388
370
     9
100
AcDbVertex
100
AcDb2dVertex
 10
85.33105087857908
 20
-123.313754413616
 30
0.0
  0
SEQEND
  5
62
330
5F
100
AcDbEntity
  8
_U+30EC_U+30A4_U+30E4_U+30FC 1
 62
   179
420
  2234388
370
     9
  0
POLYLINE
  5
63
330
1F
100
AcDbEntity
  8
_U+30EC_U+30A4_U+30E4_U+30FC 1
 62
   179
420
  2234388
370
     9
100
AcDb2dPolyline
 66
     1
 10
0.0
 20
0.0
 30
0.0
  0
VERTEX
  5
64
330
63
100
AcDbEntity
  8
_U+30EC_U+30A4_U+30E4_U+30FC 1
 62
   179
420
  2234388
370
     9
100
AcDbVertex
100
AcDb2dVertex
 10
88.83092384484544
 20
-125.7735327463344
 30
0.0
  0
VERTEX
  5
65
330
63
100
AcDbEntity
  8
_U+30EC_U+30A4_U+30E4_U+30FC 1
 62
   179
420
  2234388
370
     9
100
AcDbVertex
100
AcDb2dVertex
 10
88.83092384484544
 20
-122.313629413866
 30
0.0
  0
SEQEND
  5
66
330
63
100
AcDbEntity
  8
_U+30EC_U+30A4_U+30E4_U+30FC 1
 62
   179
420
  2234388
370
     9
  0
POLYLINE
  5
67
330
1F
100
AcDbEntity
  8
_U+30EC_U+30A4_U+30E4_U+30FC 1
 62
   179
420
  2234388
370
     9
100
AcDb2dPolyline
 66
     1
 10
0.0
 20
0.0
 30
0.0
  0
VERTEX
  5
68
330
67
100
AcDbEntity
  8
_U+30EC_U+30A4_U+30E4_U+30FC 1
 62
   179
420
  2234388
370
     9
100
AcDbVertex
100
AcDb2dVertex
 10
85.33105087857908
 20
-124.7701621910299
 30
0.0
  0
VERTEX
  5
69
330
67
100
AcDbEntity
  8
_U+30EC_U+30A4_U+30E4_U+30FC 1
 62
   179
420
  2234388
370
     9
100
AcDbVertex
100
AcDb2dVertex
 10
85.33105087857908
 20
-122.313629413866
 30
0.0
  0
SEQEND
  5
6A
330
67
100
AcDbEntity
  8
_U+30EC_U+30A4_U+30E4_U+30FC 1
 62
   179
420
  2234388
370
     9
  0
INSERT
  5
6C
330
1F
100
AcDbEntity
  8
_U+30EC_U+30A4_U+30E4_U+30FC 1
100
AcDbBlockReference
  2
block 3
 10
0.0
 20
0.0
 30
0.0
  0
POLYLINE
  5
7B
330
1F
100
AcDbEntity
  8
_U+30EC_U+30A4_U+30E4_U+30FC 1
 62
   179
420
  2234388
370
     9
100
AcDb2dPolyline
 66
     1
 10
0.0
 20
0.0
 30
0.0
  0
VERTEX
  5
7C
330
7B
100
AcDbEntity
  8
_U+30EC_U+30A4_U+30E4_U+30FC 1
 62
   179
420
  2234388
370
     9
100
AcDbVertex
100
AcDb2dVertex
 10
80.33102775769504
 20
-136.8137132991299
 30
0.0
  0
VERTEX
  5
7D
330
7B
100
AcDbEntity
  8
_U+30EC_U+30A4_U+30E4_U+30FC 1
 62
   179
420
  2234388
370
     9
100
AcDbVertex
100
AcDb2dVertex
 10
80.33102775769504
 20
-127.3135135792829
 30
0.0
  0
SEQEND
  5
7E
330
7B
100
AcDbEntity
  8
_U+30EC_U+30A4_U+30E4_U+30FC 1
 62
   179
420
  2234388
370
     9
  0
POLYLINE
  5
7F
330
1F
100
AcDbEntity
  8
_U+30EC_U+30A4_U+30E4_U+30FC 1
 62
   179
420
  2234388
370
     9
100
AcDb2dPolyline
 66
     1
 10
0.0
 20
0.0
 30
0.0
  0
VERTEX
  5
80
330
7F
100
AcDbEntity
  8
_U+30EC_U+30A4_U+30E4_U+30FC 1
 62
   179
420
  2234388
370
     9
100
AcDbVertex
100
AcDb2dVertex
 10
83.37218176188733
 20
-136.8137132991299
 30
0.0
  0
VERTEX
  5
81
330
7F
100
AcDbEntity
  8
_U+30EC_U+30A4_U+30E4_U+30FC 1
 62
   179
420
  2234388
370
     9
100
AcDbVertex
100
AcDb2dVertex
 10
79.33107714276228
 20
-136.8137132991299
 30
0.0
  0
SEQEND
  5
82
330
7F
100
AcDbEntity
  8
_U+30EC_U+30A4_U+30E4_U+30FC 1
 62
   179
420
  2234388
370
     9
  0
POLYLINE
  5
83
330
1F
100
AcDbEntity
  8
_U+30EC_U+30A4_U+30E4_U+30FC 1
 62
   179
420
  2234388
370
     9
100
AcDb2dPolyline
 66
     1
 10
0.0
 20
0.0
 30
0.0
  0
VERTEX
  5
84
330
83
100
AcDbEntity
  8
_U+30EC_U+30A4_U+30E4_U+30FC 1
 62
   179
420
  2234388
370
     9
100
AcDbVertex
100
AcDb2dVertex
 10
81.79085541334143
 20
-127.3135135792829
 30
0.0
  0
VERTEX
  5
85
330
83
100
AcDbEntity
  8
_U+30EC_U+30A4_U+30E4_U+30FC 1
 62
   179
420
  2234388
370
     9
100
AcDbVertex
100
AcDb2dVertex
 10
79.33107714276228
 20
-127.3135135792829
 30
0.0
  0
SEQEND
  5
86
330
83
100
AcDbEntity
  8
_U+30EC_U+30A4_U+30E4_U+30FC 1
 62
   179
420
  2234388
370
     9
  0
INSERT
  5
88
330
1F
100
AcDbEntity
  8
_U+30EC_U+30A4_U+30E4_U+30FC 1
100
AcDbBlockReference
  2
block 4
 10
0.0
 20
0.0
 30
0.0
  0
POLYLINE
  5
98
330
1F
100
AcDbEntity
  8
_U+30EC_U+30A4_U+30E4_U+30FC 1
 62
   179
420
  2234388
370
     9
100
AcDb2dPolyline
 66
     1
 10
0.0
 20
0.0
 30
0.0
  0
VERTEX
  5
99
330
98
100
AcDbEntity
  8
_U+30EC_U+30A4_U+30E4_U+30FC 1
 62
   179
420
  2234388
370
     9
100
AcDbVertex
100
AcDb2dVertex
 10
84.91696033358785
 20
-136.2280316326096
 30
0.0
  0
VERTEX
  5
9A
330
98
100
AcDbEntity
  8
_U+30EC_U+30A4_U+30E4_U+30FC 1
 62
   179
420
  2234388
370
     9
100
AcDbVertex
100
AcDb2dVertex
 10
80.33102775769504
 20
-140.8134724647968
 30
0.0
  0
SEQEND
  5
9B
330
98
100
AcDbEntity
  8
_U+30EC_U+30A4_U+30E4_U+30FC 1
 62
   179
420
  2234388
370
     9
  0
POLYLINE
  5
9C
330
1F
100
AcDbEntity
  8
_U+30EC_U+30A4_U+30E4_U+30FC 1
 62
   179
420
  2234388
370
     9
100
AcDb2dPolyline
 66
     1
 10
0.0
 20
0.0
 30
0.0
  0
VERTEX
  5
9D
330
9C
100
AcDbEntity
  8
_U+30EC_U+30A4_U+30E4_U+30FC 1
 62
   179
420
  2234388
370
     9
100
AcDbVertex
100
AcDb2dVertex
 10
80.33102775769504
 20
-140.8134724647968
 30
0.0
  0
VERTEX
  5
9E
330
9C
100
AcDbEntity
  8
_U+30EC_U+30A4_U+30E4_U+30FC 1
 62
   179
420
  2234388
370
     9
100
AcDbVertex
100
AcDb2dVertex
 10
76.81700831412901
 20
-140.8134724647968
 30
0.0
  0
SEQEND
  5
9F
330
9C
100
AcDbEntity
  8
_U+30EC_U+30A4_U+30E4_U+30FC 1
 62
   179
420
  2234388
370
     9
  0
INSERT
  5
A1
330
1F
100
AcDbEntity
  8
_U+30EC_U+30A4_U+30E4_U+30FC 1
100
AcDbBlockReference
  2
block 5
 10
0.0
 20
0.0
 30
0.0
  0
SPLINE
  5
A9
330
1F
100
AcDbEntity
  8
_U+30EC_U+30A4_U+30E4_U+30FC 1
 62
   179
420
  2234388
370
    25
100
AcDbSpline
210
0.0
220
0.0
230
1.0
 70
    11
 71
     3
 72
    74
 73
    70
 74
     0
 42
0.0000000001
 43
0.0000000001
 12
1.0
 22
0.0
 32
0.0
 13
1.0
 23
0.0
 33
0.0
 40
0.0
 40
0.0
 40
0.0
 40
0.0
 40
1.0
 40
1.0
 40
1.0
 40
2.0
 40
2.0
 40
2.0
 40
3.0
 40
3.0
 40
3.0
 40
4.0
 40
4.0
 40
4.0
 40
5.0
 40
5.0
 40
5.0
 40
6.0
 40
6.0
 40
6.0
 40
7.0
 40
7.0
 40
7.0
 40
8.0
 40
8.0
 40
8.0
 40
9.0
 40
9.0
 40
9.0
 40
10.0
 40
10.0
 40
10.0
 40
11.0
 40
11.0
 40
11.0
 40
12.0
 40
12.0
 40
12.0
 40
13.0
 40
13.0
 40
13.0
 40
14.0
 40
14.0
 40
14.0
 40
15.0
 40
15.0
 40
15.0
 40
16.0
 40
16.0
 40
16.0
 40
17.0
 40
17.0
 40
17.0
 40
18.0
 40
18.0
 40
18.0
 40
19.0
 40
19.0
 40
19.0
 40
20.0
 40
20.0
 40
20.0
 40
21.0
 40
21.0
 40
21.0
 40
22.0
 40
22.0
 40
22.0
 40
23.0
 40
23.0
 40
23.0
 40
23.0
 10
89.83104881933012
 20
-116.313655526477
 30
0.0
 10
89.83104881933012
 20
-116.313655526477
 30
0.0
 10
89.83104881933012
 20
-131.3135902449497
 30
0.0
 10
89.83104881933012
 20
-131.3135902449497
 30
0.0
 10
89.83104881933012
 20
-131.3135902449497
 30
0.0
 10
104.8308067699878
 20
-131.3135902449497
 30
0.0
 10
104.8308067699878
 20
-131.3135902449497
 30
0.0
 10
104.8308067699878
 20
-131.5895683004359
 30
0.0
 10
104.6068634423677
 20
-131.8134763559356
 30
0.0
 10
104.3312734493986
 20
-131.8134763559356
 30
0.0
 10
104.3312734493986
 20
-131.8134763559356
 30
0.0
 10
93.69696399848019
 20
-131.8134763559356
 30
0.0
 10
93.69696399848019
 20
-131.8134763559356
 30
0.0
 10
93.51849372525557
 20
-132.1228624669696
 30
0.0
 10
93.18847012256406
 20
-132.3137152446994
 30
0.0
 10
92.83085929835414
 20
-132.3137152446994
 30
0.0
 10
92.83085929835414
 20
-132.3137152446994
 30
0.0
 10
89.53820799346778
 20
-132.3137152446994
 30
0.0
 10
89.53820799346778
 20
-132.3137152446994
 30
0.0
 10
89.53820799346778
 20
-132.3137152446994
 30
0.0
 10
86.55028612525157
 20
-135.3013196883971
 30
0.0
 10
86.55028612525157
 20
-135.3013196883971
 30
0.0
 10
86.43312862824051
 20
-135.4184419105902
 30
0.0
 10
86.43312862824051
 20
-135.6085891327644
 30
0.0
 10
86.55028612525157
 20
-135.725746632735
 30
0.0
 10
86.6064130682641
 20
-135.7822263549434
 30
0.0
 10
86.68289528853511
 20
-135.8135882993797
 30
0.0
 10
86.76248195317135
 20
-135.8135882993797
 30
0.0
 10
86.76248195317135
 20
-135.8135882993797
 30
0.0
 10
93.83130177283073
 20
-135.8135882993797
 30
0.0
 10
93.83130177283073
 20
-135.8135882993797
 30
0.0
 10
93.83130177283073
 20
-136.3661794103531
 30
0.0
 10
93.38345275443218
 20
-136.8137132991299
 30
0.0
 10
92.83085929835414
 20
-136.8137132991299
 30
0.0
 10
92.83085929835414
 20
-136.8137132991299
 30
0.0
 10
86.33117585306377
 20
-136.8137132991299
 30
0.0
 10
86.33117585306377
 20
-136.8137132991299
 30
0.0
 10
85.226311159029
 20
-136.8137132991299
 30
0.0
 10
84.3309259040944
 20
-135.9179752437983
 30
0.0
 10
84.3309259040944
 20
-134.81346329963
 30
0.0
 10
84.3309259040944
 20
-134.81346329963
 30
0.0
 10
84.3309259040944
 20
-128.313603301255
 30
0.0
 10
84.3309259040944
 20
-128.313603301255
 30
0.0
 10
84.3309259040944
 20
-127.7613649680596
 30
0.0
 10
84.77881255933453
 20
-127.3135135792829
 30
0.0
 10
85.33105087857908
 20
-127.3135135792829
 30
0.0
 10
85.33105087857908
 20
-127.3135135792829
 30
0.0
 10
85.33105087857908
 20
-134.382157188627
 30
0.0
 10
85.33105087857908
 20
-134.382157188627
 30
0.0
 10
85.33105087857908
 20
-134.5478569108077
 30
0.0
 10
85.46542393070649
 20
-134.6822299663297
 30
0.0
 10
85.63112364870136
 20
-134.6822299663297
 30
0.0
 10
85.71071031333761
 20
-134.6822299663297
 30
0.0
 10
85.78683975583982
 20
-134.6508680218928
 30
0.0
 10
85.84300197662924
 20
-134.5943530219069
 30
0.0
 10
85.84300197662924
 20
-134.5943530219069
 30
0.0
 10
88.83092384484544
 20
-131.6064310782095
 30
0.0
 10
88.83092384484544
 20
-131.6064310782095
 30
0.0
 10
88.83092384484544
 20
-131.6064310782095
 30
0.0
 10
88.83092384484544
 20
-128.313603301255
 30
0.0
 10
88.83092384484544
 20
-128.313603301255
 30
0.0
 10
88.83092384484544
 20
-127.9563452457887
 30
0.0
 10
89.02142383998537
 20
-127.6263216347602
 30
0.0
 10
89.33116272097217
 20
-127.4475338570271
 30
0.0
 10
89.33116272097217
 20
-127.4475338570271
 30
0.0
 10
89.33116272097217
 20
-116.8135416374633
 30
0.0
 10
89.33116272097217
 20
-116.8135416374633
 30
0.0
 10
89.33116272097217
 20
-116.5374224708657
 30
0.0
 10
89.55475553316678
 20
-116.313655526477
 30
0.0
 10
89.83104881933012
 20
-116.313655526477
 30
0.0
  0
HATCH
  5
AA
330
1F
100
AcDbEntity
  8
_U+30EC_U+30A4_U+30E4_U+30FC 1
 62
   253
420
 11711154
100
AcDbHatch
 10
0.0
 20
0.0
 30
0.0
210
0.0
220
0.0
230
1.0
  2
SOLID
 70
     1
 71
     0
 91
        1
 92
        1
 93
        1
 72
     4
 94
        3
 73
     0
 74
     1
 95
       74
 96
       70
 40
0.0
 40
0.0
 40
0.0
 40
0.0
 40
1.0
 40
1.0
 40
1.0
 40
2.0
 40
2.0
 40
2.0
 40
3.0
 40
3.0
 40
3.0
 40
4.0
 40
4.0
 40
4.0
 40
5.0
 40
5.0
 40
5.0
 40
6.0
 40
6.0
 40
6.0
 40
7.0
 40
7.0
 40
7.0
 40
8.0
 40
8.0
 40
8.0
 40
9.0
 40
9.0
 40
9.0
 40
10.0
 40
10.0
 40
10.0
 40
11.0
 40
11.0
 40
11.0
 40
12.0
 40
12.0
 40
12.0
 40
13.0
 40
13.0
 40
13.0
 40
14.0
 40
14.0
 40
14.0
 40
15.0
 40
15.0
 40
15.0
 40
16.0
 40
16.0
 40
16.0
 40
17.0
 40
17.0
 40
17.0
 40
18.0
 40
18.0
 40
18.0
 40
19.0
 40
19.0
 40
19.0
 40
20.0
 40
20.0
 40
20.0
 40
21.0
 40
21.0
 40
21.0
 40
22.0
 40
22.0
 40
22.0
 40
23.0
 40
23.0
 40
23.0
 40
23.0
 10
89.83104881933012
 20
-116.313655526477
 10
89.83104881933012
 20
-116.313655526477
 10
89.83104881933012
 20
-131.3135902449497
 10
89.83104881933012
 20
-131.3135902449497
 10
89.83104881933012
 20
-131.3135902449497
 10
104.8308067699878
 20
-131.3135902449497
 10
104.8308067699878
 20
-131.3135902449497
 10
104.8308067699878
 20
-131.5895683004359
 10
104.6068634423677
 20
-131.8134763559356
 10
104.3312734493986
 20
-131.8134763559356
 10
104.3312734493986
 20
-131.8134763559356
 10
93.69696399848019
 20
-131.8134763559356
 10
93.69696399848019
 20
-131.8134763559356
 10
93.51849372525557
 20
-132.1228624669696
 10
93.18847012256406
 20
-132.3137152446994
 10
92.83085929835414
 20
-132.3137152446994
 10
92.83085929835414
 20
-132.3137152446994
 10
89.53820799346778
 20
-132.3137152446994
 10
89.53820799346778
 20
-132.3137152446994
 10
89.53820799346778
 20
-132.3137152446994
 10
86.55028612525157
 20
-135.3013196883971
 10
86.55028612525157
 20
-135.3013196883971
 10
86.43312862824051
 20
-135.4184419105902
 10
86.43312862824051
 20
-135.6085891327644
 10
86.55028612525157
 20
-135.725746632735
 10
86.6064130682641
 20
-135.7822263549434
 10
86.68289528853511
 20
-135.8135882993797
 10
86.76248195317135
 20
-135.8135882993797
 10
86.76248195317135
 20
-135.8135882993797
 10
93.83130177283073
 20
-135.8135882993797
 10
93.83130177283073
 20
-135.8135882993797
 10
93.83130177283073
 20
-136.3661794103531
 10
93.38345275443218
 20
-136.8137132991299
 10
92.83085929835414
 20
-136.8137132991299
 10
92.83085929835414
 20
-136.8137132991299
 10
86.33117585306377
 20
-136.8137132991299
 10
86.33117585306377
 20
-136.8137132991299
 10
85.226311159029
 20
-136.8137132991299
 10
84.3309259040944
 20
-135.9179752437983
 10
84.3309259040944
 20
-134.81346329963
 10
84.3309259040944
 20
-134.81346329963
 10
84.3309259040944
 20
-128.313603301255
 10
84.3309259040944
 20
-128.313603301255
 10
84.3309259040944
 20
-127.7613649680596
 10
84.77881255933453
 20
-127.3135135792829
 10
85.33105087857908
 20
-127.3135135792829
 10
85.33105087857908
 20
-127.3135135792829
 10
85.33105087857908
 20
-134.382157188627
 10
85.33105087857908
 20
-134.382157188627
 10
85.33105087857908
 20
-134.5478569108077
 10
85.46542393070649
 20
-134.6822299663297
 10
85.63112364870136
 20
-134.6822299663297
 10
85.71071031333761
 20
-134.6822299663297
 10
85.78683975583982
 20
-134.6508680218928
 10
85.84300197662924
 20
-134.5943530219069
 10
85.84300197662924
 20
-134.5943530219069
 10
88.83092384484544
 20
-131.6064310782095
 10
88.83092384484544
 20
-131.6064310782095
 10
88.83092384484544
 20
-131.6064310782095
 10
88.83092384484544
 20
-128.313603301255
 10
88.83092384484544
 20
-128.313603301255
 10
88.83092384484544
 20
-127.9563452457887
 10
89.02142383998537
 20
-127.6263216347602
 10
89.33116272097217
 20
-127.4475338570271
 10
89.33116272097217
 20
-127.4475338570271
 10
89.33116272097217
 20
-116.8135416374633
 10
89.33116272097217
 20
-116.8135416374633
 10
89.33116272097217
 20
-116.5374224708657
 10
89.55475553316678
 20
-116.313655526477
 10
89.83104881933012
 20
-116.313655526477
 97
        0
 97
        0
 75
     2
 76
     1
 98
        0
  0
POLYLINE
  5
AB
330
1F
100
AcDbEntity
  8
_U+30EC_U+30A4_U+30E4_U+30FC 1
 62
   179
420
  2234388
370
     9
100
AcDb2dPolyline
 66
     1
 10
0.0
 20
0.0
 30
0.0
  0
VERTEX
  5
AC
330
AB
100
AcDbEntity
  8
_U+30EC_U+30A4_U+30E4_U+30FC 1
 62
   179
420
  2234388
370
     9
100
AcDbVertex
100
AcDb2dVertex
 10
82.78082038808533
 20
-123.313754413616
 30
0.0
  0
VERTEX
  5
AD
330
AB
100
AcDbEntity
  8
_U+30EC_U+30A4_U+30E4_U+30FC 1
 62
   179
420
  2234388
370
     9
100
AcDbVertex
100
AcDb2dVertex
 10
88.82076384510464
 20
-123.313754413616
 30
0.0
  0
SEQEND
  5
AE
330
AB
100
AcDbEntity
  8
_U+30EC_U+30A4_U+30E4_U+30FC 1
 62
   179
420
  2234388
370
     9
  0
SPLINE
  5
AF
330
1F
100
AcDbEntity
  8
_U+30EC_U+30A4_U+30E4_U+30FC 1
 62
   179
420
  2234388
370
     9
100
AcDbSpline
210
0.0
220
0.0
230
1.0
 70
    11
 71
     3
 72
    17
 73
    13
 74
     0
 42
0.0000000001
 43
0.0000000001
 12
1.0
 22
0.0
 32
0.0
 13
1.0
 23
0.0
 33
0.0
 40
0.0
 40
0.0
 40
0.0
 40
0.0
 40
1.0
 40
1.0
 40
1.0
 40
2.0
 40
2.0
 40
2.0
 40
3.0
 40
3.0
 40
3.0
 40
4.0
 40
4.0
 40
4.0
 40
4.0
 10
84.42067256847143
 20
-123.3101208025058
 30
0.0
 10
84.42067256847143
 20
-123.2550169136306
 30
0.0
 10
84.37590506961355
 20
-123.2102141358642
 30
0.0
 10
84.32076590435359
 20
-123.2102141358642
 30
0.0
 10
84.26566201687052
 20
-123.2102141358642
 30
0.0
 10
84.22085924023577
 20
-123.2550169136306
 30
0.0
 10
84.22085924023577
 20
-123.3101208025058
 30
0.0
 10
84.22085924023577
 20
-123.3652599691586
 30
0.0
 10
84.26566201687052
 20
-123.4100274691475
 30
0.0
 10
84.32076590435359
 20
-123.4100274691475
 30
0.0
 10
84.37590506961355
 20
-123.4100274691475
 30
0.0
 10
84.42067256847143
 20
-123.3652599691586
 30
0.0
 10
84.42067256847143
 20
-123.3101208025058
 30
0.0
  0
POLYLINE
  5
B0
330
1F
100
AcDbEntity
  8
_U+30EC_U+30A4_U+30E4_U+30FC 1
 62
   179
420
  2234388
370
     9
100
AcDb2dPolyline
 66
     1
 10
0.0
 20
0.0
 30
0.0
  0
VERTEX
  5
B1
330
B0
100
AcDbEntity
  8
_U+30EC_U+30A4_U+30E4_U+30FC 1
 62
   179
420
  2234388
370
     9
100
AcDbVertex
100
AcDb2dVertex
 10
84.32076590435359
 20
-124.7701621910299
 30
0.0
  0
VERTEX
  5
B2
330
B0
100
AcDbEntity
  8
_U+30EC_U+30A4_U+30E4_U+30FC 1
 62
   179
420
  2234388
370
     9
100
AcDbVertex
100
AcDb2dVertex
 10
84.32076590435359
 20
-122.3103485805336
 30
0.0
  0
SEQEND
  5
B3
330
B0
100
AcDbEntity
  8
_U+30EC_U+30A4_U+30E4_U+30FC 1
 62
   179
420
  2234388
370
     9
  0
INSERT
  5
B5
330
1F
100
AcDbEntity
  8
_U+30EC_U+30A4_U+30E4_U+30FC 1
100
AcDbBlockReference
  2
block 6
 10
0.0
 20
0.0
 30
0.0
  0
ENDSEC
  0
SECTION
  2
OBJECTS
  0
DICTIONARY
  5
C
330
0
100
AcDbDictionary
281
     1
  3
ACAD_GROUP
350
D
  3
ACAD_LAYOUT
350
1A
  3
ACAD_MATERIAL
350
3B
  3
ACAD_MLEADERSTYLE
350
BB
  3
ACAD_MLINESTYLE
350
17
  3
ACAD_PLOTSETTINGS
350
19
  3
ACAD_PLOTSTYLENAME
350
E
  3
ACAD_TABLESTYLE
350
BA
  3
ACAD_VISUALSTYLE
350
2A
  0
SUN
  5
3F
330
29
100
AcDbSun
 90
        1
290
     0
 63
     7
421
 16777215
 40
1.0
291
     1
 91
  2455826
 92
 54000000
292
     0
 70
     2
 71
   256
280
     1
  0
DICTIONARY
  5
D
102
{ACAD_REACTORS
330
C
102
}
330
C
100
AcDbDictionary
281
     1
  0
DICTIONARY
  5
1A
102
{ACAD_REACTORS
330
C
102
}
330
C
100
AcDbDictionary
281
     1
  3
Layout1
350
1E
  3
Layout2
350
26
  3
Model
350
22
  0
DICTIONARY
  5
3B
102
{ACAD_REACTORS
330
C
102
}
330
C
100
AcDbDictionary
281
     1
  3
ByBlock
350
3D
  3
ByLayer
350
3C
  3
Global
350
3E
  0
DICTIONARY
  5
BB
102
{ACAD_REACTORS
330
C
102
}
330
C
100
AcDbDictionary
281
     1
  0
DICTIONARY
  5
17
102
{ACAD_REACTORS
330
C
102
}
330
C
100
AcDbDictionary
281
     1
  3
Standard
350
18
  0
DICTIONARY
  5
19
102
{ACAD_REACTORS
330
C
102
}
330
C
100
AcDbDictionary
281
     1
  0
ACDBDICTIONARYWDFLT
  5
E
102
{ACAD_REACTORS
330
C
102
}
330
C
100
AcDbDictionary
281
     1
  3
Normal
350
F
100
AcDbDictionaryWithDefault
340
F
  0
DICTIONARY
  5
BA
102
{ACAD_REACTORS
330
C
102
}
330
C
100
AcDbDictionary
281
     1
  0
DICTIONARY
  5
2A
102
{ACAD_REACTORS
330
C
102
}
330
C
100
AcDbDictionary
281
     1
  3
2dWireframe
350
2F
  3
3D Hidden
350
31
  3
3dWireframe
350
30
  3
Basic
350
32
  3
Brighten
350
36
  3
ColorChange
350
3A
  3
Conceptual
350
34
  3
Dim
350
35
  3
Facepattern
350
39
  3
Flat
350
2B
  3
FlatWithEdges
350
2C
  3
Gouraud
350
2D
  3
GouraudWithEdges
350
2E
  3
Linepattern
350
38
  3
Realistic
350
33
  3
Thicken
350
37
  0
LAYOUT
  5
1E
102
{ACAD_REACTORS
330
1A
102
}
330
1A
100
AcDbPlotSettings
  1

  2
none_device
  4

  6

 40
0.0
 41
0.0
 42
0.0
 43
0.0
 44
0.0
 45
0.0
 46
0.0
 47
0.0
 48
0.0
 49
0.0
140
0.0
141
0.0
142
1.0
143
1.0
 70
   688
 72
     0
 73
     0
 74
     5
  7

 75
    16
 76
     0
 77
     2
 78
   300
147
1.0
148
0.0
149
0.0
100
AcDbLayout
  1
Layout1
 70
     1
 71
     1
 10
0.0
 20
0.0
 11
12.0
 21
9.0
 12
0.0
 22
0.0
 32
0.0
 14
1.000000000000000E+20
 24
1.000000000000000E+20
 34
1.000000000000000E+20
 15
-1.000000000000000E+20
 25
-1.000000000000000E+20
 35
-1.000000000000000E+20
146
0.0
 13
0.0
 23
0.0
 33
0.0
 16
1.0
 26
0.0
 36
0.0
 17
0.0
 27
1.0
 37
0.0
 76
     0
330
1B
  0
LAYOUT
  5
26
102
{ACAD_REACTORS
330
1A
102
}
330
1A
100
AcDbPlotSettings
  1

  2
none_device
  4

  6

 40
0.0
 41
0.0
 42
0.0
 43
0.0
 44
0.0
 45
0.0
 46
0.0
 47
0.0
 48
0.0
 49
0.0
140
0.0
141
0.0
142
1.0
143
1.0
 70
   688
 72
     0
 73
     0
 74
     5
  7

 75
    16
 76
     0
 77
     2
 78
   300
147
1.0
148
0.0
149
0.0
100
AcDbLayout
  1
Layout2
 70
     1
 71
     2
 10
0.0
 20
0.0
 11
0.0
 21
0.0
 12
0.0
 22
0.0
 32
0.0
 14
0.0
 24
0.0
 34
0.0
 15
0.0
 25
0.0
 35
0.0
146
0.0
 13
0.0
 23
0.0
 33
0.0
 16
1.0
 26
0.0
 36
0.0
 17
0.0
 27
1.0
 37
0.0
 76
     0
330
23
  0
LAYOUT
  5
22
102
{ACAD_REACTORS
330
1A
102
}
330
1A
100
AcDbPlotSettings
  1

  2
none_device
  4

  6

 40
0.0
 41
0.0
 42
0.0
 43
0.0
 44
0.0
 45
0.0
 46
0.0
 47
0.0
 48
0.0
 49
0.0
140
0.0
141
0.0
142
1.0
143
1.0
 70
  1712
 72
     0
 73
     0
 74
     0
  7

 75
     0
 76
     0
 77
     2
 78
   300
147
1.0
148
0.0
149
0.0
100
AcDbLayout
  1
Model
 70
     1
 71
     0
 10
0.0
 20
0.0
 11
12.0
 21
9.0
 12
0.0
 22
0.0
 32
0.0
 14
1.000000000000000E+20
 24
1.000000000000000E+20
 34
1.000000000000000E+20
 15
-1.000000000000000E+20
 25
-1.000000000000000E+20
 35
-1.000000000000000E+20
146
0.0
 13
0.0
 23
0.0
 33
0.0
 16
1.0
 26
0.0
 36
0.0
 17
0.0
 27
1.0
 37
0.0
 76
     0
330
1F
331
29
  0
MATERIAL
  5
3D
102
{ACAD_REACTORS
330
3B
102
}
330
3B
100
AcDbMaterial
  1
ByBlock
 72
     1
 94
      127
  0
MATERIAL
  5
3C
102
{ACAD_REACTORS
330
3B
102
}
330
3B
100
AcDbMaterial
  1
ByLayer
 72
     1
 94
      127
  0
MATERIAL
  5
3E
102
{ACAD_REACTORS
330
3B
102
}
330
3B
100
AcDbMaterial
  1
Global
 72
     1
 94
      127
  0
MLINESTYLE
  5
18
102
{ACAD_REACTORS
330
17
102
}
330
17
100
AcDbMlineStyle
  2
Standard
 70
     0
  3

 62
   256
 51
90.0
 52
90.0
 71
     2
 49
0.5
 62
   256
  6
BYLAYER
 49
-0.5
 62
   256
  6
BYLAYER
  0
ACDBPLACEHOLDER
  5
F
102
{ACAD_REACTORS
330
E
102
}
330
E
  0
VISUALSTYLE
  5
2F
102
{ACAD_REACTORS
330
2A
102
}
330
2A
100
AcDbVisualStyle
  2
2dWireframe
 70
     4
177
     2
291
     0
 71
     0
176
     1
 72
     2
176
     1
 73
     0
176
     1
 90
        0
176
     1
 40
-0.6
176
     1
 41
-30.0
176
     1
 62
     5
 63
     7
421
 16777215
176
     1
 74
     1
176
     1
 91
        4
176
     1
 64
     7
176
     1
 65
   257
176
     1
 75
     1
176
     1
175
     1
176
     1
 42
1.0
176
     1
 92
        0
176
     1
 66
   257
176
     1
 43
1.0
176
     1
 76
     1
176
     1
 77
     6
176
     1
 78
     2
176
     1
 67
     7
176
     1
 79
     5
176
     1
170
     0
176
     1
171
     0
176
     1
290
     0
176
     1
 93
        1
176
     1
 44
0.0
176
     1
173
     0
176
     1
  0
VISUALSTYLE
  5
31
102
{ACAD_REACTORS
330
2A
102
}
330
2A
100
AcDbVisualStyle
  2
3D Hidden
 70
     6
177
     2
291
     0
 71
     1
176
     1
 72
     2
176
     1
 73
     2
176
     1
 90
        0
176
     1
 40
-0.6
176
     1
 41
-30.0
176
     1
 62
     5
 63
     7
421
 16777215
176
     1
 74
     2
176
     1
 91
        2
176
     1
 64
     7
176
     1
 65
   257
176
     1
 75
     2
176
     1
175
     1
176
     1
 42
40.0
176
     1
 92
        0
176
     1
 66
   257
176
     1
 43
1.0
176
     1
 76
     1
176
     1
 77
     6
176
     1
 78
     2
176
     1
 67
     7
176
     1
 79
     3
176
     1
170
     0
176
     1
171
     0
176
     1
290
     0
176
     1
 93
        1
176
     1
 44
0.0
176
     1
173
     0
176
     1
  0
VISUALSTYLE
  5
30
102
{ACAD_REACTORS
330
2A
102
}
330
2A
100
AcDbVisualStyle
  2
3dWireframe
 70
     5
177
     2
291
     0
 71
     0
176
     1
 72
     2
176
     1
 73
     0
176
     1
 90
        0
176
     1
 40
-0.6
176
     1
 41
-30.0
176
     1
 62
     5
 63
     7
421
 16777215
176
     1
 74
     1
176
     1
 91
        4
176
     1
 64
     7
176
     1
 65
   257
176
     1
 75
     1
176
     1
175
     1
176
     1
 42
1.0
176
     1
 92
        0
176
     1
 66
   257
176
     1
 43
1.0
176
     1
 76
     1
176
     1
 77
     6
176
     1
 78
     2
176
     1
 67
     7
176
     1
 79
     5
176
     1
170
     0
176
     1
171
     0
176
     1
290
     0
176
     1
 93
        1
176
     1
 44
0.0
176
     1
173
     0
176
     1
  0
VISUALSTYLE
  5
32
102
{ACAD_REACTORS
330
2A
102
}
330
2A
100
AcDbVisualStyle
  2
Basic
 70
     7
177
     2
291
     1
 71
     1
176
     1
 72
     0
176
     1
 73
     1
176
     1
 90
        0
176
     1
 40
-0.6
176
     1
 41
-30.0
176
     1
 62
     5
 63
     7
421
 16777215
176
     1
 74
     0
176
     1
 91
        4
176
     1
 64
     7
176
     1
 65
   257
176
     1
 75
     1
176
     1
175
     1
176
     1
 42
1.0
176
     1
 92
        8
176
     1
 66
     7
176
     1
 43
1.0
176
     1
 76
     1
176
     1
 77
     6
176
     1
 78
     2
176
     1
 67
     7
176
     1
 79
     5
176
     1
170
     0
176
     1
171
     0
176
     1
290
     0
176
     1
 93
        1
176
     1
 44
0.0
176
     1
173
     0
176
     1
  0
VISUALSTYLE
  5
36
102
{ACAD_REACTORS
330
2A
102
}
330
2A
100
AcDbVisualStyle
  2
Brighten
 70
    12
177
     2
291
     1
 71
     2
176
     1
 72
     2
176
     1
 73
     0
176
     1
 90
        0
176
     1
 40
-0.6
176
     1
 41
-30.0
176
     1
 62
     5
 63
     7
421
 16777215
176
     1
 74
     1
176
     1
 91
        4
176
     1
 64
     7
176
     1
 65
   257
176
     1
 75
     1
176
     1
175
     1
176
     1
 42
1.0
176
     1
 92
        8
176
     1
 66
     7
176
     1
 43
1.0
176
     1
 76
     1
176
     1
 77
     6
176
     1
 78
     2
176
     1
 67
     7
176
     1
 79
     5
176
     1
170
     0
176
     1
171
     0
176
     1
290
     0
176
     1
 93
        1
176
     1
 44
50.0
176
     1
173
     0
176
     1
  0
VISUALSTYLE
  5
3A
102
{ACAD_REACTORS
330
2A
102
}
330
2A
100
AcDbVisualStyle
  2
ColorChange
 70
    16
177
     2
291
     1
 71
     2
176
     1
 72
     2
176
     1
 73
     3
176
     1
 90
        0
176
     1
 40
-0.6
176
     1
 41
-30.0
176
     1
 62
     5
 63
     8
421
  8421504
176
     1
 74
     1
176
     1
 91
        4
176
     1
 64
     7
176
     1
 65
   257
176
     1
 75
     1
176
     1
175
     1
176
     1
 42
1.0
176
     1
 92
        8
176
     1
 66
     8
424
  8421504
176
     1
 43
1.0
176
     1
 76
     1
176
     1
 77
     6
176
     1
 78
     2
176
     1
 67
     7
176
     1
 79
     5
176
     1
170
     0
176
     1
171
     0
176
     1
290
     0
176
     1
 93
        1
176
     1
 44
0.0
176
     1
173
     0
176
     1
  0
VISUALSTYLE
  5
34
102
{ACAD_REACTORS
330
2A
102
}
330
2A
100
AcDbVisualStyle
  2
Conceptual
 70
     9
177
     2
291
     0
 71
     3
176
     1
 72
     2
176
     1
 73
     0
176
     1
 90
        0
176
     1
 40
-0.6
176
     1
 41
-30.0
176
     1
 62
     5
 63
     7
421
 16777215
176
     1
 74
     2
176
     1
 91
        2
176
     1
 64
     7
176
     1
 65
   257
176
     1
 75
     1
176
     1
175
     1
176
     1
 42
40.0
176
     1
 92
        8
176
     1
 66
     7
176
     1
 43
1.0
176
     1
 76
     1
176
     1
 77
     6
176
     1
 78
     2
176
     1
 67
     7
176
     1
 79
     3
176
     1
170
     0
176
     1
171
     0
176
     1
290
     0
176
     1
 93
        1
176
     1
 44
0.0
176
     1
173
     0
176
     1
  0
VISUALSTYLE
  5
35
102
{ACAD_REACTORS
330
2A
102
}
330
2A
100
AcDbVisualStyle
  2
Dim
 70
    11
177
     2
291
     1
 71
     2
176
     1
 72
     2
176
     1
 73
     0
176
     1
 90
        0
176
     1
 40
-0.6
176
     1
 41
-30.0
176
     1
 62
     5
 63
     7
421
 16777215
176
     1
 74
     1
176
     1
 91
        4
176
     1
 64
     7
176
     1
 65
   257
176
     1
 75
     1
176
     1
175
     1
176
     1
 42
1.0
176
     1
 92
        8
176
     1
 66
     7
176
     1
 43
1.0
176
     1
 76
     1
176
     1
 77
     6
176
     1
 78
     2
176
     1
 67
     7
176
     1
 79
     5
176
     1
170
     0
176
     1
171
     0
176
     1
290
     0
176
     1
 93
        1
176
     1
 44
-50.0
176
     1
173
     0
176
     1
  0
VISUALSTYLE
  5
39
102
{ACAD_REACTORS
330
2A
102
}
330
2A
100
AcDbVisualStyle
  2
Facepattern
 70
    15
177
     2
291
     1
 71
     2
176
     1
 72
     2
176
     1
 73
     0
176
     1
 90
        0
176
     1
 40
-0.6
176
     1
 41
-30.0
176
     1
 62
     5
 63
     7
421
 16777215
176
     1
 74
     1
176
     1
 91
        4
176
     1
 64
     7
176
     1
 65
   257
176
     1
 75
     1
176
     1
175
     1
176
     1
 42
1.0
176
     1
 92
        8
176
     1
 66
     7
176
     1
 43
1.0
176
     1
 76
     1
176
     1
 77
     6
176
     1
 78
     2
176
     1
 67
     7
176
     1
 79
     5
176
     1
170
     0
176
     1
171
     0
176
     1
290
     0
176
     1
 93
        1
176
     1
 44
0.0
176
     1
173
     0
176
     1
  0
VISUALSTYLE
  5
2B
102
{ACAD_REACTORS
330
2A
102
}
330
2A
100
AcDbVisualStyle
  2
Flat
 70
     0
177
     2
291
     1
 71
     2
176
     1
 72
     1
176
     1
 73
     1
176
     1
 90
        2
176
     1
 40
-0.6
176
     1
 41
30.0
176
     1
 62
     5
 63
     7
421
 16777215
176
     1
 74
     0
176
     1
 91
        4
176
     1
 64
     7
176
     1
 65
   257
176
     1
 75
     1
176
     1
175
     1
176
     1
 42
1.0
176
     1
 92
        8
176
     1
 66
     7
176
     1
 43
1.0
176
     1
 76
     1
176
     1
 77
     6
176
     1
 78
     2
176
     1
 67
     7
176
     1
 79
     5
176
     1
170
     0
176
     1
171
     0
176
     1
290
     0
176
     1
 93
       13
176
     1
 44
0.0
176
     1
173
     0
176
     1
  0
VISUALSTYLE
  5
2C
102
{ACAD_REACTORS
330
2A
102
}
330
2A
100
AcDbVisualStyle
  2
FlatWithEdges
 70
     1
177
     2
291
     1
 71
     2
176
     1
 72
     1
176
     1
 73
     1
176
     1
 90
        2
176
     1
 40
-0.6
176
     1
 41
30.0
176
     1
 62
     5
 63
     7
421
 16777215
176
     1
 74
     1
176
     1
 91
        4
176
     1
 64
     7
176
     1
 65
   257
176
     1
 75
     1
176
     1
175
     1
176
     1
 42
1.0
176
     1
 92
        0
176
     1
 66
   257
176
     1
 43
1.0
176
     1
 76
     1
176
     1
 77
     6
176
     1
 78
     2
176
     1
 67
     7
176
     1
 79
     5
176
     1
170
     0
176
     1
171
     0
176
     1
290
     0
176
     1
 93
       13
176
     1
 44
0.0
176
     1
173
     0
176
     1
  0
VISUALSTYLE
  5
2D
102
{ACAD_REACTORS
330
2A
102
}
330
2A
100
AcDbVisualStyle
  2
Gouraud
 70
     2
177
     2
291
     1
 71
     2
176
     1
 72
     2
176
     1
 73
     1
176
     1
 90
        2
176
     1
 40
-0.6
176
     1
 41
30.0
176
     1
 62
     5
 63
     7
421
 16777215
176
     1
 74
     0
176
     1
 91
        4
176
     1
 64
     7
176
     1
 65
   257
176
     1
 75
     1
176
     1
175
     1
176
     1
 42
1.0
176
     1
 92
        0
176
     1
 66
     7
176
     1
 43
1.0
176
     1
 76
     1
176
     1
 77
     6
176
     1
 78
     2
176
     1
 67
     7
176
     1
 79
     5
176
     1
170
     0
176
     1
171
     0
176
     1
290
     0
176
     1
 93
       13
176
     1
 44
0.0
176
     1
173
     0
176
     1
  0
VISUALSTYLE
  5
2E
102
{ACAD_REACTORS
330
2A
102
}
330
2A
100
AcDbVisualStyle
  2
GouraudWithEdges
 70
     3
177
     2
291
     1
 71
     2
176
     1
 72
     2
176
     1
 73
     1
176
     1
 90
        2
176
     1
 40
-0.6
176
     1
 41
30.0
176
     1
 62
     5
 63
     7
421
 16777215
176
     1
 74
     1
176
     1
 91
        4
176
     1
 64
     7
176
     1
 65
   257
176
     1
 75
     1
176
     1
175
     1
176
     1
 42
1.0
176
     1
 92
        0
176
     1
 66
   257
176
     1
 43
1.0
176
     1
 76
     1
176
     1
 77
     6
176
     1
 78
     2
176
     1
 67
     7
176
     1
 79
     5
176
     1
170
     0
176
     1
171
     0
176
     1
290
     0
176
     1
 93
       13
176
     1
 44
0.0
176
     1
173
     0
176
     1
  0
VISUALSTYLE
  5
38
102
{ACAD_REACTORS
330
2A
102
}
330
2A
100
AcDbVisualStyle
  2
Linepattern
 70
    14
177
     2
291
     1
 71
     2
176
     1
 72
     2
176
     1
 73
     0
176
     1
 90
        0
176
     1
 40
-0.6
176
     1
 41
-30.0
176
     1
 62
     5
 63
     7
421
 16777215
176
     1
 74
     1
176
     1
 91
        4
176
     1
 64
     7
176
     1
 65
   257
176
     1
 75
     7
176
     1
175
     7
176
     1
 42
1.0
176
     1
 92
        8
176
     1
 66
     7
176
     1
 43
1.0
176
     1
 76
     1
176
     1
 77
     6
176
     1
 78
     2
176
     1
 67
     7
176
     1
 79
     5
176
     1
170
     0
176
     1
171
     0
176
     1
290
     0
176
     1
 93
        1
176
     1
 44
0.0
176
     1
173
     0
176
     1
  0
VISUALSTYLE
  5
33
102
{ACAD_REACTORS
330
2A
102
}
330
2A
100
AcDbVisualStyle
  2
Realistic
 70
     8
177
     2
291
     0
 71
     2
176
     1
 72
     2
176
     1
 73
     0
176
     1
 90
        0
176
     1
 40
-0.6
176
     1
 41
-30.0
176
     1
 62
     5
 63
     7
421
 16777215
176
     1
 74
     1
176
     1
 91
        0
176
     1
 64
     7
176
     1
 65
   257
176
     1
 75
     1
176
     1
175
     1
176
     1
 42
1.0
176
     1
 92
        8
176
     1
 66
     8
424
  7895160
176
     1
 43
1.0
176
     1
 76
     1
176
     1
 77
     6
176
     1
 78
     2
176
     1
 67
     7
176
     1
 79
     5
176
     1
170
     0
176
     1
171
     0
176
     1
290
     0
176
     1
 93
       13
176
     1
 44
0.0
176
     1
173
     0
176
     1
  0
VISUALSTYLE
  5
37
102
{ACAD_REACTORS
330
2A
102
}
330
2A
100
AcDbVisualStyle
  2
Thicken
 70
    13
177
     2
291
     1
 71
     2
176
     1
 72
     2
176
     1
 73
     0
176
     1
 90
        0
176
     1
 40
-0.6
176
     1
 41
-30.0
176
     1
 62
     5
 63
     7
421
 16777215
176
     1
 74
     1
176
     1
 91
        4
176
     1
 64
     7
176
     1
 65
   257
176
     1
 75
     1
176
     1
175
     1
176
     1
 42
1.0
176
     1
 92
       12
176
     1
 66
     7
176
     1
 43
1.0
176
     1
 76
     1
176
     1
 77
     6
176
     1
 78
     2
176
     1
 67
     7
176
     1
 79
     5
176
     1
170
     0
176
     1
171
     0
176
     1
290
     0
176
     1
 93
        1
176
     1
 44
0.0
176
     1
173
     0
176
     1
  0
ENDSEC
  0
EOF
