  0
SECTION
  2
HEADER
  9
$ACADVER
  1
AC1024
  9
$ACADMAINTVER
 70
     6
  9
$DWGCODEPAGE
  3
UNDEFINED
  9
$INSBASE
 10
0.0
 20
0.0
 30
0.0
  9
$EXTMIN
 10
1.000000000000000E+20
 20
1.000000000000000E+20
 30
1.000000000000000E+20
  9
$EXTMAX
 10
-1.000000000000000E+20
 20
-1.000000000000000E+20
 30
-1.000000000000000E+20
  9
$LIMMIN
 10
0.0
 20
0.0
  9
$LIMMAX
 10
12.0
 20
9.0
  9
$ORTHOMODE
 70
     0
  9
$REGENMODE
 70
     1
  9
$FILLMODE
 70
     1
  9
$QTEXTMODE
 70
     0
  9
$MIRRTEXT
 70
     1
  9
$LTSCALE
 40
1.0
  9
$ATTMODE
 70
     1
  9
$TEXTSIZE
 40
0.2
  9
$TRACEWID
 40
0.05
  9
$TEXTSTYLE
  7
Standard
  9
$CLAYER
  8
0
  9
$CELTYPE
  6
ByLayer
  9
$CECOLOR
 62
   256
  9
$CELTSCALE
 40
1.0
  9
$DISPSILH
 70
     0
  9
$DIMSCALE
 40
1.0
  9
$DIMASZ
 40
0.18
  9
$DIMEXO
 40
0.0625
  9
$DIMDLI
 40
0.38
  9
$DIMRND
 40
0.0
  9
$DIMDLE
 40
0.0
  9
$DIMEXE
 40
0.18
  9
$DIMTP
 40
0.0
  9
$DIMTM
 40
0.0
  9
$DIMTXT
 40
0.18
  9
$DIMCEN
 40
0.09
  9
$DIMTSZ
 40
0.0
  9
$DIMTOL
 70
     0
  9
$DIMLIM
 70
     0
  9
$DIMTIH
 70
     1
  9
$DIMTOH
 70
     1
  9
$DIMSE1
 70
     0
  9
$DIMSE2
 70
     0
  9
$DIMTAD
 70
     0
  9
$DIMZIN
 70
     0
  9
$DIMBLK
  1

  9
$DIMASO
 70
     1
  9
$DIMSHO
 70
     1
  9
$DIMPOST
  1

  9
$DIMAPOST
  1

  9
$DIMALT
 70
     0
  9
$DIMALTD
 70
     2
  9
$DIMALTF
 40
25.4
  9
$DIMLFAC
 40
1.0
  9
$DIMTOFL
 70
     0
  9
$DIMTVP
 40
0.0
  9
$DIMTIX
 70
     0
  9
$DIMSOXD
 70
     0
  9
$DIMSAH
 70
     0
  9
$DIMBLK1
  1

  9
$DIMBLK2
  1

  9
$DIMSTYLE
  2
Standard
  9
$DIMCLRD
 70
     0
  9
$DIMCLRE
 70
     0
  9
$DIMCLRT
 70
     0
  9
$DIMTFAC
 40
1.0
  9
$DIMGAP
 40
0.09
  9
$DIMJUST
 70
     0
  9
$DIMSD1
 70
     0
  9
$DIMSD2
 70
     0
  9
$DIMTOLJ
 70
     1
  9
$DIMTZIN
 70
     0
  9
$DIMALTZ
 70
     0
  9
$DIMALTTZ
 70
     0
  9
$DIMUPT
 70
     0
  9
$DIMDEC
 70
     4
  9
$DIMTDEC
 70
     4
  9
$DIMALTU
 70
     2
  9
$DIMALTTD
 70
     2
  9
$DIMTXSTY
  7
Standard
  9
$DIMAUNIT
 70
     0
  9
$DIMADEC
 70
     0
  9
$DIMALTRND
 40
0.0
  9
$DIMAZIN
 70
     0
  9
$DIMDSEP
 70
    46
  9
$DIMATFIT
 70
     3
  9
$DIMFRAC
 70
     0
  9
$DIMLDRBLK
  1

  9
$DIMLUNIT
 70
     2
  9
$DIMLWD
 70
    -2
  9
$DIMLWE
 70
    -2
  9
$DIMTMOVE
 70
     0
  9
$DIMFXL
 40
1.0
  9
$DIMFXLON
 70
     0
  9
$DIMJOGANG
 40
0.7853981633974483
  9
$DIMTFILL
 70
     0
  9
$DIMTFILLCLR
 70
     0
  9
$DIMARCSYM
 70
     0
  9
$DIMLTYPE
  6

  9
$DIMLTEX1
  6

  9
$DIMLTEX2
  6

  9
$DIMTXTDIRECTION
 70
     0
  9
$LUNITS
 70
     2
  9
$LUPREC
 70
     4
  9
$SKETCHINC
 40
0.1
  9
$FILLETRAD
 40
0.5
  9
$AUNITS
 70
     0
  9
$AUPREC
 70
     0
  9
$MENU
  1
.
  9
$ELEVATION
 40
0.0
  9
$PELEVATION
 40
0.0
  9
$THICKNESS
 40
0.0
  9
$LIMCHECK
 70
     0
  9
$CHAMFERA
 40
0.5
  9
$CHAMFERB
 40
0.5
  9
$CHAMFERC
 40
1.0
  9
$CHAMFERD
 40
0.0
  9
$SKPOLY
 70
     0
  9
$TDCREATE
 40
2457917.619120371
  9
$TDUCREATE
 40
2457917.244120371
  9
$TDUPDATE
 40
2457917.619120371
  9
$TDUUPDATE
 40
2457917.244120371
  9
$TDINDWG
 40
0.0000000116
  9
$TDUSRTIMER
 40
0.0000000116
  9
$USRTIMER
 70
     1
  9
$ANGBASE
 50
0.0
  9
$ANGDIR
 70
     0
  9
$PDMODE
 70
     0
  9
$PDSIZE
 40
0.0
  9
$PLINEWID
 40
0.0
  9
$SPLFRAME
 70
     0
  9
$SPLINETYPE
 70
     6
  9
$SPLINESEGS
 70
     8
  9
$HANDSEED
  5
DA
  9
$SURFTAB1
 70
     6
  9
$SURFTAB2
 70
     6
  9
$SURFTYPE
 70
     6
  9
$SURFU
 70
     6
  9
$SURFV
 70
     6
  9
$UCSBASE
  2

  9
$UCSNAME
  2

  9
$UCSORG
 10
0.0
 20
0.0
 30
0.0
  9
$UCSXDIR
 10
1.0
 20
0.0
 30
0.0
  9
$UCSYDIR
 10
0.0
 20
1.0
 30
0.0
  9
$UCSORTHOREF
  2

  9
$UCSORTHOVIEW
 70
     0
  9
$UCSORGTOP
 10
0.0
 20
0.0
 30
0.0
  9
$UCSORGBOTTOM
 10
0.0
 20
0.0
 30
0.0
  9
$UCSORGLEFT
 10
0.0
 20
0.0
 30
0.0
  9
$UCSORGRIGHT
 10
0.0
 20
0.0
 30
0.0
  9
$UCSORGFRONT
 10
0.0
 20
0.0
 30
0.0
  9
$UCSORGBACK
 10
0.0
 20
0.0
 30
0.0
  9
$PUCSBASE
  2

  9
$PUCSNAME
  2

  9
$PUCSORG
 10
0.0
 20
0.0
 30
0.0
  9
$PUCSXDIR
 10
1.0
 20
0.0
 30
0.0
  9
$PUCSYDIR
 10
0.0
 20
1.0
 30
0.0
  9
$PUCSORTHOREF
  2

  9
$PUCSORTHOVIEW
 70
     0
  9
$PUCSORGTOP
 10
0.0
 20
0.0
 30
0.0
  9
$PUCSORGBOTTOM
 10
0.0
 20
0.0
 30
0.0
  9
$PUCSORGLEFT
 10
0.0
 20
0.0
 30
0.0
  9
$PUCSORGRIGHT
 10
0.0
 20
0.0
 30
0.0
  9
$PUCSORGFRONT
 10
0.0
 20
0.0
 30
0.0
  9
$PUCSORGBACK
 10
0.0
 20
0.0
 30
0.0
  9
$USERI1
 70
     0
  9
$USERI2
 70
     0
  9
$USERI3
 70
     0
  9
$USERI4
 70
     0
  9
$USERI5
 70
     0
  9
$USERR1
 40
0.0
  9
$USERR2
 40
0.0
  9
$USERR3
 40
0.0
  9
$USERR4
 40
0.0
  9
$USERR5
 40
0.0
  9
$WORLDVIEW
 70
     1
  9
$SHADEDGE
 70
     3
  9
$SHADEDIF
 70
    70
  9
$TILEMODE
 70
     1
  9
$MAXACTVP
 70
    64
  9
$PINSBASE
 10
0.0
 20
0.0
 30
0.0
  9
$PLIMCHECK
 70
     0
  9
$PEXTMIN
 10
1.000000000000000E+20
 20
1.000000000000000E+20
 30
1.000000000000000E+20
  9
$PEXTMAX
 10
-1.000000000000000E+20
 20
-1.000000000000000E+20
 30
-1.000000000000000E+20
  9
$PLIMMIN
 10
0.0
 20
0.0
  9
$PLIMMAX
 10
12.0
 20
9.0
  9
$UNITMODE
 70
     0
  9
$VISRETAIN
 70
     1
  9
$PLINEGEN
 70
     0
  9
$PSLTSCALE
 70
     1
  9
$TREEDEPTH
 70
  3020
  9
$CMLSTYLE
  2
Standard
  9
$CMLJUST
 70
     0
  9
$CMLSCALE
 40
1.0
  9
$PROXYGRAPHICS
 70
     1
  9
$MEASUREMENT
 70
     0
  9
$CELWEIGHT
370
    -1
  9
$ENDCAPS
280
     0
  9
$JOINSTYLE
280
     0
  9
$LWDISPLAY
290
     1
  9
$INSUNITS
 70
     1
  9
$HYPERLINKBASE
  1

  9
$STYLESHEET
  1

  9
$XEDIT
290
     1
  9
$CEPSNTYPE
380
     0
  9
$PSTYLEMODE
290
     1
  9
$FINGERPRINTGUID
  2
{9F41B9D1-1507-8487-0585-4ABD14953F74}
  9
$VERSIONGUID
  2
{FAEB1C32-E019-11D5-929B-00C0DF256EC4}
  9
$EXTNAMES
290
     1
  9
$PSVPSCALE
 40
0.0
  9
$OLESTARTUP
290
     0
  9
$SORTENTS
280
   127
  9
$INDEXCTL
280
     0
  9
$HIDETEXT
280
     1
  9
$XCLIPFRAME
280
     2
  9
$HALOGAP
280
     0
  9
$OBSCOLOR
 70
   257
  9
$OBSLTYPE
280
     0
  9
$INTERSECTIONDISPLAY
280
     0
  9
$INTERSECTIONCOLOR
 70
   257
  9
$DIMASSOC
280
     2
  9
$PROJECTNAME
  1

  9
$CAMERADISPLAY
290
     0
  9
$LENSLENGTH
 40
50.0
  9
$CAMERAHEIGHT
 40
0.0
  9
$STEPSPERSEC
 40
2.0
  9
$STEPSIZE
 40
6.0
  9
$3DDWFPREC
 40
2.0
  9
$PSOLWIDTH
 40
0.25
  9
$PSOLHEIGHT
 40
4.0
  9
$LOFTANG1
 40
1.570796326794897
  9
$LOFTANG2
 40
1.570796326794897
  9
$LOFTMAG1
 40
0.0
  9
$LOFTMAG2
 40
0.0
  9
$LOFTPARAM
 70
     7
  9
$LOFTNORMALS
280
     1
  9
$LATITUDE
 40
37.795
  9
$LONGITUDE
 40
-122.394
  9
$NORTHDIRECTION
 40
0.0
  9
$TIMEZONE
 70
 -8000
  9
$LIGHTGLYPHDISPLAY
280
     1
  9
$TILEMODELIGHTSYNCH
280
     1
  9
$CMATERIAL
347
3C
  9
$SOLIDHIST
280
     1
  9
$SHOWHIST
280
     1
  9
$DWFFRAME
280
     2
  9
$DGNFRAME
280
     2
  9
$REALWORLDSCALE
290
     1
  9
$INTERFERECOLOR
 62
   256
  9
$CSHADOW
280
     0
  9
$SHADOWPLANELOCATION
 40
0.0
  0
ENDSEC
  0
SECTION
  2
CLASSES
  0
CLASS
  1
ACDBDICTIONARYWDFLT
  2
AcDbDictionaryWithDefault
  3
ObjectDBX Classes
 90
        0
 91
        4
280
     0
281
     0
  0
CLASS
  1
VISUALSTYLE
  2
AcDbVisualStyle
  3
ObjectDBX Classes
 90
     4095
 91
        4
280
     0
281
     0
  0
CLASS
  1
MATERIAL
  2
AcDbMaterial
  3
ObjectDBX Classes
 90
     1153
 91
        4
280
     0
281
     0
  0
CLASS
  1
SUN
  2
AcDbSun
  3
SCENEOE
 90
     1024
 91
        4
280
     0
281
     0
  0
ENDSEC
  0
SECTION
  2
TABLES
  0
TABLE
  2
VPORT
  5
8
330
0
100
AcDbSymbolTable
 70
     1
  0
VPORT
  5
29
330
8
100
AcDbSymbolTableRecord
100
AcDbViewportTableRecord
  2
*Active
 70
     0
 10
0.0
 20
0.0
 11
1.0
 21
1.0
 12
0.0
 22
0.0
 13
0.0
 23
0.0
 14
0.5
 24
0.5
 15
0.5
 25
0.5
 16
0.0
 26
0.0
 36
1.0
 17
91.00082462281999
 27
-128.4993055234307
 37
0.0
 40
256.9986110468615
 41
0.7081814508812795
 42
50.0
 43
0.0
 44
0.0
 50
0.0
 51
0.0
 71
     0
 72
   100
 73
     1
 74
     3
 75
     0
 76
     0
 77
     0
 78
     0
281
     0
 65
     1
110
0.0
120
0.0
130
0.0
111
1.0
121
0.0
131
0.0
112
0.0
122
1.0
132
0.0
 79
     0
146
0.0
 60
     3
 61
     5
292
     1
282
     1
141
0.0
142
0.0
 63
   250
361
3F
  0
ENDTAB
  0
TABLE
  2
LTYPE
  5
5
330
0
100
AcDbSymbolTable
 70
     1
  0
LTYPE
  5
14
330
5
100
AcDbSymbolTableRecord
100
AcDbLinetypeTableRecord
  2
ByBlock
 70
     0
  3

 72
    65
 73
     0
 40
0.0
  0
LTYPE
  5
15
330
5
100
AcDbSymbolTableRecord
100
AcDbLinetypeTableRecord
  2
ByLayer
 70
     0
  3

 72
    65
 73
     0
 40
0.0
  0
LTYPE
  5
16
330
5
100
AcDbSymbolTableRecord
100
AcDbLinetypeTableRecord
  2
Continuous
 70
     0
  3
Solid line
 72
    65
 73
     0
 40
0.0
  0
ENDTAB
  0
TABLE
  2
LAYER
  5
2
330
0
100
AcDbSymbolTable
 70
     2
  0
LAYER
  5
10
330
2
100
AcDbSymbolTableRecord
100
AcDbLayerTableRecord
  2
0
 70
     0
 62
     7
  6
Continuous
370
    -3
390
F
347
3E
  0
LAYER
  5
40
330
2
100
AcDbSymbolTableRecord
100
AcDbLayerTableRecord
  2
_U+30EC_U+30A4_U+30E4_U+30FC 1
 70
     0
 62
     7
  6
Continuous
370
    -3
390
F
347
3E
  0
ENDTAB
  0
TABLE
  2
STYLE
  5
3
330
0
100
AcDbSymbolTable
 70
     1
  0
STYLE
  5
11
330
3
100
AcDbSymbolTableRecord
100
AcDbTextStyleTableRecord
  2
Standard
 70
     0
 40
0.0
 41
1.0
 50
0.0
 71
     0
 42
0.2
  3
txt
  4

  0
ENDTAB
  0
TABLE
  2
VIEW
  5
6
330
0
100
AcDbSymbolTable
 70
     0
  0
ENDTAB
  0
TABLE
  2
UCS
  5
7
330
0
100
AcDbSymbolTable
 70
     0
  0
ENDTAB
  0
TABLE
  2
APPID
  5
9
330
0
100
AcDbSymbolTable
 70
     1
  0
APPID
  5
12
330
9
100
AcDbSymbolTableRecord
100
AcDbRegAppTableRecord
  2
ACAD
 70
     0
  0
ENDTAB
  0
TABLE
  2
DIMSTYLE
  5
A
330
0
100
AcDbSymbolTable
 70
     1
100
AcDbDimStyleTable
  0
DIMSTYLE
105
27
330
A
100
AcDbSymbolTableRecord
100
AcDbDimStyleTableRecord
  2
Standard
 70
     0
178
     0
340
11
  0
ENDTAB
  0
TABLE
  2
BLOCK_RECORD
  5
1
330
0
100
AcDbSymbolTable
 70
     6
  0
BLOCK_RECORD
  5
1F
330
1
100
AcDbSymbolTableRecord
100
AcDbBlockTableRecord
  2
*Model_Space
340
22
 70
     0
280
     1
281
     0
  0
BLOCK_RECORD
  5
1B
330
1
100
AcDbSymbolTableRecord
100
AcDbBlockTableRecord
  2
*Paper_Space
340
1E
 70
     0
280
     1
281
     0
  0
BLOCK_RECORD
  5
23
330
1
100
AcDbSymbolTableRecord
100
AcDbBlockTableRecord
  2
*Paper_Space0
340
26
 70
     0
280
     1
281
     0
  0
BLOCK_RECORD
  5
5D
330
1
100
AcDbSymbolTableRecord
100
AcDbBlockTableRecord
  2
block 2
340
0
102
{BLKREFS
331
5E
102
}
 70
     0
280
     1
281
     0
  0
BLOCK_RECORD
  5
7A
330
1
100
AcDbSymbolTableRecord
100
AcDbBlockTableRecord
  2
block 3
340
0
102
{BLKREFS
331
7B
102
}
 70
     0
280
     1
281
     0
  0
BLOCK_RECORD
  5
A5
330
1
100
AcDbSymbolTableRecord
100
AcDbBlockTableRecord
  2
block 4
340
0
102
{BLKREFS
331
A6
102
}
 70
     0
280
     1
281
     0
  0
BLOCK_RECORD
  5
B6
330
1
100
AcDbSymbolTableRecord
100
AcDbBlockTableRecord
  2
block 5
340
0
102
{BLKREFS
331
B7
102
}
 70
     0
280
     1
281
     0
  0
BLOCK_RECORD
  5
D2
330
1
100
AcDbSymbolTableRecord
100
AcDbBlockTableRecord
  2
block 6
340
0
102
{BLKREFS
331
D3
102
}
 70
     0
280
     1
281
     0
  0
ENDTAB
  0
ENDSEC
  0
SECTION
  2
BLOCKS
  0
BLOCK
  5
20
330
1F
100
AcDbEntity
  8
0
100
AcDbBlockBegin
  2
*Model_Space
 70
     0
 10
0.0
 20
0.0
 30
0.0
  3
*Model_Space
  1

  0
ENDBLK
  5
21
330
1F
100
AcDbEntity
  8
0
100
AcDbBlockEnd
  0
BLOCK
  5
1C
330
1B
100
AcDbEntity
 67
     1
  8
0
100
AcDbBlockBegin
  2
*Paper_Space
 70
     0
 10
0.0
 20
0.0
 30
0.0
  3
*Paper_Space
  1

  0
ENDBLK
  5
1D
330
1B
100
AcDbEntity
 67
     1
  8
0
100
AcDbBlockEnd
  0
BLOCK
  5
24
330
23
100
AcDbEntity
  8
0
100
AcDbBlockBegin
  2
*Paper_Space0
 70
     0
 10
0.0
 20
0.0
 30
0.0
  3
*Paper_Space0
  1

  0
ENDBLK
  5
25
330
23
100
AcDbEntity
  8
0
100
AcDbBlockEnd
  0
BLOCK
  5
5F
330
5D
100
AcDbEntity
  8
0
100
AcDbBlockBegin
  2
block 2
 70
     0
 10
0.0
 20
0.0
 30
0.0
  3
block 2
  1

  0
SPLINE
  5
61
330
5D
100
AcDbEntity
  8
_U+30EC_U+30A4_U+30E4_U+30FC 1
370
     0
100
AcDbSpline
210
0.0
220
0.0
230
1.0
 70
    11
 71
     3
 72
    32
 73
    28
 74
     0
 42
0.0000000001
 43
0.0000000001
 12
1.0
 22
0.0
 32
0.0
 13
1.0
 23
0.0
 33
0.0
 40
0.0
 40
0.0
 40
0.0
 40
0.0
 40
1.0
 40
1.0
 40
1.0
 40
2.0
 40
2.0
 40
2.0
 40
3.0
 40
3.0
 40
3.0
 40
4.0
 40
4.0
 40
4.0
 40
5.0
 40
5.0
 40
5.0
 40
6.0
 40
6.0
 40
6.0
 40
7.0
 40
7.0
 40
7.0
 40
8.0
 40
8.0
 40
8.0
 40
9.0
 40
9.0
 40
9.0
 40
9.0
 10
83.76904701681816
 20
-130.5877224065892
 30
0.0
 10
83.76904701681816
 20
-130.7730685436956
 30
0.0
 10
83.6994560880161
 20
-131.0352403101231
 30
0.0
 10
83.36734888323802
 20
-131.0758924368491
 30
0.0
 10
83.36734888323802
 20
-131.0758924368491
 30
0.0
 10
83.36734888323802
 20
-130.8478271157256
 30
0.0
 10
83.36734888323802
 20
-130.8478271157256
 30
0.0
 10
83.42660452558432
 20
-130.8364583006242
 30
0.0
 10
83.57439912190155
 20
-130.8023518553202
 30
0.0
 10
83.57439912190155
 20
-130.5853108397495
 30
0.0
 10
83.57439912190155
 20
-130.2735296983344
 30
0.0
 10
83.24435897441461
 20
-130.2328775716084
 30
0.0
 10
83.03937579304224
 20
-130.2190971896675
 30
0.0
 10
83.11964651784857
 20
-130.3162488823515
 30
0.0
 10
83.17683510290371
 20
-130.3885958875418
 30
0.0
 10
83.17683510290371
 20
-130.5832437824584
 30
0.0
 10
83.17683510290371
 20
-130.7754801105353
 30
0.0
 10
83.07107067150655
 20
-131.0986300670517
 30
0.0
 10
82.66489391379558
 20
-131.0986300670517
 30
0.0
 10
82.34553356231292
 20
-131.0986300670517
 30
0.0
 10
82.12539196080546
 20
-130.8860676756118
 30
0.0
 10
82.12539196080546
 20
-130.5470702798632
 30
0.0
 10
82.12539196080546
 20
-129.9975775499659
 30
0.0
 10
82.67970782438216
 20
-129.9862087348646
 30
0.0
 10
82.89330374446764
 20
-129.9862087348646
 30
0.0
 10
83.12378063243087
 20
-129.9862087348646
 30
0.0
 10
83.76904701681816
 20
-130.0065347982275
 30
0.0
 10
83.76904701681816
 20
-130.5877224065892
 30
0.0
  0
SPLINE
  5
62
330
5D
100
AcDbEntity
  8
_U+30EC_U+30A4_U+30E4_U+30FC 1
370
     0
100
AcDbSpline
210
0.0
220
0.0
230
1.0
 70
    11
 71
     3
 72
    17
 73
    13
 74
     0
 42
0.0000000001
 43
0.0000000001
 12
1.0
 22
0.0
 32
0.0
 13
1.0
 23
0.0
 33
0.0
 40
0.0
 40
0.0
 40
0.0
 40
0.0
 40
1.0
 40
1.0
 40
1.0
 40
2.0
 40
2.0
 40
2.0
 40
3.0
 40
3.0
 40
3.0
 40
4.0
 40
4.0
 40
4.0
 40
4.0
 10
82.31797279843093
 20
-130.5446587130236
 30
0.0
 10
82.31797279843093
 20
-130.6714382268808
 30
0.0
 10
82.37516138348607
 20
-130.8588514212784
 30
0.0
 10
82.66075979921328
 20
-130.8588514212784
 30
0.0
 10
82.8871025725942
 20
-130.8588514212784
 30
0.0
 10
82.9821872079871
 20
-130.709678786767
 30
0.0
 10
82.9821872079871
 20
-130.5649847763865
 30
0.0
 10
82.9821872079871
 20
-130.2848985134357
 30
0.0
 10
82.7727254024839
 20
-130.2439018771612
 30
0.0
 10
82.65628117508246
 20
-130.2439018771612
 30
0.0
 10
82.48092581488325
 20
-130.2439018771612
 30
0.0
 10
82.31797279843093
 20
-130.3458767035247
 30
0.0
 10
82.31797279843093
 20
-130.5446587130236
 30
0.0
  0
HATCH
  5
63
330
5D
100
AcDbEntity
  8
_U+30EC_U+30A4_U+30E4_U+30FC 1
 62
   179
420
  2234388
100
AcDbHatch
 10
0.0
 20
0.0
 30
0.0
210
0.0
220
0.0
230
1.0
  2
SOLID
 70
     1
 71
     0
 91
        2
 92
        1
 93
        1
 72
     4
 94
        3
 73
     0
 74
     1
 95
       32
 96
       28
 40
0.0
 40
0.0
 40
0.0
 40
0.0
 40
1.0
 40
1.0
 40
1.0
 40
2.0
 40
2.0
 40
2.0
 40
3.0
 40
3.0
 40
3.0
 40
4.0
 40
4.0
 40
4.0
 40
5.0
 40
5.0
 40
5.0
 40
6.0
 40
6.0
 40
6.0
 40
7.0
 40
7.0
 40
7.0
 40
8.0
 40
8.0
 40
8.0
 40
9.0
 40
9.0
 40
9.0
 40
9.0
 10
83.76904701681816
 20
-130.5877224065892
 10
83.76904701681816
 20
-130.7730685436956
 10
83.6994560880161
 20
-131.0352403101231
 10
83.36734888323802
 20
-131.0758924368491
 10
83.36734888323802
 20
-131.0758924368491
 10
83.36734888323802
 20
-130.8478271157256
 10
83.36734888323802
 20
-130.8478271157256
 10
83.42660452558432
 20
-130.8364583006242
 10
83.57439912190155
 20
-130.8023518553202
 10
83.57439912190155
 20
-130.5853108397495
 10
83.57439912190155
 20
-130.2735296983344
 10
83.24435897441461
 20
-130.2328775716084
 10
83.03937579304224
 20
-130.2190971896675
 10
83.11964651784857
 20
-130.3162488823515
 10
83.17683510290371
 20
-130.3885958875418
 10
83.17683510290371
 20
-130.5832437824584
 10
83.17683510290371
 20
-130.7754801105353
 10
83.07107067150655
 20
-131.0986300670517
 10
82.66489391379558
 20
-131.0986300670517
 10
82.34553356231292
 20
-131.0986300670517
 10
82.12539196080546
 20
-130.8860676756118
 10
82.12539196080546
 20
-130.5470702798632
 10
82.12539196080546
 20
-129.9975775499659
 10
82.67970782438216
 20
-129.9862087348646
 10
82.89330374446764
 20
-129.9862087348646
 10
83.12378063243087
 20
-129.9862087348646
 10
83.76904701681816
 20
-130.0065347982275
 10
83.76904701681816
 20
-130.5877224065892
 97
        0
 97
        0
 92
        1
 93
        1
 72
     4
 94
        3
 73
     0
 74
     1
 95
       17
 96
       13
 40
0.0
 40
0.0
 40
0.0
 40
0.0
 40
1.0
 40
1.0
 40
1.0
 40
2.0
 40
2.0
 40
2.0
 40
3.0
 40
3.0
 40
3.0
 40
4.0
 40
4.0
 40
4.0
 40
4.0
 10
82.31797279843093
 20
-130.5446587130236
 10
82.31797279843093
 20
-130.6714382268808
 10
82.37516138348607
 20
-130.8588514212784
 10
82.66075979921328
 20
-130.8588514212784
 10
82.8871025725942
 20
-130.8588514212784
 10
82.9821872079871
 20
-130.709678786767
 10
82.9821872079871
 20
-130.5649847763865
 10
82.9821872079871
 20
-130.2848985134357
 10
82.7727254024839
 20
-130.2439018771612
 10
82.65628117508246
 20
-130.2439018771612
 10
82.48092581488325
 20
-130.2439018771612
 10
82.31797279843093
 20
-130.3458767035247
 10
82.31797279843093
 20
-130.5446587130236
 97
        0
 97
        0
 75
     2
 76
     1
 98
        0
  0
POLYLINE
  5
64
330
5D
100
AcDbEntity
  8
_U+30EC_U+30A4_U+30E4_U+30FC 1
370
     0
100
AcDb2dPolyline
 66
     1
 10
0.0
 20
0.0
 30
0.0
  0
VERTEX
  5
65
330
64
100
AcDbEntity
  8
_U+30EC_U+30A4_U+30E4_U+30FC 1
370
     0
100
AcDbVertex
100
AcDb2dVertex
 10
83.71840411318499
 20
-129.7550428278043
 30
0.0
  0
VERTEX
  5
66
330
64
100
AcDbEntity
  8
_U+30EC_U+30A4_U+30E4_U+30FC 1
370
     0
100
AcDbVertex
100
AcDb2dVertex
 10
83.46656763321322
 20
-129.7550428278043
 30
0.0
  0
VERTEX
  5
67
330
64
100
AcDbEntity
  8
_U+30EC_U+30A4_U+30E4_U+30FC 1
370
     0
100
AcDbVertex
100
AcDb2dVertex
 10
83.46656763321322
 20
-129.4859808704063
 30
0.0
  0
VERTEX
  5
68
330
64
100
AcDbEntity
  8
_U+30EC_U+30A4_U+30E4_U+30FC 1
370
     0
100
AcDbVertex
100
AcDb2dVertex
 10
83.71840411318499
 20
-129.4859808704063
 30
0.0
  0
VERTEX
  5
69
330
64
100
AcDbEntity
  8
_U+30EC_U+30A4_U+30E4_U+30FC 1
370
     0
100
AcDbVertex
100
AcDb2dVertex
 10
83.71840411318499
 20
-129.7550428278043
 30
0.0
  0
SEQEND
  5
6A
330
64
100
AcDbEntity
  8
_U+30EC_U+30A4_U+30E4_U+30FC 1
370
     0
  0
HATCH
  5
6B
330
5D
100
AcDbEntity
  8
_U+30EC_U+30A4_U+30E4_U+30FC 1
 62
   179
420
  2234388
100
AcDbHatch
 10
0.0
 20
0.0
 30
0.0
210
0.0
220
0.0
230
1.0
  2
SOLID
 70
     1
 71
     0
 91
        1
 92
        1
 93
        4
 72
     1
 10
83.71840411318499
 20
-129.7550428278043
 11
83.46656763321322
 21
-129.7550428278043
 72
     1
 10
83.46656763321322
 20
-129.7550428278043
 11
83.46656763321322
 21
-129.4859808704063
 72
     1
 10
83.46656763321322
 20
-129.4859808704063
 11
83.71840411318499
 21
-129.4859808704063
 72
     1
 10
83.71840411318499
 20
-129.4859808704063
 11
83.71840411318499
 21
-129.7550428278043
 97
        0
 75
     2
 76
     1
 98
        0
  0
SPLINE
  5
6C
330
5D
100
AcDbEntity
  8
_U+30EC_U+30A4_U+30E4_U+30FC 1
370
     0
100
AcDbSpline
210
0.0
220
0.0
230
1.0
 70
    11
 71
     3
 72
    53
 73
    49
 74
     0
 42
0.0000000001
 43
0.0000000001
 12
1.0
 22
0.0
 32
0.0
 13
1.0
 23
0.0
 33
0.0
 40
0.0
 40
0.0
 40
0.0
 40
0.0
 40
1.0
 40
1.0
 40
1.0
 40
2.0
 40
2.0
 40
2.0
 40
3.0
 40
3.0
 40
3.0
 40
4.0
 40
4.0
 40
4.0
 40
5.0
 40
5.0
 40
5.0
 40
6.0
 40
6.0
 40
6.0
 40
7.0
 40
7.0
 40
7.0
 40
8.0
 40
8.0
 40
8.0
 40
9.0
 40
9.0
 40
9.0
 40
10.0
 40
10.0
 40
10.0
 40
11.0
 40
11.0
 40
11.0
 40
12.0
 40
12.0
 40
12.0
 40
13.0
 40
13.0
 40
13.0
 40
14.0
 40
14.0
 40
14.0
 40
15.0
 40
15.0
 40
15.0
 40
16.0
 40
16.0
 40
16.0
 40
16.0
 10
83.76904701681816
 20
-128.7191026153897
 30
0.0
 10
83.76904701681816
 20
-128.8028184356812
 30
0.0
 10
83.75216604894044
 20
-128.9109944339181
 30
0.0
 10
83.68877629201184
 20
-129.019859451252
 30
0.0
 10
83.57887774603236
 20
-129.2052055883584
 30
0.0
 10
83.44761960804435
 20
-129.2275987090125
 30
0.0
 10
83.33978811935603
 20
-129.2479247723755
 30
0.0
 10
83.33978811935603
 20
-129.2479247723755
 30
0.0
 10
83.33978811935603
 20
-129.0105576934418
 30
0.0
 10
83.33978811935603
 20
-129.0105576934418
 30
0.0
 10
83.53857012885494
 20
-128.9519910701926
 30
0.0
 10
83.5681979500281
 20
-128.8162543080737
 30
0.0
 10
83.5681979500281
 20
-128.71669104855
 30
0.0
 10
83.5681979500281
 20
-128.5675184140387
 30
0.0
 10
83.46863469050437
 20
-128.4045653975864
 30
0.0
 10
83.23609074525001
 20
-128.4045653975864
 30
0.0
 10
82.98012015069595
 20
-128.4045653975864
 30
0.0
 10
82.91018471234537
 20
-128.5968017256633
 30
0.0
 10
82.91018471234537
 20
-128.7256482968116
 30
0.0
 10
82.91018471234537
 20
-128.7597547421156
 30
0.0
 10
82.91018471234537
 20
-128.9109944339181
 30
0.0
 10
83.03937579304224
 20
-129.006079069311
 30
0.0
 10
83.03937579304224
 20
-129.006079069311
 30
0.0
 10
83.02042776787337
 20
-129.1938367732571
 30
0.0
 10
83.02042776787337
 20
-129.1938367732571
 30
0.0
 10
83.02042776787337
 20
-129.1938367732571
 30
0.0
 10
82.17396780714748
 20
-129.0649902021088
 30
0.0
 10
82.17396780714748
 20
-129.0649902021088
 30
0.0
 10
82.17396780714748
 20
-129.0649902021088
 30
0.0
 10
82.17396780714748
 20
-128.2329996424209
 30
0.0
 10
82.17396780714748
 20
-128.2329996424209
 30
0.0
 10
82.17396780714748
 20
-128.2329996424209
 30
0.0
 10
82.3686157020641
 20
-128.2329996424209
 30
0.0
 10
82.3686157020641
 20
-128.2329996424209
 30
0.0
 10
82.3686157020641
 20
-128.2329996424209
 30
0.0
 10
82.3686157020641
 20
-128.8906683705551
 30
0.0
 10
82.3686157020641
 20
-128.8906683705551
 30
0.0
 10
82.3686157020641
 20
-128.8906683705551
 30
0.0
 10
82.79167342765278
 20
-128.9609483184542
 30
0.0
 10
82.79167342765278
 20
-128.9609483184542
 30
0.0
 10
82.75791149189733
 20
-128.8954915042345
 30
0.0
 10
82.71760387471991
 20
-128.8072970598121
 30
0.0
 10
82.71760387471991
 20
-128.6805175459549
 30
0.0
 10
82.71760387471991
 20
-128.4093885312657
 30
0.0
 10
82.90398354047193
 20
-128.1561740130998
 30
0.0
 10
83.21714272008113
 20
-128.1561740130998
 30
0.0
 10
83.53443601427264
 20
-128.1561740130998
 30
0.0
 10
83.76904701681816
 20
-128.3956081493247
 30
0.0
 10
83.76904701681816
 20
-128.7191026153897
 30
0.0
  0
HATCH
  5
6D
330
5D
100
AcDbEntity
  8
_U+30EC_U+30A4_U+30E4_U+30FC 1
 62
   179
420
  2234388
100
AcDbHatch
 10
0.0
 20
0.0
 30
0.0
210
0.0
220
0.0
230
1.0
  2
SOLID
 70
     1
 71
     0
 91
        1
 92
        1
 93
        1
 72
     4
 94
        3
 73
     0
 74
     1
 95
       53
 96
       49
 40
0.0
 40
0.0
 40
0.0
 40
0.0
 40
1.0
 40
1.0
 40
1.0
 40
2.0
 40
2.0
 40
2.0
 40
3.0
 40
3.0
 40
3.0
 40
4.0
 40
4.0
 40
4.0
 40
5.0
 40
5.0
 40
5.0
 40
6.0
 40
6.0
 40
6.0
 40
7.0
 40
7.0
 40
7.0
 40
8.0
 40
8.0
 40
8.0
 40
9.0
 40
9.0
 40
9.0
 40
10.0
 40
10.0
 40
10.0
 40
11.0
 40
11.0
 40
11.0
 40
12.0
 40
12.0
 40
12.0
 40
13.0
 40
13.0
 40
13.0
 40
14.0
 40
14.0
 40
14.0
 40
15.0
 40
15.0
 40
15.0
 40
16.0
 40
16.0
 40
16.0
 40
16.0
 10
83.76904701681816
 20
-128.7191026153897
 10
83.76904701681816
 20
-128.8028184356812
 10
83.75216604894044
 20
-128.9109944339181
 10
83.68877629201184
 20
-129.019859451252
 10
83.57887774603236
 20
-129.2052055883584
 10
83.44761960804435
 20
-129.2275987090125
 10
83.33978811935603
 20
-129.2479247723755
 10
83.33978811935603
 20
-129.2479247723755
 10
83.33978811935603
 20
-129.0105576934418
 10
83.33978811935603
 20
-129.0105576934418
 10
83.53857012885494
 20
-128.9519910701926
 10
83.5681979500281
 20
-128.8162543080737
 10
83.5681979500281
 20
-128.71669104855
 10
83.5681979500281
 20
-128.5675184140387
 10
83.46863469050437
 20
-128.4045653975864
 10
83.23609074525001
 20
-128.4045653975864
 10
82.98012015069595
 20
-128.4045653975864
 10
82.91018471234537
 20
-128.5968017256633
 10
82.91018471234537
 20
-128.7256482968116
 10
82.91018471234537
 20
-128.7597547421156
 10
82.91018471234537
 20
-128.9109944339181
 10
83.03937579304224
 20
-129.006079069311
 10
83.03937579304224
 20
-129.006079069311
 10
83.02042776787337
 20
-129.1938367732571
 10
83.02042776787337
 20
-129.1938367732571
 10
83.02042776787337
 20
-129.1938367732571
 10
82.17396780714748
 20
-129.0649902021088
 10
82.17396780714748
 20
-129.0649902021088
 10
82.17396780714748
 20
-129.0649902021088
 10
82.17396780714748
 20
-128.2329996424209
 10
82.17396780714748
 20
-128.2329996424209
 10
82.17396780714748
 20
-128.2329996424209
 10
82.3686157020641
 20
-128.2329996424209
 10
82.3686157020641
 20
-128.2329996424209
 10
82.3686157020641
 20
-128.2329996424209
 10
82.3686157020641
 20
-128.8906683705551
 10
82.3686157020641
 20
-128.8906683705551
 10
82.3686157020641
 20
-128.8906683705551
 10
82.79167342765278
 20
-128.9609483184542
 10
82.79167342765278
 20
-128.9609483184542
 10
82.75791149189733
 20
-128.8954915042345
 10
82.71760387471991
 20
-128.8072970598121
 10
82.71760387471991
 20
-128.6805175459549
 10
82.71760387471991
 20
-128.4093885312657
 10
82.90398354047193
 20
-128.1561740130998
 10
83.21714272008113
 20
-128.1561740130998
 10
83.53443601427264
 20
-128.1561740130998
 10
83.76904701681816
 20
-128.3956081493247
 10
83.76904701681816
 20
-128.7191026153897
 97
        0
 97
        0
 75
     2
 76
     1
 98
        0
  0
ENDBLK
  5
60
330
5D
100
AcDbEntity
  8
0
100
AcDbBlockEnd
  0
BLOCK
  5
7C
330
7A
100
AcDbEntity
  8
0
100
AcDbBlockBegin
  2
block 3
 70
     0
 10
0.0
 20
0.0
 30
0.0
  3
block 3
  1

  0
POLYLINE
  5
7E
330
7A
100
AcDbEntity
  8
_U+30EC_U+30A4_U+30E4_U+30FC 1
370
     0
100
AcDb2dPolyline
 66
     1
 10
0.0
 20
0.0
 30
0.0
  0
VERTEX
  5
7F
330
7E
100
AcDbEntity
  8
_U+30EC_U+30A4_U+30E4_U+30FC 1
370
     0
100
AcDbVertex
100
AcDb2dVertex
 10
90.69127737533066
 20
-120.0753580428978
 30
0.0
  0
VERTEX
  5
80
330
7E
100
AcDbEntity
  8
_U+30EC_U+30A4_U+30E4_U+30FC 1
370
     0
100
AcDbVertex
100
AcDb2dVertex
 10
90.69127737533066
 20
-120.4222791582625
 30
0.0
  0
VERTEX
  5
81
330
7E
100
AcDbEntity
  8
_U+30EC_U+30A4_U+30E4_U+30FC 1
370
     0
100
AcDbVertex
100
AcDb2dVertex
 10
90.45838892052777
 20
-120.4222791582625
 30
0.0
  0
VERTEX
  5
82
330
7E
100
AcDbEntity
  8
_U+30EC_U+30A4_U+30E4_U+30FC 1
370
     0
100
AcDbVertex
100
AcDb2dVertex
 10
90.45838892052777
 20
-120.0753580428978
 30
0.0
  0
VERTEX
  5
83
330
7E
100
AcDbEntity
  8
_U+30EC_U+30A4_U+30E4_U+30FC 1
370
     0
100
AcDbVertex
100
AcDb2dVertex
 10
89.75731198927943
 20
-120.0753580428978
 30
0.0
  0
VERTEX
  5
84
330
7E
100
AcDbEntity
  8
_U+30EC_U+30A4_U+30E4_U+30FC 1
370
     0
100
AcDbVertex
100
AcDb2dVertex
 10
89.75731198927943
 20
-119.8510823268081
 30
0.0
  0
VERTEX
  5
85
330
7E
100
AcDbEntity
  8
_U+30EC_U+30A4_U+30E4_U+30FC 1
370
     0
100
AcDbVertex
100
AcDb2dVertex
 10
90.48319360802157
 20
-118.877842852225
 30
0.0
  0
VERTEX
  5
86
330
7E
100
AcDbEntity
  8
_U+30EC_U+30A4_U+30E4_U+30FC 1
370
     0
100
AcDbVertex
100
AcDb2dVertex
 10
90.69127737533066
 20
-118.877842852225
 30
0.0
  0
VERTEX
  5
87
330
7E
100
AcDbEntity
  8
_U+30EC_U+30A4_U+30E4_U+30FC 1
370
     0
100
AcDbVertex
100
AcDb2dVertex
 10
90.69127737533066
 20
-119.8765760333989
 30
0.0
  0
VERTEX
  5
88
330
7E
100
AcDbEntity
  8
_U+30EC_U+30A4_U+30E4_U+30FC 1
370
     0
100
AcDbVertex
100
AcDb2dVertex
 10
90.91279701503223
 20
-119.8765760333989
 30
0.0
  0
VERTEX
  5
89
330
7E
100
AcDbEntity
  8
_U+30EC_U+30A4_U+30E4_U+30FC 1
370
     0
100
AcDbVertex
100
AcDb2dVertex
 10
90.91279701503223
 20
-120.0753580428978
 30
0.0
  0
VERTEX
  5
8A
330
7E
100
AcDbEntity
  8
_U+30EC_U+30A4_U+30E4_U+30FC 1
370
     0
100
AcDbVertex
100
AcDb2dVertex
 10
90.69127737533066
 20
-120.0753580428978
 30
0.0
  0
SEQEND
  5
8B
330
7E
100
AcDbEntity
  8
_U+30EC_U+30A4_U+30E4_U+30FC 1
370
     0
  0
POLYLINE
  5
8C
330
7A
100
AcDbEntity
  8
_U+30EC_U+30A4_U+30E4_U+30FC 1
370
     0
100
AcDb2dPolyline
 66
     1
 10
0.0
 20
0.0
 30
0.0
  0
VERTEX
  5
8D
330
8C
100
AcDbEntity
  8
_U+30EC_U+30A4_U+30E4_U+30FC 1
370
     0
100
AcDbVertex
100
AcDb2dVertex
 10
90.45838892052777
 20
-119.2206298530074
 30
0.0
  0
VERTEX
  5
8E
330
8C
100
AcDbEntity
  8
_U+30EC_U+30A4_U+30E4_U+30FC 1
370
     0
100
AcDbVertex
100
AcDb2dVertex
 10
89.96987438071935
 20
-119.8765760333989
 30
0.0
  0
VERTEX
  5
8F
330
8C
100
AcDbEntity
  8
_U+30EC_U+30A4_U+30E4_U+30FC 1
370
     0
100
AcDbVertex
100
AcDb2dVertex
 10
90.45838892052777
 20
-119.8765760333989
 30
0.0
  0
VERTEX
  5
90
330
8C
100
AcDbEntity
  8
_U+30EC_U+30A4_U+30E4_U+30FC 1
370
     0
100
AcDbVertex
100
AcDb2dVertex
 10
90.45838892052777
 20
-119.2206298530074
 30
0.0
  0
SEQEND
  5
91
330
8C
100
AcDbEntity
  8
_U+30EC_U+30A4_U+30E4_U+30FC 1
370
     0
  0
HATCH
  5
92
330
7A
100
AcDbEntity
  8
_U+30EC_U+30A4_U+30E4_U+30FC 1
 62
   179
420
  2234388
100
AcDbHatch
 10
0.0
 20
0.0
 30
0.0
210
0.0
220
0.0
230
1.0
  2
SOLID
 70
     1
 71
     0
 91
        2
 92
        1
 93
       11
 72
     1
 10
90.69127737533066
 20
-120.0753580428978
 11
90.69127737533066
 21
-120.4222791582625
 72
     1
 10
90.69127737533066
 20
-120.4222791582625
 11
90.45838892052777
 21
-120.4222791582625
 72
     1
 10
90.45838892052777
 20
-120.4222791582625
 11
90.45838892052777
 21
-120.0753580428978
 72
     1
 10
90.45838892052777
 20
-120.0753580428978
 11
89.75731198927943
 21
-120.0753580428978
 72
     1
 10
89.75731198927943
 20
-120.0753580428978
 11
89.75731198927943
 21
-119.8510823268081
 72
     1
 10
89.75731198927943
 20
-119.8510823268081
 11
90.48319360802157
 21
-118.877842852225
 72
     1
 10
90.48319360802157
 20
-118.877842852225
 11
90.69127737533066
 21
-118.877842852225
 72
     1
 10
90.69127737533066
 20
-118.877842852225
 11
90.69127737533066
 21
-119.8765760333989
 72
     1
 10
90.69127737533066
 20
-119.8765760333989
 11
90.91279701503223
 21
-119.8765760333989
 72
     1
 10
90.91279701503223
 20
-119.8765760333989
 11
90.91279701503223
 21
-120.0753580428978
 72
     1
 10
90.91279701503223
 20
-120.0753580428978
 11
90.69127737533066
 21
-120.0753580428978
 97
        0
 92
        1
 93
        3
 72
     1
 10
90.45838892052777
 20
-119.2206298530074
 11
89.96987438071935
 21
-119.8765760333989
 72
     1
 10
89.96987438071935
 20
-119.8765760333989
 11
90.45838892052777
 21
-119.8765760333989
 72
     1
 10
90.45838892052777
 20
-119.8765760333989
 11
90.45838892052777
 21
-119.2206298530074
 97
        0
 75
     2
 76
     1
 98
        0
  0
POLYLINE
  5
93
330
7A
100
AcDbEntity
  8
_U+30EC_U+30A4_U+30E4_U+30FC 1
370
     0
100
AcDb2dPolyline
 66
     1
 10
0.0
 20
0.0
 30
0.0
  0
VERTEX
  5
94
330
93
100
AcDbEntity
  8
_U+30EC_U+30A4_U+30E4_U+30FC 1
370
     0
100
AcDbVertex
100
AcDb2dVertex
 10
91.12363685872951
 20
-120.4222791582625
 30
0.0
  0
VERTEX
  5
95
330
93
100
AcDbEntity
  8
_U+30EC_U+30A4_U+30E4_U+30FC 1
370
     0
100
AcDbVertex
100
AcDb2dVertex
 10
91.12363685872951
 20
-120.1704426782907
 30
0.0
  0
VERTEX
  5
96
330
93
100
AcDbEntity
  8
_U+30EC_U+30A4_U+30E4_U+30FC 1
370
     0
100
AcDbVertex
100
AcDb2dVertex
 10
91.39287107090179
 20
-120.1704426782907
 30
0.0
  0
VERTEX
  5
97
330
93
100
AcDbEntity
  8
_U+30EC_U+30A4_U+30E4_U+30FC 1
370
     0
100
AcDbVertex
100
AcDb2dVertex
 10
91.39287107090179
 20
-120.4222791582625
 30
0.0
  0
VERTEX
  5
98
330
93
100
AcDbEntity
  8
_U+30EC_U+30A4_U+30E4_U+30FC 1
370
     0
100
AcDbVertex
100
AcDb2dVertex
 10
91.12363685872951
 20
-120.4222791582625
 30
0.0
  0
SEQEND
  5
99
330
93
100
AcDbEntity
  8
_U+30EC_U+30A4_U+30E4_U+30FC 1
370
     0
  0
HATCH
  5
9A
330
7A
100
AcDbEntity
  8
_U+30EC_U+30A4_U+30E4_U+30FC 1
 62
   179
420
  2234388
100
AcDbHatch
 10
0.0
 20
0.0
 30
0.0
210
0.0
220
0.0
230
1.0
  2
SOLID
 70
     1
 71
     0
 91
        1
 92
        1
 93
        4
 72
     1
 10
91.12363685872951
 20
-120.4222791582625
 11
91.12363685872951
 21
-120.1704426782907
 72
     1
 10
91.12363685872951
 20
-120.1704426782907
 11
91.39287107090179
 21
-120.1704426782907
 72
     1
 10
91.39287107090179
 20
-120.1704426782907
 11
91.39287107090179
 21
-120.4222791582625
 72
     1
 10
91.39287107090179
 20
-120.4222791582625
 11
91.12363685872951
 21
-120.4222791582625
 97
        0
 75
     2
 76
     1
 98
        0
  0
SPLINE
  5
9B
330
7A
100
AcDbEntity
  8
_U+30EC_U+30A4_U+30E4_U+30FC 1
370
     0
100
AcDbSpline
210
0.0
220
0.0
230
1.0
 70
    11
 71
     3
 72
    53
 73
    49
 74
     0
 42
0.0000000001
 43
0.0000000001
 12
1.0
 22
0.0
 32
0.0
 13
1.0
 23
0.0
 33
0.0
 40
0.0
 40
0.0
 40
0.0
 40
0.0
 40
1.0
 40
1.0
 40
1.0
 40
2.0
 40
2.0
 40
2.0
 40
3.0
 40
3.0
 40
3.0
 40
4.0
 40
4.0
 40
4.0
 40
5.0
 40
5.0
 40
5.0
 40
6.0
 40
6.0
 40
6.0
 40
7.0
 40
7.0
 40
7.0
 40
8.0
 40
8.0
 40
8.0
 40
9.0
 40
9.0
 40
9.0
 40
10.0
 40
10.0
 40
10.0
 40
11.0
 40
11.0
 40
11.0
 40
12.0
 40
12.0
 40
12.0
 40
13.0
 40
13.0
 40
13.0
 40
14.0
 40
14.0
 40
14.0
 40
15.0
 40
15.0
 40
15.0
 40
16.0
 40
16.0
 40
16.0
 40
16.0
 10
92.1597493259184
 20
-120.4729220618957
 30
0.0
 10
92.07603350562682
 20
-120.4729220618957
 30
0.0
 10
91.96785750738998
 20
-120.4560410940179
 30
0.0
 10
91.8589924900561
 20
-120.3926513370893
 30
0.0
 10
91.67364635294965
 20
-120.2827527911099
 30
0.0
 10
91.65125323229553
 20
-120.1514946531219
 30
0.0
 10
91.63092716893254
 20
-120.0436631644335
 30
0.0
 10
91.63092716893254
 20
-120.0436631644335
 30
0.0
 10
91.86829424786626
 20
-120.0436631644335
 30
0.0
 10
91.86829424786626
 20
-120.0436631644335
 30
0.0
 10
91.92686087111551
 20
-120.2424451739325
 30
0.0
 10
92.06259763323436
 20
-120.2720729951056
 30
0.0
 10
92.16216089275808
 20
-120.2720729951056
 30
0.0
 10
92.3113335272694
 20
-120.2720729951056
 30
0.0
 10
92.4742865437217
 20
-120.1725097355819
 30
0.0
 10
92.4742865437217
 20
-119.9399657903275
 30
0.0
 10
92.4742865437217
 20
-119.6839951957734
 30
0.0
 10
92.28205021564477
 20
-119.6140597574229
 30
0.0
 10
92.15320364449643
 20
-119.6140597574229
 30
0.0
 10
92.11909719919245
 20
-119.6140597574229
 30
0.0
 10
91.96785750738998
 20
-119.6140597574229
 30
0.0
 10
91.87277287199709
 20
-119.7432508381197
 30
0.0
 10
91.87277287199709
 20
-119.7432508381197
 30
0.0
 10
91.68501516805097
 20
-119.7243028129509
 30
0.0
 10
91.68501516805097
 20
-119.7243028129509
 30
0.0
 10
91.68501516805097
 20
-119.7243028129509
 30
0.0
 10
91.81386173919931
 20
-118.877842852225
 30
0.0
 10
91.81386173919931
 20
-118.877842852225
 30
0.0
 10
91.81386173919931
 20
-118.877842852225
 30
0.0
 10
92.64585229888715
 20
-118.877842852225
 30
0.0
 10
92.64585229888715
 20
-118.877842852225
 30
0.0
 10
92.64585229888715
 20
-118.877842852225
 30
0.0
 10
92.64585229888715
 20
-119.0724907471416
 30
0.0
 10
92.64585229888715
 20
-119.0724907471416
 30
0.0
 10
92.64585229888715
 20
-119.0724907471416
 30
0.0
 10
91.98818357075295
 20
-119.0724907471416
 30
0.0
 10
91.98818357075295
 20
-119.0724907471416
 30
0.0
 10
91.98818357075295
 20
-119.0724907471416
 30
0.0
 10
91.91790362285386
 20
-119.4955484727303
 30
0.0
 10
91.91790362285386
 20
-119.4955484727303
 30
0.0
 10
91.98336043707361
 20
-119.4617865369748
 30
0.0
 10
92.071554881496
 20
-119.4214789197974
 30
0.0
 10
92.1983343953532
 20
-119.4214789197974
 30
0.0
 10
92.46946341004237
 20
-119.4214789197974
 30
0.0
 10
92.72267792820823
 20
-119.6078585855494
 30
0.0
 10
92.72267792820823
 20
-119.9210177651586
 30
0.0
 10
92.72267792820823
 20
-120.2383110593502
 30
0.0
 10
92.48324379198336
 20
-120.4729220618957
 30
0.0
 10
92.1597493259184
 20
-120.4729220618957
 30
0.0
  0
HATCH
  5
9C
330
7A
100
AcDbEntity
  8
_U+30EC_U+30A4_U+30E4_U+30FC 1
 62
   179
420
  2234388
100
AcDbHatch
 10
0.0
 20
0.0
 30
0.0
210
0.0
220
0.0
230
1.0
  2
SOLID
 70
     1
 71
     0
 91
        1
 92
        1
 93
        1
 72
     4
 94
        3
 73
     0
 74
     1
 95
       53
 96
       49
 40
0.0
 40
0.0
 40
0.0
 40
0.0
 40
1.0
 40
1.0
 40
1.0
 40
2.0
 40
2.0
 40
2.0
 40
3.0
 40
3.0
 40
3.0
 40
4.0
 40
4.0
 40
4.0
 40
5.0
 40
5.0
 40
5.0
 40
6.0
 40
6.0
 40
6.0
 40
7.0
 40
7.0
 40
7.0
 40
8.0
 40
8.0
 40
8.0
 40
9.0
 40
9.0
 40
9.0
 40
10.0
 40
10.0
 40
10.0
 40
11.0
 40
11.0
 40
11.0
 40
12.0
 40
12.0
 40
12.0
 40
13.0
 40
13.0
 40
13.0
 40
14.0
 40
14.0
 40
14.0
 40
15.0
 40
15.0
 40
15.0
 40
16.0
 40
16.0
 40
16.0
 40
16.0
 10
92.1597493259184
 20
-120.4729220618957
 10
92.07603350562682
 20
-120.4729220618957
 10
91.96785750738998
 20
-120.4560410940179
 10
91.8589924900561
 20
-120.3926513370893
 10
91.67364635294965
 20
-120.2827527911099
 10
91.65125323229553
 20
-120.1514946531219
 10
91.63092716893254
 20
-120.0436631644335
 10
91.63092716893254
 20
-120.0436631644335
 10
91.86829424786626
 20
-120.0436631644335
 10
91.86829424786626
 20
-120.0436631644335
 10
91.92686087111551
 20
-120.2424451739325
 10
92.06259763323436
 20
-120.2720729951056
 10
92.16216089275808
 20
-120.2720729951056
 10
92.3113335272694
 20
-120.2720729951056
 10
92.4742865437217
 20
-120.1725097355819
 10
92.4742865437217
 20
-119.9399657903275
 10
92.4742865437217
 20
-119.6839951957734
 10
92.28205021564477
 20
-119.6140597574229
 10
92.15320364449643
 20
-119.6140597574229
 10
92.11909719919245
 20
-119.6140597574229
 10
91.96785750738998
 20
-119.6140597574229
 10
91.87277287199709
 20
-119.7432508381197
 10
91.87277287199709
 20
-119.7432508381197
 10
91.68501516805097
 20
-119.7243028129509
 10
91.68501516805097
 20
-119.7243028129509
 10
91.68501516805097
 20
-119.7243028129509
 10
91.81386173919931
 20
-118.877842852225
 10
91.81386173919931
 20
-118.877842852225
 10
91.81386173919931
 20
-118.877842852225
 10
92.64585229888715
 20
-118.877842852225
 10
92.64585229888715
 20
-118.877842852225
 10
92.64585229888715
 20
-118.877842852225
 10
92.64585229888715
 20
-119.0724907471416
 10
92.64585229888715
 20
-119.0724907471416
 10
92.64585229888715
 20
-119.0724907471416
 10
91.98818357075295
 20
-119.0724907471416
 10
91.98818357075295
 20
-119.0724907471416
 10
91.98818357075295
 20
-119.0724907471416
 10
91.91790362285386
 20
-119.4955484727303
 10
91.91790362285386
 20
-119.4955484727303
 10
91.98336043707361
 20
-119.4617865369748
 10
92.071554881496
 20
-119.4214789197974
 10
92.1983343953532
 20
-119.4214789197974
 10
92.46946341004237
 20
-119.4214789197974
 10
92.72267792820823
 20
-119.6078585855494
 10
92.72267792820823
 20
-119.9210177651586
 10
92.72267792820823
 20
-120.2383110593502
 10
92.48324379198336
 20
-120.4729220618957
 10
92.1597493259184
 20
-120.4729220618957
 97
        0
 97
        0
 75
     2
 76
     1
 98
        0
  0
ENDBLK
  5
7D
330
7A
100
AcDbEntity
  8
0
100
AcDbBlockEnd
  0
BLOCK
  5
A7
330
A5
100
AcDbEntity
  8
0
100
AcDbBlockBegin
  2
block 4
 70
     0
 10
0.0
 20
0.0
 30
0.0
  3
block 4
  1

  0
SPLINE
  5
A9
330
A5
100
AcDbEntity
  8
_U+30EC_U+30A4_U+30E4_U+30FC 1
370
     0
100
AcDbSpline
210
0.0
220
0.0
230
1.0
 70
    11
 71
     3
 72
    26
 73
    22
 74
     0
 42
0.0000000001
 43
0.0000000001
 12
1.0
 22
0.0
 32
0.0
 13
1.0
 23
0.0
 33
0.0
 40
0.0
 40
0.0
 40
0.0
 40
0.0
 40
1.0
 40
1.0
 40
1.0
 40
2.0
 40
2.0
 40
2.0
 40
3.0
 40
3.0
 40
3.0
 40
4.0
 40
4.0
 40
4.0
 40
5.0
 40
5.0
 40
5.0
 40
6.0
 40
6.0
 40
6.0
 40
7.0
 40
7.0
 40
7.0
 40
7.0
 10
99.138479250389
 20
-123.4222683068181
 30
0.0
 10
99.138479250389
 20
-123.4222683068181
 30
0.0
 10
99.138479250389
 20
-122.3181152037955
 30
0.0
 10
99.138479250389
 20
-122.3181152037955
 30
0.0
 10
99.138479250389
 20
-122.3181152037955
 30
0.0
 10
98.78604598224794
 20
-122.3181152037955
 30
0.0
 10
98.78604598224794
 20
-122.3181152037955
 30
0.0
 10
98.78604598224794
 20
-122.3181152037955
 30
0.0
 10
98.78604598224794
 20
-122.1699760979297
 30
0.0
 10
98.78604598224794
 20
-122.1699760979297
 30
0.0
 10
99.14089081722867
 20
-122.1551621873432
 30
0.0
 10
99.19050019221626
 20
-121.9922091708908
 30
0.0
 10
99.22219507068057
 20
-121.8778320007805
 30
0.0
 10
99.22219507068057
 20
-121.8778320007805
 30
0.0
 10
99.37825789616238
 20
-121.8778320007805
 30
0.0
 10
99.37825789616238
 20
-121.8778320007805
 30
0.0
 10
99.37825789616238
 20
-121.8778320007805
 30
0.0
 10
99.37825789616238
 20
-123.4222683068181
 30
0.0
 10
99.37825789616238
 20
-123.4222683068181
 30
0.0
 10
99.37825789616238
 20
-123.4222683068181
 30
0.0
 10
99.138479250389
 20
-123.4222683068181
 30
0.0
 10
99.138479250389
 20
-123.4222683068181
 30
0.0
  0
HATCH
  5
AA
330
A5
100
AcDbEntity
  8
_U+30EC_U+30A4_U+30E4_U+30FC 1
 62
   179
420
  2234388
100
AcDbHatch
 10
0.0
 20
0.0
 30
0.0
210
0.0
220
0.0
230
1.0
  2
SOLID
 70
     1
 71
     0
 91
        1
 92
        1
 93
        1
 72
     4
 94
        3
 73
     0
 74
     1
 95
       26
 96
       22
 40
0.0
 40
0.0
 40
0.0
 40
0.0
 40
1.0
 40
1.0
 40
1.0
 40
2.0
 40
2.0
 40
2.0
 40
3.0
 40
3.0
 40
3.0
 40
4.0
 40
4.0
 40
4.0
 40
5.0
 40
5.0
 40
5.0
 40
6.0
 40
6.0
 40
6.0
 40
7.0
 40
7.0
 40
7.0
 40
7.0
 10
99.138479250389
 20
-123.4222683068181
 10
99.138479250389
 20
-123.4222683068181
 10
99.138479250389
 20
-122.3181152037955
 10
99.138479250389
 20
-122.3181152037955
 10
99.138479250389
 20
-122.3181152037955
 10
98.78604598224794
 20
-122.3181152037955
 10
98.78604598224794
 20
-122.3181152037955
 10
98.78604598224794
 20
-122.3181152037955
 10
98.78604598224794
 20
-122.1699760979297
 10
98.78604598224794
 20
-122.1699760979297
 10
99.14089081722867
 20
-122.1551621873432
 10
99.19050019221626
 20
-121.9922091708908
 10
99.22219507068057
 20
-121.8778320007805
 10
99.22219507068057
 20
-121.8778320007805
 10
99.37825789616238
 20
-121.8778320007805
 10
99.37825789616238
 20
-121.8778320007805
 10
99.37825789616238
 20
-121.8778320007805
 10
99.37825789616238
 20
-123.4222683068181
 10
99.37825789616238
 20
-123.4222683068181
 10
99.37825789616238
 20
-123.4222683068181
 10
99.138479250389
 20
-123.4222683068181
 10
99.138479250389
 20
-123.4222683068181
 97
        0
 97
        0
 75
     2
 76
     1
 98
        0
  0
SPLINE
  5
AB
330
A5
100
AcDbEntity
  8
_U+30EC_U+30A4_U+30E4_U+30FC 1
370
     0
100
AcDbSpline
210
0.0
220
0.0
230
1.0
 70
    11
 71
     3
 72
    29
 73
    25
 74
     0
 42
0.0000000001
 43
0.0000000001
 12
1.0
 22
0.0
 32
0.0
 13
1.0
 23
0.0
 33
0.0
 40
0.0
 40
0.0
 40
0.0
 40
0.0
 40
1.0
 40
1.0
 40
1.0
 40
2.0
 40
2.0
 40
2.0
 40
3.0
 40
3.0
 40
3.0
 40
4.0
 40
4.0
 40
4.0
 40
5.0
 40
5.0
 40
5.0
 40
6.0
 40
6.0
 40
6.0
 40
7.0
 40
7.0
 40
7.0
 40
8.0
 40
8.0
 40
8.0
 40
8.0
 10
100.8734293367608
 20
-123.2445013797792
 30
0.0
 10
100.7580186380049
 20
-123.4539631852823
 30
0.0
 10
100.5726725008985
 20
-123.4729112104512
 30
0.0
 10
100.448304553881
 20
-123.4729112104512
 30
0.0
 10
100.2767387987155
 20
-123.4729112104512
 30
0.0
 10
100.1251545973646
 20
-123.4264024214004
 30
0.0
 10
100.0235242805497
 20
-123.2445013797792
 30
0.0
 10
99.91259220592464
 20
-123.0498534848625
 30
0.0
 10
99.89226614256167
 20
-122.8131754250259
 30
0.0
 10
99.89226614256167
 20
-122.6502224085736
 30
0.0
 10
99.89226614256167
 20
-122.5062174172901
 30
0.0
 10
99.91018063908496
 20
-122.2543809373184
 30
0.0
 10
100.0235242805497
 20
-122.0555989278194
 30
0.0
 10
100.138590469757
 20
-121.8526828037382
 30
0.0
 10
100.310500734471
 20
-121.8292561544385
 30
0.0
 10
100.448304553881
 20
-121.8292561544385
 30
0.0
 10
100.6181477613038
 20
-121.8292561544385
 30
0.0
 10
100.7717990199459
 20
-121.8736978861982
 30
0.0
 10
100.8734293367608
 20
-122.0555989278194
 30
0.0
 10
100.979882787255
 20
-122.2481797654449
 30
0.0
 10
101.0046874747488
 20
-122.476589596117
 30
0.0
 10
101.0046874747488
 20
-122.6502224085736
 30
0.0
 10
101.0046874747488
 20
-122.8214436541905
 30
0.0
 10
100.9819498445462
 20
-123.0519205421537
 30
0.0
 10
100.8734293367608
 20
-123.2445013797792
 30
0.0
  0
SPLINE
  5
AC
330
A5
100
AcDbEntity
  8
_U+30EC_U+30A4_U+30E4_U+30FC 1
370
     0
100
AcDbSpline
210
0.0
220
0.0
230
1.0
 70
    11
 71
     3
 72
    17
 73
    13
 74
     0
 42
0.0000000001
 43
0.0000000001
 12
1.0
 22
0.0
 32
0.0
 13
1.0
 23
0.0
 33
0.0
 40
0.0
 40
0.0
 40
0.0
 40
0.0
 40
1.0
 40
1.0
 40
1.0
 40
2.0
 40
2.0
 40
2.0
 40
3.0
 40
3.0
 40
3.0
 40
4.0
 40
4.0
 40
4.0
 40
4.0
 10
100.448304553881
 20
-122.021836992064
 30
0.0
 10
100.1816541633226
 20
-122.021836992064
 30
0.0
 10
100.1320447883351
 20
-122.3053683505
 30
0.0
 10
100.1320447883351
 20
-122.6502224085736
 30
0.0
 10
100.1320447883351
 20
-122.9695827600562
 30
0.0
 10
100.1702853482213
 20
-123.2782633155346
 30
0.0
 10
100.448304553881
 20
-123.2782633155346
 30
0.0
 10
100.7128878871482
 20
-123.2782633155346
 30
0.0
 10
100.7649088289755
 20
-122.9971435239382
 30
0.0
 10
100.7649088289755
 20
-122.6502224085736
 30
0.0
 10
100.7649088289755
 20
-122.3305175475424
 30
0.0
 10
100.7242567022495
 20
-122.021836992064
 30
0.0
 10
100.448304553881
 20
-122.021836992064
 30
0.0
  0
HATCH
  5
AD
330
A5
100
AcDbEntity
  8
_U+30EC_U+30A4_U+30E4_U+30FC 1
 62
   179
420
  2234388
100
AcDbHatch
 10
0.0
 20
0.0
 30
0.0
210
0.0
220
0.0
230
1.0
  2
SOLID
 70
     1
 71
     0
 91
        2
 92
        1
 93
        1
 72
     4
 94
        3
 73
     0
 74
     1
 95
       29
 96
       25
 40
0.0
 40
0.0
 40
0.0
 40
0.0
 40
1.0
 40
1.0
 40
1.0
 40
2.0
 40
2.0
 40
2.0
 40
3.0
 40
3.0
 40
3.0
 40
4.0
 40
4.0
 40
4.0
 40
5.0
 40
5.0
 40
5.0
 40
6.0
 40
6.0
 40
6.0
 40
7.0
 40
7.0
 40
7.0
 40
8.0
 40
8.0
 40
8.0
 40
8.0
 10
100.8734293367608
 20
-123.2445013797792
 10
100.7580186380049
 20
-123.4539631852823
 10
100.5726725008985
 20
-123.4729112104512
 10
100.448304553881
 20
-123.4729112104512
 10
100.2767387987155
 20
-123.4729112104512
 10
100.1251545973646
 20
-123.4264024214004
 10
100.0235242805497
 20
-123.2445013797792
 10
99.91259220592464
 20
-123.0498534848625
 10
99.89226614256167
 20
-122.8131754250259
 10
99.89226614256167
 20
-122.6502224085736
 10
99.89226614256167
 20
-122.5062174172901
 10
99.91018063908496
 20
-122.2543809373184
 10
100.0235242805497
 20
-122.0555989278194
 10
100.138590469757
 20
-121.8526828037382
 10
100.310500734471
 20
-121.8292561544385
 10
100.448304553881
 20
-121.8292561544385
 10
100.6181477613038
 20
-121.8292561544385
 10
100.7717990199459
 20
-121.8736978861982
 10
100.8734293367608
 20
-122.0555989278194
 10
100.979882787255
 20
-122.2481797654449
 10
101.0046874747488
 20
-122.476589596117
 10
101.0046874747488
 20
-122.6502224085736
 10
101.0046874747488
 20
-122.8214436541905
 10
100.9819498445462
 20
-123.0519205421537
 10
100.8734293367608
 20
-123.2445013797792
 97
        0
 97
        0
 92
        1
 93
        1
 72
     4
 94
        3
 73
     0
 74
     1
 95
       17
 96
       13
 40
0.0
 40
0.0
 40
0.0
 40
0.0
 40
1.0
 40
1.0
 40
1.0
 40
2.0
 40
2.0
 40
2.0
 40
3.0
 40
3.0
 40
3.0
 40
4.0
 40
4.0
 40
4.0
 40
4.0
 10
100.448304553881
 20
-122.021836992064
 10
100.1816541633226
 20
-122.021836992064
 10
100.1320447883351
 20
-122.3053683505
 10
100.1320447883351
 20
-122.6502224085736
 10
100.1320447883351
 20
-122.9695827600562
 10
100.1702853482213
 20
-123.2782633155346
 10
100.448304553881
 20
-123.2782633155346
 10
100.7128878871482
 20
-123.2782633155346
 10
100.7649088289755
 20
-122.9971435239382
 10
100.7649088289755
 20
-122.6502224085736
 10
100.7649088289755
 20
-122.3305175475424
 10
100.7242567022495
 20
-122.021836992064
 10
100.448304553881
 20
-122.021836992064
 97
        0
 97
        0
 75
     2
 76
     1
 98
        0
  0
ENDBLK
  5
A8
330
A5
100
AcDbEntity
  8
0
100
AcDbBlockEnd
  0
BLOCK
  5
B8
330
B6
100
AcDbEntity
  8
0
100
AcDbBlockBegin
  2
block 5
 70
     0
 10
0.0
 20
0.0
 30
0.0
  3
block 5
  1

  0
SPLINE
  5
BA
330
B6
100
AcDbEntity
  8
_U+30EC_U+30A4_U+30E4_U+30FC 1
370
     0
100
AcDbSpline
210
0.0
220
0.0
230
1.0
 70
    11
 71
     3
 72
    44
 73
    40
 74
     0
 42
0.0000000001
 43
0.0000000001
 12
1.0
 22
0.0
 32
0.0
 13
1.0
 23
0.0
 33
0.0
 40
0.0
 40
0.0
 40
0.0
 40
0.0
 40
1.0
 40
1.0
 40
1.0
 40
2.0
 40
2.0
 40
2.0
 40
3.0
 40
3.0
 40
3.0
 40
4.0
 40
4.0
 40
4.0
 40
5.0
 40
5.0
 40
5.0
 40
6.0
 40
6.0
 40
6.0
 40
7.0
 40
7.0
 40
7.0
 40
8.0
 40
8.0
 40
8.0
 40
9.0
 40
9.0
 40
9.0
 40
10.0
 40
10.0
 40
10.0
 40
11.0
 40
11.0
 40
11.0
 40
12.0
 40
12.0
 40
12.0
 40
13.0
 40
13.0
 40
13.0
 40
13.0
 10
78.82102862612808
 20
-137.3401095576789
 30
0.0
 10
78.5881401713252
 20
-137.4989284595489
 30
0.0
 10
78.48874916657573
 20
-137.5729980124817
 30
0.0
 10
78.43672822474846
 20
-137.7166584942167
 30
0.0
 10
78.43672822474846
 20
-137.7166584942167
 30
0.0
 10
79.2687187844363
 20
-137.7166584942167
 30
0.0
 10
79.2687187844363
 20
-137.7166584942167
 30
0.0
 10
79.2687187844363
 20
-137.7166584942167
 30
0.0
 10
79.2687187844363
 20
-137.9219861851376
 30
0.0
 10
79.2687187844363
 20
-137.9219861851376
 30
0.0
 10
79.2687187844363
 20
-137.9219861851376
 30
0.0
 10
78.16990557941585
 20
-137.9219861851376
 30
0.0
 10
78.16990557941585
 20
-137.9219861851376
 30
0.0
 10
78.20383976994557
 20
-137.5643852737686
 30
0.0
 10
78.2739474630704
 20
-137.4861816062535
 30
0.0
 10
78.6854641187835
 20
-137.1878363372308
 30
0.0
 10
78.95900470031233
 20
-136.9890543277319
 30
0.0
 10
79.02911239343717
 20
-136.9211859466725
 30
0.0
 10
79.02911239343717
 20
-136.783726636811
 30
0.0
 10
79.02911239343717
 20
-136.6652153521184
 30
0.0
 10
78.9522867641161
 20
-136.5343017236789
 30
0.0
 10
78.74196368474159
 20
-136.5343017236789
 30
0.0
 10
78.46377222430768
 20
-136.5343017236789
 30
0.0
 10
78.45481497604602
 20
-136.7647786116422
 30
0.0
 10
78.4503363519152
 20
-136.8812228390436
 30
0.0
 10
78.4503363519152
 20
-136.8812228390436
 30
0.0
 10
78.21055770614181
 20
-136.8812228390436
 30
0.0
 10
78.21055770614181
 20
-136.8812228390436
 30
0.0
 10
78.21968720917772
 20
-136.7540988156379
 30
0.0
 10
78.23105602427904
 20
-136.6421332123672
 30
0.0
 10
78.31683890186177
 20
-136.5236219276747
 30
0.0
 10
78.43448891268305
 20
-136.3627359685135
 30
0.0
 10
78.63344317695622
 20
-136.3289740327581
 30
0.0
 10
78.75781112397374
 20
-136.3289740327581
 30
0.0
 10
79.05391708093097
 20
-136.3289740327581
 30
0.0
 10
79.27543672063253
 20
-136.5129421316704
 30
0.0
 10
79.27543672063253
 20
-136.7857936941022
 30
0.0
 10
79.27543672063253
 20
-137.0145480343228
 30
0.0
 10
79.15106877361501
 20
-137.113766784298
 30
0.0
 10
78.82102862612808
 20
-137.3401095576789
 30
0.0
  0
HATCH
  5
BB
330
B6
100
AcDbEntity
  8
_U+30EC_U+30A4_U+30E4_U+30FC 1
 62
   179
420
  2234388
100
AcDbHatch
 10
0.0
 20
0.0
 30
0.0
210
0.0
220
0.0
230
1.0
  2
SOLID
 70
     1
 71
     0
 91
        1
 92
        1
 93
        1
 72
     4
 94
        3
 73
     0
 74
     1
 95
       44
 96
       40
 40
0.0
 40
0.0
 40
0.0
 40
0.0
 40
1.0
 40
1.0
 40
1.0
 40
2.0
 40
2.0
 40
2.0
 40
3.0
 40
3.0
 40
3.0
 40
4.0
 40
4.0
 40
4.0
 40
5.0
 40
5.0
 40
5.0
 40
6.0
 40
6.0
 40
6.0
 40
7.0
 40
7.0
 40
7.0
 40
8.0
 40
8.0
 40
8.0
 40
9.0
 40
9.0
 40
9.0
 40
10.0
 40
10.0
 40
10.0
 40
11.0
 40
11.0
 40
11.0
 40
12.0
 40
12.0
 40
12.0
 40
13.0
 40
13.0
 40
13.0
 40
13.0
 10
78.82102862612808
 20
-137.3401095576789
 10
78.5881401713252
 20
-137.4989284595489
 10
78.48874916657573
 20
-137.5729980124817
 10
78.43672822474846
 20
-137.7166584942167
 10
78.43672822474846
 20
-137.7166584942167
 10
79.2687187844363
 20
-137.7166584942167
 10
79.2687187844363
 20
-137.7166584942167
 10
79.2687187844363
 20
-137.7166584942167
 10
79.2687187844363
 20
-137.9219861851376
 10
79.2687187844363
 20
-137.9219861851376
 10
79.2687187844363
 20
-137.9219861851376
 10
78.16990557941585
 20
-137.9219861851376
 10
78.16990557941585
 20
-137.9219861851376
 10
78.20383976994557
 20
-137.5643852737686
 10
78.2739474630704
 20
-137.4861816062535
 10
78.6854641187835
 20
-137.1878363372308
 10
78.95900470031233
 20
-136.9890543277319
 10
79.02911239343717
 20
-136.9211859466725
 10
79.02911239343717
 20
-136.783726636811
 10
79.02911239343717
 20
-136.6652153521184
 10
78.9522867641161
 20
-136.5343017236789
 10
78.74196368474159
 20
-136.5343017236789
 10
78.46377222430768
 20
-136.5343017236789
 10
78.45481497604602
 20
-136.7647786116422
 10
78.4503363519152
 20
-136.8812228390436
 10
78.4503363519152
 20
-136.8812228390436
 10
78.21055770614181
 20
-136.8812228390436
 10
78.21055770614181
 20
-136.8812228390436
 10
78.21968720917772
 20
-136.7540988156379
 10
78.23105602427904
 20
-136.6421332123672
 10
78.31683890186177
 20
-136.5236219276747
 10
78.43448891268305
 20
-136.3627359685135
 10
78.63344317695622
 20
-136.3289740327581
 10
78.75781112397374
 20
-136.3289740327581
 10
79.05391708093097
 20
-136.3289740327581
 10
79.27543672063253
 20
-136.5129421316704
 10
79.27543672063253
 20
-136.7857936941022
 10
79.27543672063253
 20
-137.0145480343228
 10
79.15106877361501
 20
-137.113766784298
 10
78.82102862612808
 20
-137.3401095576789
 97
        0
 97
        0
 75
     2
 76
     1
 98
        0
  0
POLYLINE
  5
BC
330
B6
100
AcDbEntity
  8
_U+30EC_U+30A4_U+30E4_U+30FC 1
370
     0
100
AcDb2dPolyline
 66
     1
 10
0.0
 20
0.0
 30
0.0
  0
VERTEX
  5
BD
330
BC
100
AcDbEntity
  8
_U+30EC_U+30A4_U+30E4_U+30FC 1
370
     0
100
AcDbVertex
100
AcDb2dVertex
 10
79.50918644930674
 20
-137.9219861851376
 30
0.0
  0
VERTEX
  5
BE
330
BC
100
AcDbEntity
  8
_U+30EC_U+30A4_U+30E4_U+30FC 1
370
     0
100
AcDbVertex
100
AcDb2dVertex
 10
79.50918644930674
 20
-137.6701497051658
 30
0.0
  0
VERTEX
  5
BF
330
BC
100
AcDbEntity
  8
_U+30EC_U+30A4_U+30E4_U+30FC 1
370
     0
100
AcDbVertex
100
AcDb2dVertex
 10
79.77824840670475
 20
-137.6701497051658
 30
0.0
  0
VERTEX
  5
C0
330
BC
100
AcDbEntity
  8
_U+30EC_U+30A4_U+30E4_U+30FC 1
370
     0
100
AcDbVertex
100
AcDb2dVertex
 10
79.77824840670475
 20
-137.9219861851376
 30
0.0
  0
VERTEX
  5
C1
330
BC
100
AcDbEntity
  8
_U+30EC_U+30A4_U+30E4_U+30FC 1
370
     0
100
AcDbVertex
100
AcDb2dVertex
 10
79.50918644930674
 20
-137.9219861851376
 30
0.0
  0
SEQEND
  5
C2
330
BC
100
AcDbEntity
  8
_U+30EC_U+30A4_U+30E4_U+30FC 1
370
     0
  0
HATCH
  5
C3
330
B6
100
AcDbEntity
  8
_U+30EC_U+30A4_U+30E4_U+30FC 1
 62
   179
420
  2234388
100
AcDbHatch
 10
0.0
 20
0.0
 30
0.0
210
0.0
220
0.0
230
1.0
  2
SOLID
 70
     1
 71
     0
 91
        1
 92
        1
 93
        4
 72
     1
 10
79.50918644930674
 20
-137.9219861851376
 11
79.50918644930674
 21
-137.6701497051658
 72
     1
 10
79.50918644930674
 20
-137.6701497051658
 11
79.77824840670475
 21
-137.6701497051658
 72
     1
 10
79.77824840670475
 20
-137.6701497051658
 11
79.77824840670475
 21
-137.9219861851376
 72
     1
 10
79.77824840670475
 20
-137.9219861851376
 11
79.50918644930674
 21
-137.9219861851376
 97
        0
 75
     2
 76
     1
 98
        0
  0
SPLINE
  5
C4
330
B6
100
AcDbEntity
  8
_U+30EC_U+30A4_U+30E4_U+30FC 1
370
     0
100
AcDbSpline
210
0.0
220
0.0
230
1.0
 70
    11
 71
     3
 72
    53
 73
    49
 74
     0
 42
0.0000000001
 43
0.0000000001
 12
1.0
 22
0.0
 32
0.0
 13
1.0
 23
0.0
 33
0.0
 40
0.0
 40
0.0
 40
0.0
 40
0.0
 40
1.0
 40
1.0
 40
1.0
 40
2.0
 40
2.0
 40
2.0
 40
3.0
 40
3.0
 40
3.0
 40
4.0
 40
4.0
 40
4.0
 40
5.0
 40
5.0
 40
5.0
 40
6.0
 40
6.0
 40
6.0
 40
7.0
 40
7.0
 40
7.0
 40
8.0
 40
8.0
 40
8.0
 40
9.0
 40
9.0
 40
9.0
 40
10.0
 40
10.0
 40
10.0
 40
11.0
 40
11.0
 40
11.0
 40
12.0
 40
12.0
 40
12.0
 40
13.0
 40
13.0
 40
13.0
 40
14.0
 40
14.0
 40
14.0
 40
15.0
 40
15.0
 40
15.0
 40
16.0
 40
16.0
 40
16.0
 40
16.0
 10
80.54512666172135
 20
-137.9726290887707
 30
0.0
 10
80.4614108414298
 20
-137.9726290887707
 30
0.0
 10
80.35289033364442
 20
-137.955748120893
 30
0.0
 10
80.24436982585905
 20
-137.8923583639644
 30
0.0
 10
80.0590236887526
 20
-137.7824598179849
 30
0.0
 10
80.03645831332422
 20
-137.6512016799969
 30
0.0
 10
80.01595999518699
 20
-137.5433701913086
 30
0.0
 10
80.01595999518699
 20
-137.5433701913086
 30
0.0
 10
80.25349932889496
 20
-137.5433701913086
 30
0.0
 10
80.25349932889496
 20
-137.5433701913086
 30
0.0
 10
80.31223820691847
 20
-137.7421522008075
 30
0.0
 10
80.44780271426305
 20
-137.7717800219807
 30
0.0
 10
80.54736597378677
 20
-137.7717800219807
 30
0.0
 10
80.69653860829808
 20
-137.7717800219807
 30
0.0
 10
80.85931936997615
 20
-137.6722167624569
 30
0.0
 10
80.85931936997615
 20
-137.4396728172026
 30
0.0
 10
80.85931936997615
 20
-137.1837022226485
 30
0.0
 10
80.6670830418992
 20
-137.113766784298
 30
0.0
 10
80.53823647075086
 20
-137.113766784298
 30
0.0
 10
80.50430228022115
 20
-137.113766784298
 30
0.0
 10
80.35289033364442
 20
-137.113766784298
 30
0.0
 10
80.25797795302579
 20
-137.2429578649948
 30
0.0
 10
80.25797795302579
 20
-137.2429578649948
 30
0.0
 10
80.07022024907967
 20
-137.224009839826
 30
0.0
 10
80.07022024907967
 20
-137.224009839826
 30
0.0
 10
80.07022024907967
 20
-137.224009839826
 30
0.0
 10
80.19906682022801
 20
-136.3775498791001
 30
0.0
 10
80.19906682022801
 20
-136.3775498791001
 30
0.0
 10
80.19906682022801
 20
-136.3775498791001
 30
0.0
 10
81.03105737991585
 20
-136.3775498791001
 30
0.0
 10
81.03105737991585
 20
-136.3775498791001
 30
0.0
 10
81.03105737991585
 20
-136.3775498791001
 30
0.0
 10
81.03105737991585
 20
-136.5721977740167
 30
0.0
 10
81.03105737991585
 20
-136.5721977740167
 30
0.0
 10
81.03105737991585
 20
-136.5721977740167
 30
0.0
 10
80.3732163970074
 20
-136.5721977740167
 30
0.0
 10
80.3732163970074
 20
-136.5721977740167
 30
0.0
 10
80.3732163970074
 20
-136.5721977740167
 30
0.0
 10
80.30310870388256
 20
-136.9952554996053
 30
0.0
 10
80.30310870388256
 20
-136.9952554996053
 30
0.0
 10
80.36873777287657
 20
-136.9614935638499
 30
0.0
 10
80.45693221729897
 20
-136.9211859466725
 30
0.0
 10
80.5835394763819
 20
-136.9211859466725
 30
0.0
 10
80.85484074584532
 20
-136.9211859466725
 30
0.0
 10
81.10788300923693
 20
-137.1075656124245
 30
0.0
 10
81.10788300923693
 20
-137.4207247920337
 30
0.0
 10
81.10788300923693
 20
-137.7380180862252
 30
0.0
 10
80.86844887301206
 20
-137.9726290887707
 30
0.0
 10
80.54512666172135
 20
-137.9726290887707
 30
0.0
  0
HATCH
  5
C5
330
B6
100
AcDbEntity
  8
_U+30EC_U+30A4_U+30E4_U+30FC 1
 62
   179
420
  2234388
100
AcDbHatch
 10
0.0
 20
0.0
 30
0.0
210
0.0
220
0.0
230
1.0
  2
SOLID
 70
     1
 71
     0
 91
        1
 92
        1
 93
        1
 72
     4
 94
        3
 73
     0
 74
     1
 95
       53
 96
       49
 40
0.0
 40
0.0
 40
0.0
 40
0.0
 40
1.0
 40
1.0
 40
1.0
 40
2.0
 40
2.0
 40
2.0
 40
3.0
 40
3.0
 40
3.0
 40
4.0
 40
4.0
 40
4.0
 40
5.0
 40
5.0
 40
5.0
 40
6.0
 40
6.0
 40
6.0
 40
7.0
 40
7.0
 40
7.0
 40
8.0
 40
8.0
 40
8.0
 40
9.0
 40
9.0
 40
9.0
 40
10.0
 40
10.0
 40
10.0
 40
11.0
 40
11.0
 40
11.0
 40
12.0
 40
12.0
 40
12.0
 40
13.0
 40
13.0
 40
13.0
 40
14.0
 40
14.0
 40
14.0
 40
15.0
 40
15.0
 40
15.0
 40
16.0
 40
16.0
 40
16.0
 40
16.0
 10
80.54512666172135
 20
-137.9726290887707
 10
80.4614108414298
 20
-137.9726290887707
 10
80.35289033364442
 20
-137.955748120893
 10
80.24436982585905
 20
-137.8923583639644
 10
80.0590236887526
 20
-137.7824598179849
 10
80.03645831332422
 20
-137.6512016799969
 10
80.01595999518699
 20
-137.5433701913086
 10
80.01595999518699
 20
-137.5433701913086
 10
80.25349932889496
 20
-137.5433701913086
 10
80.25349932889496
 20
-137.5433701913086
 10
80.31223820691847
 20
-137.7421522008075
 10
80.44780271426305
 20
-137.7717800219807
 10
80.54736597378677
 20
-137.7717800219807
 10
80.69653860829808
 20
-137.7717800219807
 10
80.85931936997615
 20
-137.6722167624569
 10
80.85931936997615
 20
-137.4396728172026
 10
80.85931936997615
 20
-137.1837022226485
 10
80.6670830418992
 20
-137.113766784298
 10
80.53823647075086
 20
-137.113766784298
 10
80.50430228022115
 20
-137.113766784298
 10
80.35289033364442
 20
-137.113766784298
 10
80.25797795302579
 20
-137.2429578649948
 10
80.25797795302579
 20
-137.2429578649948
 10
80.07022024907967
 20
-137.224009839826
 10
80.07022024907967
 20
-137.224009839826
 10
80.07022024907967
 20
-137.224009839826
 10
80.19906682022801
 20
-136.3775498791001
 10
80.19906682022801
 20
-136.3775498791001
 10
80.19906682022801
 20
-136.3775498791001
 10
81.03105737991585
 20
-136.3775498791001
 10
81.03105737991585
 20
-136.3775498791001
 10
81.03105737991585
 20
-136.3775498791001
 10
81.03105737991585
 20
-136.5721977740167
 10
81.03105737991585
 20
-136.5721977740167
 10
81.03105737991585
 20
-136.5721977740167
 10
80.3732163970074
 20
-136.5721977740167
 10
80.3732163970074
 20
-136.5721977740167
 10
80.3732163970074
 20
-136.5721977740167
 10
80.30310870388256
 20
-136.9952554996053
 10
80.30310870388256
 20
-136.9952554996053
 10
80.36873777287657
 20
-136.9614935638499
 10
80.45693221729897
 20
-136.9211859466725
 10
80.5835394763819
 20
-136.9211859466725
 10
80.85484074584532
 20
-136.9211859466725
 10
81.10788300923693
 20
-137.1075656124245
 10
81.10788300923693
 20
-137.4207247920337
 10
81.10788300923693
 20
-137.7380180862252
 10
80.86844887301206
 20
-137.9726290887707
 10
80.54512666172135
 20
-137.9726290887707
 97
        0
 97
        0
 75
     2
 76
     1
 98
        0
  0
SPLINE
  5
C6
330
B6
100
AcDbEntity
  8
_U+30EC_U+30A4_U+30E4_U+30FC 1
370
     0
100
AcDbSpline
210
0.0
220
0.0
230
1.0
 70
    11
 71
     3
 72
    44
 73
    40
 74
     0
 42
0.0000000001
 43
0.0000000001
 12
1.0
 22
0.0
 32
0.0
 13
1.0
 23
0.0
 33
0.0
 40
0.0
 40
0.0
 40
0.0
 40
0.0
 40
1.0
 40
1.0
 40
1.0
 40
2.0
 40
2.0
 40
2.0
 40
3.0
 40
3.0
 40
3.0
 40
4.0
 40
4.0
 40
4.0
 40
5.0
 40
5.0
 40
5.0
 40
6.0
 40
6.0
 40
6.0
 40
7.0
 40
7.0
 40
7.0
 40
8.0
 40
8.0
 40
8.0
 40
9.0
 40
9.0
 40
9.0
 40
10.0
 40
10.0
 40
10.0
 40
11.0
 40
11.0
 40
11.0
 40
12.0
 40
12.0
 40
12.0
 40
13.0
 40
13.0
 40
13.0
 40
13.0
 10
82.37257756187213
 20
-137.9219861851376
 30
0.0
 10
82.34777287437834
 20
-137.8775444533779
 30
0.0
 10
82.3250352441757
 20
-137.8248344924535
 30
0.0
 10
82.32296818688454
 20
-137.5940130949418
 30
0.0
 10
82.31848956275371
 20
-137.3507893536832
 30
0.0
 10
82.25509980582511
 20
-137.2808539153326
 30
0.0
 10
82.06527504458785
 20
-137.2808539153326
 30
0.0
 10
82.06527504458785
 20
-137.2808539153326
 30
0.0
 10
81.6287814466067
 20
-137.2808539153326
 30
0.0
 10
81.6287814466067
 20
-137.2808539153326
 30
0.0
 10
81.6287814466067
 20
-137.2808539153326
 30
0.0
 10
81.6287814466067
 20
-137.9219861851376
 30
0.0
 10
81.6287814466067
 20
-137.9219861851376
 30
0.0
 10
81.6287814466067
 20
-137.9219861851376
 30
0.0
 10
81.37797849528052
 20
-137.9219861851376
 30
0.0
 10
81.37797849528052
 20
-137.9219861851376
 30
0.0
 10
81.37797849528052
 20
-137.9219861851376
 30
0.0
 10
81.37797849528052
 20
-136.3775498791001
 30
0.0
 10
81.37797849528052
 20
-136.3775498791001
 30
0.0
 10
81.37797849528052
 20
-136.3775498791001
 30
0.0
 10
82.0990369803433
 20
-136.3775498791001
 30
0.0
 10
82.0990369803433
 20
-136.3775498791001
 30
0.0
 10
82.42701007053908
 20
-136.3775498791001
 30
0.0
 10
82.60546601667502
 20
-136.5491156342655
 30
0.0
 10
82.60546601667502
 20
-136.8050862288196
 30
0.0
 10
82.60546601667502
 20
-136.8557291324528
 30
0.0
 10
82.59650876841337
 20
-136.9384114240987
 30
0.0
 10
82.54896645071693
 20
-137.0186821489051
 30
0.0
 10
82.48557669378833
 20
-137.1223795230111
 30
0.0
 10
82.41564125543776
 20
-137.14132754818
 30
0.0
 10
82.3498399316695
 20
-137.1582085160577
 30
0.0
 10
82.49694550888965
 20
-137.2005831905263
 30
0.0
 10
82.5692925140799
 20
-137.2491590368683
 30
0.0
 10
82.57377113821073
 20
-137.5643852737686
 30
0.0
 10
82.57824976234156
 20
-137.8351697789093
 30
0.0
 10
82.61683483177634
 20
-137.8668646573736
 30
0.0
 10
82.6891818369666
 20
-137.9219861851376
 30
0.0
 10
82.6891818369666
 20
-137.9219861851376
 30
0.0
 10
82.37257756187213
 20
-137.9219861851376
 30
0.0
 10
82.37257756187213
 20
-137.9219861851376
 30
0.0
  0
SPLINE
  5
C7
330
B6
100
AcDbEntity
  8
_U+30EC_U+30A4_U+30E4_U+30FC 1
370
     0
100
AcDbSpline
210
0.0
220
0.0
230
1.0
 70
    11
 71
     3
 72
    20
 73
    16
 74
     0
 42
0.0000000001
 43
0.0000000001
 12
1.0
 22
0.0
 32
0.0
 13
1.0
 23
0.0
 33
0.0
 40
0.0
 40
0.0
 40
0.0
 40
0.0
 40
1.0
 40
1.0
 40
1.0
 40
2.0
 40
2.0
 40
2.0
 40
3.0
 40
3.0
 40
3.0
 40
4.0
 40
4.0
 40
4.0
 40
5.0
 40
5.0
 40
5.0
 40
5.0
 10
82.10351560447413
 20
-136.5890787418944
 30
0.0
 10
82.10351560447413
 20
-136.5890787418944
 30
0.0
 10
81.6287814466067
 20
-136.5890787418944
 30
0.0
 10
81.6287814466067
 20
-136.5890787418944
 30
0.0
 10
81.6287814466067
 20
-136.5890787418944
 30
0.0
 10
81.6287814466067
 20
-137.0693250525382
 30
0.0
 10
81.6287814466067
 20
-137.0693250525382
 30
0.0
 10
81.6287814466067
 20
-137.0693250525382
 30
0.0
 10
82.10144854718297
 20
-137.0693250525382
 30
0.0
 10
82.10144854718297
 20
-137.0693250525382
 30
0.0
 10
82.20755748812867
 20
-137.0693250525382
 30
0.0
 10
82.35225149850916
 20
-136.9931884423142
 30
0.0
 10
82.35225149850916
 20
-136.8219671966973
 30
0.0
 10
82.35225149850916
 20
-136.7437635291821
 30
0.0
 10
82.31607799591404
 20
-136.5890787418944
 30
0.0
 10
82.10351560447413
 20
-136.5890787418944
 30
0.0
  0
HATCH
  5
C8
330
B6
100
AcDbEntity
  8
_U+30EC_U+30A4_U+30E4_U+30FC 1
 62
   179
420
  2234388
100
AcDbHatch
 10
0.0
 20
0.0
 30
0.0
210
0.0
220
0.0
230
1.0
  2
SOLID
 70
     1
 71
     0
 91
        2
 92
        1
 93
        1
 72
     4
 94
        3
 73
     0
 74
     1
 95
       44
 96
       40
 40
0.0
 40
0.0
 40
0.0
 40
0.0
 40
1.0
 40
1.0
 40
1.0
 40
2.0
 40
2.0
 40
2.0
 40
3.0
 40
3.0
 40
3.0
 40
4.0
 40
4.0
 40
4.0
 40
5.0
 40
5.0
 40
5.0
 40
6.0
 40
6.0
 40
6.0
 40
7.0
 40
7.0
 40
7.0
 40
8.0
 40
8.0
 40
8.0
 40
9.0
 40
9.0
 40
9.0
 40
10.0
 40
10.0
 40
10.0
 40
11.0
 40
11.0
 40
11.0
 40
12.0
 40
12.0
 40
12.0
 40
13.0
 40
13.0
 40
13.0
 40
13.0
 10
82.37257756187213
 20
-137.9219861851376
 10
82.34777287437834
 20
-137.8775444533779
 10
82.3250352441757
 20
-137.8248344924535
 10
82.32296818688454
 20
-137.5940130949418
 10
82.31848956275371
 20
-137.3507893536832
 10
82.25509980582511
 20
-137.2808539153326
 10
82.06527504458785
 20
-137.2808539153326
 10
82.06527504458785
 20
-137.2808539153326
 10
81.6287814466067
 20
-137.2808539153326
 10
81.6287814466067
 20
-137.2808539153326
 10
81.6287814466067
 20
-137.2808539153326
 10
81.6287814466067
 20
-137.9219861851376
 10
81.6287814466067
 20
-137.9219861851376
 10
81.6287814466067
 20
-137.9219861851376
 10
81.37797849528052
 20
-137.9219861851376
 10
81.37797849528052
 20
-137.9219861851376
 10
81.37797849528052
 20
-137.9219861851376
 10
81.37797849528052
 20
-136.3775498791001
 10
81.37797849528052
 20
-136.3775498791001
 10
81.37797849528052
 20
-136.3775498791001
 10
82.0990369803433
 20
-136.3775498791001
 10
82.0990369803433
 20
-136.3775498791001
 10
82.42701007053908
 20
-136.3775498791001
 10
82.60546601667502
 20
-136.5491156342655
 10
82.60546601667502
 20
-136.8050862288196
 10
82.60546601667502
 20
-136.8557291324528
 10
82.59650876841337
 20
-136.9384114240987
 10
82.54896645071693
 20
-137.0186821489051
 10
82.48557669378833
 20
-137.1223795230111
 10
82.41564125543776
 20
-137.14132754818
 10
82.3498399316695
 20
-137.1582085160577
 10
82.49694550888965
 20
-137.2005831905263
 10
82.5692925140799
 20
-137.2491590368683
 10
82.57377113821073
 20
-137.5643852737686
 10
82.57824976234156
 20
-137.8351697789093
 10
82.61683483177634
 20
-137.8668646573736
 10
82.6891818369666
 20
-137.9219861851376
 10
82.6891818369666
 20
-137.9219861851376
 10
82.37257756187213
 20
-137.9219861851376
 10
82.37257756187213
 20
-137.9219861851376
 97
        0
 97
        0
 92
        1
 93
        1
 72
     4
 94
        3
 73
     0
 74
     1
 95
       20
 96
       16
 40
0.0
 40
0.0
 40
0.0
 40
0.0
 40
1.0
 40
1.0
 40
1.0
 40
2.0
 40
2.0
 40
2.0
 40
3.0
 40
3.0
 40
3.0
 40
4.0
 40
4.0
 40
4.0
 40
5.0
 40
5.0
 40
5.0
 40
5.0
 10
82.10351560447413
 20
-136.5890787418944
 10
82.10351560447413
 20
-136.5890787418944
 10
81.6287814466067
 20
-136.5890787418944
 10
81.6287814466067
 20
-136.5890787418944
 10
81.6287814466067
 20
-136.5890787418944
 10
81.6287814466067
 20
-137.0693250525382
 10
81.6287814466067
 20
-137.0693250525382
 10
81.6287814466067
 20
-137.0693250525382
 10
82.10144854718297
 20
-137.0693250525382
 10
82.10144854718297
 20
-137.0693250525382
 10
82.20755748812867
 20
-137.0693250525382
 10
82.35225149850916
 20
-136.9931884423142
 10
82.35225149850916
 20
-136.8219671966973
 10
82.35225149850916
 20
-136.7437635291821
 10
82.31607799591404
 20
-136.5890787418944
 10
82.10351560447413
 20
-136.5890787418944
 97
        0
 97
        0
 75
     2
 76
     1
 98
        0
  0
ENDBLK
  5
B9
330
B6
100
AcDbEntity
  8
0
100
AcDbBlockEnd
  0
BLOCK
  5
D4
330
D2
100
AcDbEntity
  8
0
100
AcDbBlockBegin
  2
block 6
 70
     0
 10
0.0
 20
0.0
 30
0.0
  3
block 6
  1

  0
SPLINE
  5
D6
330
D2
100
AcDbEntity
  8
_U+30EC_U+30A4_U+30E4_U+30FC 1
370
     0
100
AcDbSpline
210
0.0
220
0.0
230
1.0
 70
    11
 71
     3
 72
    26
 73
    22
 74
     0
 42
0.0000000001
 43
0.0000000001
 12
1.0
 22
0.0
 32
0.0
 13
1.0
 23
0.0
 33
0.0
 40
0.0
 40
0.0
 40
0.0
 40
0.0
 40
1.0
 40
1.0
 40
1.0
 40
2.0
 40
2.0
 40
2.0
 40
3.0
 40
3.0
 40
3.0
 40
4.0
 40
4.0
 40
4.0
 40
5.0
 40
5.0
 40
5.0
 40
6.0
 40
6.0
 40
6.0
 40
7.0
 40
7.0
 40
7.0
 40
7.0
 10
87.18709850250879
 20
-120.4222791582625
 30
0.0
 10
87.18709850250879
 20
-120.4222791582625
 30
0.0
 10
87.18709850250879
 20
-119.3181260552399
 30
0.0
 10
87.18709850250879
 20
-119.3181260552399
 30
0.0
 10
87.18709850250879
 20
-119.3181260552399
 30
0.0
 10
86.83466523436773
 20
-119.3181260552399
 30
0.0
 10
86.83466523436773
 20
-119.3181260552399
 30
0.0
 10
86.83466523436773
 20
-119.3181260552399
 30
0.0
 10
86.83466523436773
 20
-119.1699869493742
 30
0.0
 10
86.83466523436773
 20
-119.1699869493742
 30
0.0
 10
87.18951006934846
 20
-119.1551730387876
 30
0.0
 10
87.23911944433605
 20
-118.9922200223353
 30
0.0
 10
87.27081432280036
 20
-118.877842852225
 30
0.0
 10
87.27081432280036
 20
-118.877842852225
 30
0.0
 10
87.42687714828217
 20
-118.877842852225
 30
0.0
 10
87.42687714828217
 20
-118.877842852225
 30
0.0
 10
87.42687714828217
 20
-118.877842852225
 30
0.0
 10
87.42687714828217
 20
-120.4222791582625
 30
0.0
 10
87.42687714828217
 20
-120.4222791582625
 30
0.0
 10
87.42687714828217
 20
-120.4222791582625
 30
0.0
 10
87.18709850250879
 20
-120.4222791582625
 30
0.0
 10
87.18709850250879
 20
-120.4222791582625
 30
0.0
  0
HATCH
  5
D7
330
D2
100
AcDbEntity
  8
_U+30EC_U+30A4_U+30E4_U+30FC 1
 62
   179
420
  2234388
100
AcDbHatch
 10
0.0
 20
0.0
 30
0.0
210
0.0
220
0.0
230
1.0
  2
SOLID
 70
     1
 71
     0
 91
        1
 92
        1
 93
        1
 72
     4
 94
        3
 73
     0
 74
     1
 95
       26
 96
       22
 40
0.0
 40
0.0
 40
0.0
 40
0.0
 40
1.0
 40
1.0
 40
1.0
 40
2.0
 40
2.0
 40
2.0
 40
3.0
 40
3.0
 40
3.0
 40
4.0
 40
4.0
 40
4.0
 40
5.0
 40
5.0
 40
5.0
 40
6.0
 40
6.0
 40
6.0
 40
7.0
 40
7.0
 40
7.0
 40
7.0
 10
87.18709850250879
 20
-120.4222791582625
 10
87.18709850250879
 20
-120.4222791582625
 10
87.18709850250879
 20
-119.3181260552399
 10
87.18709850250879
 20
-119.3181260552399
 10
87.18709850250879
 20
-119.3181260552399
 10
86.83466523436773
 20
-119.3181260552399
 10
86.83466523436773
 20
-119.3181260552399
 10
86.83466523436773
 20
-119.3181260552399
 10
86.83466523436773
 20
-119.1699869493742
 10
86.83466523436773
 20
-119.1699869493742
 10
87.18951006934846
 20
-119.1551730387876
 10
87.23911944433605
 20
-118.9922200223353
 10
87.27081432280036
 20
-118.877842852225
 10
87.27081432280036
 20
-118.877842852225
 10
87.42687714828217
 20
-118.877842852225
 10
87.42687714828217
 20
-118.877842852225
 10
87.42687714828217
 20
-118.877842852225
 10
87.42687714828217
 20
-120.4222791582625
 10
87.42687714828217
 20
-120.4222791582625
 10
87.42687714828217
 20
-120.4222791582625
 10
87.18709850250879
 20
-120.4222791582625
 10
87.18709850250879
 20
-120.4222791582625
 97
        0
 97
        0
 75
     2
 76
     1
 98
        0
  0
ENDBLK
  5
D5
330
D2
100
AcDbEntity
  8
0
100
AcDbBlockEnd
  0
ENDSEC
  0
SECTION
  2
ENTITIES
  0
SPLINE
  5
41
330
1F
100
AcDbEntity
  8
_U+30EC_U+30A4_U+30E4_U+30FC 1
 62
   179
420
  2234388
370
    25
100
AcDbSpline
210
0.0
220
0.0
230
1.0
 70
    11
 71
     3
 72
    83
 73
    79
 74
     0
 42
0.0000000001
 43
0.0000000001
 12
1.0
 22
0.0
 32
0.0
 13
1.0
 23
0.0
 33
0.0
 40
0.0
 40
0.0
 40
0.0
 40
0.0
 40
1.0
 40
1.0
 40
1.0
 40
2.0
 40
2.0
 40
2.0
 40
3.0
 40
3.0
 40
3.0
 40
4.0
 40
4.0
 40
4.0
 40
5.0
 40
5.0
 40
5.0
 40
6.0
 40
6.0
 40
6.0
 40
7.0
 40
7.0
 40
7.0
 40
8.0
 40
8.0
 40
8.0
 40
9.0
 40
9.0
 40
9.0
 40
10.0
 40
10.0
 40
10.0
 40
11.0
 40
11.0
 40
11.0
 40
12.0
 40
12.0
 40
12.0
 40
13.0
 40
13.0
 40
13.0
 40
14.0
 40
14.0
 40
14.0
 40
15.0
 40
15.0
 40
15.0
 40
16.0
 40
16.0
 40
16.0
 40
17.0
 40
17.0
 40
17.0
 40
18.0
 40
18.0
 40
18.0
 40
19.0
 40
19.0
 40
19.0
 40
20.0
 40
20.0
 40
20.0
 40
21.0
 40
21.0
 40
21.0
 40
22.0
 40
22.0
 40
22.0
 40
23.0
 40
23.0
 40
23.0
 40
24.0
 40
24.0
 40
24.0
 40
25.0
 40
25.0
 40
25.0
 40
26.0
 40
26.0
 40
26.0
 40
26.0
 10
94.82144313645901
 20
-128.0252780235491
 30
0.0
 10
94.82144313645901
 20
-128.0252780235491
 30
0.0
 10
94.82211341421969
 20
-118.0181366371622
 30
0.0
 10
94.82211341421969
 20
-118.0181366371622
 30
0.0
 10
94.54581786571302
 20
-118.015702470496
 30
0.0
 10
94.31774703819825
 20
-118.2368941371075
 30
0.0
 10
94.31499537160178
 20
-118.5131896925939
 30
0.0
 10
94.31499537160178
 20
-118.5131896925939
 30
0.0
 10
94.31499537160178
 20
-120.1132485810829
 30
0.0
 10
94.31499537160178
 20
-120.1132485810829
 30
0.0
 10
94.31499537160178
 20
-120.1132485810829
 30
0.0
 10
94.66018841835073
 20
-120.516332469871
 30
0.0
 10
94.66018841835073
 20
-120.516332469871
 30
0.0
 10
94.66018841835073
 20
-120.516332469871
 30
0.0
 10
94.31499537160178
 20
-120.9132074697718
 30
0.0
 10
94.31499537160178
 20
-120.9132074697718
 30
0.0
 10
94.31499537160178
 20
-120.9132074697718
 30
0.0
 10
94.31499537160178
 20
-125.1520441353787
 30
0.0
 10
94.31499537160178
 20
-125.1520441353787
 30
0.0
 10
94.00356315732486
 20
-125.3277627464458
 30
0.0
 10
93.83542927272542
 20
-125.6564105241414
 30
0.0
 10
93.83130177283073
 20
-126.0126455240525
 30
0.0
 10
93.83130177283073
 20
-126.0126455240525
 30
0.0
 10
93.83130177283073
 20
-128.314661634588
 30
0.0
 10
93.83130177283073
 20
-128.314661634588
 30
0.0
 10
93.83130177283073
 20
-128.314661634588
 30
0.0
 10
89.33564299863565
 20
-132.8146244112411
 30
0.0
 10
89.33564299863565
 20
-132.8146244112411
 30
0.0
 10
89.33564299863565
 20
-132.8146244112411
 30
0.0
 10
89.33564299863565
 20
-125.0177063576345
 30
0.0
 10
89.33564299863565
 20
-125.0177063576345
 30
0.0
 10
88.78336940161421
 20
-125.0121677465248
 30
0.0
 10
88.32034858009352
 20
-125.4555741353026
 30
0.0
 10
88.31484524690059
 20
-126.0078124684981
 30
0.0
 10
88.31484524690059
 20
-126.0078124684981
 30
0.0
 10
88.31484524690059
 20
-132.011913855886
 30
0.0
 10
88.31484524690059
 20
-132.011913855886
 30
0.0
 10
88.30796608040943
 20
-132.7023352446022
 30
0.0
 10
88.6001013507342
 20
-133.3300327444453
 30
0.0
 10
89.04763522820556
 20
-133.7868446887758
 30
0.0
 10
89.49961410556351
 20
-134.2388235775515
 30
0.0
 10
90.12455992295314
 20
-134.5185763552593
 30
0.0
 10
90.81529879421981
 20
-134.5185763552593
 30
0.0
 10
90.81529879421981
 20
-134.5185763552593
 30
0.0
 10
96.815448918921
 20
-134.5185763552593
 30
0.0
 10
96.815448918921
 20
-134.5185763552593
 30
0.0
 10
97.36737219788053
 20
-134.5185763552593
 30
0.0
 10
97.81522111563692
 20
-134.0707249664822
 30
0.0
 10
97.81522111563692
 20
-133.5188041332867
 30
0.0
 10
97.81522111563692
 20
-133.5188041332867
 30
0.0
 10
90.02225437000762
 20
-133.5181338555093
 30
0.0
 10
90.02225437000762
 20
-133.5181338555093
 30
0.0
 10
90.02225437000762
 20
-133.5181338555093
 30
0.0
 10
94.52239342186617
 20
-129.0181358010788
 30
0.0
 10
94.52239342186617
 20
-129.0181358010788
 30
0.0
 10
94.52239342186617
 20
-129.0181358010788
 30
0.0
 10
96.815448918921
 20
-129.0188413566343
 30
0.0
 10
96.815448918921
 20
-129.0188413566343
 30
0.0
 10
97.1716839098327
 20
-129.0181358010788
 30
0.0
 10
97.50241306806177
 20
-128.8279533011263
 30
0.0
 10
97.6808480635095
 20
-128.5186024678702
 30
0.0
 10
97.6808480635095
 20
-128.5186024678702
 30
0.0
 10
101.9148868443791
 20
-128.5186024678702
 30
0.0
 10
101.9148868443791
 20
-128.5186024678702
 30
0.0
 10
101.9148868443791
 20
-128.5186024678702
 30
0.0
 10
102.3145135008504
 20
-128.2181769123898
 30
0.0
 10
102.3145135008504
 20
-128.2181769123898
 30
0.0
 10
102.3145135008504
 20
-128.2181769123898
 30
0.0
 10
102.7148457128593
 20
-128.5186024678702
 30
0.0
 10
102.7148457128593
 20
-128.5186024678702
 30
0.0
 10
102.7148457128593
 20
-128.5186024678702
 30
0.0
 10
104.3154337275805
 20
-128.5186024678702
 30
0.0
 10
104.3154337275805
 20
-128.5186024678702
 30
0.0
 10
104.5910237205496
 20
-128.5186024678702
 30
0.0
 10
104.8149670481696
 20
-128.294659134593
 30
0.0
 10
104.8149670481696
 20
-128.0183635791065
 30
0.0
 10
104.8149670481696
 20
-128.0183635791065
 30
0.0
 10
94.82144313645901
 20
-128.0252780235491
 30
0.0
 10
94.82144313645901
 20
-128.0252780235491
 30
0.0
  0
HATCH
  5
42
330
1F
100
AcDbEntity
  8
_U+30EC_U+30A4_U+30E4_U+30FC 1
 62
   253
420
 11711154
100
AcDbHatch
 10
0.0
 20
0.0
 30
0.0
210
0.0
220
0.0
230
1.0
  2
SOLID
 70
     1
 71
     0
 91
        1
 92
        1
 93
        1
 72
     4
 94
        3
 73
     0
 74
     1
 95
       83
 96
       79
 40
0.0
 40
0.0
 40
0.0
 40
0.0
 40
1.0
 40
1.0
 40
1.0
 40
2.0
 40
2.0
 40
2.0
 40
3.0
 40
3.0
 40
3.0
 40
4.0
 40
4.0
 40
4.0
 40
5.0
 40
5.0
 40
5.0
 40
6.0
 40
6.0
 40
6.0
 40
7.0
 40
7.0
 40
7.0
 40
8.0
 40
8.0
 40
8.0
 40
9.0
 40
9.0
 40
9.0
 40
10.0
 40
10.0
 40
10.0
 40
11.0
 40
11.0
 40
11.0
 40
12.0
 40
12.0
 40
12.0
 40
13.0
 40
13.0
 40
13.0
 40
14.0
 40
14.0
 40
14.0
 40
15.0
 40
15.0
 40
15.0
 40
16.0
 40
16.0
 40
16.0
 40
17.0
 40
17.0
 40
17.0
 40
18.0
 40
18.0
 40
18.0
 40
19.0
 40
19.0
 40
19.0
 40
20.0
 40
20.0
 40
20.0
 40
21.0
 40
21.0
 40
21.0
 40
22.0
 40
22.0
 40
22.0
 40
23.0
 40
23.0
 40
23.0
 40
24.0
 40
24.0
 40
24.0
 40
25.0
 40
25.0
 40
25.0
 40
26.0
 40
26.0
 40
26.0
 40
26.0
 10
94.82144313645901
 20
-128.0252780235491
 10
94.82144313645901
 20
-128.0252780235491
 10
94.82211341421969
 20
-118.0181366371622
 10
94.82211341421969
 20
-118.0181366371622
 10
94.54581786571302
 20
-118.015702470496
 10
94.31774703819825
 20
-118.2368941371075
 10
94.31499537160178
 20
-118.5131896925939
 10
94.31499537160178
 20
-118.5131896925939
 10
94.31499537160178
 20
-120.1132485810829
 10
94.31499537160178
 20
-120.1132485810829
 10
94.31499537160178
 20
-120.1132485810829
 10
94.66018841835073
 20
-120.516332469871
 10
94.66018841835073
 20
-120.516332469871
 10
94.66018841835073
 20
-120.516332469871
 10
94.31499537160178
 20
-120.9132074697718
 10
94.31499537160178
 20
-120.9132074697718
 10
94.31499537160178
 20
-120.9132074697718
 10
94.31499537160178
 20
-125.1520441353787
 10
94.31499537160178
 20
-125.1520441353787
 10
94.00356315732486
 20
-125.3277627464458
 10
93.83542927272542
 20
-125.6564105241414
 10
93.83130177283073
 20
-126.0126455240525
 10
93.83130177283073
 20
-126.0126455240525
 10
93.83130177283073
 20
-128.314661634588
 10
93.83130177283073
 20
-128.314661634588
 10
93.83130177283073
 20
-128.314661634588
 10
89.33564299863565
 20
-132.8146244112411
 10
89.33564299863565
 20
-132.8146244112411
 10
89.33564299863565
 20
-132.8146244112411
 10
89.33564299863565
 20
-125.0177063576345
 10
89.33564299863565
 20
-125.0177063576345
 10
88.78336940161421
 20
-125.0121677465248
 10
88.32034858009352
 20
-125.4555741353026
 10
88.31484524690059
 20
-126.0078124684981
 10
88.31484524690059
 20
-126.0078124684981
 10
88.31484524690059
 20
-132.011913855886
 10
88.31484524690059
 20
-132.011913855886
 10
88.30796608040943
 20
-132.7023352446022
 10
88.6001013507342
 20
-133.3300327444453
 10
89.04763522820556
 20
-133.7868446887758
 10
89.49961410556351
 20
-134.2388235775515
 10
90.12455992295314
 20
-134.5185763552593
 10
90.81529879421981
 20
-134.5185763552593
 10
90.81529879421981
 20
-134.5185763552593
 10
96.815448918921
 20
-134.5185763552593
 10
96.815448918921
 20
-134.5185763552593
 10
97.36737219788053
 20
-134.5185763552593
 10
97.81522111563692
 20
-134.0707249664822
 10
97.81522111563692
 20
-133.5188041332867
 10
97.81522111563692
 20
-133.5188041332867
 10
90.02225437000762
 20
-133.5181338555093
 10
90.02225437000762
 20
-133.5181338555093
 10
90.02225437000762
 20
-133.5181338555093
 10
94.52239342186617
 20
-129.0181358010788
 10
94.52239342186617
 20
-129.0181358010788
 10
94.52239342186617
 20
-129.0181358010788
 10
96.815448918921
 20
-129.0188413566343
 10
96.815448918921
 20
-129.0188413566343
 10
97.1716839098327
 20
-129.0181358010788
 10
97.50241306806177
 20
-128.8279533011263
 10
97.6808480635095
 20
-128.5186024678702
 10
97.6808480635095
 20
-128.5186024678702
 10
101.9148868443791
 20
-128.5186024678702
 10
101.9148868443791
 20
-128.5186024678702
 10
101.9148868443791
 20
-128.5186024678702
 10
102.3145135008504
 20
-128.2181769123898
 10
102.3145135008504
 20
-128.2181769123898
 10
102.3145135008504
 20
-128.2181769123898
 10
102.7148457128593
 20
-128.5186024678702
 10
102.7148457128593
 20
-128.5186024678702
 10
102.7148457128593
 20
-128.5186024678702
 10
104.3154337275805
 20
-128.5186024678702
 10
104.3154337275805
 20
-128.5186024678702
 10
104.5910237205496
 20
-128.5186024678702
 10
104.8149670481696
 20
-128.294659134593
 10
104.8149670481696
 20
-128.0183635791065
 10
104.8149670481696
 20
-128.0183635791065
 10
94.82144313645901
 20
-128.0252780235491
 10
94.82144313645901
 20
-128.0252780235491
 97
        0
 97
        0
 75
     2
 76
     1
 98
        0
  0
POLYLINE
  5
43
330
1F
100
AcDbEntity
  8
_U+30EC_U+30A4_U+30E4_U+30FC 1
 62
   179
420
  2234388
370
     9
100
AcDb2dPolyline
 66
     1
 10
0.0
 20
0.0
 30
0.0
  0
VERTEX
  5
44
330
43
100
AcDbEntity
  8
_U+30EC_U+30A4_U+30E4_U+30FC 1
 62
   179
420
  2234388
370
     9
100
AcDbVertex
100
AcDb2dVertex
 10
88.18117775031074
 20
-134.2856724664285
 30
0.0
  0
VERTEX
  5
45
330
43
100
AcDbEntity
  8
_U+30EC_U+30A4_U+30E4_U+30FC 1
 62
   179
420
  2234388
370
     9
100
AcDbVertex
100
AcDb2dVertex
 10
89.04728245043678
 20
-133.7861391332203
 30
0.0
  0
SEQEND
  5
46
330
43
100
AcDbEntity
  8
_U+30EC_U+30A4_U+30E4_U+30FC 1
 62
   179
420
  2234388
370
     9
  0
POLYLINE
  5
47
330
1F
100
AcDbEntity
  8
_U+30EC_U+30A4_U+30E4_U+30FC 1
 62
   179
420
  2234388
370
     9
100
AcDb2dPolyline
 66
     1
 10
0.0
 20
0.0
 30
0.0
  0
VERTEX
  5
48
330
47
100
AcDbEntity
  8
_U+30EC_U+30A4_U+30E4_U+30FC 1
 62
   179
420
  2234388
370
     9
100
AcDbVertex
100
AcDb2dVertex
 10
88.54704357431005
 20
-134.6522438552257
 30
0.0
  0
VERTEX
  5
49
330
47
100
AcDbEntity
  8
_U+30EC_U+30A4_U+30E4_U+30FC 1
 62
   179
420
  2234388
370
     9
100
AcDbVertex
100
AcDb2dVertex
 10
89.04728245043678
 20
-133.7861391332203
 30
0.0
  0
SEQEND
  5
4A
330
47
100
AcDbEntity
  8
_U+30EC_U+30A4_U+30E4_U+30FC 1
 62
   179
420
  2234388
370
     9
  0
SPLINE
  5
4B
330
1F
100
AcDbEntity
  8
_U+30EC_U+30A4_U+30E4_U+30FC 1
 62
   179
420
  2234388
370
     9
100
AcDbSpline
210
0.0
220
0.0
230
1.0
 70
    11
 71
     3
 72
    17
 73
    13
 74
     0
 42
0.0000000001
 43
0.0000000001
 12
1.0
 22
0.0
 32
0.0
 13
1.0
 23
0.0
 33
0.0
 40
0.0
 40
0.0
 40
0.0
 40
0.0
 40
1.0
 40
1.0
 40
1.0
 40
2.0
 40
2.0
 40
2.0
 40
3.0
 40
3.0
 40
3.0
 40
4.0
 40
4.0
 40
4.0
 40
4.0
 10
94.91514091184635
 20
-124.0179341356623
 30
0.0
 10
94.91514091184635
 20
-123.9627949690092
 30
0.0
 10
94.87033813521158
 20
-123.9180274690206
 30
0.0
 10
94.81523424772851
 20
-123.9180274690206
 30
0.0
 10
94.76009508246857
 20
-123.9180274690206
 30
0.0
 10
94.71532758361069
 20
-123.9627949690092
 30
0.0
 10
94.71532758361069
 20
-124.0179341356623
 30
0.0
 10
94.71532758361069
 20
-124.0730380245372
 30
0.0
 10
94.76009508246857
 20
-124.1178408023039
 30
0.0
 10
94.81523424772851
 20
-124.1178408023039
 30
0.0
 10
94.87033813521158
 20
-124.1178408023039
 30
0.0
 10
94.91514091184635
 20
-124.0730380245372
 30
0.0
 10
94.91514091184635
 20
-124.0179341356623
 30
0.0
  0
SPLINE
  5
4C
330
1F
100
AcDbEntity
  8
_U+30EC_U+30A4_U+30E4_U+30FC 1
 62
   179
420
  2234388
370
     9
100
AcDbSpline
210
0.0
220
0.0
230
1.0
 70
    11
 71
     3
 72
    17
 73
    13
 74
     0
 42
0.0000000001
 43
0.0000000001
 12
1.0
 22
0.0
 32
0.0
 13
1.0
 23
0.0
 33
0.0
 40
0.0
 40
0.0
 40
0.0
 40
0.0
 40
1.0
 40
1.0
 40
1.0
 40
2.0
 40
2.0
 40
2.0
 40
3.0
 40
3.0
 40
3.0
 40
4.0
 40
4.0
 40
4.0
 40
4.0
 10
104.9148737122875
 20
-124.0179341356623
 30
0.0
 10
104.9148737122875
 20
-123.9627949690092
 30
0.0
 10
104.8700709356527
 20
-123.9180274690206
 30
0.0
 10
104.8149670481696
 20
-123.9180274690206
 30
0.0
 10
104.7598305293657
 20
-123.9180274690206
 30
0.0
 10
104.7150603840518
 20
-123.9627949690092
 30
0.0
 10
104.7150603840518
 20
-124.0179341356623
 30
0.0
 10
104.7150603840518
 20
-124.0730380245372
 30
0.0
 10
104.7598305293657
 20
-124.1178408023039
 30
0.0
 10
104.8149670481696
 20
-124.1178408023039
 30
0.0
 10
104.8700709356527
 20
-124.1178408023039
 30
0.0
 10
104.9148737122875
 20
-124.0730380245372
 30
0.0
 10
104.9148737122875
 20
-124.0179341356623
 30
0.0
  0
SPLINE
  5
4D
330
1F
100
AcDbEntity
  8
_U+30EC_U+30A4_U+30E4_U+30FC 1
 62
   179
420
  2234388
370
     9
100
AcDbSpline
210
0.0
220
0.0
230
1.0
 70
    11
 71
     3
 72
    17
 73
    13
 74
     0
 42
0.0000000001
 43
0.0000000001
 12
1.0
 22
0.0
 32
0.0
 13
1.0
 23
0.0
 33
0.0
 40
0.0
 40
0.0
 40
0.0
 40
0.0
 40
1.0
 40
1.0
 40
1.0
 40
2.0
 40
2.0
 40
2.0
 40
3.0
 40
3.0
 40
3.0
 40
4.0
 40
4.0
 40
4.0
 40
4.0
 10
93.91536871513044
 20
-121.0179471919676
 30
0.0
 10
93.91536871513044
 20
-120.9628080253149
 30
0.0
 10
93.87056593849569
 20
-120.918040525326
 30
0.0
 10
93.81475649547505
 20
-120.918040525326
 30
0.0
 10
93.75965260799198
 20
-120.918040525326
 30
0.0
 10
93.71484983135721
 20
-120.9628080253149
 30
0.0
 10
93.71484983135721
 20
-121.0179471919676
 30
0.0
 10
93.71484983135721
 20
-121.0730510808429
 30
0.0
 10
93.75965260799198
 20
-121.1178538586096
 30
0.0
 10
93.81475649547505
 20
-121.1178538586096
 30
0.0
 10
93.87056593849569
 20
-121.1178538586096
 30
0.0
 10
93.91536871513044
 20
-121.0730510808429
 30
0.0
 10
93.91536871513044
 20
-121.0179471919676
 30
0.0
  0
SPLINE
  5
4E
330
1F
100
AcDbEntity
  8
_U+30EC_U+30A4_U+30E4_U+30FC 1
 62
   179
420
  2234388
370
     9
100
AcDbSpline
210
0.0
220
0.0
230
1.0
 70
    11
 71
     3
 72
    17
 73
    13
 74
     0
 42
0.0000000001
 43
0.0000000001
 12
1.0
 22
0.0
 32
0.0
 13
1.0
 23
0.0
 33
0.0
 40
0.0
 40
0.0
 40
0.0
 40
0.0
 40
1.0
 40
1.0
 40
1.0
 40
2.0
 40
2.0
 40
2.0
 40
3.0
 40
3.0
 40
3.0
 40
4.0
 40
4.0
 40
4.0
 40
4.0
 10
89.41519438549501
 20
-121.0179471919676
 30
0.0
 10
89.41519438549501
 20
-120.9628080253149
 30
0.0
 10
89.37042688663712
 20
-120.918040525326
 30
0.0
 10
89.31497022138528
 20
-120.918040525326
 30
0.0
 10
89.25983331101854
 20
-120.918040525326
 30
0.0
 10
89.21506355726744
 20
-120.9628080253149
 30
0.0
 10
89.21506355726744
 20
-121.0179471919676
 30
0.0
 10
89.21506355726744
 20
-121.0730510808429
 30
0.0
 10
89.25983331101854
 20
-121.1178538586096
 30
0.0
 10
89.31497022138528
 20
-121.1178538586096
 30
0.0
 10
89.37042688663712
 20
-121.1178538586096
 30
0.0
 10
89.41519438549501
 20
-121.0730510808429
 30
0.0
 10
89.41519438549501
 20
-121.0179471919676
 30
0.0
  0
SPLINE
  5
4F
330
1F
100
AcDbEntity
  8
_U+30EC_U+30A4_U+30E4_U+30FC 1
 62
   179
420
  2234388
370
     9
100
AcDbSpline
210
0.0
220
0.0
230
1.0
 70
    11
 71
     3
 72
    17
 73
    13
 74
     0
 42
0.0000000001
 43
0.0000000001
 12
1.0
 22
0.0
 32
0.0
 13
1.0
 23
0.0
 33
0.0
 40
0.0
 40
0.0
 40
0.0
 40
0.0
 40
1.0
 40
1.0
 40
1.0
 40
2.0
 40
2.0
 40
2.0
 40
3.0
 40
3.0
 40
3.0
 40
4.0
 40
4.0
 40
4.0
 40
4.0
 10
84.41499284639411
 20
-125.0183766354122
 30
0.0
 10
84.41499284639411
 20
-124.9625671909814
 30
0.0
 10
84.37022534753623
 20
-124.9184699687702
 30
0.0
 10
84.31508618227627
 20
-124.9184699687702
 30
0.0
 10
84.2599822947932
 20
-124.9184699687702
 30
0.0
 10
84.21517951815844
 20
-124.9625671909814
 30
0.0
 10
84.21517951815844
 20
-125.0183766354122
 30
0.0
 10
84.21517951815844
 20
-125.0735158020649
 30
0.0
 10
84.2599822947932
 20
-125.1182833020538
 30
0.0
 10
84.31508618227627
 20
-125.1182833020538
 30
0.0
 10
84.37022534753623
 20
-125.1182833020538
 30
0.0
 10
84.41499284639411
 20
-125.0735158020649
 30
0.0
 10
84.41499284639411
 20
-125.0183766354122
 30
0.0
  0
SPLINE
  5
50
330
1F
100
AcDbEntity
  8
_U+30EC_U+30A4_U+30E4_U+30FC 1
 62
   179
420
  2234388
370
     9
100
AcDbSpline
210
0.0
220
0.0
230
1.0
 70
    11
 71
     3
 72
    17
 73
    13
 74
     0
 42
0.0000000001
 43
0.0000000001
 12
1.0
 22
0.0
 32
0.0
 13
1.0
 23
0.0
 33
0.0
 40
0.0
 40
0.0
 40
0.0
 40
0.0
 40
1.0
 40
1.0
 40
1.0
 40
2.0
 40
2.0
 40
2.0
 40
3.0
 40
3.0
 40
3.0
 40
4.0
 40
4.0
 40
4.0
 40
4.0
 10
84.41499284639411
 20
-134.5178707997037
 30
0.0
 10
84.41499284639411
 20
-134.4627669108288
 30
0.0
 10
84.37022534753623
 20
-134.4179641330621
 30
0.0
 10
84.31508618227627
 20
-134.4179641330621
 30
0.0
 10
84.2599822947932
 20
-134.4179641330621
 30
0.0
 10
84.21517951815844
 20
-134.4627669108288
 30
0.0
 10
84.21517951815844
 20
-134.5178707997037
 30
0.0
 10
84.21517951815844
 20
-134.5737155219123
 30
0.0
 10
84.2599822947932
 20
-134.6178127441235
 30
0.0
 10
84.31508618227627
 20
-134.6178127441235
 30
0.0
 10
84.37022534753623
 20
-134.6178127441235
 30
0.0
 10
84.41499284639411
 20
-134.5737155219123
 30
0.0
 10
84.41499284639411
 20
-134.5178707997037
 30
0.0
  0
POLYLINE
  5
51
330
1F
100
AcDbEntity
  8
_U+30EC_U+30A4_U+30E4_U+30FC 1
 62
   179
420
  2234388
370
     9
100
AcDb2dPolyline
 66
     1
 10
0.0
 20
0.0
 30
0.0
  0
VERTEX
  5
52
330
51
100
AcDbEntity
  8
_U+30EC_U+30A4_U+30E4_U+30FC 1
 62
   179
420
  2234388
370
     9
100
AcDbVertex
100
AcDb2dVertex
 10
84.31508618227627
 20
-125.0183766354122
 30
0.0
  0
VERTEX
  5
53
330
51
100
AcDbEntity
  8
_U+30EC_U+30A4_U+30E4_U+30FC 1
 62
   179
420
  2234388
370
     9
100
AcDbVertex
100
AcDb2dVertex
 10
84.31508618227627
 20
-134.5178707997037
 30
0.0
  0
SEQEND
  5
54
330
51
100
AcDbEntity
  8
_U+30EC_U+30A4_U+30E4_U+30FC 1
 62
   179
420
  2234388
370
     9
  0
POLYLINE
  5
55
330
1F
100
AcDbEntity
  8
_U+30EC_U+30A4_U+30E4_U+30FC 1
 62
   179
420
  2234388
370
     9
100
AcDb2dPolyline
 66
     1
 10
0.0
 20
0.0
 30
0.0
  0
VERTEX
  5
56
330
55
100
AcDbEntity
  8
_U+30EC_U+30A4_U+30E4_U+30FC 1
 62
   179
420
  2234388
370
     9
100
AcDbVertex
100
AcDb2dVertex
 10
85.7751275339164
 20
-125.0183766354122
 30
0.0
  0
VERTEX
  5
57
330
55
100
AcDbEntity
  8
_U+30EC_U+30A4_U+30E4_U+30FC 1
 62
   179
420
  2234388
370
     9
100
AcDbVertex
100
AcDb2dVertex
 10
83.31499648556847
 20
-125.0183766354122
 30
0.0
  0
SEQEND
  5
58
330
55
100
AcDbEntity
  8
_U+30EC_U+30A4_U+30E4_U+30FC 1
 62
   179
420
  2234388
370
     9
  0
POLYLINE
  5
59
330
1F
100
AcDbEntity
  8
_U+30EC_U+30A4_U+30E4_U+30FC 1
 62
   179
420
  2234388
370
     9
100
AcDb2dPolyline
 66
     1
 10
0.0
 20
0.0
 30
0.0
  0
VERTEX
  5
5A
330
59
100
AcDbEntity
  8
_U+30EC_U+30A4_U+30E4_U+30FC 1
 62
   179
420
  2234388
370
     9
100
AcDbVertex
100
AcDb2dVertex
 10
87.26064164485153
 20
-134.5178707997037
 30
0.0
  0
VERTEX
  5
5B
330
59
100
AcDbEntity
  8
_U+30EC_U+30A4_U+30E4_U+30FC 1
 62
   179
420
  2234388
370
     9
100
AcDbVertex
100
AcDb2dVertex
 10
83.31499648556847
 20
-134.5178707997037
 30
0.0
  0
SEQEND
  5
5C
330
59
100
AcDbEntity
  8
_U+30EC_U+30A4_U+30E4_U+30FC 1
 62
   179
420
  2234388
370
     9
  0
INSERT
  5
5E
330
1F
100
AcDbEntity
  8
_U+30EC_U+30A4_U+30E4_U+30FC 1
100
AcDbBlockReference
  2
block 2
 10
0.0
 20
0.0
 30
0.0
  0
POLYLINE
  5
6E
330
1F
100
AcDbEntity
  8
_U+30EC_U+30A4_U+30E4_U+30FC 1
 62
   179
420
  2234388
370
     9
100
AcDb2dPolyline
 66
     1
 10
0.0
 20
0.0
 30
0.0
  0
VERTEX
  5
6F
330
6E
100
AcDbEntity
  8
_U+30EC_U+30A4_U+30E4_U+30FC 1
 62
   179
420
  2234388
370
     9
100
AcDbVertex
100
AcDb2dVertex
 10
89.31497022138528
 20
-121.0179471919676
 30
0.0
  0
VERTEX
  5
70
330
6E
100
AcDbEntity
  8
_U+30EC_U+30A4_U+30E4_U+30FC 1
 62
   179
420
  2234388
370
     9
100
AcDbVertex
100
AcDb2dVertex
 10
93.81475649547505
 20
-121.0179471919676
 30
0.0
  0
SEQEND
  5
71
330
6E
100
AcDbEntity
  8
_U+30EC_U+30A4_U+30E4_U+30FC 1
 62
   179
420
  2234388
370
     9
  0
POLYLINE
  5
72
330
1F
100
AcDbEntity
  8
_U+30EC_U+30A4_U+30E4_U+30FC 1
 62
   179
420
  2234388
370
     9
100
AcDb2dPolyline
 66
     1
 10
0.0
 20
0.0
 30
0.0
  0
VERTEX
  5
73
330
72
100
AcDbEntity
  8
_U+30EC_U+30A4_U+30E4_U+30FC 1
 62
   179
420
  2234388
370
     9
100
AcDbVertex
100
AcDb2dVertex
 10
89.31514661026966
 20
-122.4745313582704
 30
0.0
  0
VERTEX
  5
74
330
72
100
AcDbEntity
  8
_U+30EC_U+30A4_U+30E4_U+30FC 1
 62
   179
420
  2234388
370
     9
100
AcDbVertex
100
AcDb2dVertex
 10
89.31497022138528
 20
-120.0181749699954
 30
0.0
  0
SEQEND
  5
75
330
72
100
AcDbEntity
  8
_U+30EC_U+30A4_U+30E4_U+30FC 1
 62
   179
420
  2234388
370
     9
  0
POLYLINE
  5
76
330
1F
100
AcDbEntity
  8
_U+30EC_U+30A4_U+30E4_U+30FC 1
 62
   179
420
  2234388
370
     9
100
AcDb2dPolyline
 66
     1
 10
0.0
 20
0.0
 30
0.0
  0
VERTEX
  5
77
330
76
100
AcDbEntity
  8
_U+30EC_U+30A4_U+30E4_U+30FC 1
 62
   179
420
  2234388
370
     9
100
AcDbVertex
100
AcDb2dVertex
 10
93.81475649547505
 20
-123.4784310802415
 30
0.0
  0
VERTEX
  5
78
330
76
100
AcDbEntity
  8
_U+30EC_U+30A4_U+30E4_U+30FC 1
 62
   179
420
  2234388
370
     9
100
AcDbVertex
100
AcDb2dVertex
 10
93.81475649547505
 20
-120.0181749699954
 30
0.0
  0
SEQEND
  5
79
330
76
100
AcDbEntity
  8
_U+30EC_U+30A4_U+30E4_U+30FC 1
 62
   179
420
  2234388
370
     9
  0
INSERT
  5
7B
330
1F
100
AcDbEntity
  8
_U+30EC_U+30A4_U+30E4_U+30FC 1
100
AcDbBlockReference
  2
block 3
 10
0.0
 20
0.0
 30
0.0
  0
POLYLINE
  5
9D
330
1F
100
AcDbEntity
  8
_U+30EC_U+30A4_U+30E4_U+30FC 1
 62
   179
420
  2234388
370
     9
100
AcDb2dPolyline
 66
     1
 10
0.0
 20
0.0
 30
0.0
  0
VERTEX
  5
9E
330
9D
100
AcDbEntity
  8
_U+30EC_U+30A4_U+30E4_U+30FC 1
 62
   179
420
  2234388
370
     9
100
AcDbVertex
100
AcDb2dVertex
 10
94.81523424772851
 20
-124.0179341356623
 30
0.0
  0
VERTEX
  5
9F
330
9D
100
AcDbEntity
  8
_U+30EC_U+30A4_U+30E4_U+30FC 1
 62
   179
420
  2234388
370
     9
100
AcDbVertex
100
AcDb2dVertex
 10
104.8149670481696
 20
-124.0179341356623
 30
0.0
  0
SEQEND
  5
A0
330
9D
100
AcDbEntity
  8
_U+30EC_U+30A4_U+30E4_U+30FC 1
 62
   179
420
  2234388
370
     9
  0
POLYLINE
  5
A1
330
1F
100
AcDbEntity
  8
_U+30EC_U+30A4_U+30E4_U+30FC 1
 62
   179
420
  2234388
370
     9
100
AcDb2dPolyline
 66
     1
 10
0.0
 20
0.0
 30
0.0
  0
VERTEX
  5
A2
330
A1
100
AcDbEntity
  8
_U+30EC_U+30A4_U+30E4_U+30FC 1
 62
   179
420
  2234388
370
     9
100
AcDbVertex
100
AcDb2dVertex
 10
104.8149670481696
 20
-125.4779402464082
 30
0.0
  0
VERTEX
  5
A3
330
A1
100
AcDbEntity
  8
_U+30EC_U+30A4_U+30E4_U+30FC 1
 62
   179
420
  2234388
370
     9
100
AcDbVertex
100
AcDb2dVertex
 10
104.8149670481696
 20
-123.0181619136901
 30
0.0
  0
SEQEND
  5
A4
330
A1
100
AcDbEntity
  8
_U+30EC_U+30A4_U+30E4_U+30FC 1
 62
   179
420
  2234388
370
     9
  0
INSERT
  5
A6
330
1F
100
AcDbEntity
  8
_U+30EC_U+30A4_U+30E4_U+30FC 1
100
AcDbBlockReference
  2
block 4
 10
0.0
 20
0.0
 30
0.0
  0
POLYLINE
  5
AE
330
1F
100
AcDbEntity
  8
_U+30EC_U+30A4_U+30E4_U+30FC 1
 62
   179
420
  2234388
370
     9
100
AcDb2dPolyline
 66
     1
 10
0.0
 20
0.0
 30
0.0
  0
VERTEX
  5
AF
330
AE
100
AcDbEntity
  8
_U+30EC_U+30A4_U+30E4_U+30FC 1
 62
   179
420
  2234388
370
     9
100
AcDbVertex
100
AcDb2dVertex
 10
89.04728245043678
 20
-133.7861391332203
 30
0.0
  0
VERTEX
  5
B0
330
AE
100
AcDbEntity
  8
_U+30EC_U+30A4_U+30E4_U+30FC 1
 62
   179
420
  2234388
370
     9
100
AcDbVertex
100
AcDb2dVertex
 10
84.31508618227627
 20
-138.5183355209261
 30
0.0
  0
SEQEND
  5
B1
330
AE
100
AcDbEntity
  8
_U+30EC_U+30A4_U+30E4_U+30FC 1
 62
   179
420
  2234388
370
     9
  0
POLYLINE
  5
B2
330
1F
100
AcDbEntity
  8
_U+30EC_U+30A4_U+30E4_U+30FC 1
 62
   179
420
  2234388
370
     9
100
AcDb2dPolyline
 66
     1
 10
0.0
 20
0.0
 30
0.0
  0
VERTEX
  5
B3
330
B2
100
AcDbEntity
  8
_U+30EC_U+30A4_U+30E4_U+30FC 1
 62
   179
420
  2234388
370
     9
100
AcDbVertex
100
AcDb2dVertex
 10
84.31508618227627
 20
-138.5183355209261
 30
0.0
  0
VERTEX
  5
B4
330
B2
100
AcDbEntity
  8
_U+30EC_U+30A4_U+30E4_U+30FC 1
 62
   179
420
  2234388
370
     9
100
AcDbVertex
100
AcDb2dVertex
 10
77.04024414565073
 20
-138.5183355209261
 30
0.0
  0
SEQEND
  5
B5
330
B2
100
AcDbEntity
  8
_U+30EC_U+30A4_U+30E4_U+30FC 1
 62
   179
420
  2234388
370
     9
  0
INSERT
  5
B7
330
1F
100
AcDbEntity
  8
_U+30EC_U+30A4_U+30E4_U+30FC 1
100
AcDbBlockReference
  2
block 5
 10
0.0
 20
0.0
 30
0.0
  0
POLYLINE
  5
C9
330
1F
100
AcDbEntity
  8
_U+30EC_U+30A4_U+30E4_U+30FC 1
 62
   179
420
  2234388
370
     9
100
AcDb2dPolyline
 66
     1
 10
0.0
 20
0.0
 30
0.0
  0
VERTEX
  5
CA
330
C9
100
AcDbEntity
  8
_U+30EC_U+30A4_U+30E4_U+30FC 1
 62
   179
420
  2234388
370
     9
100
AcDbVertex
100
AcDb2dVertex
 10
86.76473973089152
 20
-121.0179471919676
 30
0.0
  0
VERTEX
  5
CB
330
C9
100
AcDbEntity
  8
_U+30EC_U+30A4_U+30E4_U+30FC 1
 62
   179
420
  2234388
370
     9
100
AcDbVertex
100
AcDb2dVertex
 10
92.80468318791084
 20
-121.0179471919676
 30
0.0
  0
SEQEND
  5
CC
330
C9
100
AcDbEntity
  8
_U+30EC_U+30A4_U+30E4_U+30FC 1
 62
   179
420
  2234388
370
     9
  0
SPLINE
  5
CD
330
1F
100
AcDbEntity
  8
_U+30EC_U+30A4_U+30E4_U+30FC 1
 62
   179
420
  2234388
370
     9
100
AcDbSpline
210
0.0
220
0.0
230
1.0
 70
    11
 71
     3
 72
    17
 73
    13
 74
     0
 42
0.0000000001
 43
0.0000000001
 12
1.0
 22
0.0
 32
0.0
 13
1.0
 23
0.0
 33
0.0
 40
0.0
 40
0.0
 40
0.0
 40
0.0
 40
1.0
 40
1.0
 40
1.0
 40
2.0
 40
2.0
 40
2.0
 40
3.0
 40
3.0
 40
3.0
 40
4.0
 40
4.0
 40
4.0
 40
4.0
 10
88.40459191127763
 20
-121.0144899697463
 30
0.0
 10
88.40459191127763
 20
-120.9593860808714
 30
0.0
 10
88.35982441241974
 20
-120.9145833031047
 30
0.0
 10
88.3046852471598
 20
-120.9145833031047
 30
0.0
 10
88.24958135967672
 20
-120.9145833031047
 30
0.0
 10
88.20477858304196
 20
-120.9593860808714
 30
0.0
 10
88.20477858304196
 20
-121.0144899697463
 30
0.0
 10
88.20477858304196
 20
-121.0696291363994
 30
0.0
 10
88.24958135967672
 20
-121.114396636388
 30
0.0
 10
88.3046852471598
 20
-121.114396636388
 30
0.0
 10
88.35982441241974
 20
-121.114396636388
 30
0.0
 10
88.40459191127763
 20
-121.0696291363994
 30
0.0
 10
88.40459191127763
 20
-121.0144899697463
 30
0.0
  0
POLYLINE
  5
CE
330
1F
100
AcDbEntity
  8
_U+30EC_U+30A4_U+30E4_U+30FC 1
 62
   179
420
  2234388
370
     9
100
AcDb2dPolyline
 66
     1
 10
0.0
 20
0.0
 30
0.0
  0
VERTEX
  5
CF
330
CE
100
AcDbEntity
  8
_U+30EC_U+30A4_U+30E4_U+30FC 1
 62
   179
420
  2234388
370
     9
100
AcDbVertex
100
AcDb2dVertex
 10
88.3046852471598
 20
-122.4745313582704
 30
0.0
  0
VERTEX
  5
D0
330
CE
100
AcDbEntity
  8
_U+30EC_U+30A4_U+30E4_U+30FC 1
 62
   179
420
  2234388
370
     9
100
AcDbVertex
100
AcDb2dVertex
 10
88.3046852471598
 20
-120.0147177477741
 30
0.0
  0
SEQEND
  5
D1
330
CE
100
AcDbEntity
  8
_U+30EC_U+30A4_U+30E4_U+30FC 1
 62
   179
420
  2234388
370
     9
  0
INSERT
  5
D3
330
1F
100
AcDbEntity
  8
_U+30EC_U+30A4_U+30E4_U+30FC 1
100
AcDbBlockReference
  2
block 6
 10
0.0
 20
0.0
 30
0.0
  0
ENDSEC
  0
SECTION
  2
OBJECTS
  0
DICTIONARY
  5
C
330
0
100
AcDbDictionary
281
     1
  3
ACAD_GROUP
350
D
  3
ACAD_LAYOUT
350
1A
  3
ACAD_MATERIAL
350
3B
  3
ACAD_MLEADERSTYLE
350
D9
  3
ACAD_MLINESTYLE
350
17
  3
ACAD_PLOTSETTINGS
350
19
  3
ACAD_PLOTSTYLENAME
350
E
  3
ACAD_TABLESTYLE
350
D8
  3
ACAD_VISUALSTYLE
350
2A
  0
SUN
  5
3F
330
29
100
AcDbSun
 90
        1
290
     0
 63
     7
421
 16777215
 40
1.0
291
     1
 91
  2455826
 92
 54000000
292
     0
 70
     2
 71
   256
280
     1
  0
DICTIONARY
  5
D
102
{ACAD_REACTORS
330
C
102
}
330
C
100
AcDbDictionary
281
     1
  0
DICTIONARY
  5
1A
102
{ACAD_REACTORS
330
C
102
}
330
C
100
AcDbDictionary
281
     1
  3
Layout1
350
1E
  3
Layout2
350
26
  3
Model
350
22
  0
DICTIONARY
  5
3B
102
{ACAD_REACTORS
330
C
102
}
330
C
100
AcDbDictionary
281
     1
  3
ByBlock
350
3D
  3
ByLayer
350
3C
  3
Global
350
3E
  0
DICTIONARY
  5
D9
102
{ACAD_REACTORS
330
C
102
}
330
C
100
AcDbDictionary
281
     1
  0
DICTIONARY
  5
17
102
{ACAD_REACTORS
330
C
102
}
330
C
100
AcDbDictionary
281
     1
  3
Standard
350
18
  0
DICTIONARY
  5
19
102
{ACAD_REACTORS
330
C
102
}
330
C
100
AcDbDictionary
281
     1
  0
ACDBDICTIONARYWDFLT
  5
E
102
{ACAD_REACTORS
330
C
102
}
330
C
100
AcDbDictionary
281
     1
  3
Normal
350
F
100
AcDbDictionaryWithDefault
340
F
  0
DICTIONARY
  5
D8
102
{ACAD_REACTORS
330
C
102
}
330
C
100
AcDbDictionary
281
     1
  0
DICTIONARY
  5
2A
102
{ACAD_REACTORS
330
C
102
}
330
C
100
AcDbDictionary
281
     1
  3
2dWireframe
350
2F
  3
3D Hidden
350
31
  3
3dWireframe
350
30
  3
Basic
350
32
  3
Brighten
350
36
  3
ColorChange
350
3A
  3
Conceptual
350
34
  3
Dim
350
35
  3
Facepattern
350
39
  3
Flat
350
2B
  3
FlatWithEdges
350
2C
  3
Gouraud
350
2D
  3
GouraudWithEdges
350
2E
  3
Linepattern
350
38
  3
Realistic
350
33
  3
Thicken
350
37
  0
LAYOUT
  5
1E
102
{ACAD_REACTORS
330
1A
102
}
330
1A
100
AcDbPlotSettings
  1

  2
none_device
  4

  6

 40
0.0
 41
0.0
 42
0.0
 43
0.0
 44
0.0
 45
0.0
 46
0.0
 47
0.0
 48
0.0
 49
0.0
140
0.0
141
0.0
142
1.0
143
1.0
 70
   688
 72
     0
 73
     0
 74
     5
  7

 75
    16
 76
     0
 77
     2
 78
   300
147
1.0
148
0.0
149
0.0
100
AcDbLayout
  1
Layout1
 70
     1
 71
     1
 10
0.0
 20
0.0
 11
12.0
 21
9.0
 12
0.0
 22
0.0
 32
0.0
 14
1.000000000000000E+20
 24
1.000000000000000E+20
 34
1.000000000000000E+20
 15
-1.000000000000000E+20
 25
-1.000000000000000E+20
 35
-1.000000000000000E+20
146
0.0
 13
0.0
 23
0.0
 33
0.0
 16
1.0
 26
0.0
 36
0.0
 17
0.0
 27
1.0
 37
0.0
 76
     0
330
1B
  0
LAYOUT
  5
26
102
{ACAD_REACTORS
330
1A
102
}
330
1A
100
AcDbPlotSettings
  1

  2
none_device
  4

  6

 40
0.0
 41
0.0
 42
0.0
 43
0.0
 44
0.0
 45
0.0
 46
0.0
 47
0.0
 48
0.0
 49
0.0
140
0.0
141
0.0
142
1.0
143
1.0
 70
   688
 72
     0
 73
     0
 74
     5
  7

 75
    16
 76
     0
 77
     2
 78
   300
147
1.0
148
0.0
149
0.0
100
AcDbLayout
  1
Layout2
 70
     1
 71
     2
 10
0.0
 20
0.0
 11
0.0
 21
0.0
 12
0.0
 22
0.0
 32
0.0
 14
0.0
 24
0.0
 34
0.0
 15
0.0
 25
0.0
 35
0.0
146
0.0
 13
0.0
 23
0.0
 33
0.0
 16
1.0
 26
0.0
 36
0.0
 17
0.0
 27
1.0
 37
0.0
 76
     0
330
23
  0
LAYOUT
  5
22
102
{ACAD_REACTORS
330
1A
102
}
330
1A
100
AcDbPlotSettings
  1

  2
none_device
  4

  6

 40
0.0
 41
0.0
 42
0.0
 43
0.0
 44
0.0
 45
0.0
 46
0.0
 47
0.0
 48
0.0
 49
0.0
140
0.0
141
0.0
142
1.0
143
1.0
 70
  1712
 72
     0
 73
     0
 74
     0
  7

 75
     0
 76
     0
 77
     2
 78
   300
147
1.0
148
0.0
149
0.0
100
AcDbLayout
  1
Model
 70
     1
 71
     0
 10
0.0
 20
0.0
 11
12.0
 21
9.0
 12
0.0
 22
0.0
 32
0.0
 14
1.000000000000000E+20
 24
1.000000000000000E+20
 34
1.000000000000000E+20
 15
-1.000000000000000E+20
 25
-1.000000000000000E+20
 35
-1.000000000000000E+20
146
0.0
 13
0.0
 23
0.0
 33
0.0
 16
1.0
 26
0.0
 36
0.0
 17
0.0
 27
1.0
 37
0.0
 76
     0
330
1F
331
29
  0
MATERIAL
  5
3D
102
{ACAD_REACTORS
330
3B
102
}
330
3B
100
AcDbMaterial
  1
ByBlock
 72
     1
 94
      127
  0
MATERIAL
  5
3C
102
{ACAD_REACTORS
330
3B
102
}
330
3B
100
AcDbMaterial
  1
ByLayer
 72
     1
 94
      127
  0
MATERIAL
  5
3E
102
{ACAD_REACTORS
330
3B
102
}
330
3B
100
AcDbMaterial
  1
Global
 72
     1
 94
      127
  0
MLINESTYLE
  5
18
102
{ACAD_REACTORS
330
17
102
}
330
17
100
AcDbMlineStyle
  2
Standard
 70
     0
  3

 62
   256
 51
90.0
 52
90.0
 71
     2
 49
0.5
 62
   256
  6
BYLAYER
 49
-0.5
 62
   256
  6
BYLAYER
  0
ACDBPLACEHOLDER
  5
F
102
{ACAD_REACTORS
330
E
102
}
330
E
  0
VISUALSTYLE
  5
2F
102
{ACAD_REACTORS
330
2A
102
}
330
2A
100
AcDbVisualStyle
  2
2dWireframe
 70
     4
177
     2
291
     0
 71
     0
176
     1
 72
     2
176
     1
 73
     0
176
     1
 90
        0
176
     1
 40
-0.6
176
     1
 41
-30.0
176
     1
 62
     5
 63
     7
421
 16777215
176
     1
 74
     1
176
     1
 91
        4
176
     1
 64
     7
176
     1
 65
   257
176
     1
 75
     1
176
     1
175
     1
176
     1
 42
1.0
176
     1
 92
        0
176
     1
 66
   257
176
     1
 43
1.0
176
     1
 76
     1
176
     1
 77
     6
176
     1
 78
     2
176
     1
 67
     7
176
     1
 79
     5
176
     1
170
     0
176
     1
171
     0
176
     1
290
     0
176
     1
 93
        1
176
     1
 44
0.0
176
     1
173
     0
176
     1
  0
VISUALSTYLE
  5
31
102
{ACAD_REACTORS
330
2A
102
}
330
2A
100
AcDbVisualStyle
  2
3D Hidden
 70
     6
177
     2
291
     0
 71
     1
176
     1
 72
     2
176
     1
 73
     2
176
     1
 90
        0
176
     1
 40
-0.6
176
     1
 41
-30.0
176
     1
 62
     5
 63
     7
421
 16777215
176
     1
 74
     2
176
     1
 91
        2
176
     1
 64
     7
176
     1
 65
   257
176
     1
 75
     2
176
     1
175
     1
176
     1
 42
40.0
176
     1
 92
        0
176
     1
 66
   257
176
     1
 43
1.0
176
     1
 76
     1
176
     1
 77
     6
176
     1
 78
     2
176
     1
 67
     7
176
     1
 79
     3
176
     1
170
     0
176
     1
171
     0
176
     1
290
     0
176
     1
 93
        1
176
     1
 44
0.0
176
     1
173
     0
176
     1
  0
VISUALSTYLE
  5
30
102
{ACAD_REACTORS
330
2A
102
}
330
2A
100
AcDbVisualStyle
  2
3dWireframe
 70
     5
177
     2
291
     0
 71
     0
176
     1
 72
     2
176
     1
 73
     0
176
     1
 90
        0
176
     1
 40
-0.6
176
     1
 41
-30.0
176
     1
 62
     5
 63
     7
421
 16777215
176
     1
 74
     1
176
     1
 91
        4
176
     1
 64
     7
176
     1
 65
   257
176
     1
 75
     1
176
     1
175
     1
176
     1
 42
1.0
176
     1
 92
        0
176
     1
 66
   257
176
     1
 43
1.0
176
     1
 76
     1
176
     1
 77
     6
176
     1
 78
     2
176
     1
 67
     7
176
     1
 79
     5
176
     1
170
     0
176
     1
171
     0
176
     1
290
     0
176
     1
 93
        1
176
     1
 44
0.0
176
     1
173
     0
176
     1
  0
VISUALSTYLE
  5
32
102
{ACAD_REACTORS
330
2A
102
}
330
2A
100
AcDbVisualStyle
  2
Basic
 70
     7
177
     2
291
     1
 71
     1
176
     1
 72
     0
176
     1
 73
     1
176
     1
 90
        0
176
     1
 40
-0.6
176
     1
 41
-30.0
176
     1
 62
     5
 63
     7
421
 16777215
176
     1
 74
     0
176
     1
 91
        4
176
     1
 64
     7
176
     1
 65
   257
176
     1
 75
     1
176
     1
175
     1
176
     1
 42
1.0
176
     1
 92
        8
176
     1
 66
     7
176
     1
 43
1.0
176
     1
 76
     1
176
     1
 77
     6
176
     1
 78
     2
176
     1
 67
     7
176
     1
 79
     5
176
     1
170
     0
176
     1
171
     0
176
     1
290
     0
176
     1
 93
        1
176
     1
 44
0.0
176
     1
173
     0
176
     1
  0
VISUALSTYLE
  5
36
102
{ACAD_REACTORS
330
2A
102
}
330
2A
100
AcDbVisualStyle
  2
Brighten
 70
    12
177
     2
291
     1
 71
     2
176
     1
 72
     2
176
     1
 73
     0
176
     1
 90
        0
176
     1
 40
-0.6
176
     1
 41
-30.0
176
     1
 62
     5
 63
     7
421
 16777215
176
     1
 74
     1
176
     1
 91
        4
176
     1
 64
     7
176
     1
 65
   257
176
     1
 75
     1
176
     1
175
     1
176
     1
 42
1.0
176
     1
 92
        8
176
     1
 66
     7
176
     1
 43
1.0
176
     1
 76
     1
176
     1
 77
     6
176
     1
 78
     2
176
     1
 67
     7
176
     1
 79
     5
176
     1
170
     0
176
     1
171
     0
176
     1
290
     0
176
     1
 93
        1
176
     1
 44
50.0
176
     1
173
     0
176
     1
  0
VISUALSTYLE
  5
3A
102
{ACAD_REACTORS
330
2A
102
}
330
2A
100
AcDbVisualStyle
  2
ColorChange
 70
    16
177
     2
291
     1
 71
     2
176
     1
 72
     2
176
     1
 73
     3
176
     1
 90
        0
176
     1
 40
-0.6
176
     1
 41
-30.0
176
     1
 62
     5
 63
     8
421
  8421504
176
     1
 74
     1
176
     1
 91
        4
176
     1
 64
     7
176
     1
 65
   257
176
     1
 75
     1
176
     1
175
     1
176
     1
 42
1.0
176
     1
 92
        8
176
     1
 66
     8
424
  8421504
176
     1
 43
1.0
176
     1
 76
     1
176
     1
 77
     6
176
     1
 78
     2
176
     1
 67
     7
176
     1
 79
     5
176
     1
170
     0
176
     1
171
     0
176
     1
290
     0
176
     1
 93
        1
176
     1
 44
0.0
176
     1
173
     0
176
     1
  0
VISUALSTYLE
  5
34
102
{ACAD_REACTORS
330
2A
102
}
330
2A
100
AcDbVisualStyle
  2
Conceptual
 70
     9
177
     2
291
     0
 71
     3
176
     1
 72
     2
176
     1
 73
     0
176
     1
 90
        0
176
     1
 40
-0.6
176
     1
 41
-30.0
176
     1
 62
     5
 63
     7
421
 16777215
176
     1
 74
     2
176
     1
 91
        2
176
     1
 64
     7
176
     1
 65
   257
176
     1
 75
     1
176
     1
175
     1
176
     1
 42
40.0
176
     1
 92
        8
176
     1
 66
     7
176
     1
 43
1.0
176
     1
 76
     1
176
     1
 77
     6
176
     1
 78
     2
176
     1
 67
     7
176
     1
 79
     3
176
     1
170
     0
176
     1
171
     0
176
     1
290
     0
176
     1
 93
        1
176
     1
 44
0.0
176
     1
173
     0
176
     1
  0
VISUALSTYLE
  5
35
102
{ACAD_REACTORS
330
2A
102
}
330
2A
100
AcDbVisualStyle
  2
Dim
 70
    11
177
     2
291
     1
 71
     2
176
     1
 72
     2
176
     1
 73
     0
176
     1
 90
        0
176
     1
 40
-0.6
176
     1
 41
-30.0
176
     1
 62
     5
 63
     7
421
 16777215
176
     1
 74
     1
176
     1
 91
        4
176
     1
 64
     7
176
     1
 65
   257
176
     1
 75
     1
176
     1
175
     1
176
     1
 42
1.0
176
     1
 92
        8
176
     1
 66
     7
176
     1
 43
1.0
176
     1
 76
     1
176
     1
 77
     6
176
     1
 78
     2
176
     1
 67
     7
176
     1
 79
     5
176
     1
170
     0
176
     1
171
     0
176
     1
290
     0
176
     1
 93
        1
176
     1
 44
-50.0
176
     1
173
     0
176
     1
  0
VISUALSTYLE
  5
39
102
{ACAD_REACTORS
330
2A
102
}
330
2A
100
AcDbVisualStyle
  2
Facepattern
 70
    15
177
     2
291
     1
 71
     2
176
     1
 72
     2
176
     1
 73
     0
176
     1
 90
        0
176
     1
 40
-0.6
176
     1
 41
-30.0
176
     1
 62
     5
 63
     7
421
 16777215
176
     1
 74
     1
176
     1
 91
        4
176
     1
 64
     7
176
     1
 65
   257
176
     1
 75
     1
176
     1
175
     1
176
     1
 42
1.0
176
     1
 92
        8
176
     1
 66
     7
176
     1
 43
1.0
176
     1
 76
     1
176
     1
 77
     6
176
     1
 78
     2
176
     1
 67
     7
176
     1
 79
     5
176
     1
170
     0
176
     1
171
     0
176
     1
290
     0
176
     1
 93
        1
176
     1
 44
0.0
176
     1
173
     0
176
     1
  0
VISUALSTYLE
  5
2B
102
{ACAD_REACTORS
330
2A
102
}
330
2A
100
AcDbVisualStyle
  2
Flat
 70
     0
177
     2
291
     1
 71
     2
176
     1
 72
     1
176
     1
 73
     1
176
     1
 90
        2
176
     1
 40
-0.6
176
     1
 41
30.0
176
     1
 62
     5
 63
     7
421
 16777215
176
     1
 74
     0
176
     1
 91
        4
176
     1
 64
     7
176
     1
 65
   257
176
     1
 75
     1
176
     1
175
     1
176
     1
 42
1.0
176
     1
 92
        8
176
     1
 66
     7
176
     1
 43
1.0
176
     1
 76
     1
176
     1
 77
     6
176
     1
 78
     2
176
     1
 67
     7
176
     1
 79
     5
176
     1
170
     0
176
     1
171
     0
176
     1
290
     0
176
     1
 93
       13
176
     1
 44
0.0
176
     1
173
     0
176
     1
  0
VISUALSTYLE
  5
2C
102
{ACAD_REACTORS
330
2A
102
}
330
2A
100
AcDbVisualStyle
  2
FlatWithEdges
 70
     1
177
     2
291
     1
 71
     2
176
     1
 72
     1
176
     1
 73
     1
176
     1
 90
        2
176
     1
 40
-0.6
176
     1
 41
30.0
176
     1
 62
     5
 63
     7
421
 16777215
176
     1
 74
     1
176
     1
 91
        4
176
     1
 64
     7
176
     1
 65
   257
176
     1
 75
     1
176
     1
175
     1
176
     1
 42
1.0
176
     1
 92
        0
176
     1
 66
   257
176
     1
 43
1.0
176
     1
 76
     1
176
     1
 77
     6
176
     1
 78
     2
176
     1
 67
     7
176
     1
 79
     5
176
     1
170
     0
176
     1
171
     0
176
     1
290
     0
176
     1
 93
       13
176
     1
 44
0.0
176
     1
173
     0
176
     1
  0
VISUALSTYLE
  5
2D
102
{ACAD_REACTORS
330
2A
102
}
330
2A
100
AcDbVisualStyle
  2
Gouraud
 70
     2
177
     2
291
     1
 71
     2
176
     1
 72
     2
176
     1
 73
     1
176
     1
 90
        2
176
     1
 40
-0.6
176
     1
 41
30.0
176
     1
 62
     5
 63
     7
421
 16777215
176
     1
 74
     0
176
     1
 91
        4
176
     1
 64
     7
176
     1
 65
   257
176
     1
 75
     1
176
     1
175
     1
176
     1
 42
1.0
176
     1
 92
        0
176
     1
 66
     7
176
     1
 43
1.0
176
     1
 76
     1
176
     1
 77
     6
176
     1
 78
     2
176
     1
 67
     7
176
     1
 79
     5
176
     1
170
     0
176
     1
171
     0
176
     1
290
     0
176
     1
 93
       13
176
     1
 44
0.0
176
     1
173
     0
176
     1
  0
VISUALSTYLE
  5
2E
102
{ACAD_REACTORS
330
2A
102
}
330
2A
100
AcDbVisualStyle
  2
GouraudWithEdges
 70
     3
177
     2
291
     1
 71
     2
176
     1
 72
     2
176
     1
 73
     1
176
     1
 90
        2
176
     1
 40
-0.6
176
     1
 41
30.0
176
     1
 62
     5
 63
     7
421
 16777215
176
     1
 74
     1
176
     1
 91
        4
176
     1
 64
     7
176
     1
 65
   257
176
     1
 75
     1
176
     1
175
     1
176
     1
 42
1.0
176
     1
 92
        0
176
     1
 66
   257
176
     1
 43
1.0
176
     1
 76
     1
176
     1
 77
     6
176
     1
 78
     2
176
     1
 67
     7
176
     1
 79
     5
176
     1
170
     0
176
     1
171
     0
176
     1
290
     0
176
     1
 93
       13
176
     1
 44
0.0
176
     1
173
     0
176
     1
  0
VISUALSTYLE
  5
38
102
{ACAD_REACTORS
330
2A
102
}
330
2A
100
AcDbVisualStyle
  2
Linepattern
 70
    14
177
     2
291
     1
 71
     2
176
     1
 72
     2
176
     1
 73
     0
176
     1
 90
        0
176
     1
 40
-0.6
176
     1
 41
-30.0
176
     1
 62
     5
 63
     7
421
 16777215
176
     1
 74
     1
176
     1
 91
        4
176
     1
 64
     7
176
     1
 65
   257
176
     1
 75
     7
176
     1
175
     7
176
     1
 42
1.0
176
     1
 92
        8
176
     1
 66
     7
176
     1
 43
1.0
176
     1
 76
     1
176
     1
 77
     6
176
     1
 78
     2
176
     1
 67
     7
176
     1
 79
     5
176
     1
170
     0
176
     1
171
     0
176
     1
290
     0
176
     1
 93
        1
176
     1
 44
0.0
176
     1
173
     0
176
     1
  0
VISUALSTYLE
  5
33
102
{ACAD_REACTORS
330
2A
102
}
330
2A
100
AcDbVisualStyle
  2
Realistic
 70
     8
177
     2
291
     0
 71
     2
176
     1
 72
     2
176
     1
 73
     0
176
     1
 90
        0
176
     1
 40
-0.6
176
     1
 41
-30.0
176
     1
 62
     5
 63
     7
421
 16777215
176
     1
 74
     1
176
     1
 91
        0
176
     1
 64
     7
176
     1
 65
   257
176
     1
 75
     1
176
     1
175
     1
176
     1
 42
1.0
176
     1
 92
        8
176
     1
 66
     8
424
  7895160
176
     1
 43
1.0
176
     1
 76
     1
176
     1
 77
     6
176
     1
 78
     2
176
     1
 67
     7
176
     1
 79
     5
176
     1
170
     0
176
     1
171
     0
176
     1
290
     0
176
     1
 93
       13
176
     1
 44
0.0
176
     1
173
     0
176
     1
  0
VISUALSTYLE
  5
37
102
{ACAD_REACTORS
330
2A
102
}
330
2A
100
AcDbVisualStyle
  2
Thicken
 70
    13
177
     2
291
     1
 71
     2
176
     1
 72
     2
176
     1
 73
     0
176
     1
 90
        0
176
     1
 40
-0.6
176
     1
 41
-30.0
176
     1
 62
     5
 63
     7
421
 16777215
176
     1
 74
     1
176
     1
 91
        4
176
     1
 64
     7
176
     1
 65
   257
176
     1
 75
     1
176
     1
175
     1
176
     1
 42
1.0
176
     1
 92
       12
176
     1
 66
     7
176
     1
 43
1.0
176
     1
 76
     1
176
     1
 77
     6
176
     1
 78
     2
176
     1
 67
     7
176
     1
 79
     5
176
     1
170
     0
176
     1
171
     0
176
     1
290
     0
176
     1
 93
        1
176
     1
 44
0.0
176
     1
173
     0
176
     1
  0
ENDSEC
  0
EOF
