  0
SECTION
  2
HEADER
  9
$ACADVER
  1
AC1024
  9
$ACADMAINTVER
 70
     6
  9
$DWGCODEPAGE
  3
UNDEFINED
  9
$INSBASE
 10
0.0
 20
0.0
 30
0.0
  9
$EXTMIN
 10
1.000000000000000E+20
 20
1.000000000000000E+20
 30
1.000000000000000E+20
  9
$EXTMAX
 10
-1.000000000000000E+20
 20
-1.000000000000000E+20
 30
-1.000000000000000E+20
  9
$LIMMIN
 10
0.0
 20
0.0
  9
$LIMMAX
 10
12.0
 20
9.0
  9
$ORTHOMODE
 70
     0
  9
$REGENMODE
 70
     1
  9
$FILLMODE
 70
     1
  9
$QTEXTMODE
 70
     0
  9
$MIRRTEXT
 70
     1
  9
$LTSCALE
 40
1.0
  9
$ATTMODE
 70
     1
  9
$TEXTSIZE
 40
0.2
  9
$TRACEWID
 40
0.05
  9
$TEXTSTYLE
  7
Standard
  9
$CLAYER
  8
0
  9
$CELTYPE
  6
ByLayer
  9
$CECOLOR
 62
   256
  9
$CELTSCALE
 40
1.0
  9
$DISPSILH
 70
     0
  9
$DIMSCALE
 40
1.0
  9
$DIMASZ
 40
0.18
  9
$DIMEXO
 40
0.0625
  9
$DIMDLI
 40
0.38
  9
$DIMRND
 40
0.0
  9
$DIMDLE
 40
0.0
  9
$DIMEXE
 40
0.18
  9
$DIMTP
 40
0.0
  9
$DIMTM
 40
0.0
  9
$DIMTXT
 40
0.18
  9
$DIMCEN
 40
0.09
  9
$DIMTSZ
 40
0.0
  9
$DIMTOL
 70
     0
  9
$DIMLIM
 70
     0
  9
$DIMTIH
 70
     1
  9
$DIMTOH
 70
     1
  9
$DIMSE1
 70
     0
  9
$DIMSE2
 70
     0
  9
$DIMTAD
 70
     0
  9
$DIMZIN
 70
     0
  9
$DIMBLK
  1

  9
$DIMASO
 70
     1
  9
$DIMSHO
 70
     1
  9
$DIMPOST
  1

  9
$DIMAPOST
  1

  9
$DIMALT
 70
     0
  9
$DIMALTD
 70
     2
  9
$DIMALTF
 40
25.4
  9
$DIMLFAC
 40
1.0
  9
$DIMTOFL
 70
     0
  9
$DIMTVP
 40
0.0
  9
$DIMTIX
 70
     0
  9
$DIMSOXD
 70
     0
  9
$DIMSAH
 70
     0
  9
$DIMBLK1
  1

  9
$DIMBLK2
  1

  9
$DIMSTYLE
  2
Standard
  9
$DIMCLRD
 70
     0
  9
$DIMCLRE
 70
     0
  9
$DIMCLRT
 70
     0
  9
$DIMTFAC
 40
1.0
  9
$DIMGAP
 40
0.09
  9
$DIMJUST
 70
     0
  9
$DIMSD1
 70
     0
  9
$DIMSD2
 70
     0
  9
$DIMTOLJ
 70
     1
  9
$DIMTZIN
 70
     0
  9
$DIMALTZ
 70
     0
  9
$DIMALTTZ
 70
     0
  9
$DIMUPT
 70
     0
  9
$DIMDEC
 70
     4
  9
$DIMTDEC
 70
     4
  9
$DIMALTU
 70
     2
  9
$DIMALTTD
 70
     2
  9
$DIMTXSTY
  7
Standard
  9
$DIMAUNIT
 70
     0
  9
$DIMADEC
 70
     0
  9
$DIMALTRND
 40
0.0
  9
$DIMAZIN
 70
     0
  9
$DIMDSEP
 70
    46
  9
$DIMATFIT
 70
     3
  9
$DIMFRAC
 70
     0
  9
$DIMLDRBLK
  1

  9
$DIMLUNIT
 70
     2
  9
$DIMLWD
 70
    -2
  9
$DIMLWE
 70
    -2
  9
$DIMTMOVE
 70
     0
  9
$DIMFXL
 40
1.0
  9
$DIMFXLON
 70
     0
  9
$DIMJOGANG
 40
0.7853981633974483
  9
$DIMTFILL
 70
     0
  9
$DIMTFILLCLR
 70
     0
  9
$DIMARCSYM
 70
     0
  9
$DIMLTYPE
  6

  9
$DIMLTEX1
  6

  9
$DIMLTEX2
  6

  9
$DIMTXTDIRECTION
 70
     0
  9
$LUNITS
 70
     2
  9
$LUPREC
 70
     4
  9
$SKETCHINC
 40
0.1
  9
$FILLETRAD
 40
0.5
  9
$AUNITS
 70
     0
  9
$AUPREC
 70
     0
  9
$MENU
  1
.
  9
$ELEVATION
 40
0.0
  9
$PELEVATION
 40
0.0
  9
$THICKNESS
 40
0.0
  9
$LIMCHECK
 70
     0
  9
$CHAMFERA
 40
0.5
  9
$CHAMFERB
 40
0.5
  9
$CHAMFERC
 40
1.0
  9
$CHAMFERD
 40
0.0
  9
$SKPOLY
 70
     0
  9
$TDCREATE
 40
2457917.619108785
  9
$TDUCREATE
 40
2457917.244108796
  9
$TDUPDATE
 40
2457917.619108785
  9
$TDUUPDATE
 40
2457917.244108796
  9
$TDINDWG
 40
0.0000000116
  9
$TDUSRTIMER
 40
0.0000000116
  9
$USRTIMER
 70
     1
  9
$ANGBASE
 50
0.0
  9
$ANGDIR
 70
     0
  9
$PDMODE
 70
     0
  9
$PDSIZE
 40
0.0
  9
$PLINEWID
 40
0.0
  9
$SPLFRAME
 70
     0
  9
$SPLINETYPE
 70
     6
  9
$SPLINESEGS
 70
     8
  9
$HANDSEED
  5
C2
  9
$SURFTAB1
 70
     6
  9
$SURFTAB2
 70
     6
  9
$SURFTYPE
 70
     6
  9
$SURFU
 70
     6
  9
$SURFV
 70
     6
  9
$UCSBASE
  2

  9
$UCSNAME
  2

  9
$UCSORG
 10
0.0
 20
0.0
 30
0.0
  9
$UCSXDIR
 10
1.0
 20
0.0
 30
0.0
  9
$UCSYDIR
 10
0.0
 20
1.0
 30
0.0
  9
$UCSORTHOREF
  2

  9
$UCSORTHOVIEW
 70
     0
  9
$UCSORGTOP
 10
0.0
 20
0.0
 30
0.0
  9
$UCSORGBOTTOM
 10
0.0
 20
0.0
 30
0.0
  9
$UCSORGLEFT
 10
0.0
 20
0.0
 30
0.0
  9
$UCSORGRIGHT
 10
0.0
 20
0.0
 30
0.0
  9
$UCSORGFRONT
 10
0.0
 20
0.0
 30
0.0
  9
$UCSORGBACK
 10
0.0
 20
0.0
 30
0.0
  9
$PUCSBASE
  2

  9
$PUCSNAME
  2

  9
$PUCSORG
 10
0.0
 20
0.0
 30
0.0
  9
$PUCSXDIR
 10
1.0
 20
0.0
 30
0.0
  9
$PUCSYDIR
 10
0.0
 20
1.0
 30
0.0
  9
$PUCSORTHOREF
  2

  9
$PUCSORTHOVIEW
 70
     0
  9
$PUCSORGTOP
 10
0.0
 20
0.0
 30
0.0
  9
$PUCSORGBOTTOM
 10
0.0
 20
0.0
 30
0.0
  9
$PUCSORGLEFT
 10
0.0
 20
0.0
 30
0.0
  9
$PUCSORGRIGHT
 10
0.0
 20
0.0
 30
0.0
  9
$PUCSORGFRONT
 10
0.0
 20
0.0
 30
0.0
  9
$PUCSORGBACK
 10
0.0
 20
0.0
 30
0.0
  9
$USERI1
 70
     0
  9
$USERI2
 70
     0
  9
$USERI3
 70
     0
  9
$USERI4
 70
     0
  9
$USERI5
 70
     0
  9
$USERR1
 40
0.0
  9
$USERR2
 40
0.0
  9
$USERR3
 40
0.0
  9
$USERR4
 40
0.0
  9
$USERR5
 40
0.0
  9
$WORLDVIEW
 70
     1
  9
$SHADEDGE
 70
     3
  9
$SHADEDIF
 70
    70
  9
$TILEMODE
 70
     1
  9
$MAXACTVP
 70
    64
  9
$PINSBASE
 10
0.0
 20
0.0
 30
0.0
  9
$PLIMCHECK
 70
     0
  9
$PEXTMIN
 10
1.000000000000000E+20
 20
1.000000000000000E+20
 30
1.000000000000000E+20
  9
$PEXTMAX
 10
-1.000000000000000E+20
 20
-1.000000000000000E+20
 30
-1.000000000000000E+20
  9
$PLIMMIN
 10
0.0
 20
0.0
  9
$PLIMMAX
 10
12.0
 20
9.0
  9
$UNITMODE
 70
     0
  9
$VISRETAIN
 70
     1
  9
$PLINEGEN
 70
     0
  9
$PSLTSCALE
 70
     1
  9
$TREEDEPTH
 70
  3020
  9
$CMLSTYLE
  2
Standard
  9
$CMLJUST
 70
     0
  9
$CMLSCALE
 40
1.0
  9
$PROXYGRAPHICS
 70
     1
  9
$MEASUREMENT
 70
     0
  9
$CELWEIGHT
370
    -1
  9
$ENDCAPS
280
     0
  9
$JOINSTYLE
280
     0
  9
$LWDISPLAY
290
     1
  9
$INSUNITS
 70
     1
  9
$HYPERLINKBASE
  1

  9
$STYLESHEET
  1

  9
$XEDIT
290
     1
  9
$CEPSNTYPE
380
     0
  9
$PSTYLEMODE
290
     1
  9
$FINGERPRINTGUID
  2
{CD429B9A-DD4E-EAA7-2D09-0F3420FEAB38}
  9
$VERSIONGUID
  2
{FAEB1C32-E019-11D5-929B-00C0DF256EC4}
  9
$EXTNAMES
290
     1
  9
$PSVPSCALE
 40
0.0
  9
$OLESTARTUP
290
     0
  9
$SORTENTS
280
   127
  9
$INDEXCTL
280
     0
  9
$HIDETEXT
280
     1
  9
$XCLIPFRAME
280
     2
  9
$HALOGAP
280
     0
  9
$OBSCOLOR
 70
   257
  9
$OBSLTYPE
280
     0
  9
$INTERSECTIONDISPLAY
280
     0
  9
$INTERSECTIONCOLOR
 70
   257
  9
$DIMASSOC
280
     2
  9
$PROJECTNAME
  1

  9
$CAMERADISPLAY
290
     0
  9
$LENSLENGTH
 40
50.0
  9
$CAMERAHEIGHT
 40
0.0
  9
$STEPSPERSEC
 40
2.0
  9
$STEPSIZE
 40
6.0
  9
$3DDWFPREC
 40
2.0
  9
$PSOLWIDTH
 40
0.25
  9
$PSOLHEIGHT
 40
4.0
  9
$LOFTANG1
 40
1.570796326794897
  9
$LOFTANG2
 40
1.570796326794897
  9
$LOFTMAG1
 40
0.0
  9
$LOFTMAG2
 40
0.0
  9
$LOFTPARAM
 70
     7
  9
$LOFTNORMALS
280
     1
  9
$LATITUDE
 40
37.795
  9
$LONGITUDE
 40
-122.394
  9
$NORTHDIRECTION
 40
0.0
  9
$TIMEZONE
 70
 -8000
  9
$LIGHTGLYPHDISPLAY
280
     1
  9
$TILEMODELIGHTSYNCH
280
     1
  9
$CMATERIAL
347
3C
  9
$SOLIDHIST
280
     1
  9
$SHOWHIST
280
     1
  9
$DWFFRAME
280
     2
  9
$DGNFRAME
280
     2
  9
$REALWORLDSCALE
290
     1
  9
$INTERFERECOLOR
 62
   256
  9
$CSHADOW
280
     0
  9
$SHADOWPLANELOCATION
 40
0.0
  0
ENDSEC
  0
SECTION
  2
CLASSES
  0
CLASS
  1
ACDBDICTIONARYWDFLT
  2
AcDbDictionaryWithDefault
  3
ObjectDBX Classes
 90
        0
 91
        4
280
     0
281
     0
  0
CLASS
  1
VISUALSTYLE
  2
AcDbVisualStyle
  3
ObjectDBX Classes
 90
     4095
 91
        4
280
     0
281
     0
  0
CLASS
  1
MATERIAL
  2
AcDbMaterial
  3
ObjectDBX Classes
 90
     1153
 91
        4
280
     0
281
     0
  0
CLASS
  1
SUN
  2
AcDbSun
  3
SCENEOE
 90
     1024
 91
        4
280
     0
281
     0
  0
ENDSEC
  0
SECTION
  2
TABLES
  0
TABLE
  2
VPORT
  5
8
330
0
100
AcDbSymbolTable
 70
     1
  0
VPORT
  5
29
330
8
100
AcDbSymbolTableRecord
100
AcDbViewportTableRecord
  2
*Active
 70
     0
 10
0.0
 20
0.0
 11
1.0
 21
1.0
 12
0.0
 22
0.0
 13
0.0
 23
0.0
 14
0.5
 24
0.5
 15
0.5
 25
0.5
 16
0.0
 26
0.0
 36
1.0
 17
91.00082462281999
 27
-128.4993055234307
 37
0.0
 40
256.9986110468615
 41
0.7081814508812795
 42
50.0
 43
0.0
 44
0.0
 50
0.0
 51
0.0
 71
     0
 72
   100
 73
     1
 74
     3
 75
     0
 76
     0
 77
     0
 78
     0
281
     0
 65
     1
110
0.0
120
0.0
130
0.0
111
1.0
121
0.0
131
0.0
112
0.0
122
1.0
132
0.0
 79
     0
146
0.0
 60
     3
 61
     5
292
     1
282
     1
141
0.0
142
0.0
 63
   250
361
3F
  0
ENDTAB
  0
TABLE
  2
LTYPE
  5
5
330
0
100
AcDbSymbolTable
 70
     1
  0
LTYPE
  5
14
330
5
100
AcDbSymbolTableRecord
100
AcDbLinetypeTableRecord
  2
ByBlock
 70
     0
  3

 72
    65
 73
     0
 40
0.0
  0
LTYPE
  5
15
330
5
100
AcDbSymbolTableRecord
100
AcDbLinetypeTableRecord
  2
ByLayer
 70
     0
  3

 72
    65
 73
     0
 40
0.0
  0
LTYPE
  5
16
330
5
100
AcDbSymbolTableRecord
100
AcDbLinetypeTableRecord
  2
Continuous
 70
     0
  3
Solid line
 72
    65
 73
     0
 40
0.0
  0
ENDTAB
  0
TABLE
  2
LAYER
  5
2
330
0
100
AcDbSymbolTable
 70
     2
  0
LAYER
  5
10
330
2
100
AcDbSymbolTableRecord
100
AcDbLayerTableRecord
  2
0
 70
     0
 62
     7
  6
Continuous
370
    -3
390
F
347
3E
  0
LAYER
  5
40
330
2
100
AcDbSymbolTableRecord
100
AcDbLayerTableRecord
  2
_U+30EC_U+30A4_U+30E4_U+30FC 1
 70
     0
 62
     7
  6
Continuous
370
    -3
390
F
347
3E
  0
ENDTAB
  0
TABLE
  2
STYLE
  5
3
330
0
100
AcDbSymbolTable
 70
     1
  0
STYLE
  5
11
330
3
100
AcDbSymbolTableRecord
100
AcDbTextStyleTableRecord
  2
Standard
 70
     0
 40
0.0
 41
1.0
 50
0.0
 71
     0
 42
0.2
  3
txt
  4

  0
ENDTAB
  0
TABLE
  2
VIEW
  5
6
330
0
100
AcDbSymbolTable
 70
     0
  0
ENDTAB
  0
TABLE
  2
UCS
  5
7
330
0
100
AcDbSymbolTable
 70
     0
  0
ENDTAB
  0
TABLE
  2
APPID
  5
9
330
0
100
AcDbSymbolTable
 70
     1
  0
APPID
  5
12
330
9
100
AcDbSymbolTableRecord
100
AcDbRegAppTableRecord
  2
ACAD
 70
     0
  0
ENDTAB
  0
TABLE
  2
DIMSTYLE
  5
A
330
0
100
AcDbSymbolTable
 70
     1
100
AcDbDimStyleTable
  0
DIMSTYLE
105
27
330
A
100
AcDbSymbolTableRecord
100
AcDbDimStyleTableRecord
  2
Standard
 70
     0
178
     0
340
11
  0
ENDTAB
  0
TABLE
  2
BLOCK_RECORD
  5
1
330
0
100
AcDbSymbolTable
 70
     6
  0
BLOCK_RECORD
  5
1F
330
1
100
AcDbSymbolTableRecord
100
AcDbBlockTableRecord
  2
*Model_Space
340
22
 70
     0
280
     1
281
     0
  0
BLOCK_RECORD
  5
1B
330
1
100
AcDbSymbolTableRecord
100
AcDbBlockTableRecord
  2
*Paper_Space
340
1E
 70
     0
280
     1
281
     0
  0
BLOCK_RECORD
  5
23
330
1
100
AcDbSymbolTableRecord
100
AcDbBlockTableRecord
  2
*Paper_Space0
340
26
 70
     0
280
     1
281
     0
  0
BLOCK_RECORD
  5
59
330
1
100
AcDbSymbolTableRecord
100
AcDbBlockTableRecord
  2
block 2
340
0
102
{BLKREFS
331
5A
102
}
 70
     0
280
     1
281
     0
  0
BLOCK_RECORD
  5
71
330
1
100
AcDbSymbolTableRecord
100
AcDbBlockTableRecord
  2
block 3
340
0
102
{BLKREFS
331
72
102
}
 70
     0
280
     1
281
     0
  0
BLOCK_RECORD
  5
84
330
1
100
AcDbSymbolTableRecord
100
AcDbBlockTableRecord
  2
block 4
340
0
102
{BLKREFS
331
85
102
}
 70
     0
280
     1
281
     0
  0
BLOCK_RECORD
  5
9E
330
1
100
AcDbSymbolTableRecord
100
AcDbBlockTableRecord
  2
block 5
340
0
102
{BLKREFS
331
9F
102
}
 70
     0
280
     1
281
     0
  0
BLOCK_RECORD
  5
BA
330
1
100
AcDbSymbolTableRecord
100
AcDbBlockTableRecord
  2
block 6
340
0
102
{BLKREFS
331
BB
102
}
 70
     0
280
     1
281
     0
  0
ENDTAB
  0
ENDSEC
  0
SECTION
  2
BLOCKS
  0
BLOCK
  5
20
330
1F
100
AcDbEntity
  8
0
100
AcDbBlockBegin
  2
*Model_Space
 70
     0
 10
0.0
 20
0.0
 30
0.0
  3
*Model_Space
  1

  0
ENDBLK
  5
21
330
1F
100
AcDbEntity
  8
0
100
AcDbBlockEnd
  0
BLOCK
  5
1C
330
1B
100
AcDbEntity
 67
     1
  8
0
100
AcDbBlockBegin
  2
*Paper_Space
 70
     0
 10
0.0
 20
0.0
 30
0.0
  3
*Paper_Space
  1

  0
ENDBLK
  5
1D
330
1B
100
AcDbEntity
 67
     1
  8
0
100
AcDbBlockEnd
  0
BLOCK
  5
24
330
23
100
AcDbEntity
  8
0
100
AcDbBlockBegin
  2
*Paper_Space0
 70
     0
 10
0.0
 20
0.0
 30
0.0
  3
*Paper_Space0
  1

  0
ENDBLK
  5
25
330
23
100
AcDbEntity
  8
0
100
AcDbBlockEnd
  0
BLOCK
  5
5B
330
59
100
AcDbEntity
  8
0
100
AcDbBlockBegin
  2
block 2
 70
     0
 10
0.0
 20
0.0
 30
0.0
  3
block 2
  1

  0
SPLINE
  5
5D
330
59
100
AcDbEntity
  8
_U+30EC_U+30A4_U+30E4_U+30FC 1
370
     0
100
AcDbSpline
210
0.0
220
0.0
230
1.0
 70
    11
 71
     3
 72
    62
 73
    58
 74
     0
 42
0.0000000001
 43
0.0000000001
 12
1.0
 22
0.0
 32
0.0
 13
1.0
 23
0.0
 33
0.0
 40
0.0
 40
0.0
 40
0.0
 40
0.0
 40
1.0
 40
1.0
 40
1.0
 40
2.0
 40
2.0
 40
2.0
 40
3.0
 40
3.0
 40
3.0
 40
4.0
 40
4.0
 40
4.0
 40
5.0
 40
5.0
 40
5.0
 40
6.0
 40
6.0
 40
6.0
 40
7.0
 40
7.0
 40
7.0
 40
8.0
 40
8.0
 40
8.0
 40
9.0
 40
9.0
 40
9.0
 40
10.0
 40
10.0
 40
10.0
 40
11.0
 40
11.0
 40
11.0
 40
12.0
 40
12.0
 40
12.0
 40
13.0
 40
13.0
 40
13.0
 40
14.0
 40
14.0
 40
14.0
 40
15.0
 40
15.0
 40
15.0
 40
16.0
 40
16.0
 40
16.0
 40
17.0
 40
17.0
 40
17.0
 40
18.0
 40
18.0
 40
18.0
 40
19.0
 40
19.0
 40
19.0
 40
19.0
 10
91.27057018117542
 20
-121.1192219749285
 30
0.0
 10
91.16893986436055
 20
-121.1192219749285
 30
0.0
 10
90.93605140955766
 20
-121.0982068924685
 30
0.0
 10
90.8027262142785
 20
-120.912171736265
 30
0.0
 10
90.72348901811775
 20
-120.7998616234459
 30
0.0
 10
90.71901039398692
 20
-120.7006428734707
 30
0.0
 10
90.7145317698561
 20
-120.6158935245335
 30
0.0
 10
90.7145317698561
 20
-120.6158935245335
 30
0.0
 10
90.94948728195013
 20
-120.6158935245335
 30
0.0
 10
90.94948728195013
 20
-120.6158935245335
 30
0.0
 10
90.95189884878981
 20
-120.6899630774664
 30
0.0
 10
90.96326766389113
 20
-120.9245740800119
 30
0.0
 10
91.26609155704459
 20
-120.9245740800119
 30
0.0
 10
91.41319713426476
 20
-120.9245740800119
 30
0.0
 10
91.57580564116856
 20
-120.8549831512099
 30
0.0
 10
91.57580564116856
 20
-120.6265733205378
 30
0.0
 10
91.57580564116856
 20
-120.5101290931364
 30
0.0
 10
91.5351535144426
 20
-120.4615532467943
 30
0.0
 10
91.50104706913864
 20
-120.42985836833
 30
0.0
 10
91.42215438252641
 20
-120.3557888153972
 30
0.0
 10
91.2977864355089
 20
-120.3430419621018
 30
0.0
 10
91.23887530271112
 20
-120.3430419621018
 30
0.0
 10
91.21854923934815
 20
-120.3430419621018
 30
0.0
 10
91.18030867946187
 20
-120.3451090193929
 30
0.0
 10
91.15068085828872
 20
-120.3492431339752
 30
0.0
 10
91.15068085828872
 20
-120.3492431339752
 30
0.0
 10
91.15068085828872
 20
-120.1545952390586
 30
0.0
 10
91.15068085828872
 20
-120.1545952390586
 30
0.0
 10
91.19133298501467
 20
-120.1611409204805
 30
0.0
 10
91.23680824541997
 20
-120.1632079777717
 30
0.0
 10
91.24335392684195
 20
-120.1632079777717
 30
0.0
 10
91.31363387474104
 20
-120.1632079777717
 30
0.0
 10
91.52619626618096
 20
-120.1418483857632
 30
0.0
 10
91.52619626618096
 20
-119.9051703259265
 30
0.0
 10
91.52619626618096
 20
-119.7274033988876
 30
0.0
 10
91.38598087993128
 20
-119.6722818711236
 30
0.0
 10
91.26850312388427
 20
-119.6722818711236
 30
0.0
 10
90.98566078454526
 20
-119.6722818711236
 30
0.0
 10
90.97670353628361
 20
-119.9051703259265
 30
0.0
 10
90.97222491215278
 20
-119.9768283120197
 30
0.0
 10
90.97222491215278
 20
-119.9768283120197
 30
0.0
 10
90.75518389658204
 20
-119.9768283120197
 30
0.0
 10
90.75518389658204
 20
-119.9768283120197
 30
0.0
 10
90.76414114484369
 20
-119.8521158554536
 30
0.0
 10
90.79342445646832
 20
-119.4755669189158
 30
0.0
 10
91.28193899627674
 20
-119.4755669189158
 30
0.0
 10
91.52171764205013
 20
-119.4755669189158
 30
0.0
 10
91.77941078434682
 20
-119.6026909423216
 30
0.0
 10
91.77941078434682
 20
-119.8986246445045
 30
0.0
 10
91.77941078434682
 20
-120.0850043102565
 30
0.0
 10
91.67743595798342
 20
-120.167342092354
 30
0.0
 10
91.57132701703773
 20
-120.2286647919914
 30
0.0
 10
91.63678383125747
 20
-120.2562255558734
 30
0.0
 10
91.83143172617409
 20
-120.3364962806798
 30
0.0
 10
91.83143172617409
 20
-120.6138264672424
 30
0.0
 10
91.83143172617409
 20
-120.9521348438939
 30
0.0
 10
91.5668483929069
 20
-121.1192219749285
 30
0.0
 10
91.27057018117542
 20
-121.1192219749285
 30
0.0
  0
HATCH
  5
5E
330
59
100
AcDbEntity
  8
_U+30EC_U+30A4_U+30E4_U+30FC 1
 62
   179
420
  2234388
100
AcDbHatch
 10
0.0
 20
0.0
 30
0.0
210
0.0
220
0.0
230
1.0
  2
SOLID
 70
     1
 71
     0
 91
        1
 92
        1
 93
        1
 72
     4
 94
        3
 73
     0
 74
     1
 95
       62
 96
       58
 40
0.0
 40
0.0
 40
0.0
 40
0.0
 40
1.0
 40
1.0
 40
1.0
 40
2.0
 40
2.0
 40
2.0
 40
3.0
 40
3.0
 40
3.0
 40
4.0
 40
4.0
 40
4.0
 40
5.0
 40
5.0
 40
5.0
 40
6.0
 40
6.0
 40
6.0
 40
7.0
 40
7.0
 40
7.0
 40
8.0
 40
8.0
 40
8.0
 40
9.0
 40
9.0
 40
9.0
 40
10.0
 40
10.0
 40
10.0
 40
11.0
 40
11.0
 40
11.0
 40
12.0
 40
12.0
 40
12.0
 40
13.0
 40
13.0
 40
13.0
 40
14.0
 40
14.0
 40
14.0
 40
15.0
 40
15.0
 40
15.0
 40
16.0
 40
16.0
 40
16.0
 40
17.0
 40
17.0
 40
17.0
 40
18.0
 40
18.0
 40
18.0
 40
19.0
 40
19.0
 40
19.0
 40
19.0
 10
91.27057018117542
 20
-121.1192219749285
 10
91.16893986436055
 20
-121.1192219749285
 10
90.93605140955766
 20
-121.0982068924685
 10
90.8027262142785
 20
-120.912171736265
 10
90.72348901811775
 20
-120.7998616234459
 10
90.71901039398692
 20
-120.7006428734707
 10
90.7145317698561
 20
-120.6158935245335
 10
90.7145317698561
 20
-120.6158935245335
 10
90.94948728195013
 20
-120.6158935245335
 10
90.94948728195013
 20
-120.6158935245335
 10
90.95189884878981
 20
-120.6899630774664
 10
90.96326766389113
 20
-120.9245740800119
 10
91.26609155704459
 20
-120.9245740800119
 10
91.41319713426476
 20
-120.9245740800119
 10
91.57580564116856
 20
-120.8549831512099
 10
91.57580564116856
 20
-120.6265733205378
 10
91.57580564116856
 20
-120.5101290931364
 10
91.5351535144426
 20
-120.4615532467943
 10
91.50104706913864
 20
-120.42985836833
 10
91.42215438252641
 20
-120.3557888153972
 10
91.2977864355089
 20
-120.3430419621018
 10
91.23887530271112
 20
-120.3430419621018
 10
91.21854923934815
 20
-120.3430419621018
 10
91.18030867946187
 20
-120.3451090193929
 10
91.15068085828872
 20
-120.3492431339752
 10
91.15068085828872
 20
-120.3492431339752
 10
91.15068085828872
 20
-120.1545952390586
 10
91.15068085828872
 20
-120.1545952390586
 10
91.19133298501467
 20
-120.1611409204805
 10
91.23680824541997
 20
-120.1632079777717
 10
91.24335392684195
 20
-120.1632079777717
 10
91.31363387474104
 20
-120.1632079777717
 10
91.52619626618096
 20
-120.1418483857632
 10
91.52619626618096
 20
-119.9051703259265
 10
91.52619626618096
 20
-119.7274033988876
 10
91.38598087993128
 20
-119.6722818711236
 10
91.26850312388427
 20
-119.6722818711236
 10
90.98566078454526
 20
-119.6722818711236
 10
90.97670353628361
 20
-119.9051703259265
 10
90.97222491215278
 20
-119.9768283120197
 10
90.97222491215278
 20
-119.9768283120197
 10
90.75518389658204
 20
-119.9768283120197
 10
90.75518389658204
 20
-119.9768283120197
 10
90.76414114484369
 20
-119.8521158554536
 10
90.79342445646832
 20
-119.4755669189158
 10
91.28193899627674
 20
-119.4755669189158
 10
91.52171764205013
 20
-119.4755669189158
 10
91.77941078434682
 20
-119.6026909423216
 10
91.77941078434682
 20
-119.8986246445045
 10
91.77941078434682
 20
-120.0850043102565
 10
91.67743595798342
 20
-120.167342092354
 10
91.57132701703773
 20
-120.2286647919914
 10
91.63678383125747
 20
-120.2562255558734
 10
91.83143172617409
 20
-120.3364962806798
 10
91.83143172617409
 20
-120.6138264672424
 10
91.83143172617409
 20
-120.9521348438939
 10
91.5668483929069
 20
-121.1192219749285
 10
91.27057018117542
 20
-121.1192219749285
 97
        0
 97
        0
 75
     2
 76
     1
 98
        0
  0
POLYLINE
  5
5F
330
59
100
AcDbEntity
  8
_U+30EC_U+30A4_U+30E4_U+30FC 1
370
     0
100
AcDb2dPolyline
 66
     1
 10
0.0
 20
0.0
 30
0.0
  0
VERTEX
  5
60
330
5F
100
AcDbEntity
  8
_U+30EC_U+30A4_U+30E4_U+30FC 1
370
     0
100
AcDbVertex
100
AcDb2dVertex
 10
92.06707625736517
 20
-121.0685790712954
 30
0.0
  0
VERTEX
  5
61
330
5F
100
AcDbEntity
  8
_U+30EC_U+30A4_U+30E4_U+30FC 1
370
     0
100
AcDbVertex
100
AcDb2dVertex
 10
92.06707625736517
 20
-120.8167425913236
 30
0.0
  0
VERTEX
  5
62
330
5F
100
AcDbEntity
  8
_U+30EC_U+30A4_U+30E4_U+30FC 1
370
     0
100
AcDbVertex
100
AcDb2dVertex
 10
92.3361382147632
 20
-120.8167425913236
 30
0.0
  0
VERTEX
  5
63
330
5F
100
AcDbEntity
  8
_U+30EC_U+30A4_U+30E4_U+30FC 1
370
     0
100
AcDbVertex
100
AcDb2dVertex
 10
92.3361382147632
 20
-121.0685790712954
 30
0.0
  0
VERTEX
  5
64
330
5F
100
AcDbEntity
  8
_U+30EC_U+30A4_U+30E4_U+30FC 1
370
     0
100
AcDbVertex
100
AcDb2dVertex
 10
92.06707625736517
 20
-121.0685790712954
 30
0.0
  0
SEQEND
  5
65
330
5F
100
AcDbEntity
  8
_U+30EC_U+30A4_U+30E4_U+30FC 1
370
     0
  0
HATCH
  5
66
330
59
100
AcDbEntity
  8
_U+30EC_U+30A4_U+30E4_U+30FC 1
 62
   179
420
  2234388
100
AcDbHatch
 10
0.0
 20
0.0
 30
0.0
210
0.0
220
0.0
230
1.0
  2
SOLID
 70
     1
 71
     0
 91
        1
 92
        1
 93
        4
 72
     1
 10
92.06707625736517
 20
-121.0685790712954
 11
92.06707625736517
 21
-120.8167425913236
 72
     1
 10
92.06707625736517
 20
-120.8167425913236
 11
92.3361382147632
 21
-120.8167425913236
 72
     1
 10
92.3361382147632
 20
-120.8167425913236
 11
92.3361382147632
 21
-121.0685790712954
 72
     1
 10
92.3361382147632
 20
-121.0685790712954
 11
92.06707625736517
 21
-121.0685790712954
 97
        0
 75
     2
 76
     1
 98
        0
  0
SPLINE
  5
67
330
59
100
AcDbEntity
  8
_U+30EC_U+30A4_U+30E4_U+30FC 1
370
     0
100
AcDbSpline
210
0.0
220
0.0
230
1.0
 70
    11
 71
     3
 72
    53
 73
    49
 74
     0
 42
0.0000000001
 43
0.0000000001
 12
1.0
 22
0.0
 32
0.0
 13
1.0
 23
0.0
 33
0.0
 40
0.0
 40
0.0
 40
0.0
 40
0.0
 40
1.0
 40
1.0
 40
1.0
 40
2.0
 40
2.0
 40
2.0
 40
3.0
 40
3.0
 40
3.0
 40
4.0
 40
4.0
 40
4.0
 40
5.0
 40
5.0
 40
5.0
 40
6.0
 40
6.0
 40
6.0
 40
7.0
 40
7.0
 40
7.0
 40
8.0
 40
8.0
 40
8.0
 40
9.0
 40
9.0
 40
9.0
 40
10.0
 40
10.0
 40
10.0
 40
11.0
 40
11.0
 40
11.0
 40
12.0
 40
12.0
 40
12.0
 40
13.0
 40
13.0
 40
13.0
 40
14.0
 40
14.0
 40
14.0
 40
15.0
 40
15.0
 40
15.0
 40
16.0
 40
16.0
 40
16.0
 40
16.0
 10
93.1030164697798
 20
-121.1192219749285
 30
0.0
 10
93.01964515903676
 20
-121.1192219749285
 30
0.0
 10
92.91078014170286
 20
-121.1023410070508
 30
0.0
 10
92.80260414346601
 20
-121.0389512501222
 30
0.0
 10
92.61691349681105
 20
-120.9290527041427
 30
0.0
 10
92.59452037615694
 20
-120.7977945661547
 30
0.0
 10
92.57419431279395
 20
-120.6899630774664
 30
0.0
 10
92.57419431279395
 20
-120.6899630774664
 30
0.0
 10
92.81156139172766
 20
-120.6899630774664
 30
0.0
 10
92.81156139172766
 20
-120.6899630774664
 30
0.0
 10
92.87012801497691
 20
-120.8887450869653
 30
0.0
 10
93.00586477709577
 20
-120.9183729081385
 30
0.0
 10
93.10542803661949
 20
-120.9183729081385
 30
0.0
 10
93.2546006711308
 20
-120.9183729081385
 30
0.0
 10
93.4172091780346
 20
-120.8188096486147
 30
0.0
 10
93.4172091780346
 20
-120.5862657033604
 30
0.0
 10
93.4172091780346
 20
-120.3302951088063
 30
0.0
 10
93.22531735950618
 20
-120.2603596704557
 30
0.0
 10
93.09647078835783
 20
-120.2603596704557
 30
0.0
 10
93.06236434305386
 20
-120.2603596704557
 30
0.0
 10
92.91078014170286
 20
-120.2603596704557
 30
0.0
 10
92.81604001585849
 20
-120.3895507511526
 30
0.0
 10
92.81604001585849
 20
-120.3895507511526
 30
0.0
 10
92.62828231191237
 20
-120.3706027259837
 30
0.0
 10
92.62828231191237
 20
-120.3706027259837
 30
0.0
 10
92.62828231191237
 20
-120.3706027259837
 30
0.0
 10
92.75712888306072
 20
-119.5241427652579
 30
0.0
 10
92.75712888306072
 20
-119.5241427652579
 30
0.0
 10
92.75712888306072
 20
-119.5241427652579
 30
0.0
 10
93.58911944274855
 20
-119.5241427652579
 30
0.0
 10
93.58911944274855
 20
-119.5241427652579
 30
0.0
 10
93.58911944274855
 20
-119.5241427652579
 30
0.0
 10
93.58911944274855
 20
-119.7187906601745
 30
0.0
 10
93.58911944274855
 20
-119.7187906601745
 30
0.0
 10
93.58911944274855
 20
-119.7187906601745
 30
0.0
 10
92.93145071461436
 20
-119.7187906601745
 30
0.0
 10
92.93145071461436
 20
-119.7187906601745
 30
0.0
 10
92.93145071461436
 20
-119.7187906601745
 30
0.0
 10
92.86117076671526
 20
-120.1418483857632
 30
0.0
 10
92.86117076671526
 20
-120.1418483857632
 30
0.0
 10
92.92662758093502
 20
-120.1080864500077
 30
0.0
 10
93.0148220253574
 20
-120.0677788328303
 30
0.0
 10
93.1416015392146
 20
-120.0677788328303
 30
0.0
 10
93.41273055390377
 20
-120.0677788328303
 30
0.0
 10
93.66594507206963
 20
-120.2541584985823
 30
0.0
 10
93.66594507206963
 20
-120.5673176781915
 30
0.0
 10
93.66594507206963
 20
-120.884610972383
 30
0.0
 10
93.42651093584476
 20
-121.1192219749285
 30
0.0
 10
93.1030164697798
 20
-121.1192219749285
 30
0.0
  0
HATCH
  5
68
330
59
100
AcDbEntity
  8
_U+30EC_U+30A4_U+30E4_U+30FC 1
 62
   179
420
  2234388
100
AcDbHatch
 10
0.0
 20
0.0
 30
0.0
210
0.0
220
0.0
230
1.0
  2
SOLID
 70
     1
 71
     0
 91
        1
 92
        1
 93
        1
 72
     4
 94
        3
 73
     0
 74
     1
 95
       53
 96
       49
 40
0.0
 40
0.0
 40
0.0
 40
0.0
 40
1.0
 40
1.0
 40
1.0
 40
2.0
 40
2.0
 40
2.0
 40
3.0
 40
3.0
 40
3.0
 40
4.0
 40
4.0
 40
4.0
 40
5.0
 40
5.0
 40
5.0
 40
6.0
 40
6.0
 40
6.0
 40
7.0
 40
7.0
 40
7.0
 40
8.0
 40
8.0
 40
8.0
 40
9.0
 40
9.0
 40
9.0
 40
10.0
 40
10.0
 40
10.0
 40
11.0
 40
11.0
 40
11.0
 40
12.0
 40
12.0
 40
12.0
 40
13.0
 40
13.0
 40
13.0
 40
14.0
 40
14.0
 40
14.0
 40
15.0
 40
15.0
 40
15.0
 40
16.0
 40
16.0
 40
16.0
 40
16.0
 10
93.1030164697798
 20
-121.1192219749285
 10
93.01964515903676
 20
-121.1192219749285
 10
92.91078014170286
 20
-121.1023410070508
 10
92.80260414346601
 20
-121.0389512501222
 10
92.61691349681105
 20
-120.9290527041427
 10
92.59452037615694
 20
-120.7977945661547
 10
92.57419431279395
 20
-120.6899630774664
 10
92.57419431279395
 20
-120.6899630774664
 10
92.81156139172766
 20
-120.6899630774664
 10
92.81156139172766
 20
-120.6899630774664
 10
92.87012801497691
 20
-120.8887450869653
 10
93.00586477709577
 20
-120.9183729081385
 10
93.10542803661949
 20
-120.9183729081385
 10
93.2546006711308
 20
-120.9183729081385
 10
93.4172091780346
 20
-120.8188096486147
 10
93.4172091780346
 20
-120.5862657033604
 10
93.4172091780346
 20
-120.3302951088063
 10
93.22531735950618
 20
-120.2603596704557
 10
93.09647078835783
 20
-120.2603596704557
 10
93.06236434305386
 20
-120.2603596704557
 10
92.91078014170286
 20
-120.2603596704557
 10
92.81604001585849
 20
-120.3895507511526
 10
92.81604001585849
 20
-120.3895507511526
 10
92.62828231191237
 20
-120.3706027259837
 10
92.62828231191237
 20
-120.3706027259837
 10
92.62828231191237
 20
-120.3706027259837
 10
92.75712888306072
 20
-119.5241427652579
 10
92.75712888306072
 20
-119.5241427652579
 10
92.75712888306072
 20
-119.5241427652579
 10
93.58911944274855
 20
-119.5241427652579
 10
93.58911944274855
 20
-119.5241427652579
 10
93.58911944274855
 20
-119.5241427652579
 10
93.58911944274855
 20
-119.7187906601745
 10
93.58911944274855
 20
-119.7187906601745
 10
93.58911944274855
 20
-119.7187906601745
 10
92.93145071461436
 20
-119.7187906601745
 10
92.93145071461436
 20
-119.7187906601745
 10
92.93145071461436
 20
-119.7187906601745
 10
92.86117076671526
 20
-120.1418483857632
 10
92.86117076671526
 20
-120.1418483857632
 10
92.92662758093502
 20
-120.1080864500077
 10
93.0148220253574
 20
-120.0677788328303
 10
93.1416015392146
 20
-120.0677788328303
 10
93.41273055390377
 20
-120.0677788328303
 10
93.66594507206963
 20
-120.2541584985823
 10
93.66594507206963
 20
-120.5673176781915
 10
93.66594507206963
 20
-120.884610972383
 10
93.42651093584476
 20
-121.1192219749285
 10
93.1030164697798
 20
-121.1192219749285
 97
        0
 97
        0
 75
     2
 76
     1
 98
        0
  0
ENDBLK
  5
5C
330
59
100
AcDbEntity
  8
0
100
AcDbBlockEnd
  0
BLOCK
  5
73
330
71
100
AcDbEntity
  8
0
100
AcDbBlockBegin
  2
block 3
 70
     0
 10
0.0
 20
0.0
 30
0.0
  3
block 3
  1

  0
SPLINE
  5
75
330
71
100
AcDbEntity
  8
_U+30EC_U+30A4_U+30E4_U+30FC 1
370
     0
100
AcDbSpline
210
0.0
220
0.0
230
1.0
 70
    11
 71
     3
 72
    32
 73
    28
 74
     0
 42
0.0000000001
 43
0.0000000001
 12
1.0
 22
0.0
 32
0.0
 13
1.0
 23
0.0
 33
0.0
 40
0.0
 40
0.0
 40
0.0
 40
0.0
 40
1.0
 40
1.0
 40
1.0
 40
2.0
 40
2.0
 40
2.0
 40
3.0
 40
3.0
 40
3.0
 40
4.0
 40
4.0
 40
4.0
 40
5.0
 40
5.0
 40
5.0
 40
6.0
 40
6.0
 40
6.0
 40
7.0
 40
7.0
 40
7.0
 40
8.0
 40
8.0
 40
8.0
 40
9.0
 40
9.0
 40
9.0
 40
9.0
 10
99.21599389880711
 20
-124.1192111234841
 30
0.0
 10
99.03064776170068
 20
-124.1192111234841
 30
0.0
 10
98.76847599527316
 20
-124.049620194682
 30
0.0
 10
98.72782386854722
 20
-123.717512989904
 30
0.0
 10
98.72782386854722
 20
-123.717512989904
 30
0.0
 10
98.95588918967076
 20
-123.717512989904
 30
0.0
 10
98.95588918967076
 20
-123.717512989904
 30
0.0
 10
98.96725800477208
 20
-123.7767686322503
 30
0.0
 10
99.00136445007605
 20
-123.9245632285675
 30
0.0
 10
99.2184054656468
 20
-123.9245632285675
 30
0.0
 10
99.5301866070619
 20
-123.9245632285675
 30
0.0
 10
99.57083873378785
 20
-123.5945230810805
 30
0.0
 10
99.58461911572886
 20
-123.3895398997082
 30
0.0
 10
99.4874674230448
 20
-123.4698106245145
 30
0.0
 10
99.41512041785455
 20
-123.5269992095696
 30
0.0
 10
99.22047252293794
 20
-123.5269992095696
 30
0.0
 10
99.028236194861
 20
-123.5269992095696
 30
0.0
 10
98.70508623834456
 20
-123.4212347781725
 30
0.0
 10
98.70508623834456
 20
-123.0150580204615
 30
0.0
 10
98.70508623834456
 20
-122.6956976689789
 30
0.0
 10
98.91764862978448
 20
-122.4755560674714
 30
0.0
 10
99.25664602553306
 20
-122.4755560674714
 30
0.0
 10
99.80613875543041
 20
-122.4755560674714
 30
0.0
 10
99.81750757053175
 20
-123.0298719310481
 30
0.0
 10
99.81750757053175
 20
-123.2434678511336
 30
0.0
 10
99.81750757053175
 20
-123.4739447390968
 30
0.0
 10
99.79718150716876
 20
-124.1192111234841
 30
0.0
 10
99.21599389880711
 20
-124.1192111234841
 30
0.0
  0
SPLINE
  5
76
330
71
100
AcDbEntity
  8
_U+30EC_U+30A4_U+30E4_U+30FC 1
370
     0
100
AcDbSpline
210
0.0
220
0.0
230
1.0
 70
    11
 71
     3
 72
    17
 73
    13
 74
     0
 42
0.0000000001
 43
0.0000000001
 12
1.0
 22
0.0
 32
0.0
 13
1.0
 23
0.0
 33
0.0
 40
0.0
 40
0.0
 40
0.0
 40
0.0
 40
1.0
 40
1.0
 40
1.0
 40
2.0
 40
2.0
 40
2.0
 40
3.0
 40
3.0
 40
3.0
 40
4.0
 40
4.0
 40
4.0
 40
4.0
 10
99.25905759237274
 20
-122.6681369050969
 30
0.0
 10
99.13227807851554
 20
-122.6681369050969
 30
0.0
 10
98.94486488411796
 20
-122.725325490152
 30
0.0
 10
98.94486488411796
 20
-123.0109239058792
 30
0.0
 10
98.94486488411796
 20
-123.2372666792601
 30
0.0
 10
99.09403751862928
 20
-123.332351314653
 30
0.0
 10
99.23873152900977
 20
-123.332351314653
 30
0.0
 10
99.5191623015091
 20
-123.332351314653
 30
0.0
 10
99.55981442823506
 20
-123.1228895091498
 30
0.0
 10
99.55981442823506
 20
-123.0064452817484
 30
0.0
 10
99.55981442823506
 20
-122.8310899215492
 30
0.0
 10
99.45783960187165
 20
-122.6681369050969
 30
0.0
 10
99.25905759237274
 20
-122.6681369050969
 30
0.0
  0
HATCH
  5
77
330
71
100
AcDbEntity
  8
_U+30EC_U+30A4_U+30E4_U+30FC 1
 62
   179
420
  2234388
100
AcDbHatch
 10
0.0
 20
0.0
 30
0.0
210
0.0
220
0.0
230
1.0
  2
SOLID
 70
     1
 71
     0
 91
        2
 92
        1
 93
        1
 72
     4
 94
        3
 73
     0
 74
     1
 95
       32
 96
       28
 40
0.0
 40
0.0
 40
0.0
 40
0.0
 40
1.0
 40
1.0
 40
1.0
 40
2.0
 40
2.0
 40
2.0
 40
3.0
 40
3.0
 40
3.0
 40
4.0
 40
4.0
 40
4.0
 40
5.0
 40
5.0
 40
5.0
 40
6.0
 40
6.0
 40
6.0
 40
7.0
 40
7.0
 40
7.0
 40
8.0
 40
8.0
 40
8.0
 40
9.0
 40
9.0
 40
9.0
 40
9.0
 10
99.21599389880711
 20
-124.1192111234841
 10
99.03064776170068
 20
-124.1192111234841
 10
98.76847599527316
 20
-124.049620194682
 10
98.72782386854722
 20
-123.717512989904
 10
98.72782386854722
 20
-123.717512989904
 10
98.95588918967076
 20
-123.717512989904
 10
98.95588918967076
 20
-123.717512989904
 10
98.96725800477208
 20
-123.7767686322503
 10
99.00136445007605
 20
-123.9245632285675
 10
99.2184054656468
 20
-123.9245632285675
 10
99.5301866070619
 20
-123.9245632285675
 10
99.57083873378785
 20
-123.5945230810805
 10
99.58461911572886
 20
-123.3895398997082
 10
99.4874674230448
 20
-123.4698106245145
 10
99.41512041785455
 20
-123.5269992095696
 10
99.22047252293794
 20
-123.5269992095696
 10
99.028236194861
 20
-123.5269992095696
 10
98.70508623834456
 20
-123.4212347781725
 10
98.70508623834456
 20
-123.0150580204615
 10
98.70508623834456
 20
-122.6956976689789
 10
98.91764862978448
 20
-122.4755560674714
 10
99.25664602553306
 20
-122.4755560674714
 10
99.80613875543041
 20
-122.4755560674714
 10
99.81750757053175
 20
-123.0298719310481
 10
99.81750757053175
 20
-123.2434678511336
 10
99.81750757053175
 20
-123.4739447390968
 10
99.79718150716876
 20
-124.1192111234841
 10
99.21599389880711
 20
-124.1192111234841
 97
        0
 97
        0
 92
        1
 93
        1
 72
     4
 94
        3
 73
     0
 74
     1
 95
       17
 96
       13
 40
0.0
 40
0.0
 40
0.0
 40
0.0
 40
1.0
 40
1.0
 40
1.0
 40
2.0
 40
2.0
 40
2.0
 40
3.0
 40
3.0
 40
3.0
 40
4.0
 40
4.0
 40
4.0
 40
4.0
 10
99.25905759237274
 20
-122.6681369050969
 10
99.13227807851554
 20
-122.6681369050969
 10
98.94486488411796
 20
-122.725325490152
 10
98.94486488411796
 20
-123.0109239058792
 10
98.94486488411796
 20
-123.2372666792601
 10
99.09403751862928
 20
-123.332351314653
 10
99.23873152900977
 20
-123.332351314653
 10
99.5191623015091
 20
-123.332351314653
 10
99.55981442823506
 20
-123.1228895091498
 10
99.55981442823506
 20
-123.0064452817484
 10
99.55981442823506
 20
-122.8310899215492
 10
99.45783960187165
 20
-122.6681369050969
 10
99.25905759237274
 20
-122.6681369050969
 97
        0
 97
        0
 75
     2
 76
     1
 98
        0
  0
ENDBLK
  5
74
330
71
100
AcDbEntity
  8
0
100
AcDbBlockEnd
  0
BLOCK
  5
86
330
84
100
AcDbEntity
  8
0
100
AcDbBlockBegin
  2
block 4
 70
     0
 10
0.0
 20
0.0
 30
0.0
  3
block 4
  1

  0
SPLINE
  5
88
330
84
100
AcDbEntity
  8
_U+30EC_U+30A4_U+30E4_U+30FC 1
370
     0
100
AcDbSpline
210
0.0
220
0.0
230
1.0
 70
    11
 71
     3
 72
    29
 73
    25
 74
     0
 42
0.0000000001
 43
0.0000000001
 12
1.0
 22
0.0
 32
0.0
 13
1.0
 23
0.0
 33
0.0
 40
0.0
 40
0.0
 40
0.0
 40
0.0
 40
1.0
 40
1.0
 40
1.0
 40
2.0
 40
2.0
 40
2.0
 40
3.0
 40
3.0
 40
3.0
 40
4.0
 40
4.0
 40
4.0
 40
5.0
 40
5.0
 40
5.0
 40
6.0
 40
6.0
 40
6.0
 40
7.0
 40
7.0
 40
7.0
 40
8.0
 40
8.0
 40
8.0
 40
8.0
 10
84.7121419059053
 20
-130.6893527234041
 30
0.0
 10
84.7121419059053
 20
-130.9739176104857
 30
0.0
 10
84.57468259604383
 20
-131.2453911347234
 30
0.0
 10
84.22569442338802
 20
-131.2453911347234
 30
0.0
 10
83.96972382883396
 20
-131.2453911347234
 30
0.0
 10
83.87463919344107
 20
-131.0938069333724
 30
0.0
 10
83.81331649380363
 20
-130.9808078014562
 30
0.0
 10
83.75406085145733
 20
-131.1141329967353
 30
0.0
 10
83.63968368134702
 20
-131.1957817597358
 30
0.0
 10
83.47879772218586
 20
-131.1957817597358
 30
0.0
 10
83.20387910246292
 20
-131.1957817597358
 30
0.0
 10
83.06848684989261
 20
-130.9832193682959
 30
0.0
 10
83.06848684989261
 20
-130.6893527234041
 30
0.0
 10
83.06848684989261
 20
-130.3861843207021
 30
0.0
 10
83.21249184117605
 20
-130.1829236870723
 30
0.0
 10
83.47879772218586
 20
-130.1829236870723
 30
0.0
 10
83.63968368134702
 20
-130.1829236870723
 30
0.0
 10
83.75406085145733
 20
-130.2662949978154
 30
0.0
 10
83.81331649380363
 20
-130.3999647026431
 30
0.0
 10
83.86395939743679
 20
-130.3048800672502
 30
0.0
 10
83.95904403282968
 20
-130.1353813693759
 30
0.0
 10
84.22156030880572
 20
-130.1353813693759
 30
0.0
 10
84.59604218805238
 20
-130.1353813693759
 30
0.0
 10
84.7121419059053
 20
-130.4337266383985
 30
0.0
 10
84.7121419059053
 20
-130.6893527234041
 30
0.0
  0
SPLINE
  5
89
330
84
100
AcDbEntity
  8
_U+30EC_U+30A4_U+30E4_U+30FC 1
370
     0
100
AcDbSpline
210
0.0
220
0.0
230
1.0
 70
    11
 71
     3
 72
    17
 73
    13
 74
     0
 42
0.0000000001
 43
0.0000000001
 12
1.0
 22
0.0
 32
0.0
 13
1.0
 23
0.0
 33
0.0
 40
0.0
 40
0.0
 40
0.0
 40
0.0
 40
1.0
 40
1.0
 40
1.0
 40
2.0
 40
2.0
 40
2.0
 40
3.0
 40
3.0
 40
3.0
 40
4.0
 40
4.0
 40
4.0
 40
4.0
 10
83.26106768751806
 20
-130.6893527234041
 30
0.0
 10
83.26106768751806
 20
-130.8657416122489
 30
0.0
 10
83.35615232291097
 20
-130.9560031139624
 30
0.0
 10
83.49154457548129
 20
-130.9560031139624
 30
0.0
 10
83.61418997475617
 20
-130.9560031139624
 30
0.0
 10
83.73270125944877
 20
-130.8791774846413
 30
0.0
 10
83.73270125944877
 20
-130.6893527234041
 30
0.0
 10
83.73270125944877
 20
-130.4991834526183
 30
0.0
 10
83.61418997475617
 20
-130.4223578232972
 30
0.0
 10
83.49154457548129
 20
-130.4223578232972
 30
0.0
 10
83.35615232291097
 20
-130.4223578232972
 30
0.0
 10
83.26106768751806
 20
-130.5150308918504
 30
0.0
 10
83.26106768751806
 20
-130.6893527234041
 30
0.0
  0
SPLINE
  5
8A
330
84
100
AcDbEntity
  8
_U+30EC_U+30A4_U+30E4_U+30FC 1
370
     0
100
AcDbSpline
210
0.0
220
0.0
230
1.0
 70
    11
 71
     3
 72
    17
 73
    13
 74
     0
 42
0.0000000001
 43
0.0000000001
 12
1.0
 22
0.0
 32
0.0
 13
1.0
 23
0.0
 33
0.0
 40
0.0
 40
0.0
 40
0.0
 40
0.0
 40
1.0
 40
1.0
 40
1.0
 40
2.0
 40
2.0
 40
2.0
 40
3.0
 40
3.0
 40
3.0
 40
4.0
 40
4.0
 40
4.0
 40
4.0
 10
83.92114798249195
 20
-130.6893527234041
 30
0.0
 10
83.92114798249195
 20
-130.8430039820462
 30
0.0
 10
84.00796438872024
 20
-131.00561248895
 30
0.0
 10
84.21088051280145
 20
-131.00561248895
 30
0.0
 10
84.41620820372233
 20
-131.00561248895
 30
0.0
 10
84.51749401098868
 20
-130.8702202363797
 30
0.0
 10
84.51749401098868
 20
-130.6893527234041
 30
0.0
 10
84.51749401098868
 20
-130.4902262043566
 30
0.0
 10
84.3948486117138
 20
-130.3727484483096
 30
0.0
 10
84.2170816846749
 20
-130.3727484483096
 30
0.0
 10
83.99521753542481
 20
-130.3727484483096
 30
0.0
 10
83.92114798249195
 20
-130.5467257703147
 30
0.0
 10
83.92114798249195
 20
-130.6893527234041
 30
0.0
  0
HATCH
  5
8B
330
84
100
AcDbEntity
  8
_U+30EC_U+30A4_U+30E4_U+30FC 1
 62
   179
420
  2234388
100
AcDbHatch
 10
0.0
 20
0.0
 30
0.0
210
0.0
220
0.0
230
1.0
  2
SOLID
 70
     1
 71
     0
 91
        3
 92
        1
 93
        1
 72
     4
 94
        3
 73
     0
 74
     1
 95
       29
 96
       25
 40
0.0
 40
0.0
 40
0.0
 40
0.0
 40
1.0
 40
1.0
 40
1.0
 40
2.0
 40
2.0
 40
2.0
 40
3.0
 40
3.0
 40
3.0
 40
4.0
 40
4.0
 40
4.0
 40
5.0
 40
5.0
 40
5.0
 40
6.0
 40
6.0
 40
6.0
 40
7.0
 40
7.0
 40
7.0
 40
8.0
 40
8.0
 40
8.0
 40
8.0
 10
84.7121419059053
 20
-130.6893527234041
 10
84.7121419059053
 20
-130.9739176104857
 10
84.57468259604383
 20
-131.2453911347234
 10
84.22569442338802
 20
-131.2453911347234
 10
83.96972382883396
 20
-131.2453911347234
 10
83.87463919344107
 20
-131.0938069333724
 10
83.81331649380363
 20
-130.9808078014562
 10
83.75406085145733
 20
-131.1141329967353
 10
83.63968368134702
 20
-131.1957817597358
 10
83.47879772218586
 20
-131.1957817597358
 10
83.20387910246292
 20
-131.1957817597358
 10
83.06848684989261
 20
-130.9832193682959
 10
83.06848684989261
 20
-130.6893527234041
 10
83.06848684989261
 20
-130.3861843207021
 10
83.21249184117605
 20
-130.1829236870723
 10
83.47879772218586
 20
-130.1829236870723
 10
83.63968368134702
 20
-130.1829236870723
 10
83.75406085145733
 20
-130.2662949978154
 10
83.81331649380363
 20
-130.3999647026431
 10
83.86395939743679
 20
-130.3048800672502
 10
83.95904403282968
 20
-130.1353813693759
 10
84.22156030880572
 20
-130.1353813693759
 10
84.59604218805238
 20
-130.1353813693759
 10
84.7121419059053
 20
-130.4337266383985
 10
84.7121419059053
 20
-130.6893527234041
 97
        0
 97
        0
 92
        1
 93
        1
 72
     4
 94
        3
 73
     0
 74
     1
 95
       17
 96
       13
 40
0.0
 40
0.0
 40
0.0
 40
0.0
 40
1.0
 40
1.0
 40
1.0
 40
2.0
 40
2.0
 40
2.0
 40
3.0
 40
3.0
 40
3.0
 40
4.0
 40
4.0
 40
4.0
 40
4.0
 10
83.26106768751806
 20
-130.6893527234041
 10
83.26106768751806
 20
-130.8657416122489
 10
83.35615232291097
 20
-130.9560031139624
 10
83.49154457548129
 20
-130.9560031139624
 10
83.61418997475617
 20
-130.9560031139624
 10
83.73270125944877
 20
-130.8791774846413
 10
83.73270125944877
 20
-130.6893527234041
 10
83.73270125944877
 20
-130.4991834526183
 10
83.61418997475617
 20
-130.4223578232972
 10
83.49154457548129
 20
-130.4223578232972
 10
83.35615232291097
 20
-130.4223578232972
 10
83.26106768751806
 20
-130.5150308918504
 10
83.26106768751806
 20
-130.6893527234041
 97
        0
 97
        0
 92
        1
 93
        1
 72
     4
 94
        3
 73
     0
 74
     1
 95
       17
 96
       13
 40
0.0
 40
0.0
 40
0.0
 40
0.0
 40
1.0
 40
1.0
 40
1.0
 40
2.0
 40
2.0
 40
2.0
 40
3.0
 40
3.0
 40
3.0
 40
4.0
 40
4.0
 40
4.0
 40
4.0
 10
83.92114798249195
 20
-130.6893527234041
 10
83.92114798249195
 20
-130.8430039820462
 10
84.00796438872024
 20
-131.00561248895
 10
84.21088051280145
 20
-131.00561248895
 10
84.41620820372233
 20
-131.00561248895
 10
84.51749401098868
 20
-130.8702202363797
 10
84.51749401098868
 20
-130.6893527234041
 10
84.51749401098868
 20
-130.4902262043566
 10
84.3948486117138
 20
-130.3727484483096
 10
84.2170816846749
 20
-130.3727484483096
 10
83.99521753542481
 20
-130.3727484483096
 10
83.92114798249195
 20
-130.5467257703147
 10
83.92114798249195
 20
-130.6893527234041
 97
        0
 97
        0
 75
     2
 76
     1
 98
        0
  0
POLYLINE
  5
8C
330
84
100
AcDbEntity
  8
_U+30EC_U+30A4_U+30E4_U+30FC 1
370
     0
100
AcDb2dPolyline
 66
     1
 10
0.0
 20
0.0
 30
0.0
  0
VERTEX
  5
8D
330
8C
100
AcDbEntity
  8
_U+30EC_U+30A4_U+30E4_U+30FC 1
370
     0
100
AcDbVertex
100
AcDb2dVertex
 10
84.66149900227212
 20
-129.901803895476
 30
0.0
  0
VERTEX
  5
8E
330
8C
100
AcDbEntity
  8
_U+30EC_U+30A4_U+30E4_U+30FC 1
370
     0
100
AcDbVertex
100
AcDb2dVertex
 10
84.40966252230037
 20
-129.901803895476
 30
0.0
  0
VERTEX
  5
8F
330
8C
100
AcDbEntity
  8
_U+30EC_U+30A4_U+30E4_U+30FC 1
370
     0
100
AcDbVertex
100
AcDb2dVertex
 10
84.40966252230037
 20
-129.6327419380779
 30
0.0
  0
VERTEX
  5
90
330
8C
100
AcDbEntity
  8
_U+30EC_U+30A4_U+30E4_U+30FC 1
370
     0
100
AcDbVertex
100
AcDb2dVertex
 10
84.66149900227212
 20
-129.6327419380779
 30
0.0
  0
VERTEX
  5
91
330
8C
100
AcDbEntity
  8
_U+30EC_U+30A4_U+30E4_U+30FC 1
370
     0
100
AcDbVertex
100
AcDb2dVertex
 10
84.66149900227212
 20
-129.901803895476
 30
0.0
  0
SEQEND
  5
92
330
8C
100
AcDbEntity
  8
_U+30EC_U+30A4_U+30E4_U+30FC 1
370
     0
  0
HATCH
  5
93
330
84
100
AcDbEntity
  8
_U+30EC_U+30A4_U+30E4_U+30FC 1
 62
   179
420
  2234388
100
AcDbHatch
 10
0.0
 20
0.0
 30
0.0
210
0.0
220
0.0
230
1.0
  2
SOLID
 70
     1
 71
     0
 91
        1
 92
        1
 93
        4
 72
     1
 10
84.66149900227212
 20
-129.901803895476
 11
84.40966252230037
 21
-129.901803895476
 72
     1
 10
84.40966252230037
 20
-129.901803895476
 11
84.40966252230037
 21
-129.6327419380779
 72
     1
 10
84.40966252230037
 20
-129.6327419380779
 11
84.66149900227212
 21
-129.6327419380779
 72
     1
 10
84.66149900227212
 20
-129.6327419380779
 11
84.66149900227212
 21
-129.901803895476
 97
        0
 75
     2
 76
     1
 98
        0
  0
SPLINE
  5
94
330
84
100
AcDbEntity
  8
_U+30EC_U+30A4_U+30E4_U+30FC 1
370
     0
100
AcDbSpline
210
0.0
220
0.0
230
1.0
 70
    11
 71
     3
 72
    53
 73
    49
 74
     0
 42
0.0000000001
 43
0.0000000001
 12
1.0
 22
0.0
 32
0.0
 13
1.0
 23
0.0
 33
0.0
 40
0.0
 40
0.0
 40
0.0
 40
0.0
 40
1.0
 40
1.0
 40
1.0
 40
2.0
 40
2.0
 40
2.0
 40
3.0
 40
3.0
 40
3.0
 40
4.0
 40
4.0
 40
4.0
 40
5.0
 40
5.0
 40
5.0
 40
6.0
 40
6.0
 40
6.0
 40
7.0
 40
7.0
 40
7.0
 40
8.0
 40
8.0
 40
8.0
 40
9.0
 40
9.0
 40
9.0
 40
10.0
 40
10.0
 40
10.0
 40
11.0
 40
11.0
 40
11.0
 40
12.0
 40
12.0
 40
12.0
 40
13.0
 40
13.0
 40
13.0
 40
14.0
 40
14.0
 40
14.0
 40
15.0
 40
15.0
 40
15.0
 40
16.0
 40
16.0
 40
16.0
 40
16.0
 10
84.7121419059053
 20
-128.8658636830613
 30
0.0
 10
84.7121419059053
 20
-128.9495795033529
 30
0.0
 10
84.69526093802757
 20
-129.0577555015897
 30
0.0
 10
84.63187118109899
 20
-129.1666205189236
 30
0.0
 10
84.52197263511951
 20
-129.3519666560301
 30
0.0
 10
84.3907144971315
 20
-129.3743597766842
 30
0.0
 10
84.28288300844318
 20
-129.3946858400472
 30
0.0
 10
84.28288300844318
 20
-129.3946858400472
 30
0.0
 10
84.28288300844318
 20
-129.1573187611135
 30
0.0
 10
84.28288300844318
 20
-129.1573187611135
 30
0.0
 10
84.48166501794209
 20
-129.0987521378642
 30
0.0
 10
84.51129283911524
 20
-128.9630153757454
 30
0.0
 10
84.51129283911524
 20
-128.8634521162217
 30
0.0
 10
84.51129283911524
 20
-128.7142794817103
 30
0.0
 10
84.41172957959152
 20
-128.551326465258
 30
0.0
 10
84.17918563433714
 20
-128.551326465258
 30
0.0
 10
83.92321503978309
 20
-128.551326465258
 30
0.0
 10
83.85327960143252
 20
-128.7435627933349
 30
0.0
 10
83.85327960143252
 20
-128.8724093644833
 30
0.0
 10
83.85327960143252
 20
-128.9065158097873
 30
0.0
 10
83.85327960143252
 20
-129.0577555015897
 30
0.0
 10
83.98247068212939
 20
-129.1528401369826
 30
0.0
 10
83.98247068212939
 20
-129.1528401369826
 30
0.0
 10
83.9635226569605
 20
-129.3405978409288
 30
0.0
 10
83.9635226569605
 20
-129.3405978409288
 30
0.0
 10
83.9635226569605
 20
-129.3405978409288
 30
0.0
 10
83.11706269623463
 20
-129.2117512697804
 30
0.0
 10
83.11706269623463
 20
-129.2117512697804
 30
0.0
 10
83.11706269623463
 20
-129.2117512697804
 30
0.0
 10
83.11706269623463
 20
-128.3797607100926
 30
0.0
 10
83.11706269623463
 20
-128.3797607100926
 30
0.0
 10
83.11706269623463
 20
-128.3797607100926
 30
0.0
 10
83.31171059115124
 20
-128.3797607100926
 30
0.0
 10
83.31171059115124
 20
-128.3797607100926
 30
0.0
 10
83.31171059115124
 20
-128.3797607100926
 30
0.0
 10
83.31171059115124
 20
-129.0374294382268
 30
0.0
 10
83.31171059115124
 20
-129.0374294382268
 30
0.0
 10
83.31171059115124
 20
-129.0374294382268
 30
0.0
 10
83.73476831673992
 20
-129.1077093861259
 30
0.0
 10
83.73476831673992
 20
-129.1077093861259
 30
0.0
 10
83.70100638098448
 20
-129.0422525719061
 30
0.0
 10
83.66069876380705
 20
-128.9540581274837
 30
0.0
 10
83.66069876380705
 20
-128.8272786136265
 30
0.0
 10
83.66069876380705
 20
-128.5561495989374
 30
0.0
 10
83.84707842955906
 20
-128.3029350807715
 30
0.0
 10
84.16023760916828
 20
-128.3029350807715
 30
0.0
 10
84.47753090335979
 20
-128.3029350807715
 30
0.0
 10
84.7121419059053
 20
-128.5423692169963
 30
0.0
 10
84.7121419059053
 20
-128.8658636830613
 30
0.0
  0
HATCH
  5
95
330
84
100
AcDbEntity
  8
_U+30EC_U+30A4_U+30E4_U+30FC 1
 62
   179
420
  2234388
100
AcDbHatch
 10
0.0
 20
0.0
 30
0.0
210
0.0
220
0.0
230
1.0
  2
SOLID
 70
     1
 71
     0
 91
        1
 92
        1
 93
        1
 72
     4
 94
        3
 73
     0
 74
     1
 95
       53
 96
       49
 40
0.0
 40
0.0
 40
0.0
 40
0.0
 40
1.0
 40
1.0
 40
1.0
 40
2.0
 40
2.0
 40
2.0
 40
3.0
 40
3.0
 40
3.0
 40
4.0
 40
4.0
 40
4.0
 40
5.0
 40
5.0
 40
5.0
 40
6.0
 40
6.0
 40
6.0
 40
7.0
 40
7.0
 40
7.0
 40
8.0
 40
8.0
 40
8.0
 40
9.0
 40
9.0
 40
9.0
 40
10.0
 40
10.0
 40
10.0
 40
11.0
 40
11.0
 40
11.0
 40
12.0
 40
12.0
 40
12.0
 40
13.0
 40
13.0
 40
13.0
 40
14.0
 40
14.0
 40
14.0
 40
15.0
 40
15.0
 40
15.0
 40
16.0
 40
16.0
 40
16.0
 40
16.0
 10
84.7121419059053
 20
-128.8658636830613
 10
84.7121419059053
 20
-128.9495795033529
 10
84.69526093802757
 20
-129.0577555015897
 10
84.63187118109899
 20
-129.1666205189236
 10
84.52197263511951
 20
-129.3519666560301
 10
84.3907144971315
 20
-129.3743597766842
 10
84.28288300844318
 20
-129.3946858400472
 10
84.28288300844318
 20
-129.3946858400472
 10
84.28288300844318
 20
-129.1573187611135
 10
84.28288300844318
 20
-129.1573187611135
 10
84.48166501794209
 20
-129.0987521378642
 10
84.51129283911524
 20
-128.9630153757454
 10
84.51129283911524
 20
-128.8634521162217
 10
84.51129283911524
 20
-128.7142794817103
 10
84.41172957959152
 20
-128.551326465258
 10
84.17918563433714
 20
-128.551326465258
 10
83.92321503978309
 20
-128.551326465258
 10
83.85327960143252
 20
-128.7435627933349
 10
83.85327960143252
 20
-128.8724093644833
 10
83.85327960143252
 20
-128.9065158097873
 10
83.85327960143252
 20
-129.0577555015897
 10
83.98247068212939
 20
-129.1528401369826
 10
83.98247068212939
 20
-129.1528401369826
 10
83.9635226569605
 20
-129.3405978409288
 10
83.9635226569605
 20
-129.3405978409288
 10
83.9635226569605
 20
-129.3405978409288
 10
83.11706269623463
 20
-129.2117512697804
 10
83.11706269623463
 20
-129.2117512697804
 10
83.11706269623463
 20
-129.2117512697804
 10
83.11706269623463
 20
-128.3797607100926
 10
83.11706269623463
 20
-128.3797607100926
 10
83.11706269623463
 20
-128.3797607100926
 10
83.31171059115124
 20
-128.3797607100926
 10
83.31171059115124
 20
-128.3797607100926
 10
83.31171059115124
 20
-128.3797607100926
 10
83.31171059115124
 20
-129.0374294382268
 10
83.31171059115124
 20
-129.0374294382268
 10
83.31171059115124
 20
-129.0374294382268
 10
83.73476831673992
 20
-129.1077093861259
 10
83.73476831673992
 20
-129.1077093861259
 10
83.70100638098448
 20
-129.0422525719061
 10
83.66069876380705
 20
-128.9540581274837
 10
83.66069876380705
 20
-128.8272786136265
 10
83.66069876380705
 20
-128.5561495989374
 10
83.84707842955906
 20
-128.3029350807715
 10
84.16023760916828
 20
-128.3029350807715
 10
84.47753090335979
 20
-128.3029350807715
 10
84.7121419059053
 20
-128.5423692169963
 10
84.7121419059053
 20
-128.8658636830613
 97
        0
 97
        0
 75
     2
 76
     1
 98
        0
  0
ENDBLK
  5
87
330
84
100
AcDbEntity
  8
0
100
AcDbBlockEnd
  0
BLOCK
  5
A0
330
9E
100
AcDbEntity
  8
0
100
AcDbBlockBegin
  2
block 5
 70
     0
 10
0.0
 20
0.0
 30
0.0
  3
block 5
  1

  0
SPLINE
  5
A2
330
9E
100
AcDbEntity
  8
_U+30EC_U+30A4_U+30E4_U+30FC 1
370
     0
100
AcDbSpline
210
0.0
220
0.0
230
1.0
 70
    11
 71
     3
 72
    44
 73
    40
 74
     0
 42
0.0000000001
 43
0.0000000001
 12
1.0
 22
0.0
 32
0.0
 13
1.0
 23
0.0
 33
0.0
 40
0.0
 40
0.0
 40
0.0
 40
0.0
 40
1.0
 40
1.0
 40
1.0
 40
2.0
 40
2.0
 40
2.0
 40
3.0
 40
3.0
 40
3.0
 40
4.0
 40
4.0
 40
4.0
 40
5.0
 40
5.0
 40
5.0
 40
6.0
 40
6.0
 40
6.0
 40
7.0
 40
7.0
 40
7.0
 40
8.0
 40
8.0
 40
8.0
 40
9.0
 40
9.0
 40
9.0
 40
10.0
 40
10.0
 40
10.0
 40
11.0
 40
11.0
 40
11.0
 40
12.0
 40
12.0
 40
12.0
 40
13.0
 40
13.0
 40
13.0
 40
13.0
 10
79.76446802476374
 20
-136.9866427608922
 30
0.0
 10
79.53157956996085
 20
-137.1454616627622
 30
0.0
 10
79.4321885652114
 20
-137.2195312156951
 30
0.0
 10
79.38016762338412
 20
-137.36319169743
 30
0.0
 10
79.38016762338412
 20
-137.36319169743
 30
0.0
 10
80.21215818307196
 20
-137.36319169743
 30
0.0
 10
80.21215818307196
 20
-137.36319169743
 30
0.0
 10
80.21215818307196
 20
-137.36319169743
 30
0.0
 10
80.21215818307196
 20
-137.5685193883509
 30
0.0
 10
80.21215818307196
 20
-137.5685193883509
 30
0.0
 10
80.21215818307196
 20
-137.5685193883509
 30
0.0
 10
79.11334497805153
 20
-137.5685193883509
 30
0.0
 10
79.11334497805153
 20
-137.5685193883509
 30
0.0
 10
79.14727916858124
 20
-137.210918476982
 30
0.0
 10
79.21738686170607
 20
-137.1327148094668
 30
0.0
 10
79.62890351741916
 20
-136.8343695404442
 30
0.0
 10
79.90244409894801
 20
-136.6355875309453
 30
0.0
 10
79.97255179207284
 20
-136.5677191498858
 30
0.0
 10
79.97255179207284
 20
-136.4302598400244
 30
0.0
 10
79.97255179207284
 20
-136.3117485553318
 30
0.0
 10
79.8955539079775
 20
-136.1808349268923
 30
0.0
 10
79.68540308337727
 20
-136.1808349268923
 30
0.0
 10
79.4073838777176
 20
-136.1808349268923
 30
0.0
 10
79.39825437468168
 20
-136.4113118148555
 30
0.0
 10
79.39377575055086
 20
-136.527756042257
 30
0.0
 10
79.39377575055086
 20
-136.527756042257
 30
0.0
 10
79.15416935955174
 20
-136.527756042257
 30
0.0
 10
79.15416935955174
 20
-136.527756042257
 30
0.0
 10
79.16312660781338
 20
-136.4006320188512
 30
0.0
 10
79.17449542291472
 20
-136.2886664155806
 30
0.0
 10
79.26027830049743
 20
-136.170155130888
 30
0.0
 10
79.37792831131871
 20
-136.0092691717269
 30
0.0
 10
79.5768825755919
 20
-135.9755072359714
 30
0.0
 10
79.70125052260941
 20
-135.9755072359714
 30
0.0
 10
79.99735647956663
 20
-135.9755072359714
 30
0.0
 10
80.2188761192682
 20
-136.1594753348838
 30
0.0
 10
80.2188761192682
 20
-136.4323268973155
 30
0.0
 10
80.2188761192682
 20
-136.6610812375361
 30
0.0
 10
80.09468042702494
 20
-136.7602999875113
 30
0.0
 10
79.76446802476374
 20
-136.9866427608922
 30
0.0
  0
HATCH
  5
A3
330
9E
100
AcDbEntity
  8
_U+30EC_U+30A4_U+30E4_U+30FC 1
 62
   179
420
  2234388
100
AcDbHatch
 10
0.0
 20
0.0
 30
0.0
210
0.0
220
0.0
230
1.0
  2
SOLID
 70
     1
 71
     0
 91
        1
 92
        1
 93
        1
 72
     4
 94
        3
 73
     0
 74
     1
 95
       44
 96
       40
 40
0.0
 40
0.0
 40
0.0
 40
0.0
 40
1.0
 40
1.0
 40
1.0
 40
2.0
 40
2.0
 40
2.0
 40
3.0
 40
3.0
 40
3.0
 40
4.0
 40
4.0
 40
4.0
 40
5.0
 40
5.0
 40
5.0
 40
6.0
 40
6.0
 40
6.0
 40
7.0
 40
7.0
 40
7.0
 40
8.0
 40
8.0
 40
8.0
 40
9.0
 40
9.0
 40
9.0
 40
10.0
 40
10.0
 40
10.0
 40
11.0
 40
11.0
 40
11.0
 40
12.0
 40
12.0
 40
12.0
 40
13.0
 40
13.0
 40
13.0
 40
13.0
 10
79.76446802476374
 20
-136.9866427608922
 10
79.53157956996085
 20
-137.1454616627622
 10
79.4321885652114
 20
-137.2195312156951
 10
79.38016762338412
 20
-137.36319169743
 10
79.38016762338412
 20
-137.36319169743
 10
80.21215818307196
 20
-137.36319169743
 10
80.21215818307196
 20
-137.36319169743
 10
80.21215818307196
 20
-137.36319169743
 10
80.21215818307196
 20
-137.5685193883509
 10
80.21215818307196
 20
-137.5685193883509
 10
80.21215818307196
 20
-137.5685193883509
 10
79.11334497805153
 20
-137.5685193883509
 10
79.11334497805153
 20
-137.5685193883509
 10
79.14727916858124
 20
-137.210918476982
 10
79.21738686170607
 20
-137.1327148094668
 10
79.62890351741916
 20
-136.8343695404442
 10
79.90244409894801
 20
-136.6355875309453
 10
79.97255179207284
 20
-136.5677191498858
 10
79.97255179207284
 20
-136.4302598400244
 10
79.97255179207284
 20
-136.3117485553318
 10
79.8955539079775
 20
-136.1808349268923
 10
79.68540308337727
 20
-136.1808349268923
 10
79.4073838777176
 20
-136.1808349268923
 10
79.39825437468168
 20
-136.4113118148555
 10
79.39377575055086
 20
-136.527756042257
 10
79.39377575055086
 20
-136.527756042257
 10
79.15416935955174
 20
-136.527756042257
 10
79.15416935955174
 20
-136.527756042257
 10
79.16312660781338
 20
-136.4006320188512
 10
79.17449542291472
 20
-136.2886664155806
 10
79.26027830049743
 20
-136.170155130888
 10
79.37792831131871
 20
-136.0092691717269
 10
79.5768825755919
 20
-135.9755072359714
 10
79.70125052260941
 20
-135.9755072359714
 10
79.99735647956663
 20
-135.9755072359714
 10
80.2188761192682
 20
-136.1594753348838
 10
80.2188761192682
 20
-136.4323268973155
 10
80.2188761192682
 20
-136.6610812375361
 10
80.09468042702494
 20
-136.7602999875113
 10
79.76446802476374
 20
-136.9866427608922
 97
        0
 97
        0
 75
     2
 76
     1
 98
        0
  0
POLYLINE
  5
A4
330
9E
100
AcDbEntity
  8
_U+30EC_U+30A4_U+30E4_U+30FC 1
370
     0
100
AcDb2dPolyline
 66
     1
 10
0.0
 20
0.0
 30
0.0
  0
VERTEX
  5
A5
330
A4
100
AcDbEntity
  8
_U+30EC_U+30A4_U+30E4_U+30FC 1
370
     0
100
AcDbVertex
100
AcDb2dVertex
 10
80.4526258479424
 20
-137.5685193883509
 30
0.0
  0
VERTEX
  5
A6
330
A4
100
AcDbEntity
  8
_U+30EC_U+30A4_U+30E4_U+30FC 1
370
     0
100
AcDbVertex
100
AcDb2dVertex
 10
80.4526258479424
 20
-137.3166829083792
 30
0.0
  0
VERTEX
  5
A7
330
A4
100
AcDbEntity
  8
_U+30EC_U+30A4_U+30E4_U+30FC 1
370
     0
100
AcDbVertex
100
AcDb2dVertex
 10
80.72168780534041
 20
-137.3166829083792
 30
0.0
  0
VERTEX
  5
A8
330
A4
100
AcDbEntity
  8
_U+30EC_U+30A4_U+30E4_U+30FC 1
370
     0
100
AcDbVertex
100
AcDb2dVertex
 10
80.72168780534041
 20
-137.5685193883509
 30
0.0
  0
VERTEX
  5
A9
330
A4
100
AcDbEntity
  8
_U+30EC_U+30A4_U+30E4_U+30FC 1
370
     0
100
AcDbVertex
100
AcDb2dVertex
 10
80.4526258479424
 20
-137.5685193883509
 30
0.0
  0
SEQEND
  5
AA
330
A4
100
AcDbEntity
  8
_U+30EC_U+30A4_U+30E4_U+30FC 1
370
     0
  0
HATCH
  5
AB
330
9E
100
AcDbEntity
  8
_U+30EC_U+30A4_U+30E4_U+30FC 1
 62
   179
420
  2234388
100
AcDbHatch
 10
0.0
 20
0.0
 30
0.0
210
0.0
220
0.0
230
1.0
  2
SOLID
 70
     1
 71
     0
 91
        1
 92
        1
 93
        4
 72
     1
 10
80.4526258479424
 20
-137.5685193883509
 11
80.4526258479424
 21
-137.3166829083792
 72
     1
 10
80.4526258479424
 20
-137.3166829083792
 11
80.72168780534041
 21
-137.3166829083792
 72
     1
 10
80.72168780534041
 20
-137.3166829083792
 11
80.72168780534041
 21
-137.5685193883509
 72
     1
 10
80.72168780534041
 20
-137.5685193883509
 11
80.4526258479424
 21
-137.5685193883509
 97
        0
 75
     2
 76
     1
 98
        0
  0
SPLINE
  5
AC
330
9E
100
AcDbEntity
  8
_U+30EC_U+30A4_U+30E4_U+30FC 1
370
     0
100
AcDbSpline
210
0.0
220
0.0
230
1.0
 70
    11
 71
     3
 72
    53
 73
    49
 74
     0
 42
0.0000000001
 43
0.0000000001
 12
1.0
 22
0.0
 32
0.0
 13
1.0
 23
0.0
 33
0.0
 40
0.0
 40
0.0
 40
0.0
 40
0.0
 40
1.0
 40
1.0
 40
1.0
 40
2.0
 40
2.0
 40
2.0
 40
3.0
 40
3.0
 40
3.0
 40
4.0
 40
4.0
 40
4.0
 40
5.0
 40
5.0
 40
5.0
 40
6.0
 40
6.0
 40
6.0
 40
7.0
 40
7.0
 40
7.0
 40
8.0
 40
8.0
 40
8.0
 40
9.0
 40
9.0
 40
9.0
 40
10.0
 40
10.0
 40
10.0
 40
11.0
 40
11.0
 40
11.0
 40
12.0
 40
12.0
 40
12.0
 40
13.0
 40
13.0
 40
13.0
 40
14.0
 40
14.0
 40
14.0
 40
15.0
 40
15.0
 40
15.0
 40
16.0
 40
16.0
 40
16.0
 40
16.0
 10
81.48856606035703
 20
-137.6191622919841
 30
0.0
 10
81.40485024006546
 20
-137.6191622919841
 30
0.0
 10
81.29632973228009
 20
-137.6022813241064
 30
0.0
 10
81.18780922449471
 20
-137.5388915671778
 30
0.0
 10
81.00246308738828
 20
-137.4289930211983
 30
0.0
 10
80.97972545718562
 20
-137.2977348832103
 30
0.0
 10
80.95939939382265
 20
-137.189903394522
 30
0.0
 10
80.95939939382265
 20
-137.189903394522
 30
0.0
 10
81.19676647275637
 20
-137.189903394522
 30
0.0
 10
81.19676647275637
 20
-137.189903394522
 30
0.0
 10
81.25567760555414
 20
-137.3886854040209
 30
0.0
 10
81.39141436767298
 20
-137.418313225194
 30
0.0
 10
81.49063311764817
 20
-137.418313225194
 30
0.0
 10
81.64015026170802
 20
-137.418313225194
 30
0.0
 10
81.80275876861181
 20
-137.3187499656703
 30
0.0
 10
81.80275876861181
 20
-137.0862060204159
 30
0.0
 10
81.80275876861181
 20
-136.8302354258619
 30
0.0
 10
81.61052244053488
 20
-136.7602999875113
 30
0.0
 10
81.48167586938654
 20
-136.7602999875113
 30
0.0
 10
81.44791393363109
 20
-136.7602999875113
 30
0.0
 10
81.29632973228009
 20
-136.7602999875113
 30
0.0
 10
81.20124509688719
 20
-136.8894910682082
 30
0.0
 10
81.20124509688719
 20
-136.8894910682082
 30
0.0
 10
81.0138319024896
 20
-136.8705430430393
 30
0.0
 10
81.0138319024896
 20
-136.8705430430393
 30
0.0
 10
81.0138319024896
 20
-136.8705430430393
 30
0.0
 10
81.14267847363794
 20
-136.0240830823134
 30
0.0
 10
81.14267847363794
 20
-136.0240830823134
 30
0.0
 10
81.14267847363794
 20
-136.0240830823134
 30
0.0
 10
81.97466903332578
 20
-136.0240830823134
 30
0.0
 10
81.97466903332578
 20
-136.0240830823134
 30
0.0
 10
81.97466903332578
 20
-136.0240830823134
 30
0.0
 10
81.97466903332578
 20
-136.2187309772301
 30
0.0
 10
81.97466903332578
 20
-136.2187309772301
 30
0.0
 10
81.97466903332578
 20
-136.2187309772301
 30
0.0
 10
81.31665579564306
 20
-136.2187309772301
 30
0.0
 10
81.31665579564306
 20
-136.2187309772301
 30
0.0
 10
81.31665579564306
 20
-136.2187309772301
 30
0.0
 10
81.24672035729249
 20
-136.6417887028187
 30
0.0
 10
81.24672035729249
 20
-136.6417887028187
 30
0.0
 10
81.31217717151223
 20
-136.6080267670633
 30
0.0
 10
81.40037161593463
 20
-136.5677191498858
 30
0.0
 10
81.5268066202433
 20
-136.5677191498858
 30
0.0
 10
81.79828014448098
 20
-136.5677191498858
 30
0.0
 10
82.05149466264685
 20
-136.7540988156379
 30
0.0
 10
82.05149466264685
 20
-137.0672579952471
 30
0.0
 10
82.05149466264685
 20
-137.3845512894386
 30
0.0
 10
81.81171601687346
 20
-137.6191622919841
 30
0.0
 10
81.48856606035703
 20
-137.6191622919841
 30
0.0
  0
HATCH
  5
AD
330
9E
100
AcDbEntity
  8
_U+30EC_U+30A4_U+30E4_U+30FC 1
 62
   179
420
  2234388
100
AcDbHatch
 10
0.0
 20
0.0
 30
0.0
210
0.0
220
0.0
230
1.0
  2
SOLID
 70
     1
 71
     0
 91
        1
 92
        1
 93
        1
 72
     4
 94
        3
 73
     0
 74
     1
 95
       53
 96
       49
 40
0.0
 40
0.0
 40
0.0
 40
0.0
 40
1.0
 40
1.0
 40
1.0
 40
2.0
 40
2.0
 40
2.0
 40
3.0
 40
3.0
 40
3.0
 40
4.0
 40
4.0
 40
4.0
 40
5.0
 40
5.0
 40
5.0
 40
6.0
 40
6.0
 40
6.0
 40
7.0
 40
7.0
 40
7.0
 40
8.0
 40
8.0
 40
8.0
 40
9.0
 40
9.0
 40
9.0
 40
10.0
 40
10.0
 40
10.0
 40
11.0
 40
11.0
 40
11.0
 40
12.0
 40
12.0
 40
12.0
 40
13.0
 40
13.0
 40
13.0
 40
14.0
 40
14.0
 40
14.0
 40
15.0
 40
15.0
 40
15.0
 40
16.0
 40
16.0
 40
16.0
 40
16.0
 10
81.48856606035703
 20
-137.6191622919841
 10
81.40485024006546
 20
-137.6191622919841
 10
81.29632973228009
 20
-137.6022813241064
 10
81.18780922449471
 20
-137.5388915671778
 10
81.00246308738828
 20
-137.4289930211983
 10
80.97972545718562
 20
-137.2977348832103
 10
80.95939939382265
 20
-137.189903394522
 10
80.95939939382265
 20
-137.189903394522
 10
81.19676647275637
 20
-137.189903394522
 10
81.19676647275637
 20
-137.189903394522
 10
81.25567760555414
 20
-137.3886854040209
 10
81.39141436767298
 20
-137.418313225194
 10
81.49063311764817
 20
-137.418313225194
 10
81.64015026170802
 20
-137.418313225194
 10
81.80275876861181
 20
-137.3187499656703
 10
81.80275876861181
 20
-137.0862060204159
 10
81.80275876861181
 20
-136.8302354258619
 10
81.61052244053488
 20
-136.7602999875113
 10
81.48167586938654
 20
-136.7602999875113
 10
81.44791393363109
 20
-136.7602999875113
 10
81.29632973228009
 20
-136.7602999875113
 10
81.20124509688719
 20
-136.8894910682082
 10
81.20124509688719
 20
-136.8894910682082
 10
81.0138319024896
 20
-136.8705430430393
 10
81.0138319024896
 20
-136.8705430430393
 10
81.0138319024896
 20
-136.8705430430393
 10
81.14267847363794
 20
-136.0240830823134
 10
81.14267847363794
 20
-136.0240830823134
 10
81.14267847363794
 20
-136.0240830823134
 10
81.97466903332578
 20
-136.0240830823134
 10
81.97466903332578
 20
-136.0240830823134
 10
81.97466903332578
 20
-136.0240830823134
 10
81.97466903332578
 20
-136.2187309772301
 10
81.97466903332578
 20
-136.2187309772301
 10
81.97466903332578
 20
-136.2187309772301
 10
81.31665579564306
 20
-136.2187309772301
 10
81.31665579564306
 20
-136.2187309772301
 10
81.31665579564306
 20
-136.2187309772301
 10
81.24672035729249
 20
-136.6417887028187
 10
81.24672035729249
 20
-136.6417887028187
 10
81.31217717151223
 20
-136.6080267670633
 10
81.40037161593463
 20
-136.5677191498858
 10
81.5268066202433
 20
-136.5677191498858
 10
81.79828014448098
 20
-136.5677191498858
 10
82.05149466264685
 20
-136.7540988156379
 10
82.05149466264685
 20
-137.0672579952471
 10
82.05149466264685
 20
-137.3845512894386
 10
81.81171601687346
 20
-137.6191622919841
 10
81.48856606035703
 20
-137.6191622919841
 97
        0
 97
        0
 75
     2
 76
     1
 98
        0
  0
SPLINE
  5
AE
330
9E
100
AcDbEntity
  8
_U+30EC_U+30A4_U+30E4_U+30FC 1
370
     0
100
AcDbSpline
210
0.0
220
0.0
230
1.0
 70
    11
 71
     3
 72
    44
 73
    40
 74
     0
 42
0.0000000001
 43
0.0000000001
 12
1.0
 22
0.0
 32
0.0
 13
1.0
 23
0.0
 33
0.0
 40
0.0
 40
0.0
 40
0.0
 40
0.0
 40
1.0
 40
1.0
 40
1.0
 40
2.0
 40
2.0
 40
2.0
 40
3.0
 40
3.0
 40
3.0
 40
4.0
 40
4.0
 40
4.0
 40
5.0
 40
5.0
 40
5.0
 40
6.0
 40
6.0
 40
6.0
 40
7.0
 40
7.0
 40
7.0
 40
8.0
 40
8.0
 40
8.0
 40
9.0
 40
9.0
 40
9.0
 40
10.0
 40
10.0
 40
10.0
 40
11.0
 40
11.0
 40
11.0
 40
12.0
 40
12.0
 40
12.0
 40
13.0
 40
13.0
 40
13.0
 40
13.0
 10
83.31584470573354
 20
-137.5685193883509
 30
0.0
 10
83.29104001823974
 20
-137.5240776565912
 30
0.0
 10
83.2683023880371
 20
-137.4713676956669
 30
0.0
 10
83.26623533074594
 20
-137.2405462981552
 30
0.0
 10
83.26175670661512
 20
-136.9973225568965
 30
0.0
 10
83.19836694968652
 20
-136.9273871185459
 30
0.0
 10
83.00854218844925
 20
-136.9273871185459
 30
0.0
 10
83.00854218844925
 20
-136.9273871185459
 30
0.0
 10
82.5720485904681
 20
-136.9273871185459
 30
0.0
 10
82.5720485904681
 20
-136.9273871185459
 30
0.0
 10
82.5720485904681
 20
-136.9273871185459
 30
0.0
 10
82.5720485904681
 20
-137.5685193883509
 30
0.0
 10
82.5720485904681
 20
-137.5685193883509
 30
0.0
 10
82.5720485904681
 20
-137.5685193883509
 30
0.0
 10
82.32124563914192
 20
-137.5685193883509
 30
0.0
 10
82.32124563914192
 20
-137.5685193883509
 30
0.0
 10
82.32124563914192
 20
-137.5685193883509
 30
0.0
 10
82.32124563914192
 20
-136.0240830823134
 30
0.0
 10
82.32124563914192
 20
-136.0240830823134
 30
0.0
 10
82.32124563914192
 20
-136.0240830823134
 30
0.0
 10
83.0423041242047
 20
-136.0240830823134
 30
0.0
 10
83.0423041242047
 20
-136.0240830823134
 30
0.0
 10
83.37027721440049
 20
-136.0240830823134
 30
0.0
 10
83.54873316053643
 20
-136.1956488374789
 30
0.0
 10
83.54873316053643
 20
-136.4516194320329
 30
0.0
 10
83.54873316053643
 20
-136.5022623356661
 30
0.0
 10
83.53977591227478
 20
-136.5849446273121
 30
0.0
 10
83.49223359457834
 20
-136.6652153521184
 30
0.0
 10
83.42884383764974
 20
-136.7689127262244
 30
0.0
 10
83.35890839929917
 20
-136.7878607513933
 30
0.0
 10
83.2931070755309
 20
-136.804741719271
 30
0.0
 10
83.44021265275106
 20
-136.8471163937396
 30
0.0
 10
83.51255965794131
 20
-136.8956922400816
 30
0.0
 10
83.51703828207214
 20
-137.210918476982
 30
0.0
 10
83.52151690620296
 20
-137.4817029821226
 30
0.0
 10
83.56010197563775
 20
-137.5133978605869
 30
0.0
 10
83.632448980828
 20
-137.5685193883509
 30
0.0
 10
83.632448980828
 20
-137.5685193883509
 30
0.0
 10
83.31584470573354
 20
-137.5685193883509
 30
0.0
 10
83.31584470573354
 20
-137.5685193883509
 30
0.0
  0
SPLINE
  5
AF
330
9E
100
AcDbEntity
  8
_U+30EC_U+30A4_U+30E4_U+30FC 1
370
     0
100
AcDbSpline
210
0.0
220
0.0
230
1.0
 70
    11
 71
     3
 72
    20
 73
    16
 74
     0
 42
0.0000000001
 43
0.0000000001
 12
1.0
 22
0.0
 32
0.0
 13
1.0
 23
0.0
 33
0.0
 40
0.0
 40
0.0
 40
0.0
 40
0.0
 40
1.0
 40
1.0
 40
1.0
 40
2.0
 40
2.0
 40
2.0
 40
3.0
 40
3.0
 40
3.0
 40
4.0
 40
4.0
 40
4.0
 40
5.0
 40
5.0
 40
5.0
 40
5.0
 10
83.04678274833553
 20
-136.2356119451078
 30
0.0
 10
83.04678274833553
 20
-136.2356119451078
 30
0.0
 10
82.5720485904681
 20
-136.2356119451078
 30
0.0
 10
82.5720485904681
 20
-136.2356119451078
 30
0.0
 10
82.5720485904681
 20
-136.2356119451078
 30
0.0
 10
82.5720485904681
 20
-136.7158582557516
 30
0.0
 10
82.5720485904681
 20
-136.7158582557516
 30
0.0
 10
82.5720485904681
 20
-136.7158582557516
 30
0.0
 10
83.04471569104437
 20
-136.7158582557516
 30
0.0
 10
83.04471569104437
 20
-136.7158582557516
 30
0.0
 10
83.15082463199008
 20
-136.7158582557516
 30
0.0
 10
83.29551864237057
 20
-136.6397216455276
 30
0.0
 10
83.29551864237057
 20
-136.4685003999107
 30
0.0
 10
83.29551864237057
 20
-136.3902967323955
 30
0.0
 10
83.25934513977545
 20
-136.2356119451078
 30
0.0
 10
83.04678274833553
 20
-136.2356119451078
 30
0.0
  0
HATCH
  5
B0
330
9E
100
AcDbEntity
  8
_U+30EC_U+30A4_U+30E4_U+30FC 1
 62
   179
420
  2234388
100
AcDbHatch
 10
0.0
 20
0.0
 30
0.0
210
0.0
220
0.0
230
1.0
  2
SOLID
 70
     1
 71
     0
 91
        2
 92
        1
 93
        1
 72
     4
 94
        3
 73
     0
 74
     1
 95
       44
 96
       40
 40
0.0
 40
0.0
 40
0.0
 40
0.0
 40
1.0
 40
1.0
 40
1.0
 40
2.0
 40
2.0
 40
2.0
 40
3.0
 40
3.0
 40
3.0
 40
4.0
 40
4.0
 40
4.0
 40
5.0
 40
5.0
 40
5.0
 40
6.0
 40
6.0
 40
6.0
 40
7.0
 40
7.0
 40
7.0
 40
8.0
 40
8.0
 40
8.0
 40
9.0
 40
9.0
 40
9.0
 40
10.0
 40
10.0
 40
10.0
 40
11.0
 40
11.0
 40
11.0
 40
12.0
 40
12.0
 40
12.0
 40
13.0
 40
13.0
 40
13.0
 40
13.0
 10
83.31584470573354
 20
-137.5685193883509
 10
83.29104001823974
 20
-137.5240776565912
 10
83.2683023880371
 20
-137.4713676956669
 10
83.26623533074594
 20
-137.2405462981552
 10
83.26175670661512
 20
-136.9973225568965
 10
83.19836694968652
 20
-136.9273871185459
 10
83.00854218844925
 20
-136.9273871185459
 10
83.00854218844925
 20
-136.9273871185459
 10
82.5720485904681
 20
-136.9273871185459
 10
82.5720485904681
 20
-136.9273871185459
 10
82.5720485904681
 20
-136.9273871185459
 10
82.5720485904681
 20
-137.5685193883509
 10
82.5720485904681
 20
-137.5685193883509
 10
82.5720485904681
 20
-137.5685193883509
 10
82.32124563914192
 20
-137.5685193883509
 10
82.32124563914192
 20
-137.5685193883509
 10
82.32124563914192
 20
-137.5685193883509
 10
82.32124563914192
 20
-136.0240830823134
 10
82.32124563914192
 20
-136.0240830823134
 10
82.32124563914192
 20
-136.0240830823134
 10
83.0423041242047
 20
-136.0240830823134
 10
83.0423041242047
 20
-136.0240830823134
 10
83.37027721440049
 20
-136.0240830823134
 10
83.54873316053643
 20
-136.1956488374789
 10
83.54873316053643
 20
-136.4516194320329
 10
83.54873316053643
 20
-136.5022623356661
 10
83.53977591227478
 20
-136.5849446273121
 10
83.49223359457834
 20
-136.6652153521184
 10
83.42884383764974
 20
-136.7689127262244
 10
83.35890839929917
 20
-136.7878607513933
 10
83.2931070755309
 20
-136.804741719271
 10
83.44021265275106
 20
-136.8471163937396
 10
83.51255965794131
 20
-136.8956922400816
 10
83.51703828207214
 20
-137.210918476982
 10
83.52151690620296
 20
-137.4817029821226
 10
83.56010197563775
 20
-137.5133978605869
 10
83.632448980828
 20
-137.5685193883509
 10
83.632448980828
 20
-137.5685193883509
 10
83.31584470573354
 20
-137.5685193883509
 10
83.31584470573354
 20
-137.5685193883509
 97
        0
 97
        0
 92
        1
 93
        1
 72
     4
 94
        3
 73
     0
 74
     1
 95
       20
 96
       16
 40
0.0
 40
0.0
 40
0.0
 40
0.0
 40
1.0
 40
1.0
 40
1.0
 40
2.0
 40
2.0
 40
2.0
 40
3.0
 40
3.0
 40
3.0
 40
4.0
 40
4.0
 40
4.0
 40
5.0
 40
5.0
 40
5.0
 40
5.0
 10
83.04678274833553
 20
-136.2356119451078
 10
83.04678274833553
 20
-136.2356119451078
 10
82.5720485904681
 20
-136.2356119451078
 10
82.5720485904681
 20
-136.2356119451078
 10
82.5720485904681
 20
-136.2356119451078
 10
82.5720485904681
 20
-136.7158582557516
 10
82.5720485904681
 20
-136.7158582557516
 10
82.5720485904681
 20
-136.7158582557516
 10
83.04471569104437
 20
-136.7158582557516
 10
83.04471569104437
 20
-136.7158582557516
 10
83.15082463199008
 20
-136.7158582557516
 10
83.29551864237057
 20
-136.6397216455276
 10
83.29551864237057
 20
-136.4685003999107
 10
83.29551864237057
 20
-136.3902967323955
 10
83.25934513977545
 20
-136.2356119451078
 10
83.04678274833553
 20
-136.2356119451078
 97
        0
 97
        0
 75
     2
 76
     1
 98
        0
  0
ENDBLK
  5
A1
330
9E
100
AcDbEntity
  8
0
100
AcDbBlockEnd
  0
BLOCK
  5
BC
330
BA
100
AcDbEntity
  8
0
100
AcDbBlockBegin
  2
block 6
 70
     0
 10
0.0
 20
0.0
 30
0.0
  3
block 6
  1

  0
SPLINE
  5
BE
330
BA
100
AcDbEntity
  8
_U+30EC_U+30A4_U+30E4_U+30FC 1
370
     0
100
AcDbSpline
210
0.0
220
0.0
230
1.0
 70
    11
 71
     3
 72
    26
 73
    22
 74
     0
 42
0.0000000001
 43
0.0000000001
 12
1.0
 22
0.0
 32
0.0
 13
1.0
 23
0.0
 33
0.0
 40
0.0
 40
0.0
 40
0.0
 40
0.0
 40
1.0
 40
1.0
 40
1.0
 40
2.0
 40
2.0
 40
2.0
 40
3.0
 40
3.0
 40
3.0
 40
4.0
 40
4.0
 40
4.0
 40
5.0
 40
5.0
 40
5.0
 40
6.0
 40
6.0
 40
6.0
 40
7.0
 40
7.0
 40
7.0
 40
7.0
 10
88.14070093282594
 20
-121.0685790712954
 30
0.0
 10
88.14070093282594
 20
-121.0685790712954
 30
0.0
 10
88.14070093282594
 20
-119.9644259682728
 30
0.0
 10
88.14070093282594
 20
-119.9644259682728
 30
0.0
 10
88.14070093282594
 20
-119.9644259682728
 30
0.0
 10
87.78826766468488
 20
-119.9644259682728
 30
0.0
 10
87.78826766468488
 20
-119.9644259682728
 30
0.0
 10
87.78826766468488
 20
-119.9644259682728
 30
0.0
 10
87.78826766468488
 20
-119.816286862407
 30
0.0
 10
87.78826766468488
 20
-119.816286862407
 30
0.0
 10
88.14311249966562
 20
-119.8014729518205
 30
0.0
 10
88.19272187465322
 20
-119.6385199353682
 30
0.0
 10
88.22441675311751
 20
-119.5241427652579
 30
0.0
 10
88.22441675311751
 20
-119.5241427652579
 30
0.0
 10
88.38047957859933
 20
-119.5241427652579
 30
0.0
 10
88.38047957859933
 20
-119.5241427652579
 30
0.0
 10
88.38047957859933
 20
-119.5241427652579
 30
0.0
 10
88.38047957859933
 20
-121.0685790712954
 30
0.0
 10
88.38047957859933
 20
-121.0685790712954
 30
0.0
 10
88.38047957859933
 20
-121.0685790712954
 30
0.0
 10
88.14070093282594
 20
-121.0685790712954
 30
0.0
 10
88.14070093282594
 20
-121.0685790712954
 30
0.0
  0
HATCH
  5
BF
330
BA
100
AcDbEntity
  8
_U+30EC_U+30A4_U+30E4_U+30FC 1
 62
   179
420
  2234388
100
AcDbHatch
 10
0.0
 20
0.0
 30
0.0
210
0.0
220
0.0
230
1.0
  2
SOLID
 70
     1
 71
     0
 91
        1
 92
        1
 93
        1
 72
     4
 94
        3
 73
     0
 74
     1
 95
       26
 96
       22
 40
0.0
 40
0.0
 40
0.0
 40
0.0
 40
1.0
 40
1.0
 40
1.0
 40
2.0
 40
2.0
 40
2.0
 40
3.0
 40
3.0
 40
3.0
 40
4.0
 40
4.0
 40
4.0
 40
5.0
 40
5.0
 40
5.0
 40
6.0
 40
6.0
 40
6.0
 40
7.0
 40
7.0
 40
7.0
 40
7.0
 10
88.14070093282594
 20
-121.0685790712954
 10
88.14070093282594
 20
-121.0685790712954
 10
88.14070093282594
 20
-119.9644259682728
 10
88.14070093282594
 20
-119.9644259682728
 10
88.14070093282594
 20
-119.9644259682728
 10
87.78826766468488
 20
-119.9644259682728
 10
87.78826766468488
 20
-119.9644259682728
 10
87.78826766468488
 20
-119.9644259682728
 10
87.78826766468488
 20
-119.816286862407
 10
87.78826766468488
 20
-119.816286862407
 10
88.14311249966562
 20
-119.8014729518205
 10
88.19272187465322
 20
-119.6385199353682
 10
88.22441675311751
 20
-119.5241427652579
 10
88.22441675311751
 20
-119.5241427652579
 10
88.38047957859933
 20
-119.5241427652579
 10
88.38047957859933
 20
-119.5241427652579
 10
88.38047957859933
 20
-119.5241427652579
 10
88.38047957859933
 20
-121.0685790712954
 10
88.38047957859933
 20
-121.0685790712954
 10
88.38047957859933
 20
-121.0685790712954
 10
88.14070093282594
 20
-121.0685790712954
 10
88.14070093282594
 20
-121.0685790712954
 97
        0
 97
        0
 75
     2
 76
     1
 98
        0
  0
ENDBLK
  5
BD
330
BA
100
AcDbEntity
  8
0
100
AcDbBlockEnd
  0
ENDSEC
  0
SECTION
  2
ENTITIES
  0
SPLINE
  5
41
330
1F
100
AcDbEntity
  8
_U+30EC_U+30A4_U+30E4_U+30FC 1
 62
   179
420
  2234388
370
    25
100
AcDbSpline
210
0.0
220
0.0
230
1.0
 70
    11
 71
     3
 72
    83
 73
    79
 74
     0
 42
0.0000000001
 43
0.0000000001
 12
1.0
 22
0.0
 32
0.0
 13
1.0
 23
0.0
 33
0.0
 40
0.0
 40
0.0
 40
0.0
 40
0.0
 40
1.0
 40
1.0
 40
1.0
 40
2.0
 40
2.0
 40
2.0
 40
3.0
 40
3.0
 40
3.0
 40
4.0
 40
4.0
 40
4.0
 40
5.0
 40
5.0
 40
5.0
 40
6.0
 40
6.0
 40
6.0
 40
7.0
 40
7.0
 40
7.0
 40
8.0
 40
8.0
 40
8.0
 40
9.0
 40
9.0
 40
9.0
 40
10.0
 40
10.0
 40
10.0
 40
11.0
 40
11.0
 40
11.0
 40
12.0
 40
12.0
 40
12.0
 40
13.0
 40
13.0
 40
13.0
 40
14.0
 40
14.0
 40
14.0
 40
15.0
 40
15.0
 40
15.0
 40
16.0
 40
16.0
 40
16.0
 40
17.0
 40
17.0
 40
17.0
 40
18.0
 40
18.0
 40
18.0
 40
19.0
 40
19.0
 40
19.0
 40
20.0
 40
20.0
 40
20.0
 40
21.0
 40
21.0
 40
21.0
 40
22.0
 40
22.0
 40
22.0
 40
23.0
 40
23.0
 40
23.0
 40
24.0
 40
24.0
 40
24.0
 40
25.0
 40
25.0
 40
25.0
 40
26.0
 40
26.0
 40
26.0
 40
26.0
 10
94.76493053186432
 20
-128.6719196900543
 30
0.0
 10
94.76493053186432
 20
-128.6719196900543
 30
0.0
 10
94.76528330964209
 20
-119.6646916367506
 30
0.0
 10
94.76528330964209
 20
-119.6646916367506
 30
0.0
 10
94.48898536716293
 20
-119.6622927478623
 30
0.0
 10
94.26126731741695
 20
-119.883449136696
 30
0.0
 10
94.25851565082048
 20
-120.1597799699599
 30
0.0
 10
94.25851565082048
 20
-120.1597799699599
 30
0.0
 10
94.25851565082048
 20
-121.823056636211
 30
0.0
 10
94.25851565082048
 20
-121.823056636211
 30
0.0
 10
94.25851565082048
 20
-121.823056636211
 30
0.0
 10
94.6033583096823
 20
-122.2261405249992
 30
0.0
 10
94.6033583096823
 20
-122.2261405249992
 30
0.0
 10
94.6033583096823
 20
-122.2261405249992
 30
0.0
 10
94.25851565082048
 20
-122.6233683026774
 30
0.0
 10
94.25851565082048
 20
-122.6233683026774
 30
0.0
 10
94.25851565082048
 20
-122.6233683026774
 30
0.0
 10
94.25851565082048
 20
-125.7986858018835
 30
0.0
 10
94.25851565082048
 20
-125.7986858018835
 30
0.0
 10
93.94704815876668
 20
-125.9740516351732
 30
0.0
 10
93.77894955194412
 20
-126.3026994128688
 30
0.0
 10
93.77482205204942
 20
-126.6592871905574
 30
0.0
 10
93.77482205204942
 20
-126.6592871905574
 30
0.0
 10
93.77482205204942
 20
-128.9574933010941
 30
0.0
 10
93.77482205204942
 20
-128.9574933010941
 30
0.0
 10
93.77482205204942
 20
-128.9574933010941
 30
0.0
 10
90.25840380842739
 20
-132.4608235779957
 30
0.0
 10
90.25840380842739
 20
-132.4608235779957
 30
0.0
 10
90.25840380842739
 20
-132.4608235779957
 30
0.0
 10
90.25840380842739
 20
-125.6867141352449
 30
0.0
 10
90.25840380842739
 20
-125.6867141352449
 30
0.0
 10
89.70616548918284
 20
-125.681210801913
 30
0.0
 10
89.24314466766215
 20
-126.1242644129134
 30
0.0
 10
89.23760831102405
 20
-126.6768555238863
 30
0.0
 10
89.23760831102405
 20
-126.6768555238863
 30
0.0
 10
89.23760831102405
 20
-131.6581130226413
 30
0.0
 10
89.23760831102405
 20
-131.6581130226413
 30
0.0
 10
89.23072689020117
 20
-132.3484991335793
 30
0.0
 10
89.52286216052596
 20
-132.9761966334225
 30
0.0
 10
89.9703960379973
 20
-133.4330438555305
 30
0.0
 10
90.42237491535525
 20
-133.8850227443068
 30
0.0
 10
91.0473207327449
 20
-134.1647755220145
 30
0.0
 10
91.73805960401157
 20
-134.1647755220145
 30
0.0
 10
91.73805960401157
 20
-134.1647755220145
 30
0.0
 10
96.75861642037093
 20
-134.1647755220145
 30
0.0
 10
96.75861642037093
 20
-134.1647755220145
 30
0.0
 10
97.31050196184671
 20
-134.1647755220145
 30
0.0
 10
97.75838861708684
 20
-133.71688885546
 30
0.0
 10
97.75838861708684
 20
-133.1646505222643
 30
0.0
 10
97.75838861708684
 20
-133.1646505222643
 30
0.0
 10
90.94501517979937
 20
-133.1642977444865
 30
0.0
 10
90.94501517979937
 20
-133.1642977444865
 30
0.0
 10
90.94501517979937
 20
-133.1642977444865
 30
0.0
 10
94.46556092331609
 20
-129.6647774675839
 30
0.0
 10
94.46556092331609
 20
-129.6647774675839
 30
0.0
 10
94.46556092331609
 20
-129.6647774675839
 30
0.0
 10
96.75861642037093
 20
-129.6651302453617
 30
0.0
 10
96.75861642037093
 20
-129.6651302453617
 30
0.0
 10
97.11516891127452
 20
-129.6647774675839
 30
0.0
 10
97.44589806950358
 20
-129.4742774676313
 30
0.0
 10
97.6243683427282
 20
-129.1648913565974
 30
0.0
 10
97.6243683427282
 20
-129.1648913565974
 30
0.0
 10
100.8651638636724
 20
-129.1652441343751
 30
0.0
 10
100.8651638636724
 20
-129.1652441343751
 30
0.0
 10
100.8651638636724
 20
-129.1652441343751
 30
0.0
 10
101.2647879720756
 20
-128.8648185788947
 30
0.0
 10
101.2647879720756
 20
-128.8648185788947
 30
0.0
 10
101.2647879720756
 20
-128.8648185788947
 30
0.0
 10
101.6651201840845
 20
-129.1652441343751
 30
0.0
 10
101.6651201840845
 20
-129.1652441343751
 30
0.0
 10
101.6651201840845
 20
-129.1652441343751
 30
0.0
 10
103.2639795877386
 20
-129.1648913565974
 30
0.0
 10
103.2639795877386
 20
-129.1648913565974
 30
0.0
 10
103.5402777518927
 20
-129.1652441343751
 30
0.0
 10
103.7642184638653
 20
-128.9409833010982
 30
0.0
 10
103.7642184638653
 20
-128.6650052456114
 30
0.0
 10
103.7642184638653
 20
-128.6650052456114
 30
0.0
 10
94.76493053186432
 20
-128.6719196900543
 30
0.0
 10
94.76493053186432
 20
-128.6719196900543
 30
0.0
  0
HATCH
  5
42
330
1F
100
AcDbEntity
  8
_U+30EC_U+30A4_U+30E4_U+30FC 1
 62
   253
420
 11711154
100
AcDbHatch
 10
0.0
 20
0.0
 30
0.0
210
0.0
220
0.0
230
1.0
  2
SOLID
 70
     1
 71
     0
 91
        1
 92
        1
 93
        1
 72
     4
 94
        3
 73
     0
 74
     1
 95
       83
 96
       79
 40
0.0
 40
0.0
 40
0.0
 40
0.0
 40
1.0
 40
1.0
 40
1.0
 40
2.0
 40
2.0
 40
2.0
 40
3.0
 40
3.0
 40
3.0
 40
4.0
 40
4.0
 40
4.0
 40
5.0
 40
5.0
 40
5.0
 40
6.0
 40
6.0
 40
6.0
 40
7.0
 40
7.0
 40
7.0
 40
8.0
 40
8.0
 40
8.0
 40
9.0
 40
9.0
 40
9.0
 40
10.0
 40
10.0
 40
10.0
 40
11.0
 40
11.0
 40
11.0
 40
12.0
 40
12.0
 40
12.0
 40
13.0
 40
13.0
 40
13.0
 40
14.0
 40
14.0
 40
14.0
 40
15.0
 40
15.0
 40
15.0
 40
16.0
 40
16.0
 40
16.0
 40
17.0
 40
17.0
 40
17.0
 40
18.0
 40
18.0
 40
18.0
 40
19.0
 40
19.0
 40
19.0
 40
20.0
 40
20.0
 40
20.0
 40
21.0
 40
21.0
 40
21.0
 40
22.0
 40
22.0
 40
22.0
 40
23.0
 40
23.0
 40
23.0
 40
24.0
 40
24.0
 40
24.0
 40
25.0
 40
25.0
 40
25.0
 40
26.0
 40
26.0
 40
26.0
 40
26.0
 10
94.76493053186432
 20
-128.6719196900543
 10
94.76493053186432
 20
-128.6719196900543
 10
94.76528330964209
 20
-119.6646916367506
 10
94.76528330964209
 20
-119.6646916367506
 10
94.48898536716293
 20
-119.6622927478623
 10
94.26126731741695
 20
-119.883449136696
 10
94.25851565082048
 20
-120.1597799699599
 10
94.25851565082048
 20
-120.1597799699599
 10
94.25851565082048
 20
-121.823056636211
 10
94.25851565082048
 20
-121.823056636211
 10
94.25851565082048
 20
-121.823056636211
 10
94.6033583096823
 20
-122.2261405249992
 10
94.6033583096823
 20
-122.2261405249992
 10
94.6033583096823
 20
-122.2261405249992
 10
94.25851565082048
 20
-122.6233683026774
 10
94.25851565082048
 20
-122.6233683026774
 10
94.25851565082048
 20
-122.6233683026774
 10
94.25851565082048
 20
-125.7986858018835
 10
94.25851565082048
 20
-125.7986858018835
 10
93.94704815876668
 20
-125.9740516351732
 10
93.77894955194412
 20
-126.3026994128688
 10
93.77482205204942
 20
-126.6592871905574
 10
93.77482205204942
 20
-126.6592871905574
 10
93.77482205204942
 20
-128.9574933010941
 10
93.77482205204942
 20
-128.9574933010941
 10
93.77482205204942
 20
-128.9574933010941
 10
90.25840380842739
 20
-132.4608235779957
 10
90.25840380842739
 20
-132.4608235779957
 10
90.25840380842739
 20
-132.4608235779957
 10
90.25840380842739
 20
-125.6867141352449
 10
90.25840380842739
 20
-125.6867141352449
 10
89.70616548918284
 20
-125.681210801913
 10
89.24314466766215
 20
-126.1242644129134
 10
89.23760831102405
 20
-126.6768555238863
 10
89.23760831102405
 20
-126.6768555238863
 10
89.23760831102405
 20
-131.6581130226413
 10
89.23760831102405
 20
-131.6581130226413
 10
89.23072689020117
 20
-132.3484991335793
 10
89.52286216052596
 20
-132.9761966334225
 10
89.9703960379973
 20
-133.4330438555305
 10
90.42237491535525
 20
-133.8850227443068
 10
91.0473207327449
 20
-134.1647755220145
 10
91.73805960401157
 20
-134.1647755220145
 10
91.73805960401157
 20
-134.1647755220145
 10
96.75861642037093
 20
-134.1647755220145
 10
96.75861642037093
 20
-134.1647755220145
 10
97.31050196184671
 20
-134.1647755220145
 10
97.75838861708684
 20
-133.71688885546
 10
97.75838861708684
 20
-133.1646505222643
 10
97.75838861708684
 20
-133.1646505222643
 10
90.94501517979937
 20
-133.1642977444865
 10
90.94501517979937
 20
-133.1642977444865
 10
90.94501517979937
 20
-133.1642977444865
 10
94.46556092331609
 20
-129.6647774675839
 10
94.46556092331609
 20
-129.6647774675839
 10
94.46556092331609
 20
-129.6647774675839
 10
96.75861642037093
 20
-129.6651302453617
 10
96.75861642037093
 20
-129.6651302453617
 10
97.11516891127452
 20
-129.6647774675839
 10
97.44589806950358
 20
-129.4742774676313
 10
97.6243683427282
 20
-129.1648913565974
 10
97.6243683427282
 20
-129.1648913565974
 10
100.8651638636724
 20
-129.1652441343751
 10
100.8651638636724
 20
-129.1652441343751
 10
100.8651638636724
 20
-129.1652441343751
 10
101.2647879720756
 20
-128.8648185788947
 10
101.2647879720756
 20
-128.8648185788947
 10
101.2647879720756
 20
-128.8648185788947
 10
101.6651201840845
 20
-129.1652441343751
 10
101.6651201840845
 20
-129.1652441343751
 10
101.6651201840845
 20
-129.1652441343751
 10
103.2639795877386
 20
-129.1648913565974
 10
103.2639795877386
 20
-129.1648913565974
 10
103.5402777518927
 20
-129.1652441343751
 10
103.7642184638653
 20
-128.9409833010982
 10
103.7642184638653
 20
-128.6650052456114
 10
103.7642184638653
 20
-128.6650052456114
 10
94.76493053186432
 20
-128.6719196900543
 10
94.76493053186432
 20
-128.6719196900543
 97
        0
 97
        0
 75
     2
 76
     1
 98
        0
  0
POLYLINE
  5
43
330
1F
100
AcDbEntity
  8
_U+30EC_U+30A4_U+30E4_U+30FC 1
 62
   179
420
  2234388
370
     9
100
AcDb2dPolyline
 66
     1
 10
0.0
 20
0.0
 30
0.0
  0
VERTEX
  5
44
330
43
100
AcDbEntity
  8
_U+30EC_U+30A4_U+30E4_U+30FC 1
 62
   179
420
  2234388
370
     9
100
AcDbVertex
100
AcDb2dVertex
 10
89.49082993912094
 20
-134.298443021981
 30
0.0
  0
VERTEX
  5
45
330
43
100
AcDbEntity
  8
_U+30EC_U+30A4_U+30E4_U+30FC 1
 62
   179
420
  2234388
370
     9
100
AcDbVertex
100
AcDb2dVertex
 10
89.9907160374789
 20
-133.432338299975
 30
0.0
  0
SEQEND
  5
46
330
43
100
AcDbEntity
  8
_U+30EC_U+30A4_U+30E4_U+30FC 1
 62
   179
420
  2234388
370
     9
  0
POLYLINE
  5
47
330
1F
100
AcDbEntity
  8
_U+30EC_U+30A4_U+30E4_U+30FC 1
 62
   179
420
  2234388
370
     9
100
AcDb2dPolyline
 66
     1
 10
0.0
 20
0.0
 30
0.0
  0
VERTEX
  5
48
330
47
100
AcDbEntity
  8
_U+30EC_U+30A4_U+30E4_U+30FC 1
 62
   179
420
  2234388
370
     9
100
AcDbVertex
100
AcDb2dVertex
 10
89.12461133735285
 20
-133.9325771887393
 30
0.0
  0
VERTEX
  5
49
330
47
100
AcDbEntity
  8
_U+30EC_U+30A4_U+30E4_U+30FC 1
 62
   179
420
  2234388
370
     9
100
AcDbVertex
100
AcDb2dVertex
 10
89.9907160374789
 20
-133.432338299975
 30
0.0
  0
SEQEND
  5
4A
330
47
100
AcDbEntity
  8
_U+30EC_U+30A4_U+30E4_U+30FC 1
 62
   179
420
  2234388
370
     9
  0
SPLINE
  5
4B
330
1F
100
AcDbEntity
  8
_U+30EC_U+30A4_U+30E4_U+30FC 1
 62
   179
420
  2234388
370
     9
100
AcDbSpline
210
0.0
220
0.0
230
1.0
 70
    11
 71
     3
 72
    17
 73
    13
 74
     0
 42
0.0000000001
 43
0.0000000001
 12
1.0
 22
0.0
 32
0.0
 13
1.0
 23
0.0
 33
0.0
 40
0.0
 40
0.0
 40
0.0
 40
0.0
 40
1.0
 40
1.0
 40
1.0
 40
2.0
 40
2.0
 40
2.0
 40
3.0
 40
3.0
 40
3.0
 40
4.0
 40
4.0
 40
4.0
 40
4.0
 10
85.35842643343624
 20
-134.1647755220145
 30
0.0
 10
85.35842643343624
 20
-134.1096363553615
 30
0.0
 10
85.31366108978264
 20
-134.0648688553729
 30
0.0
 10
85.25820226932649
 20
-134.0648688553729
 30
0.0
 10
85.20306310406654
 20
-134.0648688553729
 30
0.0
 10
85.15829560520866
 20
-134.1096363553615
 30
0.0
 10
85.15829560520866
 20
-134.1647755220145
 30
0.0
 10
85.15829560520866
 20
-134.2198794108895
 30
0.0
 10
85.20306310406654
 20
-134.2646821886562
 30
0.0
 10
85.25820226932649
 20
-134.2646821886562
 30
0.0
 10
85.31366108978264
 20
-134.2646821886562
 30
0.0
 10
85.35842643343624
 20
-134.2198794108895
 30
0.0
 10
85.35842643343624
 20
-134.1647755220145
 30
0.0
  0
SPLINE
  5
4C
330
1F
100
AcDbEntity
  8
_U+30EC_U+30A4_U+30E4_U+30FC 1
 62
   179
420
  2234388
370
     9
100
AcDbSpline
210
0.0
220
0.0
230
1.0
 70
    11
 71
     3
 72
    17
 73
    13
 74
     0
 42
0.0000000001
 43
0.0000000001
 12
1.0
 22
0.0
 32
0.0
 13
1.0
 23
0.0
 33
0.0
 40
0.0
 40
0.0
 40
0.0
 40
0.0
 40
1.0
 40
1.0
 40
1.0
 40
2.0
 40
2.0
 40
2.0
 40
3.0
 40
3.0
 40
3.0
 40
4.0
 40
4.0
 40
4.0
 40
4.0
 10
85.35842643343624
 20
-125.6646655241393
 30
0.0
 10
85.35842643343624
 20
-125.6092088574866
 30
0.0
 10
85.31366108978264
 20
-125.5647588574977
 30
0.0
 10
85.25820226932649
 20
-125.5647588574977
 30
0.0
 10
85.20306310406654
 20
-125.5647588574977
 30
0.0
 10
85.15829560520866
 20
-125.6092088574866
 30
0.0
 10
85.15829560520866
 20
-125.6646655241393
 30
0.0
 10
85.15829560520866
 20
-125.7201574685698
 30
0.0
 10
85.20306310406654
 20
-125.7649249685587
 30
0.0
 10
85.25820226932649
 20
-125.7649249685587
 30
0.0
 10
85.31366108978264
 20
-125.7649249685587
 30
0.0
 10
85.35842643343624
 20
-125.7201574685698
 30
0.0
 10
85.35842643343624
 20
-125.6646655241393
 30
0.0
  0
SPLINE
  5
4D
330
1F
100
AcDbEntity
  8
_U+30EC_U+30A4_U+30E4_U+30FC 1
 62
   179
420
  2234388
370
     9
100
AcDbSpline
210
0.0
220
0.0
230
1.0
 70
    11
 71
     3
 72
    17
 73
    13
 74
     0
 42
0.0000000001
 43
0.0000000001
 12
1.0
 22
0.0
 32
0.0
 13
1.0
 23
0.0
 33
0.0
 40
0.0
 40
0.0
 40
0.0
 40
0.0
 40
1.0
 40
1.0
 40
1.0
 40
2.0
 40
2.0
 40
2.0
 40
3.0
 40
3.0
 40
3.0
 40
4.0
 40
4.0
 40
4.0
 40
4.0
 10
90.35831047254523
 20
-121.6645888584728
 30
0.0
 10
90.35831047254523
 20
-121.6094496918197
 30
0.0
 10
90.31350769591046
 20
-121.5646821918312
 30
0.0
 10
90.25840380842739
 20
-121.5646821918312
 30
0.0
 10
90.20326464316744
 20
-121.5646821918312
 30
0.0
 10
90.15849714430955
 20
-121.6094496918197
 30
0.0
 10
90.15849714430955
 20
-121.6645888584728
 30
0.0
 10
90.15849714430955
 20
-121.7196927473477
 30
0.0
 10
90.20326464316744
 20
-121.7644955251145
 30
0.0
 10
90.25840380842739
 20
-121.7644955251145
 30
0.0
 10
90.31350769591046
 20
-121.7644955251145
 30
0.0
 10
90.35831047254523
 20
-121.7196927473477
 30
0.0
 10
90.35831047254523
 20
-121.6645888584728
 30
0.0
  0
SPLINE
  5
4E
330
1F
100
AcDbEntity
  8
_U+30EC_U+30A4_U+30E4_U+30FC 1
 62
   179
420
  2234388
370
     9
100
AcDbSpline
210
0.0
220
0.0
230
1.0
 70
    11
 71
     3
 72
    17
 73
    13
 74
     0
 42
0.0000000001
 43
0.0000000001
 12
1.0
 22
0.0
 32
0.0
 13
1.0
 23
0.0
 33
0.0
 40
0.0
 40
0.0
 40
0.0
 40
0.0
 40
1.0
 40
1.0
 40
1.0
 40
2.0
 40
2.0
 40
2.0
 40
3.0
 40
3.0
 40
3.0
 40
4.0
 40
4.0
 40
4.0
 40
4.0
 10
93.85853621658036
 20
-121.6645888584728
 30
0.0
 10
93.85853621658036
 20
-121.6094496918197
 30
0.0
 10
93.8137334399456
 20
-121.5646821918312
 30
0.0
 10
93.75827677469375
 20
-121.5646821918312
 30
0.0
 10
93.7031376094338
 20
-121.5646821918312
 30
0.0
 10
93.65837011057592
 20
-121.6094496918197
 30
0.0
 10
93.65837011057592
 20
-121.6645888584728
 30
0.0
 10
93.65837011057592
 20
-121.7196927473477
 30
0.0
 10
93.7031376094338
 20
-121.7644955251145
 30
0.0
 10
93.75827677469375
 20
-121.7644955251145
 30
0.0
 10
93.8137334399456
 20
-121.7644955251145
 30
0.0
 10
93.85853621658036
 20
-121.7196927473477
 30
0.0
 10
93.85853621658036
 20
-121.6645888584728
 30
0.0
  0
SPLINE
  5
4F
330
1F
100
AcDbEntity
  8
_U+30EC_U+30A4_U+30E4_U+30FC 1
 62
   179
420
  2234388
370
     9
100
AcDbSpline
210
0.0
220
0.0
230
1.0
 70
    11
 71
     3
 72
    17
 73
    13
 74
     0
 42
0.0000000001
 43
0.0000000001
 12
1.0
 22
0.0
 32
0.0
 13
1.0
 23
0.0
 33
0.0
 40
0.0
 40
0.0
 40
0.0
 40
0.0
 40
1.0
 40
1.0
 40
1.0
 40
2.0
 40
2.0
 40
2.0
 40
3.0
 40
3.0
 40
3.0
 40
4.0
 40
4.0
 40
4.0
 40
4.0
 10
94.8582731355194
 20
-124.6645758021672
 30
0.0
 10
94.8582731355194
 20
-124.6094366355144
 30
0.0
 10
94.8135056366615
 20
-124.5646691355255
 30
0.0
 10
94.75836647140156
 20
-124.5646691355255
 30
0.0
 10
94.70326258391849
 20
-124.5646691355255
 30
0.0
 10
94.65845980728372
 20
-124.6094366355144
 30
0.0
 10
94.65845980728372
 20
-124.6645758021672
 30
0.0
 10
94.65845980728372
 20
-124.7196796910424
 30
0.0
 10
94.70326258391849
 20
-124.7644824688088
 30
0.0
 10
94.75836647140156
 20
-124.7644824688088
 30
0.0
 10
94.8135056366615
 20
-124.7644824688088
 30
0.0
 10
94.8582731355194
 20
-124.7196796910424
 30
0.0
 10
94.8582731355194
 20
-124.6645758021672
 30
0.0
  0
SPLINE
  5
50
330
1F
100
AcDbEntity
  8
_U+30EC_U+30A4_U+30E4_U+30FC 1
 62
   179
420
  2234388
370
     9
100
AcDbSpline
210
0.0
220
0.0
230
1.0
 70
    11
 71
     3
 72
    17
 73
    13
 74
     0
 42
0.0000000001
 43
0.0000000001
 12
1.0
 22
0.0
 32
0.0
 13
1.0
 23
0.0
 33
0.0
 40
0.0
 40
0.0
 40
0.0
 40
0.0
 40
1.0
 40
1.0
 40
1.0
 40
2.0
 40
2.0
 40
2.0
 40
3.0
 40
3.0
 40
3.0
 40
4.0
 40
4.0
 40
4.0
 40
4.0
 10
103.8651481835126
 20
-124.6645758021672
 30
0.0
 10
103.8651481835126
 20
-124.6094366355144
 30
0.0
 10
103.8203454068779
 20
-124.5646691355255
 30
0.0
 10
103.764888741626
 20
-124.5646691355255
 30
0.0
 10
103.709784854143
 20
-124.5646691355255
 30
0.0
 10
103.6649820775082
 20
-124.6094366355144
 30
0.0
 10
103.6649820775082
 20
-124.6645758021672
 30
0.0
 10
103.6649820775082
 20
-124.7196796910424
 30
0.0
 10
103.709784854143
 20
-124.7644824688088
 30
0.0
 10
103.764888741626
 20
-124.7644824688088
 30
0.0
 10
103.8203454068779
 20
-124.7644824688088
 30
0.0
 10
103.8651481835126
 20
-124.7196796910424
 30
0.0
 10
103.8651481835126
 20
-124.6645758021672
 30
0.0
  0
POLYLINE
  5
51
330
1F
100
AcDbEntity
  8
_U+30EC_U+30A4_U+30E4_U+30FC 1
 62
   179
420
  2234388
370
     9
100
AcDb2dPolyline
 66
     1
 10
0.0
 20
0.0
 30
0.0
  0
VERTEX
  5
52
330
51
100
AcDbEntity
  8
_U+30EC_U+30A4_U+30E4_U+30FC 1
 62
   179
420
  2234388
370
     9
100
AcDbVertex
100
AcDb2dVertex
 10
90.25840380842739
 20
-123.124594969219
 30
0.0
  0
VERTEX
  5
53
330
51
100
AcDbEntity
  8
_U+30EC_U+30A4_U+30E4_U+30FC 1
 62
   179
420
  2234388
370
     9
100
AcDbVertex
100
AcDb2dVertex
 10
90.25840380842739
 20
-120.6648166365006
 30
0.0
  0
SEQEND
  5
54
330
51
100
AcDbEntity
  8
_U+30EC_U+30A4_U+30E4_U+30FC 1
 62
   179
420
  2234388
370
     9
  0
POLYLINE
  5
55
330
1F
100
AcDbEntity
  8
_U+30EC_U+30A4_U+30E4_U+30FC 1
 62
   179
420
  2234388
370
     9
100
AcDb2dPolyline
 66
     1
 10
0.0
 20
0.0
 30
0.0
  0
VERTEX
  5
56
330
55
100
AcDbEntity
  8
_U+30EC_U+30A4_U+30E4_U+30FC 1
 62
   179
420
  2234388
370
     9
100
AcDbVertex
100
AcDb2dVertex
 10
93.75827677469375
 20
-124.1247199689687
 30
0.0
  0
VERTEX
  5
57
330
55
100
AcDbEntity
  8
_U+30EC_U+30A4_U+30E4_U+30FC 1
 62
   179
420
  2234388
370
     9
100
AcDbVertex
100
AcDb2dVertex
 10
93.75827677469375
 20
-120.6648166365006
 30
0.0
  0
SEQEND
  5
58
330
55
100
AcDbEntity
  8
_U+30EC_U+30A4_U+30E4_U+30FC 1
 62
   179
420
  2234388
370
     9
  0
INSERT
  5
5A
330
1F
100
AcDbEntity
  8
_U+30EC_U+30A4_U+30E4_U+30FC 1
100
AcDbBlockReference
  2
block 2
 10
0.0
 20
0.0
 30
0.0
  0
POLYLINE
  5
69
330
1F
100
AcDbEntity
  8
_U+30EC_U+30A4_U+30E4_U+30FC 1
 62
   179
420
  2234388
370
     9
100
AcDb2dPolyline
 66
     1
 10
0.0
 20
0.0
 30
0.0
  0
VERTEX
  5
6A
330
69
100
AcDbEntity
  8
_U+30EC_U+30A4_U+30E4_U+30FC 1
 62
   179
420
  2234388
370
     9
100
AcDbVertex
100
AcDb2dVertex
 10
94.75836647140156
 20
-124.6645758021672
 30
0.0
  0
VERTEX
  5
6B
330
69
100
AcDbEntity
  8
_U+30EC_U+30A4_U+30E4_U+30FC 1
 62
   179
420
  2234388
370
     9
100
AcDbVertex
100
AcDb2dVertex
 10
103.764888741626
 20
-124.6645758021672
 30
0.0
  0
SEQEND
  5
6C
330
69
100
AcDbEntity
  8
_U+30EC_U+30A4_U+30E4_U+30FC 1
 62
   179
420
  2234388
370
     9
  0
POLYLINE
  5
6D
330
1F
100
AcDbEntity
  8
_U+30EC_U+30A4_U+30E4_U+30FC 1
 62
   179
420
  2234388
370
     9
100
AcDb2dPolyline
 66
     1
 10
0.0
 20
0.0
 30
0.0
  0
VERTEX
  5
6E
330
6D
100
AcDbEntity
  8
_U+30EC_U+30A4_U+30E4_U+30FC 1
 62
   179
420
  2234388
370
     9
100
AcDbVertex
100
AcDb2dVertex
 10
103.764888741626
 20
-126.1246171906912
 30
0.0
  0
VERTEX
  5
6F
330
6D
100
AcDbEntity
  8
_U+30EC_U+30A4_U+30E4_U+30FC 1
 62
   179
420
  2234388
370
     9
100
AcDbVertex
100
AcDb2dVertex
 10
103.764888741626
 20
-123.6648035801949
 30
0.0
  0
SEQEND
  5
70
330
6D
100
AcDbEntity
  8
_U+30EC_U+30A4_U+30E4_U+30FC 1
 62
   179
420
  2234388
370
     9
  0
INSERT
  5
72
330
1F
100
AcDbEntity
  8
_U+30EC_U+30A4_U+30E4_U+30FC 1
100
AcDbBlockReference
  2
block 3
 10
0.0
 20
0.0
 30
0.0
  0
POLYLINE
  5
78
330
1F
100
AcDbEntity
  8
_U+30EC_U+30A4_U+30E4_U+30FC 1
 62
   179
420
  2234388
370
     9
100
AcDb2dPolyline
 66
     1
 10
0.0
 20
0.0
 30
0.0
  0
VERTEX
  5
79
330
78
100
AcDbEntity
  8
_U+30EC_U+30A4_U+30E4_U+30FC 1
 62
   179
420
  2234388
370
     9
100
AcDbVertex
100
AcDb2dVertex
 10
85.25820226932649
 20
-134.1647755220145
 30
0.0
  0
VERTEX
  5
7A
330
78
100
AcDbEntity
  8
_U+30EC_U+30A4_U+30E4_U+30FC 1
 62
   179
420
  2234388
370
     9
100
AcDbVertex
100
AcDb2dVertex
 10
85.25820226932649
 20
-125.6646655241393
 30
0.0
  0
SEQEND
  5
7B
330
78
100
AcDbEntity
  8
_U+30EC_U+30A4_U+30E4_U+30FC 1
 62
   179
420
  2234388
370
     9
  0
POLYLINE
  5
7C
330
1F
100
AcDbEntity
  8
_U+30EC_U+30A4_U+30E4_U+30FC 1
 62
   179
420
  2234388
370
     9
100
AcDb2dPolyline
 66
     1
 10
0.0
 20
0.0
 30
0.0
  0
VERTEX
  5
7D
330
7C
100
AcDbEntity
  8
_U+30EC_U+30A4_U+30E4_U+30FC 1
 62
   179
420
  2234388
370
     9
100
AcDbVertex
100
AcDb2dVertex
 10
88.11312691871352
 20
-134.1647755220145
 30
0.0
  0
VERTEX
  5
7E
330
7C
100
AcDbEntity
  8
_U+30EC_U+30A4_U+30E4_U+30FC 1
 62
   179
420
  2234388
370
     9
100
AcDbVertex
100
AcDb2dVertex
 10
84.25843007261058
 20
-134.1647755220145
 30
0.0
  0
SEQEND
  5
7F
330
7C
100
AcDbEntity
  8
_U+30EC_U+30A4_U+30E4_U+30FC 1
 62
   179
420
  2234388
370
     9
  0
POLYLINE
  5
80
330
1F
100
AcDbEntity
  8
_U+30EC_U+30A4_U+30E4_U+30FC 1
 62
   179
420
  2234388
370
     9
100
AcDb2dPolyline
 66
     1
 10
0.0
 20
0.0
 30
0.0
  0
VERTEX
  5
81
330
80
100
AcDbEntity
  8
_U+30EC_U+30A4_U+30E4_U+30FC 1
 62
   179
420
  2234388
370
     9
100
AcDbVertex
100
AcDb2dVertex
 10
87.71833331767444
 20
-125.6646655241393
 30
0.0
  0
VERTEX
  5
82
330
80
100
AcDbEntity
  8
_U+30EC_U+30A4_U+30E4_U+30FC 1
 62
   179
420
  2234388
370
     9
100
AcDbVertex
100
AcDb2dVertex
 10
84.25843007261058
 20
-125.6646655241393
 30
0.0
  0
SEQEND
  5
83
330
80
100
AcDbEntity
  8
_U+30EC_U+30A4_U+30E4_U+30FC 1
 62
   179
420
  2234388
370
     9
  0
INSERT
  5
85
330
1F
100
AcDbEntity
  8
_U+30EC_U+30A4_U+30E4_U+30FC 1
100
AcDbBlockReference
  2
block 4
 10
0.0
 20
0.0
 30
0.0
  0
POLYLINE
  5
96
330
1F
100
AcDbEntity
  8
_U+30EC_U+30A4_U+30E4_U+30FC 1
 62
   179
420
  2234388
370
     9
100
AcDb2dPolyline
 66
     1
 10
0.0
 20
0.0
 30
0.0
  0
VERTEX
  5
97
330
96
100
AcDbEntity
  8
_U+30EC_U+30A4_U+30E4_U+30FC 1
 62
   179
420
  2234388
370
     9
100
AcDbVertex
100
AcDb2dVertex
 10
89.9907160374789
 20
-133.432338299975
 30
0.0
  0
VERTEX
  5
98
330
96
100
AcDbEntity
  8
_U+30EC_U+30A4_U+30E4_U+30FC 1
 62
   179
420
  2234388
370
     9
100
AcDbVertex
100
AcDb2dVertex
 10
85.25820226932649
 20
-138.1645346876808
 30
0.0
  0
SEQEND
  5
99
330
96
100
AcDbEntity
  8
_U+30EC_U+30A4_U+30E4_U+30FC 1
 62
   179
420
  2234388
370
     9
  0
POLYLINE
  5
9A
330
1F
100
AcDbEntity
  8
_U+30EC_U+30A4_U+30E4_U+30FC 1
 62
   179
420
  2234388
370
     9
100
AcDb2dPolyline
 66
     1
 10
0.0
 20
0.0
 30
0.0
  0
VERTEX
  5
9B
330
9A
100
AcDbEntity
  8
_U+30EC_U+30A4_U+30E4_U+30FC 1
 62
   179
420
  2234388
370
     9
100
AcDbVertex
100
AcDb2dVertex
 10
85.25820226932649
 20
-138.1645346876808
 30
0.0
  0
VERTEX
  5
9C
330
9A
100
AcDbEntity
  8
_U+30EC_U+30A4_U+30E4_U+30FC 1
 62
   179
420
  2234388
370
     9
100
AcDbVertex
100
AcDb2dVertex
 10
77.98353662158534
 20
-138.1645346876808
 30
0.0
  0
SEQEND
  5
9D
330
9A
100
AcDbEntity
  8
_U+30EC_U+30A4_U+30E4_U+30FC 1
 62
   179
420
  2234388
370
     9
  0
INSERT
  5
9F
330
1F
100
AcDbEntity
  8
_U+30EC_U+30A4_U+30E4_U+30FC 1
100
AcDbBlockReference
  2
block 5
 10
0.0
 20
0.0
 30
0.0
  0
POLYLINE
  5
B1
330
1F
100
AcDbEntity
  8
_U+30EC_U+30A4_U+30E4_U+30FC 1
 62
   179
420
  2234388
370
     9
100
AcDb2dPolyline
 66
     1
 10
0.0
 20
0.0
 30
0.0
  0
VERTEX
  5
B2
330
B1
100
AcDbEntity
  8
_U+30EC_U+30A4_U+30E4_U+30FC 1
 62
   179
420
  2234388
370
     9
100
AcDbVertex
100
AcDb2dVertex
 10
87.71833331767444
 20
-121.6645888584728
 30
0.0
  0
VERTEX
  5
B3
330
B1
100
AcDbEntity
  8
_U+30EC_U+30A4_U+30E4_U+30FC 1
 62
   179
420
  2234388
370
     9
100
AcDbVertex
100
AcDb2dVertex
 10
93.75827677469375
 20
-121.6645888584728
 30
0.0
  0
SEQEND
  5
B4
330
B1
100
AcDbEntity
  8
_U+30EC_U+30A4_U+30E4_U+30FC 1
 62
   179
420
  2234388
370
     9
  0
SPLINE
  5
B5
330
1F
100
AcDbEntity
  8
_U+30EC_U+30A4_U+30E4_U+30FC 1
 62
   179
420
  2234388
370
     9
100
AcDbSpline
210
0.0
220
0.0
230
1.0
 70
    11
 71
     3
 72
    17
 73
    13
 74
     0
 42
0.0000000001
 43
0.0000000001
 12
1.0
 22
0.0
 32
0.0
 13
1.0
 23
0.0
 33
0.0
 40
0.0
 40
0.0
 40
0.0
 40
0.0
 40
1.0
 40
1.0
 40
1.0
 40
2.0
 40
2.0
 40
2.0
 40
3.0
 40
3.0
 40
3.0
 40
4.0
 40
4.0
 40
4.0
 40
4.0
 10
89.35818549806054
 20
-121.6607788584738
 30
0.0
 10
89.35818549806054
 20
-121.6056749695985
 30
0.0
 10
89.31341799920266
 20
-121.5608721918321
 30
0.0
 10
89.25827883394271
 20
-121.5608721918321
 30
0.0
 10
89.20317494645964
 20
-121.5608721918321
 30
0.0
 10
89.15837216982487
 20
-121.6056749695985
 30
0.0
 10
89.15837216982487
 20
-121.6607788584738
 30
0.0
 10
89.15837216982487
 20
-121.7159180251265
 30
0.0
 10
89.20317494645964
 20
-121.7606855251154
 30
0.0
 10
89.25827883394271
 20
-121.7606855251154
 30
0.0
 10
89.31341799920266
 20
-121.7606855251154
 30
0.0
 10
89.35818549806054
 20
-121.7159180251265
 30
0.0
 10
89.35818549806054
 20
-121.6607788584738
 30
0.0
  0
POLYLINE
  5
B6
330
1F
100
AcDbEntity
  8
_U+30EC_U+30A4_U+30E4_U+30FC 1
 62
   179
420
  2234388
370
     9
100
AcDb2dPolyline
 66
     1
 10
0.0
 20
0.0
 30
0.0
  0
VERTEX
  5
B7
330
B6
100
AcDbEntity
  8
_U+30EC_U+30A4_U+30E4_U+30FC 1
 62
   179
420
  2234388
370
     9
100
AcDbVertex
100
AcDb2dVertex
 10
89.25827883394271
 20
-123.1208202469975
 30
0.0
  0
VERTEX
  5
B8
330
B6
100
AcDbEntity
  8
_U+30EC_U+30A4_U+30E4_U+30FC 1
 62
   179
420
  2234388
370
     9
100
AcDbVertex
100
AcDb2dVertex
 10
89.25827883394271
 20
-120.6610419142791
 30
0.0
  0
SEQEND
  5
B9
330
B6
100
AcDbEntity
  8
_U+30EC_U+30A4_U+30E4_U+30FC 1
 62
   179
420
  2234388
370
     9
  0
INSERT
  5
BB
330
1F
100
AcDbEntity
  8
_U+30EC_U+30A4_U+30E4_U+30FC 1
100
AcDbBlockReference
  2
block 6
 10
0.0
 20
0.0
 30
0.0
  0
ENDSEC
  0
SECTION
  2
OBJECTS
  0
DICTIONARY
  5
C
330
0
100
AcDbDictionary
281
     1
  3
ACAD_GROUP
350
D
  3
ACAD_LAYOUT
350
1A
  3
ACAD_MATERIAL
350
3B
  3
ACAD_MLEADERSTYLE
350
C1
  3
ACAD_MLINESTYLE
350
17
  3
ACAD_PLOTSETTINGS
350
19
  3
ACAD_PLOTSTYLENAME
350
E
  3
ACAD_TABLESTYLE
350
C0
  3
ACAD_VISUALSTYLE
350
2A
  0
SUN
  5
3F
330
29
100
AcDbSun
 90
        1
290
     0
 63
     7
421
 16777215
 40
1.0
291
     1
 91
  2455826
 92
 54000000
292
     0
 70
     2
 71
   256
280
     1
  0
DICTIONARY
  5
D
102
{ACAD_REACTORS
330
C
102
}
330
C
100
AcDbDictionary
281
     1
  0
DICTIONARY
  5
1A
102
{ACAD_REACTORS
330
C
102
}
330
C
100
AcDbDictionary
281
     1
  3
Layout1
350
1E
  3
Layout2
350
26
  3
Model
350
22
  0
DICTIONARY
  5
3B
102
{ACAD_REACTORS
330
C
102
}
330
C
100
AcDbDictionary
281
     1
  3
ByBlock
350
3D
  3
ByLayer
350
3C
  3
Global
350
3E
  0
DICTIONARY
  5
C1
102
{ACAD_REACTORS
330
C
102
}
330
C
100
AcDbDictionary
281
     1
  0
DICTIONARY
  5
17
102
{ACAD_REACTORS
330
C
102
}
330
C
100
AcDbDictionary
281
     1
  3
Standard
350
18
  0
DICTIONARY
  5
19
102
{ACAD_REACTORS
330
C
102
}
330
C
100
AcDbDictionary
281
     1
  0
ACDBDICTIONARYWDFLT
  5
E
102
{ACAD_REACTORS
330
C
102
}
330
C
100
AcDbDictionary
281
     1
  3
Normal
350
F
100
AcDbDictionaryWithDefault
340
F
  0
DICTIONARY
  5
C0
102
{ACAD_REACTORS
330
C
102
}
330
C
100
AcDbDictionary
281
     1
  0
DICTIONARY
  5
2A
102
{ACAD_REACTORS
330
C
102
}
330
C
100
AcDbDictionary
281
     1
  3
2dWireframe
350
2F
  3
3D Hidden
350
31
  3
3dWireframe
350
30
  3
Basic
350
32
  3
Brighten
350
36
  3
ColorChange
350
3A
  3
Conceptual
350
34
  3
Dim
350
35
  3
Facepattern
350
39
  3
Flat
350
2B
  3
FlatWithEdges
350
2C
  3
Gouraud
350
2D
  3
GouraudWithEdges
350
2E
  3
Linepattern
350
38
  3
Realistic
350
33
  3
Thicken
350
37
  0
LAYOUT
  5
1E
102
{ACAD_REACTORS
330
1A
102
}
330
1A
100
AcDbPlotSettings
  1

  2
none_device
  4

  6

 40
0.0
 41
0.0
 42
0.0
 43
0.0
 44
0.0
 45
0.0
 46
0.0
 47
0.0
 48
0.0
 49
0.0
140
0.0
141
0.0
142
1.0
143
1.0
 70
   688
 72
     0
 73
     0
 74
     5
  7

 75
    16
 76
     0
 77
     2
 78
   300
147
1.0
148
0.0
149
0.0
100
AcDbLayout
  1
Layout1
 70
     1
 71
     1
 10
0.0
 20
0.0
 11
12.0
 21
9.0
 12
0.0
 22
0.0
 32
0.0
 14
1.000000000000000E+20
 24
1.000000000000000E+20
 34
1.000000000000000E+20
 15
-1.000000000000000E+20
 25
-1.000000000000000E+20
 35
-1.000000000000000E+20
146
0.0
 13
0.0
 23
0.0
 33
0.0
 16
1.0
 26
0.0
 36
0.0
 17
0.0
 27
1.0
 37
0.0
 76
     0
330
1B
  0
LAYOUT
  5
26
102
{ACAD_REACTORS
330
1A
102
}
330
1A
100
AcDbPlotSettings
  1

  2
none_device
  4

  6

 40
0.0
 41
0.0
 42
0.0
 43
0.0
 44
0.0
 45
0.0
 46
0.0
 47
0.0
 48
0.0
 49
0.0
140
0.0
141
0.0
142
1.0
143
1.0
 70
   688
 72
     0
 73
     0
 74
     5
  7

 75
    16
 76
     0
 77
     2
 78
   300
147
1.0
148
0.0
149
0.0
100
AcDbLayout
  1
Layout2
 70
     1
 71
     2
 10
0.0
 20
0.0
 11
0.0
 21
0.0
 12
0.0
 22
0.0
 32
0.0
 14
0.0
 24
0.0
 34
0.0
 15
0.0
 25
0.0
 35
0.0
146
0.0
 13
0.0
 23
0.0
 33
0.0
 16
1.0
 26
0.0
 36
0.0
 17
0.0
 27
1.0
 37
0.0
 76
     0
330
23
  0
LAYOUT
  5
22
102
{ACAD_REACTORS
330
1A
102
}
330
1A
100
AcDbPlotSettings
  1

  2
none_device
  4

  6

 40
0.0
 41
0.0
 42
0.0
 43
0.0
 44
0.0
 45
0.0
 46
0.0
 47
0.0
 48
0.0
 49
0.0
140
0.0
141
0.0
142
1.0
143
1.0
 70
  1712
 72
     0
 73
     0
 74
     0
  7

 75
     0
 76
     0
 77
     2
 78
   300
147
1.0
148
0.0
149
0.0
100
AcDbLayout
  1
Model
 70
     1
 71
     0
 10
0.0
 20
0.0
 11
12.0
 21
9.0
 12
0.0
 22
0.0
 32
0.0
 14
1.000000000000000E+20
 24
1.000000000000000E+20
 34
1.000000000000000E+20
 15
-1.000000000000000E+20
 25
-1.000000000000000E+20
 35
-1.000000000000000E+20
146
0.0
 13
0.0
 23
0.0
 33
0.0
 16
1.0
 26
0.0
 36
0.0
 17
0.0
 27
1.0
 37
0.0
 76
     0
330
1F
331
29
  0
MATERIAL
  5
3D
102
{ACAD_REACTORS
330
3B
102
}
330
3B
100
AcDbMaterial
  1
ByBlock
 72
     1
 94
      127
  0
MATERIAL
  5
3C
102
{ACAD_REACTORS
330
3B
102
}
330
3B
100
AcDbMaterial
  1
ByLayer
 72
     1
 94
      127
  0
MATERIAL
  5
3E
102
{ACAD_REACTORS
330
3B
102
}
330
3B
100
AcDbMaterial
  1
Global
 72
     1
 94
      127
  0
MLINESTYLE
  5
18
102
{ACAD_REACTORS
330
17
102
}
330
17
100
AcDbMlineStyle
  2
Standard
 70
     0
  3

 62
   256
 51
90.0
 52
90.0
 71
     2
 49
0.5
 62
   256
  6
BYLAYER
 49
-0.5
 62
   256
  6
BYLAYER
  0
ACDBPLACEHOLDER
  5
F
102
{ACAD_REACTORS
330
E
102
}
330
E
  0
VISUALSTYLE
  5
2F
102
{ACAD_REACTORS
330
2A
102
}
330
2A
100
AcDbVisualStyle
  2
2dWireframe
 70
     4
177
     2
291
     0
 71
     0
176
     1
 72
     2
176
     1
 73
     0
176
     1
 90
        0
176
     1
 40
-0.6
176
     1
 41
-30.0
176
     1
 62
     5
 63
     7
421
 16777215
176
     1
 74
     1
176
     1
 91
        4
176
     1
 64
     7
176
     1
 65
   257
176
     1
 75
     1
176
     1
175
     1
176
     1
 42
1.0
176
     1
 92
        0
176
     1
 66
   257
176
     1
 43
1.0
176
     1
 76
     1
176
     1
 77
     6
176
     1
 78
     2
176
     1
 67
     7
176
     1
 79
     5
176
     1
170
     0
176
     1
171
     0
176
     1
290
     0
176
     1
 93
        1
176
     1
 44
0.0
176
     1
173
     0
176
     1
  0
VISUALSTYLE
  5
31
102
{ACAD_REACTORS
330
2A
102
}
330
2A
100
AcDbVisualStyle
  2
3D Hidden
 70
     6
177
     2
291
     0
 71
     1
176
     1
 72
     2
176
     1
 73
     2
176
     1
 90
        0
176
     1
 40
-0.6
176
     1
 41
-30.0
176
     1
 62
     5
 63
     7
421
 16777215
176
     1
 74
     2
176
     1
 91
        2
176
     1
 64
     7
176
     1
 65
   257
176
     1
 75
     2
176
     1
175
     1
176
     1
 42
40.0
176
     1
 92
        0
176
     1
 66
   257
176
     1
 43
1.0
176
     1
 76
     1
176
     1
 77
     6
176
     1
 78
     2
176
     1
 67
     7
176
     1
 79
     3
176
     1
170
     0
176
     1
171
     0
176
     1
290
     0
176
     1
 93
        1
176
     1
 44
0.0
176
     1
173
     0
176
     1
  0
VISUALSTYLE
  5
30
102
{ACAD_REACTORS
330
2A
102
}
330
2A
100
AcDbVisualStyle
  2
3dWireframe
 70
     5
177
     2
291
     0
 71
     0
176
     1
 72
     2
176
     1
 73
     0
176
     1
 90
        0
176
     1
 40
-0.6
176
     1
 41
-30.0
176
     1
 62
     5
 63
     7
421
 16777215
176
     1
 74
     1
176
     1
 91
        4
176
     1
 64
     7
176
     1
 65
   257
176
     1
 75
     1
176
     1
175
     1
176
     1
 42
1.0
176
     1
 92
        0
176
     1
 66
   257
176
     1
 43
1.0
176
     1
 76
     1
176
     1
 77
     6
176
     1
 78
     2
176
     1
 67
     7
176
     1
 79
     5
176
     1
170
     0
176
     1
171
     0
176
     1
290
     0
176
     1
 93
        1
176
     1
 44
0.0
176
     1
173
     0
176
     1
  0
VISUALSTYLE
  5
32
102
{ACAD_REACTORS
330
2A
102
}
330
2A
100
AcDbVisualStyle
  2
Basic
 70
     7
177
     2
291
     1
 71
     1
176
     1
 72
     0
176
     1
 73
     1
176
     1
 90
        0
176
     1
 40
-0.6
176
     1
 41
-30.0
176
     1
 62
     5
 63
     7
421
 16777215
176
     1
 74
     0
176
     1
 91
        4
176
     1
 64
     7
176
     1
 65
   257
176
     1
 75
     1
176
     1
175
     1
176
     1
 42
1.0
176
     1
 92
        8
176
     1
 66
     7
176
     1
 43
1.0
176
     1
 76
     1
176
     1
 77
     6
176
     1
 78
     2
176
     1
 67
     7
176
     1
 79
     5
176
     1
170
     0
176
     1
171
     0
176
     1
290
     0
176
     1
 93
        1
176
     1
 44
0.0
176
     1
173
     0
176
     1
  0
VISUALSTYLE
  5
36
102
{ACAD_REACTORS
330
2A
102
}
330
2A
100
AcDbVisualStyle
  2
Brighten
 70
    12
177
     2
291
     1
 71
     2
176
     1
 72
     2
176
     1
 73
     0
176
     1
 90
        0
176
     1
 40
-0.6
176
     1
 41
-30.0
176
     1
 62
     5
 63
     7
421
 16777215
176
     1
 74
     1
176
     1
 91
        4
176
     1
 64
     7
176
     1
 65
   257
176
     1
 75
     1
176
     1
175
     1
176
     1
 42
1.0
176
     1
 92
        8
176
     1
 66
     7
176
     1
 43
1.0
176
     1
 76
     1
176
     1
 77
     6
176
     1
 78
     2
176
     1
 67
     7
176
     1
 79
     5
176
     1
170
     0
176
     1
171
     0
176
     1
290
     0
176
     1
 93
        1
176
     1
 44
50.0
176
     1
173
     0
176
     1
  0
VISUALSTYLE
  5
3A
102
{ACAD_REACTORS
330
2A
102
}
330
2A
100
AcDbVisualStyle
  2
ColorChange
 70
    16
177
     2
291
     1
 71
     2
176
     1
 72
     2
176
     1
 73
     3
176
     1
 90
        0
176
     1
 40
-0.6
176
     1
 41
-30.0
176
     1
 62
     5
 63
     8
421
  8421504
176
     1
 74
     1
176
     1
 91
        4
176
     1
 64
     7
176
     1
 65
   257
176
     1
 75
     1
176
     1
175
     1
176
     1
 42
1.0
176
     1
 92
        8
176
     1
 66
     8
424
  8421504
176
     1
 43
1.0
176
     1
 76
     1
176
     1
 77
     6
176
     1
 78
     2
176
     1
 67
     7
176
     1
 79
     5
176
     1
170
     0
176
     1
171
     0
176
     1
290
     0
176
     1
 93
        1
176
     1
 44
0.0
176
     1
173
     0
176
     1
  0
VISUALSTYLE
  5
34
102
{ACAD_REACTORS
330
2A
102
}
330
2A
100
AcDbVisualStyle
  2
Conceptual
 70
     9
177
     2
291
     0
 71
     3
176
     1
 72
     2
176
     1
 73
     0
176
     1
 90
        0
176
     1
 40
-0.6
176
     1
 41
-30.0
176
     1
 62
     5
 63
     7
421
 16777215
176
     1
 74
     2
176
     1
 91
        2
176
     1
 64
     7
176
     1
 65
   257
176
     1
 75
     1
176
     1
175
     1
176
     1
 42
40.0
176
     1
 92
        8
176
     1
 66
     7
176
     1
 43
1.0
176
     1
 76
     1
176
     1
 77
     6
176
     1
 78
     2
176
     1
 67
     7
176
     1
 79
     3
176
     1
170
     0
176
     1
171
     0
176
     1
290
     0
176
     1
 93
        1
176
     1
 44
0.0
176
     1
173
     0
176
     1
  0
VISUALSTYLE
  5
35
102
{ACAD_REACTORS
330
2A
102
}
330
2A
100
AcDbVisualStyle
  2
Dim
 70
    11
177
     2
291
     1
 71
     2
176
     1
 72
     2
176
     1
 73
     0
176
     1
 90
        0
176
     1
 40
-0.6
176
     1
 41
-30.0
176
     1
 62
     5
 63
     7
421
 16777215
176
     1
 74
     1
176
     1
 91
        4
176
     1
 64
     7
176
     1
 65
   257
176
     1
 75
     1
176
     1
175
     1
176
     1
 42
1.0
176
     1
 92
        8
176
     1
 66
     7
176
     1
 43
1.0
176
     1
 76
     1
176
     1
 77
     6
176
     1
 78
     2
176
     1
 67
     7
176
     1
 79
     5
176
     1
170
     0
176
     1
171
     0
176
     1
290
     0
176
     1
 93
        1
176
     1
 44
-50.0
176
     1
173
     0
176
     1
  0
VISUALSTYLE
  5
39
102
{ACAD_REACTORS
330
2A
102
}
330
2A
100
AcDbVisualStyle
  2
Facepattern
 70
    15
177
     2
291
     1
 71
     2
176
     1
 72
     2
176
     1
 73
     0
176
     1
 90
        0
176
     1
 40
-0.6
176
     1
 41
-30.0
176
     1
 62
     5
 63
     7
421
 16777215
176
     1
 74
     1
176
     1
 91
        4
176
     1
 64
     7
176
     1
 65
   257
176
     1
 75
     1
176
     1
175
     1
176
     1
 42
1.0
176
     1
 92
        8
176
     1
 66
     7
176
     1
 43
1.0
176
     1
 76
     1
176
     1
 77
     6
176
     1
 78
     2
176
     1
 67
     7
176
     1
 79
     5
176
     1
170
     0
176
     1
171
     0
176
     1
290
     0
176
     1
 93
        1
176
     1
 44
0.0
176
     1
173
     0
176
     1
  0
VISUALSTYLE
  5
2B
102
{ACAD_REACTORS
330
2A
102
}
330
2A
100
AcDbVisualStyle
  2
Flat
 70
     0
177
     2
291
     1
 71
     2
176
     1
 72
     1
176
     1
 73
     1
176
     1
 90
        2
176
     1
 40
-0.6
176
     1
 41
30.0
176
     1
 62
     5
 63
     7
421
 16777215
176
     1
 74
     0
176
     1
 91
        4
176
     1
 64
     7
176
     1
 65
   257
176
     1
 75
     1
176
     1
175
     1
176
     1
 42
1.0
176
     1
 92
        8
176
     1
 66
     7
176
     1
 43
1.0
176
     1
 76
     1
176
     1
 77
     6
176
     1
 78
     2
176
     1
 67
     7
176
     1
 79
     5
176
     1
170
     0
176
     1
171
     0
176
     1
290
     0
176
     1
 93
       13
176
     1
 44
0.0
176
     1
173
     0
176
     1
  0
VISUALSTYLE
  5
2C
102
{ACAD_REACTORS
330
2A
102
}
330
2A
100
AcDbVisualStyle
  2
FlatWithEdges
 70
     1
177
     2
291
     1
 71
     2
176
     1
 72
     1
176
     1
 73
     1
176
     1
 90
        2
176
     1
 40
-0.6
176
     1
 41
30.0
176
     1
 62
     5
 63
     7
421
 16777215
176
     1
 74
     1
176
     1
 91
        4
176
     1
 64
     7
176
     1
 65
   257
176
     1
 75
     1
176
     1
175
     1
176
     1
 42
1.0
176
     1
 92
        0
176
     1
 66
   257
176
     1
 43
1.0
176
     1
 76
     1
176
     1
 77
     6
176
     1
 78
     2
176
     1
 67
     7
176
     1
 79
     5
176
     1
170
     0
176
     1
171
     0
176
     1
290
     0
176
     1
 93
       13
176
     1
 44
0.0
176
     1
173
     0
176
     1
  0
VISUALSTYLE
  5
2D
102
{ACAD_REACTORS
330
2A
102
}
330
2A
100
AcDbVisualStyle
  2
Gouraud
 70
     2
177
     2
291
     1
 71
     2
176
     1
 72
     2
176
     1
 73
     1
176
     1
 90
        2
176
     1
 40
-0.6
176
     1
 41
30.0
176
     1
 62
     5
 63
     7
421
 16777215
176
     1
 74
     0
176
     1
 91
        4
176
     1
 64
     7
176
     1
 65
   257
176
     1
 75
     1
176
     1
175
     1
176
     1
 42
1.0
176
     1
 92
        0
176
     1
 66
     7
176
     1
 43
1.0
176
     1
 76
     1
176
     1
 77
     6
176
     1
 78
     2
176
     1
 67
     7
176
     1
 79
     5
176
     1
170
     0
176
     1
171
     0
176
     1
290
     0
176
     1
 93
       13
176
     1
 44
0.0
176
     1
173
     0
176
     1
  0
VISUALSTYLE
  5
2E
102
{ACAD_REACTORS
330
2A
102
}
330
2A
100
AcDbVisualStyle
  2
GouraudWithEdges
 70
     3
177
     2
291
     1
 71
     2
176
     1
 72
     2
176
     1
 73
     1
176
     1
 90
        2
176
     1
 40
-0.6
176
     1
 41
30.0
176
     1
 62
     5
 63
     7
421
 16777215
176
     1
 74
     1
176
     1
 91
        4
176
     1
 64
     7
176
     1
 65
   257
176
     1
 75
     1
176
     1
175
     1
176
     1
 42
1.0
176
     1
 92
        0
176
     1
 66
   257
176
     1
 43
1.0
176
     1
 76
     1
176
     1
 77
     6
176
     1
 78
     2
176
     1
 67
     7
176
     1
 79
     5
176
     1
170
     0
176
     1
171
     0
176
     1
290
     0
176
     1
 93
       13
176
     1
 44
0.0
176
     1
173
     0
176
     1
  0
VISUALSTYLE
  5
38
102
{ACAD_REACTORS
330
2A
102
}
330
2A
100
AcDbVisualStyle
  2
Linepattern
 70
    14
177
     2
291
     1
 71
     2
176
     1
 72
     2
176
     1
 73
     0
176
     1
 90
        0
176
     1
 40
-0.6
176
     1
 41
-30.0
176
     1
 62
     5
 63
     7
421
 16777215
176
     1
 74
     1
176
     1
 91
        4
176
     1
 64
     7
176
     1
 65
   257
176
     1
 75
     7
176
     1
175
     7
176
     1
 42
1.0
176
     1
 92
        8
176
     1
 66
     7
176
     1
 43
1.0
176
     1
 76
     1
176
     1
 77
     6
176
     1
 78
     2
176
     1
 67
     7
176
     1
 79
     5
176
     1
170
     0
176
     1
171
     0
176
     1
290
     0
176
     1
 93
        1
176
     1
 44
0.0
176
     1
173
     0
176
     1
  0
VISUALSTYLE
  5
33
102
{ACAD_REACTORS
330
2A
102
}
330
2A
100
AcDbVisualStyle
  2
Realistic
 70
     8
177
     2
291
     0
 71
     2
176
     1
 72
     2
176
     1
 73
     0
176
     1
 90
        0
176
     1
 40
-0.6
176
     1
 41
-30.0
176
     1
 62
     5
 63
     7
421
 16777215
176
     1
 74
     1
176
     1
 91
        0
176
     1
 64
     7
176
     1
 65
   257
176
     1
 75
     1
176
     1
175
     1
176
     1
 42
1.0
176
     1
 92
        8
176
     1
 66
     8
424
  7895160
176
     1
 43
1.0
176
     1
 76
     1
176
     1
 77
     6
176
     1
 78
     2
176
     1
 67
     7
176
     1
 79
     5
176
     1
170
     0
176
     1
171
     0
176
     1
290
     0
176
     1
 93
       13
176
     1
 44
0.0
176
     1
173
     0
176
     1
  0
VISUALSTYLE
  5
37
102
{ACAD_REACTORS
330
2A
102
}
330
2A
100
AcDbVisualStyle
  2
Thicken
 70
    13
177
     2
291
     1
 71
     2
176
     1
 72
     2
176
     1
 73
     0
176
     1
 90
        0
176
     1
 40
-0.6
176
     1
 41
-30.0
176
     1
 62
     5
 63
     7
421
 16777215
176
     1
 74
     1
176
     1
 91
        4
176
     1
 64
     7
176
     1
 65
   257
176
     1
 75
     1
176
     1
175
     1
176
     1
 42
1.0
176
     1
 92
       12
176
     1
 66
     7
176
     1
 43
1.0
176
     1
 76
     1
176
     1
 77
     6
176
     1
 78
     2
176
     1
 67
     7
176
     1
 79
     5
176
     1
170
     0
176
     1
171
     0
176
     1
290
     0
176
     1
 93
        1
176
     1
 44
0.0
176
     1
173
     0
176
     1
  0
ENDSEC
  0
EOF
